999
Erzeugt mit innoplus bad 
0
SECTION
2
HEADER
9
$ACADVER
1
AC1009
9
$DWGCODEPAGE
3
ISO8859-1
0
ENDSEC
0
SECTION
2
TABLES
0
TABLE
2
LAYER
70
1
0
LAYER
2
0
70
0
62
7
6
CONTINUOUS
0
ENDTAB
0
ENDSEC
0
SECTION
2
ENTITIES
0
LINE
8
0
6
CONTINUOUS
10
-224.502719
20
-59.998089
30
0.0
11
224.502719
21
-59.998089
31
0.0
0
LINE
8
0
6
CONTINUOUS
10
225.000000
20
-57.498089
30
0.0
11
-225.000000
21
-57.498089
31
0.0
0
LINE
8
0
6
CONTINUOUS
10
224.502719
20
-59.998089
30
0.0
11
226.622117
21
-59.998089
31
0.0
0
LINE
8
0
6
CONTINUOUS
10
228.535534
20
-57.498089
30
0.0
11
225.000000
21
-57.498089
31
0.0
0
LINE
8
0
6
CONTINUOUS
10
227.500000
20
-59.998089
30
0.0
11
230.000000
21
-57.498089
31
0.0
0
LINE
8
0
6
CONTINUOUS
10
226.622117
20
-59.998089
30
0.0
11
227.500000
21
-59.998089
31
0.0
0
LINE
8
0
6
CONTINUOUS
10
230.000000
20
-57.498089
30
0.0
11
228.535534
21
-57.498089
31
0.0
0
LINE
8
0
6
CONTINUOUS
10
-227.500000
20
-59.998089
30
0.0
11
-226.622117
21
-59.998089
31
0.0
0
LINE
8
0
6
CONTINUOUS
10
-230.000000
20
-57.498089
30
0.0
11
-227.500000
21
-59.998089
31
0.0
0
LINE
8
0
6
CONTINUOUS
10
-228.535534
20
-57.498089
30
0.0
11
-230.000000
21
-57.498089
31
0.0
0
LINE
8
0
6
CONTINUOUS
10
-226.622117
20
-59.998089
30
0.0
11
-224.502719
21
-59.998089
31
0.0
0
LINE
8
0
6
CONTINUOUS
10
-225.000000
20
-57.498089
30
0.0
11
-228.535534
21
-57.498089
31
0.0
0
LINE
8
0
6
CONTINUOUS
10
225.000000
20
-57.498089
30
0.0
11
228.535534
21
-57.498089
31
0.0
0
LINE
8
0
6
CONTINUOUS
10
228.535534
20
57.498090
30
0.0
11
228.535534
21
-57.498089
31
0.0
0
LINE
8
0
6
CONTINUOUS
10
230.000000
20
-57.498089
30
0.0
11
230.000000
21
57.498090
31
0.0
0
LINE
8
0
6
CONTINUOUS
10
228.535534
20
-57.498089
30
0.0
11
230.000000
21
-57.498089
31
0.0
0
LINE
8
0
6
CONTINUOUS
10
-230.000000
20
57.498090
30
0.0
11
-230.000000
21
-57.498089
31
0.0
0
LINE
8
0
6
CONTINUOUS
10
-230.000000
20
-57.498089
30
0.0
11
-228.535534
21
-57.498089
31
0.0
0
LINE
8
0
6
CONTINUOUS
10
-228.535534
20
57.498090
30
0.0
11
-228.535534
21
-57.498089
31
0.0
0
LINE
8
0
6
CONTINUOUS
10
-228.535534
20
-57.498089
30
0.0
11
-225.000000
21
-57.498089
31
0.0
0
LINE
8
0
6
CONTINUOUS
10
-225.000000
20
-57.498089
30
0.0
11
225.000000
21
-57.498089
31
0.0
0
LINE
8
0
6
CONTINUOUS
10
227.500000
20
59.998090
30
0.0
11
226.622117
21
59.998090
31
0.0
0
LINE
8
0
6
CONTINUOUS
10
230.000000
20
57.498090
30
0.0
11
227.500000
21
59.998090
31
0.0
0
LINE
8
0
6
CONTINUOUS
10
228.535534
20
57.498090
30
0.0
11
230.000000
21
57.498090
31
0.0
0
LINE
8
0
6
CONTINUOUS
10
-227.500000
20
59.998090
30
0.0
11
-230.000000
21
57.498090
31
0.0
0
LINE
8
0
6
CONTINUOUS
10
-226.622117
20
59.998090
30
0.0
11
-227.500000
21
59.998090
31
0.0
0
LINE
8
0
6
CONTINUOUS
10
-230.000000
20
57.498090
30
0.0
11
-228.535534
21
57.498090
31
0.0
0
LINE
8
0
6
CONTINUOUS
10
-224.502719
20
59.998090
30
0.0
11
-226.622117
21
59.998090
31
0.0
0
LINE
8
0
6
CONTINUOUS
10
-228.535534
20
57.498090
30
0.0
11
-225.000000
21
57.498090
31
0.0
0
LINE
8
0
6
CONTINUOUS
10
224.502719
20
59.998090
30
0.0
11
-224.502719
21
59.998090
31
0.0
0
LINE
8
0
6
CONTINUOUS
10
-225.000000
20
57.498090
30
0.0
11
225.000000
21
57.498090
31
0.0
0
LINE
8
0
6
CONTINUOUS
10
226.622117
20
59.998090
30
0.0
11
224.502719
21
59.998090
31
0.0
0
LINE
8
0
6
CONTINUOUS
10
225.000000
20
57.498090
30
0.0
11
228.535534
21
57.498090
31
0.0
0
ENDSEC
0
EOF
