  0
SECTION
  2
HEADER
  9
$ACADVER
  1
AC1015
  9
$ACADMAINTVER
 70
     6
  9
$DWGCODEPAGE
  3
ANSI_932
  9
$INSBASE
 10
0.0
 20
0.0
 30
0.0
  9
$EXTMIN
 10
2.305286
 20
85.228906
 30
1.000000E+20
  9
$EXTMAX
 10
225.711632
 20
214.379679
 30
-1.000000E+20
  9
$LIMMIN
 10
2.305286
 20
85.228906
  9
$LIMMAX
 10
225.711632
 20
214.379679
  9
$ORTHOMODE
 70
     0
  9
$REGENMODE
 70
     1
  9
$FILLMODE
 70
     1
  9
$QTEXTMODE
 70
     0
  9
$MIRRTEXT
 70
     1
  9
$LTSCALE
 40
1.0
  9
$ATTMODE
 70
     1
  9
$TEXTSIZE
 40
0.2
  9
$TRACEWID
 40
0.05
  9
$TEXTSTYLE
  7
Standard
  9
$CLAYER
  8
0
  9
$CELTYPE
  6
Continuous
  9
$CECOLOR
 62
   256
  9
$CELTSCALE
 40
1.0
  9
$DISPSILH
 70
     0
  9
$DIMSCALE
 40
1.0
  9
$DIMASZ
 40
0.18
  9
$DIMEXO
 40
0.0625
  9
$DIMDLI
 40
0.38
  9
$DIMRND
 40
0.0
  9
$DIMDLE
 40
0.0
  9
$DIMEXE
 40
0.18
  9
$DIMTP
 40
0.0
  9
$DIMTM
 40
0.0
  9
$DIMTXT
 40
0.18
  9
$DIMCEN
 40
0.09
  9
$DIMTSZ
 40
0.0
  9
$DIMTOL
 70
     0
  9
$DIMLIM
 70
     0
  9
$DIMTIH
 70
     1
  9
$DIMTOH
 70
     1
  9
$DIMSE1
 70
     0
  9
$DIMSE2
 70
     0
  9
$DIMTAD
 70
     0
  9
$DIMZIN
 70
     0
  9
$DIMBLK
  1

  9
$DIMASO
 70
     1
  9
$DIMSHO
 70
     1
  9
$DIMPOST
  1

  9
$DIMAPOST
  1

  9
$DIMALT
 70
     0
  9
$DIMALTD
 70
     2
  9
$DIMALTF
 40
25.4
  9
$DIMLFAC
 40
1.0
  9
$DIMTOFL
 70
     0
  9
$DIMTVP
 40
0.0
  9
$DIMTIX
 70
     0
  9
$DIMSOXD
 70
     0
  9
$DIMSAH
 70
     0
  9
$DIMBLK1
  1

  9
$DIMBLK2
  1

  9
$DIMSTYLE
  2
Standard
  9
$DIMCLRD
 70
     0
  9
$DIMCLRE
 70
     0
  9
$DIMCLRT
 70
     0
  9
$DIMTFAC
 40
1.0
  9
$DIMGAP
 40
0.09
  9
$DIMJUST
 70
     0
  9
$DIMSD1
 70
     0
  9
$DIMSD2
 70
     0
  9
$DIMTOLJ
 70
     1
  9
$DIMTZIN
 70
     0
  9
$DIMALTZ
 70
     0
  9
$DIMALTTZ
 70
     0
  9
$DIMUPT
 70
     0
  9
$DIMDEC
 70
     4
  9
$DIMTDEC
 70
     4
  9
$DIMALTU
 70
     2
  9
$DIMALTTD
 70
     2
  9
$DIMTXSTY
  7
Standard
  9
$DIMAUNIT
 70
     0
  9
$DIMADEC
 70
     0
  9
$DIMALTRND
 40
0.0
  9
$DIMAZIN
 70
     0
  9
$DIMDSEP
 70
     0
  9
$DIMATFIT
 70
     3
  9
$DIMFRAC
 70
     0
  9
$DIMLDRBLK
  1

  9
$DIMLUNIT
 70
     2
  9
$DIMLWD
 70
     0
  9
$DIMLWE
 70
     0
  9
$DIMTMOVE
 70
     0
  9
$LUNITS
 70
     2
  9
$LUPREC
 70
     4
  9
$SKETCHINC
 40
0.1
  9
$FILLETRAD
 40
0.0
  9
$AUNITS
 70
     0
  9
$AUPREC
 70
     0
  9
$MENU
  1
acad
  9
$ELEVATION
 40
0.0
  9
$PELEVATION
 40
0.0
  9
$THICKNESS
 40
0.0
  9
$LIMCHECK
 70
     0
  9
$CHAMFERA
 40
0.0
  9
$CHAMFERB
 40
0.0
  9
$CHAMFERC
 40
0.0
  9
$CHAMFERD
 40
0.0
  9
$SKPOLY
 70
     0
  9
$TDCREATE
 40
0.000000000
  9
$TDUCREATE
 40
0.000000000
  9
$TDUPDATE
 40
0.000000000
  9
$TDUUPDATE
 40
0.000000000
  9
$TDINDWG
 40
0.0000000000
  9
$TDUSRTIMER
 40
0.0000000000
  9
$USRTIMER
 70
     1
  9
$ANGBASE
 50
0.0
  9
$ANGDIR
 70
     0
  9
$PDMODE
 70
     0
  9
$PDSIZE
 40
0.0
  9
$PLINEWID
 40
0.0
  9
$SPLFRAME
 70
     0
  9
$SPLINETYPE
 70
     6
  9
$SPLINESEGS
 70
     8
  9
$HANDSEED
  5
20F
  9
$SURFTAB1
 70
     6
  9
$SURFTAB2
 70
     6
  9
$SURFTYPE
 70
     6
  9
$SURFU
 70
     6
  9
$SURFV
 70
     6
  9
$UCSBASE
  2

  9
$UCSNAME
  2

  9
$UCSORG
 10
0.0
 20
0.0
 30
0.0
  9
$UCSXDIR
 10
1.0
 20
0.0
 30
0.0
  9
$UCSYDIR
 10
0.0
 20
1.0
 30
0.0
  9
$UCSORTHOREF
  2

  9
$UCSORTHOVIEW
 70
     0
  9
$UCSORGTOP
 10
0.0
 20
0.0
 30
0.0
  9
$UCSORGBOTTOM
 10
0.0
 20
0.0
 30
0.0
  9
$UCSORGLEFT
 10
0.0
 20
0.0
 30
0.0
  9
$UCSORGRIGHT
 10
0.0
 20
0.0
 30
0.0
  9
$UCSORGFRONT
 10
0.0
 20
0.0
 30
0.0
  9
$UCSORGBACK
 10
0.0
 20
0.0
 30
0.0
  9
$PUCSBASE
  2

  9
$PUCSNAME
  2

  9
$PUCSORG
 10
0.0
 20
0.0
 30
0.0
  9
$PUCSXDIR
 10
1.0
 20
0.0
 30
0.0
  9
$PUCSYDIR
 10
0.0
 20
1.0
 30
0.0
  9
$PUCSORTHOREF
  2

  9
$PUCSORTHOVIEW
 70
     0
  9
$PUCSORGTOP
 10
0.0
 20
0.0
 30
0.0
  9
$PUCSORGBOTTOM
 10
0.0
 20
0.0
 30
0.0
  9
$PUCSORGLEFT
 10
0.0
 20
0.0
 30
0.0
  9
$PUCSORGRIGHT
 10
0.0
 20
0.0
 30
0.0
  9
$PUCSORGFRONT
 10
0.0
 20
0.0
 30
0.0
  9
$PUCSORGBACK
 10
0.0
 20
0.0
 30
0.0
  9
$USERI1
 70
     0
  9
$USERI2
 70
     0
  9
$USERI3
 70
     0
  9
$USERI4
 70
     0
  9
$USERI5
 70
     0
  9
$USERR1
 40
0.0
  9
$USERR2
 40
0.0
  9
$USERR3
 40
0.0
  9
$USERR4
 40
0.0
  9
$USERR5
 40
0.0
  9
$WORLDVIEW
 70
     1
  9
$SHADEDGE
 70
     3
  9
$SHADEDIF
 70
    70
  9
$TILEMODE
 70
     1
  9
$MAXACTVP
 70
    16
  9
$PINSBASE
 10
0.0
 20
0.0
 30
0.0
  9
$PLIMCHECK
 70
     0
  9
$PEXTMIN
 10
1.000000E+20
 20
1.000000E+20
 30
1.000000E+20
  9
$PEXTMAX
 10
-1.000000E+20
 20
-1.000000E+20
 30
-1.000000E+20
  9
$PLIMMIN
 10
0.0
 20
0.0
  9
$PLIMMAX
 10
12.0
 20
9.0
  9
$UNITMODE
 70
     0
  9
$VISRETAIN
 70
     0
  9
$PLINEGEN
 70
     1
  9
$PSLTSCALE
 70
     0
  9
$TREEDEPTH
 70
  3020
  9
$CMLSTYLE
  2
Standard
  9
$CMLJUST
 70
     0
  9
$CMLSCALE
 40
1.0
  9
$PROXYGRAPHICS
 70
     0
  9
$MEASUREMENT
 70
     1
  9
$CELWEIGHT
370
     0
  9
$ENDCAPS
280
     0
  9
$JOINSTYLE
280
     0
  9
$LWDISPLAY
290
     0
  9
$INSUNITS
 70
     0
  9
$HYPERLINKBASE
  1

  9
$STYLESHEET
  1

  9
$XEDIT
290
     1
  9
$CEPSNTYPE
380
     0
  9
$PSTYLEMODE
290
     1
  9
$FINGERPRINTGUID
  2

  9
$VERSIONGUID
  2

  9
$EXTNAMES
290
     1
  9
$PSVPSCALE
 40
0.0
  0
ENDSEC
  0
SECTION
  2
CLASSES
  0
CLASS
  1
LWPOLYLINE
  2
AcDbPolyline
  3
AutoCAD 2000
 90
    32768
280
     0
281
     1
  0
CLASS
  1
IMAGE
  2
AcDbRasterImage
  3
ISM
 90
    32895
280
     0
281
     1
  0
CLASS
  1
OLE2FRAME
  2
AcDbOle2Frame
  3
AutoCAD 2000
 90
    32768
280
     0
281
     1
  0
CLASS
  1
HATCH
  2
AcDbHatch
  3
AutoCAD 2000
 90
        0
280
     0
281
     1
  0
CLASS
  1
DICTIONARYVAR
  2
AcDbDictionaryVar
  3
AutoCAD 2000
 90
    32768
280
     0
281
     0
  0
CLASS
  1
RASTERVARIABLES
  2
AcDbRasterVariables
  3
ISM
 90
    32768
280
     0
281
     0
  0
CLASS
  1
IMAGEDEF
  2
AcDbRasterImageDef
  3
ISM
 90
    32768
280
     0
281
     0
  0
CLASS
  1
IMAGEDEF_REACTOR
  2
AcDbRasterImageDefReactor
  3
ISM
 90
    32769
280
     0
281
     0
  0
CLASS
  1
IDBUFFER
  2
AcDbIdBuffer
  3
AutoCAD 2000
 90
    32768
280
     0
281
     0
  0
CLASS
  1
SPATIAL_FILTER
  2
AcDbSpatialFilter
  3
AutoCAD 2000
 90
    32768
280
     0
281
     0
  0
CLASS
  1
XRECORD
  2
AcDbXrecord
  3
AutoCAD 2000
 90
    32768
280
     0
281
     0
  0
CLASS
  1
SORTENTSTABLE
  2
AcDbSortentsTable
  3
AutoCAD 2000
 90
    32768
280
     0
281
     0
  0
CLASS
  1
LAYER_INDEX
  2
AcDbLayerIndex
  3
AutoCAD 2000
 90
    32768
280
     0
281
     0
  0
CLASS
  1
SPATIAL_INDEX
  2
AcDbSpatialIndex
  3
AutoCAD 2000
 90
    32768
280
     0
281
     0
  0
CLASS
  1
OBJECT_PTR
  2
CAseDLPNTableRecord
  3
"ASE-LPNTableRecord"
 90
    32769
280
     0
281
     0
  0
CLASS
  1
LAYOUT
  2
AcDbLayout
  3
AutoCAD 2000
 90
        0
280
     0
281
     0
  0
CLASS
  1
PLOTSETTINGS
  2
AcDbPlotSettings
  3
AutoCAD 2000
 90
    32768
280
     0
281
     0
  0
CLASS
  1
ACDBDICTIONARYWDFLT
  2
AcDbDictionaryWithDefault
  3
AutoCAD 2000
 90
        0
280
     0
281
     0
  0
CLASS
  1
ACDBPLACEHOLDER
  2
AcDbPlaceHolder
  3
AutoCAD 2000
 90
        0
280
     0
281
     0
  0
CLASS
  1
VBA_PROJECT
  2
AcDbVbaProject
  3
acadvba
 90
    32768
280
     0
281
     0
  0
CLASS
  1
WIPEOUT
  2
AcDbWipeout
  3
WipeOut|AutoCAD Express Tool|expresstools@autodesk.com
 90
    32895
280
     0
281
     1
  0
CLASS
  1
WIPEOUTVARIABLES
  2
AcDbWipeoutVariables
  3
WipeOut|AutoCAD Express Tool|expresstools@autodesk.com
 90
        0
280
     0
281
     0
  0
CLASS
  1
RTEXT
  2
RText
  3
RText|AutoCAD Express Tool|expresstools@autodesk.com
 90
    32768
280
     0
281
     1
  0
CLASS
  1
ARCALIGNEDTEXT
  2
AcDbArcAlignedText
  3
ATEXT|AutoCAD Express Tool|expresstools@autodesk.com
 90
    32768
280
     0
281
     1
  0
ENDSEC
  0
SECTION
  2
TABLES
  0
TABLE
  2
VPORT
  5
7
100
AcDbSymbolTable
 70
     1
  0
VPORT
  5
15
100
AcDbSymbolTableRecord
100
AcDbViewportTableRecord
  2
*ACTIVE
 70
     0
 10
0.0
 20
0.0
 11
1.0
 21
1.0
 12
6.591288
 22
4.579184
 13
0.0
 23
0.0
 14
1.0
 24
1.0
 15
0.0
 25
0.0
 16
0.0
 26
0.0
 36
1.0
 17
0.0
 27
0.0
 37
0.0
 40
9.158369
 41
0.688564
 42
50.0
 43
0.0
 44
0.0
 50
0.0
 51
0.0
 71
     0
 72
   100
 73
     1
 74
     1
 75
     0
 76
     0
 77
     0
 78
     0
281
     0
 65
     0
110
0.0
120
0.0
130
0.0
111
1.0
121
0.0
131
0.0
112
0.0
122
1.0
132
0.0
345
0
346
0
 79
     0
146
0.0
  0
ENDTAB
  0
TABLE
  2
LTYPE
  5
4
100
AcDbSymbolTable
 70
     4
  0
LTYPE
  5
11
100
AcDbSymbolTableRecord
100
AcDbLinetypeTableRecord
  2
ByBlock
 70
    64
  3

 72
    65
 73
     0
 40
0.0
  0
LTYPE
  5
12
100
AcDbSymbolTableRecord
100
AcDbLinetypeTableRecord
  2
ByLayer
 70
    64
  3

 72
    65
 73
     0
 40
0.0
  0
LTYPE
  5
13
100
AcDbSymbolTableRecord
100
AcDbLinetypeTableRecord
  2
Continuous
 70
    64
  3
Solid line
 72
    65
 73
     0
 40
0.0
  0
LTYPE
  5
38
100
AcDbSymbolTableRecord
100
AcDbLinetypeTableRecord
  2
AI9-LType1
 70
    64
  3
Illustrator Dash Style No.1
 72
    65
 73
     2
 40
5.301982
 49
3.534657
 74
     0
 49
-1.767325
 74
     0
  0
ENDTAB
  0
TABLE
  2
LAYER
  5
2
100
AcDbSymbolTable
 70
     4
  0
LAYER
  5
14
100
AcDbSymbolTableRecord
100
AcDbLayerTableRecord
  2
0
 70
     0
 62
     7
  6
Continuous
290
     1
370
    -3
390
1D
  0
LAYER
  5
28
100
AcDbSymbolTableRecord
100
AcDbLayerTableRecord
  2
0
 70
     0
 62
     3
  6
Continuous
290
     1
370
    -3
390
1D
  0
LAYER
  5
29
100
AcDbSymbolTableRecord
100
AcDbLayerTableRecord
  2
DEFPOINTS
 70
     0
 62
     1
  6
Continuous
290
     0
370
    -3
390
1D
  0
LAYER
  5
2A
100
AcDbSymbolTableRecord
100
AcDbLayerTableRecord
  2
CK_LEVEL_2
 70
     0
 62
   160
  6
Continuous
290
     1
370
    -3
390
1D
  0
ENDTAB
  0
TABLE
  2
STYLE
  5
3
100
AcDbSymbolTable
 70
     5
  0
STYLE
  5
17
100
AcDbSymbolTableRecord
100
AcDbTextStyleTableRecord
  2
Standard
 70
     0
 40
0.0
 41
1.0
 50
0.0
 71
     0
 42
0.0
  3
txt
  4

  0
STYLE
  5
24
100
AcDbSymbolTableRecord
100
AcDbTextStyleTableRecord
  2
STD
 70
     0
 40
0.0
 41
1.0
 50
0.0
 71
     0
 42
0.0
  3
txt
  4

  0
STYLE
  5
25
100
AcDbSymbolTableRecord
100
AcDbTextStyleTableRecord
  2
TATESTD
 70
     4
 40
0.0
 41
1.0
 50
0.0
 71
     0
 42
0.0
  3
txt
  4

  0
STYLE
  5
26
100
AcDbSymbolTableRecord
100
AcDbTextStyleTableRecord
  2
KANJISTD
 70
     0
 40
0.0
 41
1.0
 50
0.0
 71
     0
 42
0.0
  3
txt
  4
extfont
  0
STYLE
  5
27
100
AcDbSymbolTableRecord
100
AcDbTextStyleTableRecord
  2
KANJITATE
 70
     4
 40
0.0
 41
1.0
 50
0.0
 71
     0
 42
0.0
  3
txt
  4
extfont
  0
ENDTAB
  0
TABLE
  2
VIEW
  5
5
100
AcDbSymbolTable
 70
     0
  0
ENDTAB
  0
TABLE
  2
UCS
  5
6
100
AcDbSymbolTable
 70
     0
  0
ENDTAB
  0
TABLE
  2
APPID
  5
8
100
AcDbSymbolTable
 70
     1
  0
APPID
  5
16
100
AcDbSymbolTableRecord
100
AcDbRegAppTableRecord
  2
ACAD
 70
     0
  0
ENDTAB
  0
TABLE
  2
DIMSTYLE
  5
9
100
AcDbSymbolTable
 70
     1
100
AcDbDimStyleTable
 71
     0
  0
DIMSTYLE
105
18
100
AcDbSymbolTableRecord
100
AcDbDimStyleTableRecord
  2
Standard
 70
     0
  3

  4

 40
1.0
 41
0.18
 42
0.0625
 43
0.38
 44
0.18
 45
0.0
 46
0.0
 47
0.0
 48
0.0
 71
     0
 72
     0
 73
     1
 74
     1
 75
     0
 76
     0
 77
     0
 78
     0
 79
     0
140
0.18
141
0.09
142
0.0
143
25.4
144
1.0
145
0.0
146
1.0
147
0.09
148
0.0
170
     0
171
     2
172
     0
173
     0
174
     0
175
     0
176
     0
177
     0
178
     0
179
     0
271
     4
272
     4
273
     2
274
     2
275
     0
276
     0
277
     2
278
    46
279
     0
280
     0
281
     0
282
     0
283
     1
284
     0
285
     0
286
     0
288
     0
340
17
341
0
342
0
343
0
344
0
371
    -2
372
    -2
  0
ENDTAB
  0
TABLE
  2
BLOCK_RECORD
  5
1
100
AcDbSymbolTable
 70
     0
  0
BLOCK_RECORD
  5
A
100
AcDbSymbolTableRecord
100
AcDbBlockTableRecord
  2
*MODEL_SPACE
340
20
  0
BLOCK_RECORD
  5
B
100
AcDbSymbolTableRecord
100
AcDbBlockTableRecord
  2
*PAPER_SPACE
340
21
  0
ENDTAB
  0
ENDSEC
  0
SECTION
  2
BLOCKS
  0
BLOCK
  5
D
100
AcDbEntity
  8
0
100
AcDbBlockBegin
  2
*MODEL_SPACE
 70
     0
 10
0.0
 20
0.0
 30
0.0
  3
*MODEL_SPACE
  1

  0
ENDBLK
  5
E
100
AcDbEntity
  8
0
100
AcDbBlockEnd
  0
BLOCK
  5
F
100
AcDbEntity
 67
     1
  8
0
100
AcDbBlockBegin
  2
*PAPER_SPACE
 70
     0
 10
0.0
 20
0.0
 30
0.0
  3
*PAPER_SPACE
  1

  0
ENDBLK
  5
10
100
AcDbEntity
 67
     1
  8
0
100
AcDbBlockEnd
  0
ENDSEC
  0
SECTION
  2
ENTITIES
  0
LINE
  5
20E
100
AcDbEntity
  8
CK_LEVEL_2
 62
     7
100
AcDbLine
 10
49.558904
 20
100.049363
 30
0.0
 11
49.782663
 21
100.049363
 31
0.0
  0
LINE
  5
20D
100
AcDbEntity
  8
CK_LEVEL_2
 62
     7
100
AcDbLine
 10
69.105343
 20
114.122922
 30
0.0
 11
69.105343
 21
127.079237
 31
0.0
  0
LINE
  5
20C
100
AcDbEntity
  8
CK_LEVEL_2
 62
     7
100
AcDbLine
 10
66.87137
 20
114.122922
 30
0.0
 11
66.87137
 21
127.079237
 31
0.0
  0
SPLINE
  5
20B
100
AcDbEntity
  8
CK_LEVEL_2
 62
     7
100
AcDbSpline
210
0.0
220
0.0
230
1.0
 70
     8
 71
     3
 72
    11
 73
     7
 74
     0
 42
0.00000001
 43
0.00000001
 40
0.0
 40
0.0
 40
0.0
 40
0.0
 40
1.0
 40
1.0
 40
1.0
 40
2.0
 40
2.0
 40
2.0
 40
2.0
 10
69.10534261067707
 20
127.07923719618054
 30
0.0
 10
69.10534261067707
 20
127.69625379774304
 30
0.0
 10
68.605287000868046
 20
128.19613715277777
 30
0.0
 10
67.988442654079861
 20
128.19613715277777
 30
0.0
 10
67.371598307291663
 20
128.19613715277777
 30
0.0
 10
66.871370442708326
 20
127.69625379774304
 30
0.0
 10
66.871370442708326
 20
127.07923719618054
 30
0.0
  0
SPLINE
  5
20A
100
AcDbEntity
  8
CK_LEVEL_2
 62
     7
100
AcDbSpline
210
0.0
220
0.0
230
1.0
 70
     8
 71
     3
 72
    11
 73
     7
 74
     0
 42
0.00000001
 43
0.00000001
 40
0.0
 40
0.0
 40
0.0
 40
0.0
 40
1.0
 40
1.0
 40
1.0
 40
2.0
 40
2.0
 40
2.0
 40
2.0
 10
66.871370442708326
 20
114.12292209201388
 30
0.0
 10
66.871370442708326
 20
113.50590549045138
 30
0.0
 10
67.371598307291663
 20
113.00602213541666
 30
0.0
 10
67.988442654079861
 20
113.00602213541666
 30
0.0
 10
68.605287000868046
 20
113.00602213541666
 30
0.0
 10
69.10534261067707
 20
113.50590549045138
 30
0.0
 10
69.10534261067707
 20
114.12292209201388
 30
0.0
  0
LINE
  5
209
100
AcDbEntity
  8
CK_LEVEL_2
 62
     7
100
AcDbLine
 10
86.417809
 20
100.049363
 30
0.0
 11
86.417809
 21
104.82082
 31
0.0
  0
LINE
  5
208
100
AcDbEntity
  8
CK_LEVEL_2
 62
     7
100
AcDbLine
 10
49.558904
 20
100.049363
 30
0.0
 11
49.558904
 21
104.82082
 31
0.0
  0
LINE
  5
207
100
AcDbEntity
  8
CK_LEVEL_2
 62
     7
100
AcDbLine
 10
86.194222
 20
100.049363
 30
0.0
 11
86.194222
 21
104.962758
 31
0.0
  0
LINE
  5
206
100
AcDbEntity
  8
CK_LEVEL_2
 62
     7
100
AcDbLine
 10
49.782663
 20
100.049363
 30
0.0
 11
49.782663
 21
104.953111
 31
0.0
  0
LINE
  5
205
100
AcDbEntity
  8
CK_LEVEL_2
 62
     7
100
AcDbLine
 10
86.194222
 20
100.049363
 30
0.0
 11
86.417809
 21
100.049363
 31
0.0
  0
CIRCLE
  5
204
100
AcDbEntity
  8
CK_LEVEL_2
 62
     7
100
AcDbCircle
 10
67.98827
 20
138.025339
 30
0.0
 40
3.239079
  0
CIRCLE
  5
203
100
AcDbEntity
  8
CK_LEVEL_2
 62
     7
100
AcDbCircle
 10
67.988357
 20
138.025339
 30
0.0
 40
2.233886
  0
CIRCLE
  5
202
100
AcDbEntity
  8
CK_LEVEL_2
 62
     7
100
AcDbCircle
 10
67.988357
 20
138.025339
 30
0.0
 40
4.6911
  0
CIRCLE
  5
201
100
AcDbEntity
  8
CK_LEVEL_2
 62
     7
100
AcDbCircle
 10
67.988357
 20
138.025339
 30
0.0
 40
6.254829
  0
SPLINE
  5
200
100
AcDbEntity
  8
CK_LEVEL_2
 62
     7
100
AcDbSpline
210
0.0
220
0.0
230
1.0
 70
     8
 71
     3
 72
    17
 73
    13
 74
     0
 42
0.00000001
 43
0.00000001
 40
0.0
 40
0.0
 40
0.0
 40
0.0
 40
1.0
 40
1.0
 40
1.0
 40
2.0
 40
2.0
 40
2.0
 40
3.0
 40
3.0
 40
3.0
 40
4.0
 40
4.0
 40
4.0
 40
4.0
 10
86.417808702256934
 20
104.82081976996527
 30
0.0
 10
104.75605197482638
 20
114.99935438368054
 30
0.0
 10
111.37097981770832
 20
138.11663411458332
 30
0.0
 10
101.19278971354166
 20
156.45487738715278
 30
0.0
 10
91.014427354600684
 20
174.79312065972221
 30
0.0
 10
67.897147623697904
 20
181.40804850260415
 30
0.0
 10
49.558904351128469
 20
171.22968614366317
 30
0.0
 10
31.220661078559026
 20
161.05149603949653
 30
0.0
 10
24.605560980902776
 20
137.93438856336803
 30
0.0
 10
34.784095594618051
 20
119.5961452907986
 30
0.0
 10
38.230569118923604
 20
113.38636067708332
 30
0.0
 10
43.349291992187496
 20
108.26763780381944
 30
0.0
 10
49.558904351128469
 20
104.82081976996527
 30
0.0
  0
CIRCLE
  5
1FF
100
AcDbEntity
  8
CK_LEVEL_2
 62
     7
100
AcDbCircle
 10
67.988357
 20
138.025339
 30
0.0
 40
37.743691
  0
LINE
  5
1FE
100
AcDbEntity
  8
CK_LEVEL_2
 62
     7
100
AcDbLine
 10
160.64308
 20
175.526065
 30
0.0
 11
192.364141
 21
175.526065
 31
0.0
  0
LINE
  5
1FD
100
AcDbEntity
  8
CK_LEVEL_2
 62
     7
100
AcDbLine
 10
161.313151
 20
99.574284
 30
0.0
 11
164.114358
 21
99.574284
 31
0.0
  0
LINE
  5
1FC
100
AcDbEntity
  8
CK_LEVEL_2
 62
     7
100
AcDbLine
 10
192.587728
 20
175.302823
 30
0.0
 11
192.587728
 21
100.467942
 31
0.0
  0
LINE
  5
1FB
100
AcDbEntity
  8
CK_LEVEL_2
 62
     7
100
AcDbLine
 10
160.419838
 20
175.302823
 30
0.0
 11
160.419838
 21
100.467942
 31
0.0
  0
LINE
  5
1FA
100
AcDbEntity
  8
CK_LEVEL_2
 62
     7
100
AcDbLine
 10
159.749767
 20
142.241447
 30
0.0
 11
159.749767
 21
132.859074
 31
0.0
  0
SPLINE
  5
1F9
100
AcDbEntity
  8
CK_LEVEL_2
 62
     7
100
AcDbSpline
210
0.0
220
0.0
230
1.0
 70
     8
 71
     3
 72
     8
 73
     4
 74
     0
 42
0.00000001
 43
0.00000001
 40
0.0
 40
0.0
 40
0.0
 40
0.0
 40
1.0
 40
1.0
 40
1.0
 40
1.0
 10
159.74976671006942
 20
140.77073567708331
 30
0.0
 10
159.2374810112847
 20
140.64567871093749
 30
0.0
 10
158.81993543836805
 20
140.2770534939236
 30
0.0
 10
158.6325222439236
 20
139.78406032986109
 30
0.0
  0
SPLINE
  5
1F8
100
AcDbEntity
  8
CK_LEVEL_2
 62
     7
100
AcDbSpline
210
0.0
220
0.0
230
1.0
 70
     8
 71
     3
 72
     8
 73
     4
 74
     0
 42
0.00000001
 43
0.00000001
 40
0.0
 40
0.0
 40
0.0
 40
0.0
 40
1.0
 40
1.0
 40
1.0
 40
1.0
 10
158.6325222439236
 20
135.3164605034722
 30
0.0
 10
158.81993543836805
 20
134.82381184895831
 30
0.0
 10
159.2374810112847
 20
134.45484212239583
 30
0.0
 10
159.74976671006942
 20
134.32978515624998
 30
0.0
  0
LINE
  5
1F7
100
AcDbEntity
  8
CK_LEVEL_2
 62
     7
100
AcDbLine
 10
158.632522
 20
139.78406
 30
0.0
 11
158.632522
 21
135.316461
 31
0.0
  0
LINE
  5
1F6
100
AcDbEntity
  8
CK_LEVEL_2
 62
     7
100
AcDbLine
 10
160.419838
 20
104.26547
 30
0.0
 11
192.587728
 21
104.26547
 31
0.0
  0
SPLINE
  5
1F5
100
AcDbEntity
  8
CK_LEVEL_2
 62
     7
100
AcDbSpline
210
0.0
220
0.0
230
1.0
 70
     8
 71
     3
 72
     8
 73
     4
 74
     0
 42
0.00000001
 43
0.00000001
 40
0.0
 40
0.0
 40
0.0
 40
0.0
 40
1.0
 40
1.0
 40
1.0
 40
1.0
 10
160.41983778211804
 20
100.46794162326388
 30
0.0
 10
160.41983778211804
 20
99.974259440104163
 30
0.0
 10
160.81981336805555
 20
99.574283854166652
 30
0.0
 10
161.31315104166666
 20
99.574283854166652
 30
0.0
  0
SPLINE
  5
1F4
100
AcDbEntity
  8
CK_LEVEL_2
 62
     7
100
AcDbSpline
210
0.0
220
0.0
230
1.0
 70
     8
 71
     3
 72
     8
 73
     4
 74
     0
 42
0.00000001
 43
0.00000001
 40
0.0
 40
0.0
 40
0.0
 40
0.0
 40
1.0
 40
1.0
 40
1.0
 40
1.0
 10
191.6940700954861
 20
99.574283854166652
 30
0.0
 10
192.18740776909721
 20
99.574283854166652
 30
0.0
 10
192.58772786458331
 20
99.974259440104163
 30
0.0
 10
192.58772786458331
 20
100.46794162326388
 30
0.0
  0
LINE
  5
1F3
100
AcDbEntity
  8
CK_LEVEL_2
 62
     7
100
AcDbLine
 10
188.792611
 20
99.574284
 30
0.0
 11
191.69407
 21
99.574284
 31
0.0
  0
LINE
  5
1F2
100
AcDbEntity
  8
CK_LEVEL_2
 62
     7
100
AcDbLine
 10
164.513989
 20
99.821297
 30
0.0
 11
165.230914
 21
101.254801
 31
0.0
  0
LINE
  5
1F1
100
AcDbEntity
  8
CK_LEVEL_2
 62
     7
100
AcDbLine
 10
188.39298
 20
99.821297
 30
0.0
 11
187.675022
 21
101.256524
 31
0.0
  0
SPLINE
  5
1F0
100
AcDbEntity
  8
CK_LEVEL_2
 62
     7
100
AcDbSpline
210
0.0
220
0.0
230
1.0
 70
     8
 71
     3
 72
    11
 73
     7
 74
     0
 42
0.00000001
 43
0.00000001
 40
0.0
 40
0.0
 40
0.0
 40
0.0
 40
1.0
 40
1.0
 40
1.0
 40
2.0
 40
2.0
 40
2.0
 40
2.0
 10
165.77799479166666
 20
100.44485948350693
 30
0.0
 10
165.91407606336804
 20
100.10034993489582
 30
0.0
 10
166.30371636284721
 20
99.931884765624986
 30
0.0
 10
166.6475368923611
 20
100.06796603732639
 30
0.0
 10
166.81979166666665
 20
100.13617892795138
 30
0.0
 10
166.95587293836803
 20
100.27226019965276
 30
0.0
 10
167.02408582899304
 20
100.44485948350693
 30
0.0
  0
LINE
  5
1EF
100
AcDbEntity
  8
CK_LEVEL_2
 62
     7
100
AcDbLine
 10
167.467125
 20
101.267204
 30
0.0
 11
167.024086
 21
100.444859
 31
0.0
  0
SPLINE
  5
1EE
100
AcDbEntity
  8
CK_LEVEL_2
 62
     7
100
AcDbSpline
210
0.0
220
0.0
230
1.0
 70
     8
 71
     3
 72
     8
 73
     4
 74
     0
 42
0.00000001
 43
0.00000001
 40
0.0
 40
0.0
 40
0.0
 40
0.0
 40
1.0
 40
1.0
 40
1.0
 40
1.0
 10
164.1143581814236
 20
99.574283854166652
 30
0.0
 10
164.28351236979165
 20
99.574283854166652
 30
0.0
 10
164.43819715711805
 20
99.670057508680543
 30
0.0
 10
164.51398925781248
 20
99.821297200520817
 30
0.0
  0
LINE
  5
1ED
100
AcDbEntity
  8
CK_LEVEL_2
 62
     7
100
AcDbLine
 10
167.571856
 20
101.260658
 30
0.0
 11
168.011795
 21
100.444859
 31
0.0
  0
SPLINE
  5
1EC
100
AcDbEntity
  8
CK_LEVEL_2
 62
     7
100
AcDbSpline
210
0.0
220
0.0
230
1.0
 70
     8
 71
     3
 72
    11
 73
     7
 74
     0
 42
0.00000001
 43
0.00000001
 40
0.0
 40
0.0
 40
0.0
 40
0.0
 40
1.0
 40
1.0
 40
1.0
 40
2.0
 40
2.0
 40
2.0
 40
2.0
 10
168.0117947048611
 20
100.44485948350693
 30
0.0
 10
168.14822048611109
 20
100.10034993489582
 30
0.0
 10
168.53717176649303
 20
99.931884765624986
 30
0.0
 10
168.88168131510415
 20
100.06796603732639
 30
0.0
 10
169.05359157986109
 20
100.13617892795138
 30
0.0
 10
169.1900173611111
 20
100.27226019965276
 30
0.0
 10
169.25823025173611
 20
100.44485948350693
 30
0.0
  0
LINE
  5
1EB
100
AcDbEntity
  8
CK_LEVEL_2
 62
     7
100
AcDbLine
 10
169.700925
 20
101.267204
 30
0.0
 11
169.25823
 21
100.444859
 31
0.0
  0
LINE
  5
1EA
100
AcDbEntity
  8
CK_LEVEL_2
 62
     7
100
AcDbLine
 10
171.935069
 20
101.267204
 30
0.0
 11
171.49203
 21
100.444859
 31
0.0
  0
SPLINE
  5
1E9
100
AcDbEntity
  8
CK_LEVEL_2
 62
     7
100
AcDbSpline
210
0.0
220
0.0
230
1.0
 70
     8
 71
     3
 72
    11
 73
     7
 74
     0
 42
0.00000001
 43
0.00000001
 40
0.0
 40
0.0
 40
0.0
 40
0.0
 40
1.0
 40
1.0
 40
1.0
 40
2.0
 40
2.0
 40
2.0
 40
2.0
 10
170.24593912760415
 20
100.44485948350693
 30
0.0
 10
170.38167588975693
 20
100.10034993489582
 30
0.0
 10
170.7713161892361
 20
99.931884765624986
 30
0.0
 10
171.11513671874999
 20
100.06796603732639
 30
0.0
 10
171.28773600260416
 20
100.13617892795138
 30
0.0
 10
171.42381727430555
 20
100.27226019965276
 30
0.0
 10
171.49203016493053
 20
100.44485948350693
 30
0.0
  0
LINE
  5
1E8
100
AcDbEntity
  8
CK_LEVEL_2
 62
     7
100
AcDbLine
 10
169.806
 20
101.260658
 30
0.0
 11
170.245939
 21
100.444859
 31
0.0
  0
LINE
  5
1E7
100
AcDbEntity
  8
CK_LEVEL_2
 62
     7
100
AcDbLine
 10
174.168869
 20
101.267204
 30
0.0
 11
173.72583
 21
100.444859
 31
0.0
  0
SPLINE
  5
1E6
100
AcDbEntity
  8
CK_LEVEL_2
 62
     7
100
AcDbSpline
210
0.0
220
0.0
230
1.0
 70
     8
 71
     3
 72
    11
 73
     7
 74
     0
 42
0.00000001
 43
0.00000001
 40
0.0
 40
0.0
 40
0.0
 40
0.0
 40
1.0
 40
1.0
 40
1.0
 40
2.0
 40
2.0
 40
2.0
 40
2.0
 10
172.47939453124999
 20
100.44485948350693
 30
0.0
 10
172.61582031249998
 20
100.10034993489582
 30
0.0
 10
173.00511610243055
 20
99.931884765624986
 30
0.0
 10
173.34928114149304
 20
100.06796603732639
 30
0.0
 10
173.52119140624998
 20
100.13617892795138
 30
0.0
 10
173.65761718749999
 20
100.27226019965276
 30
0.0
 10
173.72583007812497
 20
100.44485948350693
 30
0.0
  0
LINE
  5
1E5
100
AcDbEntity
  8
CK_LEVEL_2
 62
     7
100
AcDbLine
 10
172.0398
 20
101.260658
 30
0.0
 11
172.479395
 21
100.444859
 31
0.0
  0
LINE
  5
1E4
100
AcDbEntity
  8
CK_LEVEL_2
 62
     7
100
AcDbLine
 10
176.402669
 20
101.267204
 30
0.0
 11
175.95963
 21
100.444859
 31
0.0
  0
SPLINE
  5
1E3
100
AcDbEntity
  8
CK_LEVEL_2
 62
     7
100
AcDbSpline
210
0.0
220
0.0
230
1.0
 70
     8
 71
     3
 72
    11
 73
     7
 74
     0
 42
0.00000001
 43
0.00000001
 40
0.0
 40
0.0
 40
0.0
 40
0.0
 40
1.0
 40
1.0
 40
1.0
 40
2.0
 40
2.0
 40
2.0
 40
2.0
 10
174.71319444444444
 20
100.44485948350693
 30
0.0
 10
174.84962022569442
 20
100.10034993489582
 30
0.0
 10
175.23891601562499
 20
99.931884765624986
 30
0.0
 10
175.58308105468748
 20
100.06796603732639
 30
0.0
 10
175.75533582899303
 20
100.13617892795138
 30
0.0
 10
175.89141710069444
 20
100.27226019965276
 30
0.0
 10
175.95962999131942
 20
100.44485948350693
 30
0.0
  0
LINE
  5
1E2
100
AcDbEntity
  8
CK_LEVEL_2
 62
     7
100
AcDbLine
 10
174.273945
 20
101.260658
 30
0.0
 11
174.713194
 21
100.444859
 31
0.0
  0
LINE
  5
1E1
100
AcDbEntity
  8
CK_LEVEL_2
 62
     7
100
AcDbLine
 10
178.636469
 20
101.267204
 30
0.0
 11
178.19343
 21
100.444859
 31
0.0
  0
SPLINE
  5
1E0
100
AcDbEntity
  8
CK_LEVEL_2
 62
     7
100
AcDbSpline
210
0.0
220
0.0
230
1.0
 70
     8
 71
     3
 72
    11
 73
     7
 74
     0
 42
0.00000001
 43
0.00000001
 40
0.0
 40
0.0
 40
0.0
 40
0.0
 40
1.0
 40
1.0
 40
1.0
 40
2.0
 40
2.0
 40
2.0
 40
2.0
 10
176.94733886718748
 20
100.44485948350693
 30
0.0
 10
177.08342013888887
 20
100.10034993489582
 30
0.0
 10
177.47306043836804
 20
99.931884765624986
 30
0.0
 10
177.81722547743053
 20
100.06796603732639
 30
0.0
 10
177.98913574218747
 20
100.13617892795138
 30
0.0
 10
178.12556152343748
 20
100.27226019965276
 30
0.0
 10
178.19342990451386
 20
100.44485948350693
 30
0.0
  0
LINE
  5
1DF
100
AcDbEntity
  8
CK_LEVEL_2
 62
     7
100
AcDbLine
 10
176.507745
 20
101.260658
 30
0.0
 11
176.947339
 21
100.444859
 31
0.0
  0
LINE
  5
1DE
100
AcDbEntity
  8
CK_LEVEL_2
 62
     7
100
AcDbLine
 10
180.870269
 20
101.267204
 30
0.0
 11
180.427574
 21
100.444859
 31
0.0
  0
SPLINE
  5
1DD
100
AcDbEntity
  8
CK_LEVEL_2
 62
     7
100
AcDbSpline
210
0.0
220
0.0
230
1.0
 70
     8
 71
     3
 72
    11
 73
     7
 74
     0
 42
0.00000001
 43
0.00000001
 40
0.0
 40
0.0
 40
0.0
 40
0.0
 40
1.0
 40
1.0
 40
1.0
 40
2.0
 40
2.0
 40
2.0
 40
2.0
 10
179.18113878038193
 20
100.44485948350693
 30
0.0
 10
179.31756456163194
 20
100.10034993489582
 30
0.0
 10
179.70651584201389
 20
99.931884765624986
 30
0.0
 10
180.05102539062497
 20
100.06796603732639
 30
0.0
 10
180.22328016493054
 20
100.13617892795138
 30
0.0
 10
180.35936143663193
 20
100.27226019965276
 30
0.0
 10
180.42757432725693
 20
100.44485948350693
 30
0.0
  0
LINE
  5
1DC
100
AcDbEntity
  8
CK_LEVEL_2
 62
     7
100
AcDbLine
 10
178.741545
 20
101.260658
 30
0.0
 11
179.181139
 21
100.444859
 31
0.0
  0
LINE
  5
1DB
100
AcDbEntity
  8
CK_LEVEL_2
 62
     7
100
AcDbLine
 10
183.104414
 20
101.267204
 30
0.0
 11
182.661374
 21
100.444859
 31
0.0
  0
SPLINE
  5
1DA
100
AcDbEntity
  8
CK_LEVEL_2
 62
     7
100
AcDbSpline
210
0.0
220
0.0
230
1.0
 70
     8
 71
     3
 72
    11
 73
     7
 74
     0
 42
0.00000001
 43
0.00000001
 40
0.0
 40
0.0
 40
0.0
 40
0.0
 40
1.0
 40
1.0
 40
1.0
 40
2.0
 40
2.0
 40
2.0
 40
2.0
 10
181.41528320312497
 20
100.44485948350693
 30
0.0
 10
181.55101996527776
 20
100.10034993489582
 30
0.0
 10
181.94066026475693
 20
99.931884765624986
 30
0.0
 10
182.28482530381942
 20
100.06796603732639
 30
0.0
 10
182.45708007812499
 20
100.13617892795138
 30
0.0
 10
182.59350585937497
 20
100.27226019965276
 30
0.0
 10
182.66137424045138
 20
100.44485948350693
 30
0.0
  0
LINE
  5
1D9
100
AcDbEntity
  8
CK_LEVEL_2
 62
     7
100
AcDbLine
 10
180.975345
 20
101.260658
 30
0.0
 11
181.415283
 21
100.444859
 31
0.0
  0
LINE
  5
1D8
100
AcDbEntity
  8
CK_LEVEL_2
 62
     7
100
AcDbLine
 10
185.338213
 20
101.267204
 30
0.0
 11
184.895174
 21
100.444859
 31
0.0
  0
SPLINE
  5
1D7
100
AcDbEntity
  8
CK_LEVEL_2
 62
     7
100
AcDbSpline
210
0.0
220
0.0
230
1.0
 70
     8
 71
     3
 72
    11
 73
     7
 74
     0
 42
0.00000001
 43
0.00000001
 40
0.0
 40
0.0
 40
0.0
 40
0.0
 40
1.0
 40
1.0
 40
1.0
 40
2.0
 40
2.0
 40
2.0
 40
2.0
 10
183.64873860677082
 20
100.44485948350693
 30
0.0
 10
183.7851643880208
 20
100.10034993489582
 30
0.0
 10
184.17446017795137
 20
99.931884765624986
 30
0.0
 10
184.51862521701386
 20
100.06796603732639
 30
0.0
 10
184.69053548177081
 20
100.13617892795138
 30
0.0
 10
184.82730577256942
 20
100.27226019965276
 30
0.0
 10
184.89517415364583
 20
100.44485948350693
 30
0.0
  0
LINE
  5
1D6
100
AcDbEntity
  8
CK_LEVEL_2
 62
     7
100
AcDbLine
 10
183.209489
 20
101.260658
 30
0.0
 11
183.648739
 21
100.444859
 31
0.0
  0
SPLINE
  5
1D5
100
AcDbEntity
  8
CK_LEVEL_2
 62
     7
100
AcDbSpline
210
0.0
220
0.0
230
1.0
 70
     8
 71
     3
 72
    11
 73
     7
 74
     0
 42
0.00000001
 43
0.00000001
 40
0.0
 40
0.0
 40
0.0
 40
0.0
 40
1.0
 40
1.0
 40
1.0
 40
2.0
 40
2.0
 40
2.0
 40
2.0
 10
185.88288302951386
 20
100.44485948350693
 30
0.0
 10
186.01896430121525
 20
100.10034993489582
 30
0.0
 10
186.40860460069442
 20
99.931884765624986
 30
0.0
 10
186.75242513020831
 20
100.06796603732639
 30
0.0
 10
186.92467990451388
 20
100.13617892795138
 30
0.0
 10
187.06076117621527
 20
100.27226019965276
 30
0.0
 10
187.12897406684027
 20
100.44485948350693
 30
0.0
  0
LINE
  5
1D4
100
AcDbEntity
  8
CK_LEVEL_2
 62
     7
100
AcDbLine
 10
185.443289
 20
101.260658
 30
0.0
 11
185.882883
 21
100.444859
 31
0.0
  0
CIRCLE
  5
1D3
100
AcDbEntity
  8
CK_LEVEL_2
 62
     7
100
AcDbCircle
 10
190.800412
 20
100.914426
 30
0.0
 40
0.670071
  0
LINE
  5
1D2
100
AcDbEntity
  8
CK_LEVEL_2
  6
AI9-LType1
 62
     7
100
AcDbLine
 10
163.100467
 20
175.526065
 30
0.0
 11
163.100467
 21
100.281906
 31
0.0
  0
LINE
  5
1D1
100
AcDbEntity
  8
CK_LEVEL_2
  6
AI9-LType1
 62
     7
100
AcDbLine
 10
189.459926
 20
175.526065
 30
0.0
 11
189.459926
 21
99.574284
 31
0.0
  0
SPLINE
  5
1D0
100
AcDbEntity
  8
CK_LEVEL_2
 62
     7
100
AcDbSpline
210
0.0
220
0.0
230
1.0
 70
     8
 71
     3
 72
     8
 73
     4
 74
     0
 42
0.00000001
 43
0.00000001
 40
0.0
 40
0.0
 40
0.0
 40
0.0
 40
1.0
 40
1.0
 40
1.0
 40
1.0
 10
188.39297960069442
 20
99.821297200520817
 30
0.0
 10
188.46877170138887
 20
99.670057508680543
 30
0.0
 10
188.62345648871525
 20
99.574283854166652
 30
0.0
 10
188.7926106770833
 20
99.574283854166652
 30
0.0
  0
LINE
  5
1CF
100
AcDbEntity
  8
CK_LEVEL_2
  6
AI9-LType1
 62
     7
100
AcDbLine
 10
192.140554
 20
174.467387
 30
0.0
 11
192.140554
 21
99.693829
 31
0.0
  0
LINE
  5
1CE
100
AcDbEntity
  8
CK_LEVEL_2
 62
     7
100
AcDbLine
 10
188.697182
 20
99.585308
 30
0.0
 11
188.067763
 21
99.585308
 31
0.0
  0
LINE
  5
1CD
100
AcDbEntity
  8
CK_LEVEL_2
  6
AI9-LType1
 62
     7
100
AcDbLine
 10
187.620934
 20
100.031793
 30
0.0
 11
187.620934
 21
103.864461
 31
0.0
  0
LINE
  5
1CC
100
AcDbEntity
  8
CK_LEVEL_2
  6
AI9-LType1
 62
     7
100
AcDbLine
 10
188.067763
 20
104.310946
 30
0.0
 11
192.137798
 21
104.310946
 31
0.0
  0
SPLINE
  5
1CB
100
AcDbEntity
  8
CK_LEVEL_2
 62
     7
100
AcDbSpline
210
0.0
220
0.0
230
1.0
 70
     8
 71
     3
 72
     8
 73
     4
 74
     0
 42
0.00000001
 43
0.00000001
 40
0.0
 40
0.0
 40
0.0
 40
0.0
 40
1.0
 40
1.0
 40
1.0
 40
1.0
 10
187.62093370225693
 20
100.03179253472221
 30
0.0
 10
187.62093370225693
 20
99.78512369791666
 30
0.0
 10
187.82109374999999
 20
99.585308159722217
 30
0.0
 10
188.06776258680554
 20
99.585308159722217
 30
0.0
  0
SPLINE
  5
1CA
100
AcDbEntity
  8
CK_LEVEL_2
 62
     7
100
AcDbSpline
210
0.0
220
0.0
230
1.0
 70
     8
 71
     3
 72
     8
 73
     4
 74
     0
 42
0.00000001
 43
0.00000001
 40
0.0
 40
0.0
 40
0.0
 40
0.0
 40
1.0
 40
1.0
 40
1.0
 40
1.0
 10
188.06776258680554
 20
104.31094563802083
 30
0.0
 10
187.82109374999999
 20
104.31094563802083
 30
0.0
 10
187.62093370225693
 20
104.11113009982638
 30
0.0
 10
187.62093370225693
 20
103.86446126302083
 30
0.0
  0
LINE
  5
1C9
100
AcDbEntity
  8
CK_LEVEL_2
  6
AI9-LType1
 62
     7
100
AcDbLine
 10
160.246549
 20
143.090663
 30
0.0
 11
169.501454
 21
143.090663
 31
0.0
  0
LINE
  5
1C8
100
AcDbEntity
  8
CK_LEVEL_2
  6
AI9-LType1
 62
     7
100
AcDbLine
 10
163.845985
 20
132.134915
 30
0.0
 11
169.501454
 21
132.134915
 31
0.0
  0
SPLINE
  5
1C7
100
AcDbEntity
  8
CK_LEVEL_2
 62
     7
100
AcDbSpline
210
0.0
220
0.0
230
1.0
 70
     8
 71
     3
 72
     8
 73
     4
 74
     0
 42
0.00000001
 43
0.00000001
 40
0.0
 40
0.0
 40
0.0
 40
0.0
 40
1.0
 40
1.0
 40
1.0
 40
1.0
 10
160.41983778211804
 20
143.80517578125
 30
0.0
 10
160.02365180121527
 20
143.37626139322916
 30
0.0
 10
159.78662923177083
 20
142.82401258680554
 30
0.0
 10
159.74976671006942
 20
142.24144694010414
 30
0.0
  0
SPLINE
  5
1C6
100
AcDbEntity
  8
CK_LEVEL_2
 62
     7
100
AcDbSpline
210
0.0
220
0.0
230
1.0
 70
     8
 71
     3
 72
     8
 73
     4
 74
     0
 42
0.00000001
 43
0.00000001
 40
0.0
 40
0.0
 40
0.0
 40
0.0
 40
1.0
 40
1.0
 40
1.0
 40
1.0
 10
159.74976671006942
 20
132.85907389322915
 30
0.0
 10
159.78662923177083
 20
132.27650824652775
 30
0.0
 10
160.02365180121527
 20
131.72460394965276
 30
0.0
 10
160.41983778211804
 20
131.29534505208332
 30
0.0
  0
LINE
  5
1C5
100
AcDbEntity
  8
CK_LEVEL_2
  6
AI9-LType1
 62
     7
100
AcDbLine
 10
163.389855
 20
135.85803
 30
0.0
 11
163.389855
 21
139.208729
 31
0.0
  0
LINE
  5
1C4
100
AcDbEntity
  8
CK_LEVEL_2
  6
AI9-LType1
 62
     7
100
AcDbLine
 10
165.623999
 20
136.304858
 30
0.0
 11
165.623999
 21
138.7619
 31
0.0
  0
LINE
  5
1C3
100
AcDbEntity
  8
CK_LEVEL_2
  6
AI9-LType1
 62
     7
100
AcDbLine
 10
163.389855
 20
139.208729
 30
0.0
 11
165.176826
 21
139.208729
 31
0.0
  0
LINE
  5
1C2
100
AcDbEntity
  8
CK_LEVEL_2
  6
AI9-LType1
 62
     7
100
AcDbLine
 10
163.389855
 20
135.85803
 30
0.0
 11
165.176826
 21
135.85803
 31
0.0
  0
SPLINE
  5
1C1
100
AcDbEntity
  8
CK_LEVEL_2
 62
     7
100
AcDbSpline
210
0.0
220
0.0
230
1.0
 70
     8
 71
     3
 72
     8
 73
     4
 74
     0
 42
0.00000001
 43
0.00000001
 40
0.0
 40
0.0
 40
0.0
 40
0.0
 40
1.0
 40
1.0
 40
1.0
 40
1.0
 10
165.62399902343748
 20
138.76190049913194
 30
0.0
 10
165.62399902343748
 20
139.00891384548609
 30
0.0
 10
165.42383897569442
 20
139.20872938368055
 30
0.0
 10
165.17682562934027
 20
139.20872938368055
 30
0.0
  0
SPLINE
  5
1C0
100
AcDbEntity
  8
CK_LEVEL_2
 62
     7
100
AcDbSpline
210
0.0
220
0.0
230
1.0
 70
     8
 71
     3
 72
     8
 73
     4
 74
     0
 42
0.00000001
 43
0.00000001
 40
0.0
 40
0.0
 40
0.0
 40
0.0
 40
1.0
 40
1.0
 40
1.0
 40
1.0
 10
165.17682562934027
 20
135.85802951388888
 30
0.0
 10
165.42383897569442
 20
135.85802951388888
 30
0.0
 10
165.62399902343748
 20
136.05818956163193
 30
0.0
 10
165.62399902343748
 20
136.30485839843749
 30
0.0
  0
LINE
  5
1BF
100
AcDbEntity
  8
CK_LEVEL_2
  6
AI9-LType1
 62
     7
100
AcDbLine
 10
160.246549
 20
133.475401
 30
0.0
 11
162.927523
 21
133.475401
 31
0.0
  0
LINE
  5
1BE
100
AcDbEntity
  8
CK_LEVEL_2
 62
     7
100
AcDbLine
 10
163.845985
 20
132.134915
 30
0.0
 11
163.845985
 21
133.028573
 31
0.0
  0
SPLINE
  5
1BD
100
AcDbEntity
  8
CK_LEVEL_2
 62
     7
100
AcDbSpline
210
0.0
220
0.0
230
1.0
 70
     8
 71
     3
 72
     8
 73
     4
 74
     0
 42
0.00000001
 43
0.00000001
 40
0.0
 40
0.0
 40
0.0
 40
0.0
 40
1.0
 40
1.0
 40
1.0
 40
1.0
 10
163.84598524305554
 20
133.02857259114583
 30
0.0
 10
163.84598524305554
 20
133.27524142795139
 30
0.0
 10
163.64582519531248
 20
133.47540147569444
 30
0.0
 10
163.39915635850693
 20
133.47540147569444
 30
0.0
  0
SPLINE
  5
1BC
100
AcDbEntity
  8
CK_LEVEL_2
 62
     7
100
AcDbSpline
210
0.0
220
0.0
230
1.0
 70
     8
 71
     3
 72
    11
 73
     7
 74
     0
 42
0.00000001
 43
0.00000001
 40
0.0
 40
0.0
 40
0.0
 40
0.0
 40
1.0
 40
1.0
 40
1.0
 40
2.0
 40
2.0
 40
2.0
 40
2.0
 10
171.28842502170139
 20
143.98397623697915
 30
0.0
 10
171.28842502170139
 20
144.47765842013888
 30
0.0
 10
170.88844943576387
 20
144.87763400607636
 30
0.0
 10
170.39511176215277
 20
144.87763400607636
 30
0.0
 10
169.90142957899303
 20
144.87763400607636
 30
0.0
 10
169.50145399305555
 20
144.47765842013888
 30
0.0
 10
169.50145399305555
 20
143.98397623697915
 30
0.0
  0
SPLINE
  5
1BB
100
AcDbEntity
  8
CK_LEVEL_2
 62
     7
100
AcDbSpline
210
0.0
220
0.0
230
1.0
 70
     8
 71
     3
 72
    11
 73
     7
 74
     0
 42
0.00000001
 43
0.00000001
 40
0.0
 40
0.0
 40
0.0
 40
0.0
 40
1.0
 40
1.0
 40
1.0
 40
2.0
 40
2.0
 40
2.0
 40
2.0
 10
169.50145399305555
 20
131.24125705295137
 30
0.0
 10
169.50145399305555
 20
130.74791937934026
 30
0.0
 10
169.90142957899303
 20
130.34759928385415
 30
0.0
 10
170.39511176215277
 20
130.34759928385415
 30
0.0
 10
170.88844943576387
 20
130.34759928385415
 30
0.0
 10
171.28842502170139
 20
130.74791937934026
 30
0.0
 10
171.28842502170139
 20
131.24125705295137
 30
0.0
  0
LINE
  5
1BA
100
AcDbEntity
  8
CK_LEVEL_2
  6
AI9-LType1
 62
     7
100
AcDbLine
 10
171.288425
 20
132.134915
 30
0.0
 11
190.057305
 21
132.134915
 31
0.0
  0
LINE
  5
1B9
100
AcDbEntity
  8
CK_LEVEL_2
  6
AI9-LType1
 62
     7
100
AcDbLine
 10
169.501454
 20
143.983976
 30
0.0
 11
169.501454
 21
131.241257
 31
0.0
  0
LINE
  5
1B8
100
AcDbEntity
  8
CK_LEVEL_2
  6
AI9-LType1
 62
     7
100
AcDbLine
 10
171.288425
 20
143.983976
 30
0.0
 11
171.288425
 21
131.241257
 31
0.0
  0
LINE
  5
1B7
100
AcDbEntity
  8
CK_LEVEL_2
  6
AI9-LType1
 62
     7
100
AcDbLine
 10
171.288425
 20
143.090663
 30
0.0
 11
190.057305
 21
143.090663
 31
0.0
  0
LINE
  5
1B6
100
AcDbEntity
  8
CK_LEVEL_2
  6
AI9-LType1
 62
     7
100
AcDbLine
 10
191.844621
 20
143.983976
 30
0.0
 11
191.844621
 21
131.241257
 31
0.0
  0
LINE
  5
1B5
100
AcDbEntity
  8
CK_LEVEL_2
  6
AI9-LType1
 62
     7
100
AcDbLine
 10
190.057305
 20
143.983976
 30
0.0
 11
190.057305
 21
131.241257
 31
0.0
  0
SPLINE
  5
1B4
100
AcDbEntity
  8
CK_LEVEL_2
 62
     7
100
AcDbSpline
210
0.0
220
0.0
230
1.0
 70
     8
 71
     3
 72
    11
 73
     7
 74
     0
 42
0.00000001
 43
0.00000001
 40
0.0
 40
0.0
 40
0.0
 40
0.0
 40
1.0
 40
1.0
 40
1.0
 40
2.0
 40
2.0
 40
2.0
 40
2.0
 10
191.84462076822916
 20
143.98397623697915
 30
0.0
 10
191.84462076822916
 20
144.47765842013888
 30
0.0
 10
191.44430067274303
 20
144.87763400607636
 30
0.0
 10
190.95096299913192
 20
144.87763400607636
 30
0.0
 10
190.45728081597221
 20
144.87763400607636
 30
0.0
 10
190.0573052300347
 20
144.47765842013888
 30
0.0
 10
190.0573052300347
 20
143.98397623697915
 30
0.0
  0
SPLINE
  5
1B3
100
AcDbEntity
  8
CK_LEVEL_2
 62
     7
100
AcDbSpline
210
0.0
220
0.0
230
1.0
 70
     8
 71
     3
 72
    11
 73
     7
 74
     0
 42
0.00000001
 43
0.00000001
 40
0.0
 40
0.0
 40
0.0
 40
0.0
 40
1.0
 40
1.0
 40
1.0
 40
2.0
 40
2.0
 40
2.0
 40
2.0
 10
190.0573052300347
 20
131.24125705295137
 30
0.0
 10
190.0573052300347
 20
130.74791937934026
 30
0.0
 10
190.45728081597221
 20
130.34759928385415
 30
0.0
 10
190.95096299913192
 20
130.34759928385415
 30
0.0
 10
191.44430067274303
 20
130.34759928385415
 30
0.0
 10
191.84462076822916
 20
130.74791937934026
 30
0.0
 10
191.84462076822916
 20
131.24125705295137
 30
0.0
  0
LINE
  5
1B2
100
AcDbEntity
  8
CK_LEVEL_2
  6
AI9-LType1
 62
     7
100
AcDbLine
 10
191.844621
 20
132.134915
 30
0.0
 11
192.140554
 21
132.134915
 31
0.0
  0
LINE
  5
1B1
100
AcDbEntity
  8
CK_LEVEL_2
  6
AI9-LType1
 62
     7
100
AcDbLine
 10
191.844621
 20
143.090663
 30
0.0
 11
192.140554
 21
143.090663
 31
0.0
  0
LINE
  5
1B0
100
AcDbEntity
  8
CK_LEVEL_2
  6
AI9-LType1
 62
     7
100
AcDbLine
 10
171.288425
 20
142.822635
 30
0.0
 11
190.057305
 21
142.822635
 31
0.0
  0
LINE
  5
1AF
100
AcDbEntity
  8
CK_LEVEL_2
  6
AI9-LType1
 62
     7
100
AcDbLine
 10
160.246549
 20
142.822635
 30
0.0
 11
169.501454
 21
142.822635
 31
0.0
  0
LINE
  5
1AE
100
AcDbEntity
  8
CK_LEVEL_2
  6
AI9-LType1
 62
     7
100
AcDbLine
 10
171.288425
 20
132.402943
 30
0.0
 11
190.057305
 21
132.402943
 31
0.0
  0
LINE
  5
1AD
100
AcDbEntity
  8
CK_LEVEL_2
  6
AI9-LType1
 62
     7
100
AcDbLine
 10
163.845985
 20
132.402943
 30
0.0
 11
169.501454
 21
132.402943
 31
0.0
  0
LINE
  5
1AC
100
AcDbEntity
  8
CK_LEVEL_2
  6
AI9-LType1
 62
     7
100
AcDbLine
 10
160.246549
 20
133.74343
 30
0.0
 11
162.927523
 21
133.74343
 31
0.0
  0
LINE
  5
1AB
100
AcDbEntity
  8
CK_LEVEL_2
 62
     7
100
AcDbLine
 10
49.931836
 20
100.049363
 30
0.0
 11
86.023001
 21
100.049363
 31
0.0
  0
LINE
  5
1AA
100
AcDbEntity
  8
CK_LEVEL_2
 62
     7
100
AcDbLine
 10
49.931836
 20
100.049363
 30
0.0
 11
49.931836
 21
104.964136
 31
0.0
  0
LINE
  5
1A9
100
AcDbEntity
  8
CK_LEVEL_2
 62
     7
100
AcDbLine
 10
86.023001
 20
100.049363
 30
0.0
 11
86.023001
 21
104.964136
 31
0.0
  0
LINE
  5
1A8
100
AcDbEntity
  8
CK_LEVEL_2
 62
     7
100
AcDbLine
 10
85.576344
 20
100.049363
 30
0.0
 11
85.576344
 21
104.964136
 31
0.0
  0
LINE
  5
1A7
100
AcDbEntity
  8
CK_LEVEL_2
 62
     7
100
AcDbLine
 10
50.378665
 20
100.049363
 30
0.0
 11
50.378665
 21
104.964136
 31
0.0
  0
LINE
  5
1A6
100
AcDbEntity
  8
CK_LEVEL_2
 62
     7
100
AcDbLine
 10
49.931836
 20
104.964136
 30
0.0
 11
50.601907
 21
104.964136
 31
0.0
  0
LINE
  5
1A5
100
AcDbEntity
  8
CK_LEVEL_2
  6
AI9-LType1
 62
     7
100
AcDbLine
 10
50.601907
 20
104.964136
 30
0.0
 11
50.601907
 21
106.751107
 31
0.0
  0
LINE
  5
1A4
100
AcDbEntity
  8
CK_LEVEL_2
  6
AI9-LType1
 62
     7
100
AcDbLine
 10
85.35293
 20
104.964136
 30
0.0
 11
85.35293
 21
106.751107
 31
0.0
  0
LINE
  5
1A3
100
AcDbEntity
  8
CK_LEVEL_2
 62
     7
100
AcDbLine
 10
85.35293
 20
104.964136
 30
0.0
 11
86.023001
 21
104.964136
 31
0.0
  0
LINE
  5
1A2
100
AcDbEntity
  8
CK_LEVEL_2
 62
     7
100
AcDbLine
 10
57.75048
 20
111.665535
 30
0.0
 11
59.461142
 21
111.665535
 31
0.0
  0
LINE
  5
1A1
100
AcDbEntity
  8
CK_LEVEL_2
  6
AI9-LType1
 62
     7
100
AcDbLine
 10
50.601907
 20
106.751107
 30
0.0
 11
57.75048
 21
111.665535
 31
0.0
  0
LINE
  5
1A0
100
AcDbEntity
  8
CK_LEVEL_2
  6
AI9-LType1
 62
     7
100
AcDbLine
 10
85.35293
 20
106.751107
 30
0.0
 11
78.204529
 21
111.665535
 31
0.0
  0
LINE
  5
19F
100
AcDbEntity
  8
CK_LEVEL_2
  6
AI9-LType1
 62
     7
100
AcDbLine
 10
77.259022
 20
167.065944
 30
0.0
 11
77.259022
 21
113.006022
 31
0.0
  0
LINE
  5
19E
100
AcDbEntity
  8
CK_LEVEL_2
  6
AI9-LType1
 62
     7
100
AcDbLine
 10
58.717691
 20
167.071456
 30
0.0
 11
58.717691
 21
113.006022
 31
0.0
  0
LINE
  5
19D
100
AcDbEntity
  8
CK_LEVEL_2
 62
     7
100
AcDbLine
 10
58.717691
 20
113.006022
 30
0.0
 11
59.635292
 21
112.682183
 31
0.0
  0
SPLINE
  5
19C
100
AcDbEntity
  8
CK_LEVEL_2
 62
     7
100
AcDbSpline
210
0.0
220
0.0
230
1.0
 70
     8
 71
     3
 72
    11
 73
     7
 74
     0
 42
0.00000001
 43
0.00000001
 40
0.0
 40
0.0
 40
0.0
 40
0.0
 40
1.0
 40
1.0
 40
1.0
 40
2.0
 40
2.0
 40
2.0
 40
2.0
 10
59.461142306857631
 20
111.66553548177082
 30
0.0
 10
59.75001356336805
 20
111.66553548177082
 30
0.0
 10
59.984452311197913
 20
111.89980197482637
 30
0.0
 10
59.984452311197913
 20
112.18884548611111
 30
0.0
 10
59.984452311197913
 20
112.41070963541665
 30
0.0
 10
59.844409179687496
 20
112.60880262586805
 30
0.0
 10
59.635291883680551
 20
112.68218315972221
 30
0.0
  0
LINE
  5
19B
100
AcDbEntity
  8
CK_LEVEL_2
 62
     7
100
AcDbLine
 10
78.226405
 20
111.665535
 30
0.0
 11
76.515743
 21
111.665535
 31
0.0
  0
LINE
  5
19A
100
AcDbEntity
  8
CK_LEVEL_2
 62
     7
100
AcDbLine
 10
77.259022
 20
113.006022
 30
0.0
 11
76.341593
 21
112.682183
 31
0.0
  0
SPLINE
  5
199
100
AcDbEntity
  8
CK_LEVEL_2
 62
     7
100
AcDbSpline
210
0.0
220
0.0
230
1.0
 70
     8
 71
     3
 72
    11
 73
     7
 74
     0
 42
0.00000001
 43
0.00000001
 40
0.0
 40
0.0
 40
0.0
 40
0.0
 40
1.0
 40
1.0
 40
1.0
 40
2.0
 40
2.0
 40
2.0
 40
2.0
 10
76.341593424479157
 20
112.68218315972221
 30
0.0
 10
76.069086371527774
 20
112.58606499565971
 30
0.0
 10
75.92611490885416
 20
112.28737521701387
 30
0.0
 10
76.022233072916663
 20
112.01486816406249
 30
0.0
 10
76.095958116319437
 20
111.80575086805554
 30
0.0
 10
76.293706597222211
 20
111.66553548177082
 30
0.0
 10
76.51574300130207
 20
111.66553548177082
 30
0.0
  0
LINE
  5
198
100
AcDbEntity
  8
CK_LEVEL_2
  6
AI9-LType1
 62
     7
100
AcDbLine
 10
65.185168
 20
175.479039
 30
0.0
 11
70.76984
 21
175.479039
 31
0.0
  0
LINE
  5
197
100
AcDbEntity
  8
CK_LEVEL_2
 62
     7
100
AcDbLine
 10
70.76984
 20
175.331245
 30
0.0
 11
70.76984
 21
174.884416
 31
0.0
  0
LINE
  5
196
100
AcDbEntity
  8
CK_LEVEL_2
 62
     7
100
AcDbLine
 10
65.185168
 20
175.331245
 30
0.0
 11
65.185168
 21
174.884416
 31
0.0
  0
LINE
  5
195
100
AcDbEntity
  8
CK_LEVEL_2
  6
AI9-LType1
 62
     7
100
AcDbLine
 10
63.62144
 20
174.884416
 30
0.0
 11
65.185168
 21
174.884416
 31
0.0
  0
LINE
  5
194
100
AcDbEntity
  8
CK_LEVEL_2
  6
AI9-LType1
 62
     7
100
AcDbLine
 10
70.76984
 20
174.884416
 30
0.0
 11
72.333569
 21
174.884416
 31
0.0
  0
LINE
  5
193
100
AcDbEntity
  8
CK_LEVEL_2
  6
AI9-LType1
 62
     7
100
AcDbLine
 10
72.333569
 20
174.884416
 30
0.0
 11
77.259022
 21
168.406258
 31
0.0
  0
LINE
  5
192
100
AcDbEntity
  8
CK_LEVEL_2
 62
     7
100
AcDbLine
 10
77.259022
 20
168.406258
 30
0.0
 11
76.682486
 21
168.279823
 31
0.0
  0
LINE
  5
191
100
AcDbEntity
  8
CK_LEVEL_2
 62
     7
100
AcDbLine
 10
77.259022
 20
167.065944
 30
0.0
 11
76.663882
 21
167.218217
 31
0.0
  0
SPLINE
  5
190
100
AcDbEntity
  8
CK_LEVEL_2
 62
     7
100
AcDbSpline
210
0.0
220
0.0
230
1.0
 70
     8
 71
     3
 72
    11
 73
     7
 74
     0
 42
0.00000001
 43
0.00000001
 40
0.0
 40
0.0
 40
0.0
 40
0.0
 40
1.0
 40
1.0
 40
1.0
 40
2.0
 40
2.0
 40
2.0
 40
2.0
 10
76.682485622829859
 20
168.27982313368054
 30
0.0
 10
76.388102213541657
 20
168.21522759331594
 30
0.0
 10
76.201894802517359
 20
167.92428927951389
 30
0.0
 10
76.266318088107639
 20
167.62990587022568
 30
0.0
 10
76.310415310329859
 20
167.42871229383678
 30
0.0
 10
76.464238823784711
 20
167.26954888237844
 30
0.0
 10
76.663882107204856
 20
167.21821695963541
 30
0.0
  0
LINE
  5
18F
100
AcDbEntity
  8
CK_LEVEL_2
 62
     7
100
AcDbLine
 10
58.695987
 20
168.406258
 30
0.0
 11
59.272351
 21
168.279823
 31
0.0
  0
LINE
  5
18E
100
AcDbEntity
  8
CK_LEVEL_2
 62
     7
100
AcDbLine
 10
58.695987
 20
167.065944
 30
0.0
 11
59.290955
 21
167.218217
 31
0.0
  0
SPLINE
  5
18D
100
AcDbEntity
  8
CK_LEVEL_2
 62
     7
100
AcDbSpline
210
0.0
220
0.0
230
1.0
 70
     8
 71
     3
 72
    11
 73
     7
 74
     0
 42
0.00000001
 43
0.00000001
 40
0.0
 40
0.0
 40
0.0
 40
0.0
 40
1.0
 40
1.0
 40
1.0
 40
2.0
 40
2.0
 40
2.0
 40
2.0
 10
59.290954589843743
 20
167.21821695963541
 30
0.0
 10
59.582926432291664
 20
167.29297553168402
 30
0.0
 10
59.75897081163194
 20
167.59028727213541
 30
0.0
 10
59.684039984809026
 20
167.88225911458332
 30
0.0
 10
59.633052571614577
 20
168.08190239800345
 30
0.0
 10
59.473716905381941
 20
168.23572591145833
 30
0.0
 10
59.272351074218747
 20
168.27982313368054
 30
0.0
  0
LINE
  5
18C
100
AcDbEntity
  8
CK_LEVEL_2
  6
AI9-LType1
 62
     7
100
AcDbLine
 10
63.62144
 20
174.884416
 30
0.0
 11
58.695987
 21
168.406258
 31
0.0
  0
CIRCLE
  5
18B
100
AcDbEntity
  8
CK_LEVEL_2
 62
     7
100
AcDbCircle
 10
67.977504
 20
167.736015
 30
0.0
 40
0.781951
  0
CIRCLE
  5
18A
100
AcDbEntity
  8
CK_LEVEL_2
  6
AI9-LType1
 62
     7
100
AcDbCircle
 10
67.977504
 20
167.736015
 30
0.0
 40
1.787057
  0
CIRCLE
  5
189
100
AcDbEntity
  8
CK_LEVEL_2
  6
AI9-LType1
 62
     7
100
AcDbCircle
 10
67.977504
 20
149.864926
 30
0.0
 40
1.787057
  0
CIRCLE
  5
188
100
AcDbEntity
  8
CK_LEVEL_2
 62
     7
100
AcDbCircle
 10
67.977504
 20
149.864926
 30
0.0
 40
0.781951
  0
CIRCLE
  5
187
100
AcDbEntity
  8
CK_LEVEL_2
  6
AI9-LType1
 62
     7
100
AcDbCircle
 10
67.988443
 20
125.962682
 30
0.0
 40
1.787143
  0
CIRCLE
  5
186
100
AcDbEntity
  8
CK_LEVEL_2
  6
AI9-LType1
 62
     7
100
AcDbCircle
 10
67.988443
 20
125.962682
 30
0.0
 40
0.781864
  0
CIRCLE
  5
185
100
AcDbEntity
  8
CK_LEVEL_2
  6
AI9-LType1
 62
     7
100
AcDbCircle
 10
79.768172
 20
103.623649
 30
0.0
 40
0.781951
  0
CIRCLE
  5
184
100
AcDbEntity
  8
CK_LEVEL_2
  6
AI9-LType1
 62
     7
100
AcDbCircle
 10
79.768172
 20
103.623649
 30
0.0
 40
1.787057
  0
CIRCLE
  5
183
100
AcDbEntity
  8
CK_LEVEL_2
  6
AI9-LType1
 62
     7
100
AcDbCircle
 10
56.186751
 20
103.623649
 30
0.0
 40
0.781864
  0
CIRCLE
  5
182
100
AcDbEntity
  8
CK_LEVEL_2
  6
AI9-LType1
 62
     7
100
AcDbCircle
 10
56.186751
 20
103.623649
 30
0.0
 40
1.786971
  0
LINE
  5
181
100
AcDbEntity
  8
CK_LEVEL_2
 62
     7
100
AcDbLine
 10
68.870904
 20
175.991153
 30
0.0
 11
68.870904
 21
176.437809
 31
0.0
  0
LINE
  5
180
100
AcDbEntity
  8
CK_LEVEL_2
 62
     7
100
AcDbLine
 10
67.083933
 20
175.990636
 30
0.0
 11
67.083933
 21
176.437809
 31
0.0
  0
LINE
  5
17F
100
AcDbEntity
  8
CK_LEVEL_2
 62
     7
100
AcDbLine
 10
67.307347
 20
176.661396
 30
0.0
 11
68.647662
 21
176.661396
 31
0.0
  0
SPLINE
  5
17E
100
AcDbEntity
  8
CK_LEVEL_2
 62
     7
100
AcDbSpline
210
0.0
220
0.0
230
1.0
 70
     8
 71
     3
 72
     8
 73
     4
 74
     0
 42
0.00000001
 43
0.00000001
 40
0.0
 40
0.0
 40
0.0
 40
0.0
 40
1.0
 40
1.0
 40
1.0
 40
1.0
 10
68.870903862847214
 20
176.43780924479165
 30
0.0
 10
68.870903862847214
 20
176.56131591796873
 30
0.0
 10
68.77099609375
 20
176.66139594184025
 30
0.0
 10
68.647661675347223
 20
176.66139594184025
 30
0.0
  0
SPLINE
  5
17D
100
AcDbEntity
  8
CK_LEVEL_2
 62
     7
100
AcDbSpline
210
0.0
220
0.0
230
1.0
 70
     8
 71
     3
 72
     8
 73
     4
 74
     0
 42
0.00000001
 43
0.00000001
 40
0.0
 40
0.0
 40
0.0
 40
0.0
 40
1.0
 40
1.0
 40
1.0
 40
1.0
 10
67.307347276475681
 20
176.66139594184025
 30
0.0
 10
67.184012858072904
 20
176.66139594184025
 30
0.0
 10
67.083932834201377
 20
176.56131591796873
 30
0.0
 10
67.083932834201377
 20
176.43780924479165
 30
0.0
  0
LINE
  5
17C
100
AcDbEntity
  8
CK_LEVEL_2
 62
     7
100
AcDbLine
 10
189.236683
 20
175.515385
 30
0.0
 11
189.236683
 21
175.962731
 31
0.0
  0
LINE
  5
17B
100
AcDbEntity
  8
CK_LEVEL_2
 62
     7
100
AcDbLine
 10
191.023999
 20
175.515902
 30
0.0
 11
191.023999
 21
175.962731
 31
0.0
  0
LINE
  5
17A
100
AcDbEntity
  8
CK_LEVEL_2
 62
     7
100
AcDbLine
 10
189.459926
 20
176.185973
 30
0.0
 11
190.800412
 21
176.185973
 31
0.0
  0
SPLINE
  5
179
100
AcDbEntity
  8
CK_LEVEL_2
 62
     7
100
AcDbSpline
210
0.0
220
0.0
230
1.0
 70
     8
 71
     3
 72
     8
 73
     4
 74
     0
 42
0.00000001
 43
0.00000001
 40
0.0
 40
0.0
 40
0.0
 40
0.0
 40
1.0
 40
1.0
 40
1.0
 40
1.0
 10
189.45992567274303
 20
176.18597276475694
 30
0.0
 10
189.33659125434025
 20
176.18597276475694
 30
0.0
 10
189.23668348524305
 20
176.08606499565971
 30
0.0
 10
189.23668348524305
 20
175.96273057725693
 30
0.0
  0
SPLINE
  5
178
100
AcDbEntity
  8
CK_LEVEL_2
 62
     7
100
AcDbSpline
210
0.0
220
0.0
230
1.0
 70
     8
 71
     3
 72
     8
 73
     4
 74
     0
 42
0.00000001
 43
0.00000001
 40
0.0
 40
0.0
 40
0.0
 40
0.0
 40
1.0
 40
1.0
 40
1.0
 40
1.0
 10
191.02399902343748
 20
175.96273057725693
 30
0.0
 10
191.02399902343748
 20
176.08606499565971
 30
0.0
 10
190.92374674479166
 20
176.18597276475694
 30
0.0
 10
190.80041232638888
 20
176.18597276475694
 30
0.0
  0
LINE
  5
177
100
AcDbEntity
  8
CK_LEVEL_2
  6
AI9-LType1
 62
     7
100
AcDbLine
 10
70.892314
 20
111.004422
 30
0.0
 11
65.084399
 21
111.004422
 31
0.0
  0
LINE
  5
176
100
AcDbEntity
  8
CK_LEVEL_2
  6
AI9-LType1
 62
     7
100
AcDbLine
 10
70.892314
 20
130.215997
 30
0.0
 11
65.084399
 21
130.215997
 31
0.0
  0
LINE
  5
175
100
AcDbEntity
  8
CK_LEVEL_2
  6
AI9-LType1
 62
     7
100
AcDbLine
 10
70.892314
 20
111.004422
 30
0.0
 11
70.892314
 21
130.215997
 31
0.0
  0
LINE
  5
174
100
AcDbEntity
  8
CK_LEVEL_2
  6
AI9-LType1
 62
     7
100
AcDbLine
 10
65.084399
 20
111.004422
 30
0.0
 11
65.084399
 21
130.215997
 31
0.0
  0
CIRCLE
  5
173
100
AcDbEntity
  8
CK_LEVEL_2
  6
AI9-LType1
 62
     7
100
AcDbCircle
 10
67.988357
 20
138.025339
 30
0.0
 40
5.495186
  0
SPLINE
  5
172
100
AcDbEntity
  8
CK_LEVEL_2
 62
     7
100
AcDbSpline
210
0.0
220
0.0
230
1.0
 70
     8
 71
     3
 72
     8
 73
     4
 74
     0
 42
0.00000001
 43
0.00000001
 40
0.0
 40
0.0
 40
0.0
 40
0.0
 40
1.0
 40
1.0
 40
1.0
 40
1.0
 10
160.64307996961804
 20
175.52606472439234
 30
0.0
 10
160.51974555121527
 20
175.52606472439234
 30
0.0
 10
160.41983778211804
 20
175.42615695529511
 30
0.0
 10
160.41983778211804
 20
175.30282253689234
 30
0.0
  0
SPLINE
  5
171
100
AcDbEntity
  8
CK_LEVEL_2
 62
     7
100
AcDbSpline
210
0.0
220
0.0
230
1.0
 70
     8
 71
     3
 72
     8
 73
     4
 74
     0
 42
0.00000001
 43
0.00000001
 40
0.0
 40
0.0
 40
0.0
 40
0.0
 40
1.0
 40
1.0
 40
1.0
 40
1.0
 10
192.58772786458331
 20
175.30282253689234
 30
0.0
 10
192.58772786458331
 20
175.42615695529511
 30
0.0
 10
192.48747558593749
 20
175.52606472439234
 30
0.0
 10
192.36414116753471
 20
175.52606472439234
 30
0.0
  0
LINE
  5
170
100
AcDbEntity
  8
CK_LEVEL_2
  6
AI9-LType1
 62
     7
100
AcDbLine
 10
67.321472
 20
175.683506
 30
0.0
 11
67.321472
 21
174.702342
 31
0.0
  0
LINE
  5
16F
100
AcDbEntity
  8
CK_LEVEL_2
  6
AI9-LType1
 62
     7
100
AcDbLine
 10
68.684007
 20
175.683506
 30
0.0
 11
68.684007
 21
174.702342
 31
0.0
  0
LINE
  5
16E
100
AcDbEntity
  8
CK_LEVEL_2
 62
     7
100
AcDbLine
 10
96.443037
 20
205.564197
 30
0.0
 11
93.079762
 21
205.564197
 31
0.0
  0
LINE
  5
16D
100
AcDbEntity
  8
CK_LEVEL_2
 62
     7
100
AcDbLine
 10
93.079762
 20
205.564197
 30
0.0
 11
70.26944
 21
171.189895
 31
0.0
  0
POLYLINE
  5
168
100
AcDbEntity
  8
CK_LEVEL_2
 62
     7
100
AcDb2dPolyline
 66
     1
 10
0.0
 20
0.0
 30
0.0
 70
     1
  0
VERTEX
  5
169
100
AcDbEntity
  8
CK_LEVEL_2
 62
     7
100
AcDbVertex
100
AcDb2dVertex
 10
69.802458
 20
171.499954
 30
0.0
  0
VERTEX
  5
16A
100
AcDbEntity
  8
CK_LEVEL_2
 62
     7
100
AcDbVertex
100
AcDb2dVertex
 10
70.736423
 20
170.880009
 30
0.0
  0
VERTEX
  5
16B
100
AcDbEntity
  8
CK_LEVEL_2
 62
     7
100
AcDbVertex
100
AcDb2dVertex
 10
68.409778
 20
168.387482
 30
0.0
  0
SEQEND
  5
16C
100
AcDbEntity
  8
CK_LEVEL_2
 62
     7
  0
HATCH
  5
167
100
AcDbEntity
  8
CK_LEVEL_2
 62
     7
100
AcDbHatch
 10
0.0
 20
0.0
 30
0.0
210
0.0
220
0.0
230
1.0
  2
SOLID
 70
     1
 71
     0
 91
        1
 92
        3
 72
     0
 73
     1
 93
        3
 10
69.80245768229166
 20
171.4999538845486
 10
70.736423068576386
 20
170.8800089518229
 10
68.409777832031239
 20
168.38748236762152
 97
        0
 75
     2
 76
     1
 98
        1
 10
0.0
 20
0.0
  0
LINE
  5
166
100
AcDbEntity
  8
CK_LEVEL_2
  6
AI9-LType1
 62
     7
100
AcDbLine
 10
190.803857
 20
175.526065
 30
0.0
 11
190.803857
 21
174.227091
 31
0.0
  0
LINE
  5
165
100
AcDbEntity
  8
CK_LEVEL_2
  6
AI9-LType1
 62
     7
100
AcDbLine
 10
189.441322
 20
175.526065
 30
0.0
 11
189.441322
 21
174.227091
 31
0.0
  0
LINE
  5
164
100
AcDbEntity
  8
CK_LEVEL_2
  6
AI9-LType1
 62
     7
100
AcDbLine
 10
192.514347
 20
175.13763
 30
0.0
 11
188.524238
 21
175.13763
 31
0.0
  0
LINE
  5
163
100
AcDbEntity
  8
CK_LEVEL_2
  6
AI9-LType1
 62
     7
100
AcDbLine
 10
191.917657
 20
174.690801
 30
0.0
 11
188.524238
 21
174.690801
 31
0.0
  0
LINE
  5
162
100
AcDbEntity
  8
CK_LEVEL_2
 62
     7
100
AcDbLine
 10
188.524238
 20
175.13763
 30
0.0
 11
188.524238
 21
174.690801
 31
0.0
  0
SPLINE
  5
161
100
AcDbEntity
  8
CK_LEVEL_2
 62
     7
100
AcDbSpline
210
0.0
220
0.0
230
1.0
 70
     8
 71
     3
 72
     8
 73
     4
 74
     0
 42
0.00000001
 43
0.00000001
 40
0.0
 40
0.0
 40
0.0
 40
0.0
 40
1.0
 40
1.0
 40
1.0
 40
1.0
 10
192.14055447048608
 20
174.46738688151041
 30
0.0
 10
192.14055447048608
 20
174.59072129991318
 30
0.0
 10
192.04099121093748
 20
174.69080132378471
 30
0.0
 10
191.9176567925347
 20
174.69080132378471
 30
0.0
  0
LINE
  5
160
100
AcDbEntity
  8
CK_LEVEL_2
 62
     7
100
AcDbLine
 10
189.956708
 20
167.087303
 30
0.0
 11
190.907899
 21
167.087303
 31
0.0
  0
LINE
  5
15F
100
AcDbEntity
  8
CK_LEVEL_2
 62
     7
100
AcDbLine
 10
191.633092
 20
167.080241
 30
0.0
 11
193.990571
 21
167.080241
 31
0.0
  0
LINE
  5
15E
100
AcDbEntity
  8
CK_LEVEL_2
 62
     7
100
AcDbLine
 10
191.633092
 20
149.266858
 30
0.0
 11
193.990571
 21
149.266858
 31
0.0
  0
LINE
  5
15D
100
AcDbEntity
  8
CK_LEVEL_2
 62
     7
100
AcDbLine
 10
189.956708
 20
149.273748
 30
0.0
 11
190.907899
 21
149.273748
 31
0.0
  0
LINE
  5
15C
100
AcDbEntity
  8
CK_LEVEL_2
 62
     7
100
AcDbLine
 10
191.633092
 20
125.506551
 30
0.0
 11
193.990571
 21
125.506551
 31
0.0
  0
LINE
  5
15B
100
AcDbEntity
  8
CK_LEVEL_2
 62
     7
100
AcDbLine
 10
189.956708
 20
125.513441
 30
0.0
 11
190.907899
 21
125.513441
 31
0.0
  0
LINE
  5
15A
100
AcDbEntity
  8
CK_LEVEL_2
 62
     7
100
AcDbLine
 10
191.633092
 20
103.171997
 30
0.0
 11
193.990571
 21
103.171997
 31
0.0
  0
LINE
  5
159
100
AcDbEntity
  8
CK_LEVEL_2
 62
     7
100
AcDbLine
 10
189.956708
 20
103.178887
 30
0.0
 11
190.907899
 21
103.178887
 31
0.0
  0
LINE
  5
158
100
AcDbEntity
  8
CK_LEVEL_2
  6
AI9-LType1
 62
     7
100
AcDbLine
 10
59.893157
 20
168.08862
 30
0.0
 11
64.98587
 21
174.639469
 31
0.0
  0
LINE
  5
157
100
AcDbEntity
  8
CK_LEVEL_2
  6
AI9-LType1
 62
     7
100
AcDbLine
 10
70.927281
 20
174.639469
 30
0.0
 11
76.019994
 21
168.182844
 31
0.0
  0
LINE
  5
156
100
AcDbEntity
  8
CK_LEVEL_2
  6
AI9-LType1
 62
     7
100
AcDbLine
 10
59.974634
 20
112.753152
 30
0.0
 11
59.974634
 21
167.087303
 31
0.0
  0
LINE
  5
155
100
AcDbEntity
  8
CK_LEVEL_2
  6
AI9-LType1
 62
     7
100
AcDbLine
 10
50.779157
 20
104.980328
 30
0.0
 11
59.956547
 21
111.276584
 31
0.0
  0
LINE
  5
154
100
AcDbEntity
  8
CK_LEVEL_2
  6
AI9-LType1
 62
     7
100
AcDbLine
 10
76.001907
 20
112.753152
 30
0.0
 11
76.001907
 21
167.087303
 31
0.0
  0
LINE
  5
153
100
AcDbEntity
  8
CK_LEVEL_2
  6
AI9-LType1
 62
     7
100
AcDbLine
 10
85.197556
 20
104.980328
 30
0.0
 11
76.020166
 21
111.276584
 31
0.0
  0
LINE
  5
152
100
AcDbEntity
  8
CK_LEVEL_2
  6
AI9-LType1
 62
     7
100
AcDbLine
 10
189.859901
 20
100.505493
 30
0.0
 11
188.790888
 21
101.858727
 31
0.0
  0
LINE
  5
151
100
AcDbEntity
  8
CK_LEVEL_2
  6
AI9-LType1
 62
     7
100
AcDbLine
 10
191.528361
 20
101.823587
 30
0.0
 11
190.458314
 21
103.178887
 31
0.0
  0
SPLINE
  5
150
100
AcDbEntity
  8
CK_LEVEL_2
  6
AI9-LType1
 62
     7
100
AcDbSpline
210
0.0
220
0.0
230
1.0
 70
     8
 71
     3
 72
    14
 73
    10
 74
     0
 42
0.00000001
 43
0.00000001
 40
0.0
 40
0.0
 40
0.0
 40
0.0
 40
1.0
 40
1.0
 40
1.0
 40
2.0
 40
2.0
 40
2.0
 40
3.0
 40
3.0
 40
3.0
 40
3.0
 10
190.46348198784722
 20
103.17199707031249
 30
0.0
 10
190.10243598090275
 20
103.63467339409721
 30
0.0
 10
189.43408745659721
 20
103.71701117621527
 30
0.0
 10
188.97106662326388
 20
103.35596516927082
 30
0.0
 10
188.50839029947915
 20
102.99491916232638
 30
0.0
 10
188.42605251736109
 20
102.32657063802083
 30
0.0
 10
188.78709852430555
 20
101.86389431423611
 30
0.0
 10
188.78847656249999
 20
101.86217176649305
 30
0.0
 10
188.78985460069444
 20
101.86044921874999
 30
0.0
 10
188.79088812934026
 20
101.85872667100693
 30
0.0
  0
SPLINE
  5
14F
100
AcDbEntity
  8
CK_LEVEL_2
  6
AI9-LType1
 62
     7
100
AcDbSpline
210
0.0
220
0.0
230
1.0
 70
     8
 71
     3
 72
    11
 73
     7
 74
     0
 42
0.00000001
 43
0.00000001
 40
0.0
 40
0.0
 40
0.0
 40
0.0
 40
1.0
 40
1.0
 40
1.0
 40
2.0
 40
2.0
 40
2.0
 40
2.0
 10
189.85990125868054
 20
100.50549316406249
 30
0.0
 10
190.22404785156249
 20
100.04488389756943
 30
0.0
 10
190.89274088541666
 20
99.9663357204861
 30
0.0
 10
191.35335015190969
 20
100.33013780381944
 30
0.0
 10
191.81395941840276
 20
100.69428439670138
 30
0.0
 10
191.89250759548608
 20
101.36297743055555
 30
0.0
 10
191.52836100260416
 20
101.8235866970486
 30
0.0
  0
LINE
  5
14E
100
AcDbEntity
  8
CK_LEVEL_2
  6
AI9-LType1
 62
     7
100
AcDbLine
 10
159.757001
 20
139.464355
 30
0.0
 11
162.861377
 21
139.464355
 31
0.0
  0
LINE
  5
14D
100
AcDbEntity
  8
CK_LEVEL_2
  6
AI9-LType1
 62
     7
100
AcDbLine
 10
159.757001
 20
135.694043
 30
0.0
 11
162.900651
 21
135.694043
 31
0.0
  0
LINE
  5
14C
100
AcDbEntity
  8
CK_LEVEL_2
  6
AI9-LType1
 62
     7
100
AcDbLine
 10
162.900651
 20
135.694043
 30
0.0
 11
162.900651
 21
139.424737
 31
0.0
  0
SPLINE
  5
14B
100
AcDbEntity
  8
CK_LEVEL_2
 62
     7
100
AcDbSpline
210
0.0
220
0.0
230
1.0
 70
     8
 71
     3
 72
    11
 73
     7
 74
     0
 42
0.00000001
 43
0.00000001
 40
0.0
 40
0.0
 40
0.0
 40
0.0
 40
1.0
 40
1.0
 40
1.0
 40
2.0
 40
2.0
 40
2.0
 40
2.0
 10
165.34046766493054
 20
101.25652398003471
 30
0.0
 10
165.32427571614582
 20
101.28649631076388
 30
0.0
 10
165.28706868489581
 20
101.29786512586804
 30
0.0
 10
165.25709635416666
 20
101.28132866753471
 30
0.0
 10
165.24572753906247
 20
101.27581651475694
 30
0.0
 10
165.23642578124998
 20
101.26617024739582
 30
0.0
 10
165.23091362847219
 20
101.25480143229166
 30
0.0
  0
LINE
  5
14A
100
AcDbEntity
  8
CK_LEVEL_2
 62
     7
100
AcDbLine
 10
165.340468
 20
101.256524
 30
0.0
 11
165.777995
 21
100.444859
 31
0.0
  0
SPLINE
  5
149
100
AcDbEntity
  8
CK_LEVEL_2
 62
     7
100
AcDbSpline
210
0.0
220
0.0
230
1.0
 70
     8
 71
     3
 72
    11
 73
     7
 74
     0
 42
0.00000001
 43
0.00000001
 40
0.0
 40
0.0
 40
0.0
 40
0.0
 40
1.0
 40
1.0
 40
1.0
 40
2.0
 40
2.0
 40
2.0
 40
2.0
 10
167.57185601128469
 20
101.26065809461805
 30
0.0
 10
167.5560085720486
 20
101.29063042534722
 30
0.0
 10
167.51845703124999
 20
101.30199924045138
 30
0.0
 10
167.48848470052081
 20
101.28580729166666
 30
0.0
 10
167.47987196180554
 20
101.28132866753471
 30
0.0
 10
167.47263726128472
 20
101.27512749565972
 30
0.0
 10
167.46712510850693
 20
101.26720377604165
 30
0.0
  0
SPLINE
  5
148
100
AcDbEntity
  8
CK_LEVEL_2
 62
     7
100
AcDbSpline
210
0.0
220
0.0
230
1.0
 70
     8
 71
     3
 72
    11
 73
     7
 74
     0
 42
0.00000001
 43
0.00000001
 40
0.0
 40
0.0
 40
0.0
 40
0.0
 40
1.0
 40
1.0
 40
1.0
 40
2.0
 40
2.0
 40
2.0
 40
2.0
 10
187.67502170138889
 20
101.25652398003471
 30
0.0
 10
187.65917426215276
 20
101.28649631076388
 30
0.0
 10
187.62162272135416
 20
101.29786512586804
 30
0.0
 10
187.59165039062498
 20
101.28132866753471
 30
0.0
 10
187.58062608506944
 20
101.27581651475694
 30
0.0
 10
187.57132432725692
 20
101.26617024739582
 30
0.0
 10
187.56546766493054
 20
101.25480143229166
 30
0.0
  0
LINE
  5
147
100
AcDbEntity
  8
CK_LEVEL_2
 62
     7
100
AcDbLine
 10
187.565468
 20
101.254801
 30
0.0
 11
187.128974
 21
100.444859
 31
0.0
  0
SPLINE
  5
146
100
AcDbEntity
  8
CK_LEVEL_2
 62
     7
100
AcDbSpline
210
0.0
220
0.0
230
1.0
 70
     8
 71
     3
 72
    11
 73
     7
 74
     0
 42
0.00000001
 43
0.00000001
 40
0.0
 40
0.0
 40
0.0
 40
0.0
 40
1.0
 40
1.0
 40
1.0
 40
2.0
 40
2.0
 40
2.0
 40
2.0
 10
169.80600043402777
 20
101.26065809461805
 30
0.0
 10
169.78980848524304
 20
101.29063042534722
 30
0.0
 10
169.75260145399304
 20
101.30199924045138
 30
0.0
 10
169.72228461371526
 20
101.28580729166666
 30
0.0
 10
169.71401638454859
 20
101.28132866753471
 30
0.0
 10
169.70643717447916
 20
101.27512749565972
 30
0.0
 10
169.70092502170138
 20
101.26720377604165
 30
0.0
  0
SPLINE
  5
145
100
AcDbEntity
  8
CK_LEVEL_2
 62
     7
100
AcDbSpline
210
0.0
220
0.0
230
1.0
 70
     8
 71
     3
 72
    11
 73
     7
 74
     0
 42
0.00000001
 43
0.00000001
 40
0.0
 40
0.0
 40
0.0
 40
0.0
 40
1.0
 40
1.0
 40
1.0
 40
2.0
 40
2.0
 40
2.0
 40
2.0
 10
172.03980034722221
 20
101.26065809461805
 30
0.0
 10
172.02360839843749
 20
101.29063042534722
 30
0.0
 10
171.98605685763889
 20
101.30199924045138
 30
0.0
 10
171.95608452690971
 20
101.28580729166666
 30
0.0
 10
171.94747178819443
 20
101.28132866753471
 30
0.0
 10
171.94058159722221
 20
101.27512749565972
 30
0.0
 10
171.93506944444442
 20
101.26720377604165
 30
0.0
  0
SPLINE
  5
144
100
AcDbEntity
  8
CK_LEVEL_2
 62
     7
100
AcDbSpline
210
0.0
220
0.0
230
1.0
 70
     8
 71
     3
 72
    11
 73
     7
 74
     0
 42
0.00000001
 43
0.00000001
 40
0.0
 40
0.0
 40
0.0
 40
0.0
 40
1.0
 40
1.0
 40
1.0
 40
2.0
 40
2.0
 40
2.0
 40
2.0
 10
174.27394476996525
 20
101.26065809461805
 30
0.0
 10
174.25740831163193
 20
101.29063042534722
 30
0.0
 10
174.21985677083333
 20
101.30199924045138
 30
0.0
 10
174.18988444010415
 20
101.28580729166666
 30
0.0
 10
174.18161621093748
 20
101.28132866753471
 30
0.0
 10
174.17438151041665
 20
101.27512749565972
 30
0.0
 10
174.16886935763887
 20
101.26720377604165
 30
0.0
  0
SPLINE
  5
143
100
AcDbEntity
  8
CK_LEVEL_2
 62
     7
100
AcDbSpline
210
0.0
220
0.0
230
1.0
 70
     8
 71
     3
 72
    11
 73
     7
 74
     0
 42
0.00000001
 43
0.00000001
 40
0.0
 40
0.0
 40
0.0
 40
0.0
 40
1.0
 40
1.0
 40
1.0
 40
2.0
 40
2.0
 40
2.0
 40
2.0
 10
176.5077446831597
 20
101.26065809461805
 30
0.0
 10
176.49155273437498
 20
101.29063042534722
 30
0.0
 10
176.45400119357637
 20
101.30199924045138
 30
0.0
 10
176.42402886284719
 20
101.28580729166666
 30
0.0
 10
176.41541612413192
 20
101.28132866753471
 30
0.0
 10
176.4081814236111
 20
101.27512749565972
 30
0.0
 10
176.40266927083331
 20
101.26720377604165
 30
0.0
  0
SPLINE
  5
142
100
AcDbEntity
  8
CK_LEVEL_2
 62
     7
100
AcDbSpline
210
0.0
220
0.0
230
1.0
 70
     8
 71
     3
 72
    11
 73
     7
 74
     0
 42
0.00000001
 43
0.00000001
 40
0.0
 40
0.0
 40
0.0
 40
0.0
 40
1.0
 40
1.0
 40
1.0
 40
2.0
 40
2.0
 40
2.0
 40
2.0
 10
178.74154459635415
 20
101.26065809461805
 30
0.0
 10
178.72535264756942
 20
101.29063042534722
 30
0.0
 10
178.68780110677082
 20
101.30199924045138
 30
0.0
 10
178.65782877604164
 20
101.28580729166666
 30
0.0
 10
178.64956054687499
 20
101.28132866753471
 30
0.0
 10
178.64198133680554
 20
101.27512749565972
 30
0.0
 10
178.63646918402776
 20
101.26720377604165
 30
0.0
  0
SPLINE
  5
141
100
AcDbEntity
  8
CK_LEVEL_2
 62
     7
100
AcDbSpline
210
0.0
220
0.0
230
1.0
 70
     8
 71
     3
 72
    11
 73
     7
 74
     0
 42
0.00000001
 43
0.00000001
 40
0.0
 40
0.0
 40
0.0
 40
0.0
 40
1.0
 40
1.0
 40
1.0
 40
2.0
 40
2.0
 40
2.0
 40
2.0
 10
180.97534450954859
 20
101.26065809461805
 30
0.0
 10
180.95949707031249
 20
101.29063042534722
 30
0.0
 10
180.92194552951386
 20
101.30199924045138
 30
0.0
 10
180.89162868923609
 20
101.28580729166666
 30
0.0
 10
180.88336046006944
 20
101.28132866753471
 30
0.0
 10
180.87578124999999
 20
101.27512749565972
 30
0.0
 10
180.87026909722221
 20
101.26720377604165
 30
0.0
  0
SPLINE
  5
140
100
AcDbEntity
  8
CK_LEVEL_2
 62
     7
100
AcDbSpline
210
0.0
220
0.0
230
1.0
 70
     8
 71
     3
 72
    11
 73
     7
 74
     0
 42
0.00000001
 43
0.00000001
 40
0.0
 40
0.0
 40
0.0
 40
0.0
 40
1.0
 40
1.0
 40
1.0
 40
2.0
 40
2.0
 40
2.0
 40
2.0
 10
183.20948893229166
 20
101.26065809461805
 30
0.0
 10
183.19295247395831
 20
101.29063042534722
 30
0.0
 10
183.15540093315971
 20
101.30199924045138
 30
0.0
 10
183.12542860243053
 20
101.28580729166666
 30
0.0
 10
183.11716037326389
 20
101.28132866753471
 30
0.0
 10
183.10992567274303
 20
101.27512749565972
 30
0.0
 10
183.10441351996525
 20
101.26720377604165
 30
0.0
  0
SPLINE
  5
13F
100
AcDbEntity
  8
CK_LEVEL_2
 62
     7
100
AcDbSpline
210
0.0
220
0.0
230
1.0
 70
     8
 71
     3
 72
    11
 73
     7
 74
     0
 42
0.00000001
 43
0.00000001
 40
0.0
 40
0.0
 40
0.0
 40
0.0
 40
1.0
 40
1.0
 40
1.0
 40
2.0
 40
2.0
 40
2.0
 40
2.0
 10
185.44328884548608
 20
101.26065809461805
 30
0.0
 10
185.42675238715276
 20
101.29063042534722
 30
0.0
 10
185.38954535590275
 20
101.30199924045138
 30
0.0
 10
185.3595730251736
 20
101.28580729166666
 30
0.0
 10
185.3509602864583
 20
101.28132866753471
 30
0.0
 10
185.34372558593748
 20
101.27512749565972
 30
0.0
 10
185.33821343315969
 20
101.26720377604165
 30
0.0
  0
LINE
  5
13E
100
AcDbEntity
  8
CK_LEVEL_2
 62
     7
100
AcDbLine
 10
56.186751
 20
101.836334
 30
0.0
 11
56.186751
 21
90.008287
 31
0.0
  0
LINE
  5
13D
100
AcDbEntity
  8
CK_LEVEL_2
 62
     7
100
AcDbLine
 10
79.768085
 20
101.836334
 30
0.0
 11
79.768085
 21
90.008287
 31
0.0
  0
LINE
  5
13C
100
AcDbEntity
  8
CK_LEVEL_2
 62
     7
100
AcDbLine
 10
52.823477
 20
91.92066
 30
0.0
 11
49.460202
 21
91.92066
 31
0.0
  0
LINE
  5
13B
100
AcDbEntity
  8
CK_LEVEL_2
 62
     7
100
AcDbLine
 10
83.131532
 20
91.92066
 30
0.0
 11
86.494807
 21
91.92066
 31
0.0
  0
POLYLINE
  5
136
100
AcDbEntity
  8
CK_LEVEL_2
 62
     7
100
AcDb2dPolyline
 66
     1
 10
0.0
 20
0.0
 30
0.0
 70
     1
  0
VERTEX
  5
137
100
AcDbEntity
  8
CK_LEVEL_2
 62
     7
100
AcDbVertex
100
AcDb2dVertex
 10
52.823477
 20
92.480832
 30
0.0
  0
VERTEX
  5
138
100
AcDbEntity
  8
CK_LEVEL_2
 62
     7
100
AcDbVertex
100
AcDb2dVertex
 10
52.823477
 20
91.359798
 30
0.0
  0
VERTEX
  5
139
100
AcDbEntity
  8
CK_LEVEL_2
 62
     7
100
AcDbVertex
100
AcDb2dVertex
 10
56.186751
 20
91.92066
 30
0.0
  0
SEQEND
  5
13A
100
AcDbEntity
  8
CK_LEVEL_2
 62
     7
  0
HATCH
  5
135
100
AcDbEntity
  8
CK_LEVEL_2
 62
     7
100
AcDbHatch
 10
0.0
 20
0.0
 30
0.0
210
0.0
220
0.0
230
1.0
  2
SOLID
 70
     1
 71
     0
 91
        1
 92
        3
 72
     0
 73
     1
 93
        3
 10
52.823476833767359
 20
92.48083224826388
 10
52.823476833767359
 20
91.35979817708332
 10
56.18675130208333
 20
91.920659722222211
 97
        0
 75
     2
 76
     1
 98
        1
 10
0.0
 20
0.0
  0
POLYLINE
  5
130
100
AcDbEntity
  8
CK_LEVEL_2
 62
     7
100
AcDb2dPolyline
 66
     1
 10
0.0
 20
0.0
 30
0.0
 70
     1
  0
VERTEX
  5
131
100
AcDbEntity
  8
CK_LEVEL_2
 62
     7
100
AcDbVertex
100
AcDb2dVertex
 10
83.131532
 20
92.480832
 30
0.0
  0
VERTEX
  5
132
100
AcDbEntity
  8
CK_LEVEL_2
 62
     7
100
AcDbVertex
100
AcDb2dVertex
 10
83.131532
 20
91.359798
 30
0.0
  0
VERTEX
  5
133
100
AcDbEntity
  8
CK_LEVEL_2
 62
     7
100
AcDbVertex
100
AcDb2dVertex
 10
79.768085
 20
91.92066
 30
0.0
  0
SEQEND
  5
134
100
AcDbEntity
  8
CK_LEVEL_2
 62
     7
  0
HATCH
  5
12F
100
AcDbEntity
  8
CK_LEVEL_2
 62
     7
100
AcDbHatch
 10
0.0
 20
0.0
 30
0.0
210
0.0
220
0.0
230
1.0
  2
SOLID
 70
     1
 71
     0
 91
        1
 92
        3
 72
     0
 73
     1
 93
        3
 10
83.131532118055546
 20
92.48083224826388
 10
83.131532118055546
 20
91.35979817708332
 10
79.768085394965269
 20
91.920659722222211
 97
        0
 75
     2
 76
     1
 98
        1
 10
0.0
 20
0.0
  0
LINE
  5
12E
100
AcDbEntity
  8
CK_LEVEL_2
 62
     7
100
AcDbLine
 10
160.419838
 20
100.281906
 30
0.0
 11
163.100467
 21
100.281906
 31
0.0
  0
LINE
  5
12D
100
AcDbEntity
  8
CK_LEVEL_2
 62
     7
100
AcDbLine
 10
195.777542
 20
103.171997
 30
0.0
 11
207.675868
 21
103.171997
 31
0.0
  0
LINE
  5
12C
100
AcDbEntity
  8
CK_LEVEL_2
 62
     7
100
AcDbLine
 10
191.247241
 20
99.574284
 30
0.0
 11
207.675868
 21
99.574284
 31
0.0
  0
LINE
  5
12B
100
AcDbEntity
  8
CK_LEVEL_2
 62
     7
100
AcDbLine
 10
205.54611
 20
96.210837
 30
0.0
 11
205.54611
 21
92.84739
 31
0.0
  0
POLYLINE
  5
126
100
AcDbEntity
  8
CK_LEVEL_2
 62
     7
100
AcDb2dPolyline
 66
     1
 10
0.0
 20
0.0
 30
0.0
 70
     1
  0
VERTEX
  5
127
100
AcDbEntity
  8
CK_LEVEL_2
 62
     7
100
AcDbVertex
100
AcDb2dVertex
 10
204.985248
 20
106.535099
 30
0.0
  0
VERTEX
  5
128
100
AcDbEntity
  8
CK_LEVEL_2
 62
     7
100
AcDbVertex
100
AcDb2dVertex
 10
206.106627
 20
106.535099
 30
0.0
  0
VERTEX
  5
129
100
AcDbEntity
  8
CK_LEVEL_2
 62
     7
100
AcDbVertex
100
AcDb2dVertex
 10
205.54611
 20
103.171997
 30
0.0
  0
SEQEND
  5
12A
100
AcDbEntity
  8
CK_LEVEL_2
 62
     7
  0
HATCH
  5
125
100
AcDbEntity
  8
CK_LEVEL_2
 62
    15
100
AcDbHatch
 10
0.0
 20
0.0
 30
0.0
210
0.0
220
0.0
230
1.0
  2
SOLID
 70
     1
 71
     0
 91
        1
 92
        3
 72
     0
 73
     1
 93
        3
 10
204.98524848090275
 20
106.53509928385415
 10
206.10662706163191
 20
106.53509928385415
 10
205.54611002604165
 20
103.17199707031249
 97
        0
 75
     2
 76
     1
 98
        1
 10
0.0
 20
0.0
  0
POLYLINE
  5
120
100
AcDbEntity
  8
CK_LEVEL_2
 62
     7
100
AcDb2dPolyline
 66
     1
 10
0.0
 20
0.0
 30
0.0
 70
     1
  0
VERTEX
  5
121
100
AcDbEntity
  8
CK_LEVEL_2
 62
     7
100
AcDbVertex
100
AcDb2dVertex
 10
204.985248
 20
96.210837
 30
0.0
  0
VERTEX
  5
122
100
AcDbEntity
  8
CK_LEVEL_2
 62
     7
100
AcDbVertex
100
AcDb2dVertex
 10
206.106627
 20
96.210837
 30
0.0
  0
VERTEX
  5
123
100
AcDbEntity
  8
CK_LEVEL_2
 62
     7
100
AcDbVertex
100
AcDb2dVertex
 10
205.54611
 20
99.574284
 30
0.0
  0
SEQEND
  5
124
100
AcDbEntity
  8
CK_LEVEL_2
 62
     7
  0
HATCH
  5
11F
100
AcDbEntity
  8
CK_LEVEL_2
 62
     7
100
AcDbHatch
 10
0.0
 20
0.0
 30
0.0
210
0.0
220
0.0
230
1.0
  2
SOLID
 70
     1
 71
     0
 91
        1
 92
        3
 72
     0
 73
     1
 93
        3
 10
204.98524848090275
 20
96.210837131076374
 10
206.10662706163191
 20
96.210837131076374
 10
205.54611002604165
 20
99.574283854166652
 97
        0
 75
     2
 76
     1
 98
        1
 10
0.0
 20
0.0
  0
LINE
  5
11E
100
AcDbEntity
  8
CK_LEVEL_2
 62
     7
100
AcDbLine
 10
195.777542
 20
125.506551
 30
0.0
 11
207.655542
 21
125.506551
 31
0.0
  0
LINE
  5
11D
100
AcDbEntity
  8
CK_LEVEL_2
 62
     7
100
AcDbLine
 10
195.777542
 20
103.171997
 30
0.0
 11
207.655542
 21
103.171997
 31
0.0
  0
LINE
  5
11C
100
AcDbEntity
  8
CK_LEVEL_2
 62
     7
100
AcDbLine
 10
205.526128
 20
122.143449
 30
0.0
 11
205.526128
 21
119.439738
 31
0.0
  0
LINE
  5
11B
100
AcDbEntity
  8
CK_LEVEL_2
 62
     7
100
AcDbLine
 10
205.526128
 20
106.535099
 30
0.0
 11
205.526128
 21
109.23881
 31
0.0
  0
POLYLINE
  5
116
100
AcDbEntity
  8
CK_LEVEL_2
 62
     7
100
AcDb2dPolyline
 66
     1
 10
0.0
 20
0.0
 30
0.0
 70
     1
  0
VERTEX
  5
117
100
AcDbEntity
  8
CK_LEVEL_2
 62
     7
100
AcDbVertex
100
AcDb2dVertex
 10
204.965267
 20
122.143449
 30
0.0
  0
VERTEX
  5
118
100
AcDbEntity
  8
CK_LEVEL_2
 62
     7
100
AcDbVertex
100
AcDb2dVertex
 10
206.086301
 20
122.143449
 30
0.0
  0
VERTEX
  5
119
100
AcDbEntity
  8
CK_LEVEL_2
 62
     7
100
AcDbVertex
100
AcDb2dVertex
 10
205.526128
 20
125.506551
 30
0.0
  0
SEQEND
  5
11A
100
AcDbEntity
  8
CK_LEVEL_2
 62
     7
  0
HATCH
  5
115
100
AcDbEntity
  8
CK_LEVEL_2
 62
     7
100
AcDbHatch
 10
0.0
 20
0.0
 30
0.0
210
0.0
220
0.0
230
1.0
  2
SOLID
 70
     1
 71
     0
 91
        1
 92
        3
 72
     0
 73
     1
 93
        3
 10
204.96526692708332
 20
122.14344889322915
 10
206.08630099826388
 20
122.14344889322915
 10
205.52612847222221
 20
125.50655110677083
 97
        0
 75
     2
 76
     1
 98
        1
 10
0.0
 20
0.0
  0
POLYLINE
  5
110
100
AcDbEntity
  8
CK_LEVEL_2
 62
     7
100
AcDb2dPolyline
 66
     1
 10
0.0
 20
0.0
 30
0.0
 70
     1
  0
VERTEX
  5
111
100
AcDbEntity
  8
CK_LEVEL_2
 62
     7
100
AcDbVertex
100
AcDb2dVertex
 10
204.965267
 20
106.535099
 30
0.0
  0
VERTEX
  5
112
100
AcDbEntity
  8
CK_LEVEL_2
 62
     7
100
AcDbVertex
100
AcDb2dVertex
 10
206.086301
 20
106.535099
 30
0.0
  0
VERTEX
  5
113
100
AcDbEntity
  8
CK_LEVEL_2
 62
     7
100
AcDbVertex
100
AcDb2dVertex
 10
205.526128
 20
103.171997
 30
0.0
  0
SEQEND
  5
114
100
AcDbEntity
  8
CK_LEVEL_2
 62
     7
  0
HATCH
  5
10F
100
AcDbEntity
  8
CK_LEVEL_2
 62
     7
100
AcDbHatch
 10
0.0
 20
0.0
 30
0.0
210
0.0
220
0.0
230
1.0
  2
SOLID
 70
     1
 71
     0
 91
        1
 92
        3
 72
     0
 73
     1
 93
        3
 10
204.96526692708332
 20
106.53509928385415
 10
206.08630099826388
 20
106.53509928385415
 10
205.52612847222221
 20
103.17199707031249
 97
        0
 75
     2
 76
     1
 98
        1
 10
0.0
 20
0.0
  0
LINE
  5
10E
100
AcDbEntity
  8
CK_LEVEL_2
 62
     7
100
AcDbLine
 10
195.777542
 20
149.266858
 30
0.0
 11
207.437812
 21
149.266858
 31
0.0
  0
LINE
  5
10D
100
AcDbEntity
  8
CK_LEVEL_2
 62
     7
100
AcDbLine
 10
195.777542
 20
167.080241
 30
0.0
 11
207.437812
 21
167.080241
 31
0.0
  0
LINE
  5
10C
100
AcDbEntity
  8
CK_LEVEL_2
 62
     7
100
AcDbLine
 10
205.526128
 20
152.630305
 30
0.0
 11
205.526128
 21
163.717139
 31
0.0
  0
POLYLINE
  5
107
100
AcDbEntity
  8
CK_LEVEL_2
 62
     7
100
AcDb2dPolyline
 66
     1
 10
0.0
 20
0.0
 30
0.0
 70
     1
  0
VERTEX
  5
108
100
AcDbEntity
  8
CK_LEVEL_2
 62
     7
100
AcDbVertex
100
AcDb2dVertex
 10
204.965267
 20
152.630305
 30
0.0
  0
VERTEX
  5
109
100
AcDbEntity
  8
CK_LEVEL_2
 62
     7
100
AcDbVertex
100
AcDb2dVertex
 10
206.086301
 20
152.630305
 30
0.0
  0
VERTEX
  5
10A
100
AcDbEntity
  8
CK_LEVEL_2
 62
     7
100
AcDbVertex
100
AcDb2dVertex
 10
205.526128
 20
149.266858
 30
0.0
  0
SEQEND
  5
10B
100
AcDbEntity
  8
CK_LEVEL_2
 62
     7
  0
HATCH
  5
106
100
AcDbEntity
  8
CK_LEVEL_2
 62
     7
100
AcDbHatch
 10
0.0
 20
0.0
 30
0.0
210
0.0
220
0.0
230
1.0
  2
SOLID
 70
     1
 71
     0
 91
        1
 92
        3
 72
     0
 73
     1
 93
        3
 10
204.96526692708332
 20
152.63030463324651
 10
206.08630099826388
 20
152.63030463324651
 10
205.52612847222221
 20
149.26685791015623
 97
        0
 75
     2
 76
     1
 98
        1
 10
0.0
 20
0.0
  0
POLYLINE
  5
101
100
AcDbEntity
  8
CK_LEVEL_2
 62
     7
100
AcDb2dPolyline
 66
     1
 10
0.0
 20
0.0
 30
0.0
 70
     1
  0
VERTEX
  5
102
100
AcDbEntity
  8
CK_LEVEL_2
 62
     7
100
AcDbVertex
100
AcDb2dVertex
 10
204.965267
 20
163.717139
 30
0.0
  0
VERTEX
  5
103
100
AcDbEntity
  8
CK_LEVEL_2
 62
     7
100
AcDbVertex
100
AcDb2dVertex
 10
206.086301
 20
163.717139
 30
0.0
  0
VERTEX
  5
104
100
AcDbEntity
  8
CK_LEVEL_2
 62
     7
100
AcDbVertex
100
AcDb2dVertex
 10
205.526128
 20
167.080241
 30
0.0
  0
SEQEND
  5
105
100
AcDbEntity
  8
CK_LEVEL_2
 62
     7
  0
HATCH
  5
100
100
AcDbEntity
  8
CK_LEVEL_2
 62
     7
100
AcDbHatch
 10
0.0
 20
0.0
 30
0.0
210
0.0
220
0.0
230
1.0
  2
SOLID
 70
     1
 71
     0
 91
        1
 92
        3
 72
     0
 73
     1
 93
        3
 10
204.96526692708332
 20
163.71713867187498
 10
206.08630099826388
 20
163.71713867187498
 10
205.52612847222221
 20
167.08024088541666
 97
        0
 75
     2
 76
     1
 98
        1
 10
0.0
 20
0.0
  0
LINE
  5
FF
100
AcDbEntity
  8
CK_LEVEL_2
 62
     7
100
AcDbLine
 10
205.526128
 20
167.080241
 30
0.0
 11
205.526128
 21
171.780385
 31
0.0
  0
POLYLINE
  5
FA
100
AcDbEntity
  8
CK_LEVEL_2
 62
     7
100
AcDb2dPolyline
 66
     1
 10
0.0
 20
0.0
 30
0.0
 70
     1
  0
VERTEX
  5
FB
100
AcDbEntity
  8
CK_LEVEL_2
 62
     7
100
AcDbVertex
100
AcDb2dVertex
 10
73.871804
 20
113.747062
 30
0.0
  0
VERTEX
  5
FC
100
AcDbEntity
  8
CK_LEVEL_2
 62
     7
100
AcDbVertex
100
AcDb2dVertex
 10
70.965522
 20
111.962847
 30
0.0
  0
VERTEX
  5
FD
100
AcDbEntity
  8
CK_LEVEL_2
 62
     7
100
AcDbVertex
100
AcDb2dVertex
 10
73.136104
 20
114.592833
 30
0.0
  0
SEQEND
  5
FE
100
AcDbEntity
  8
CK_LEVEL_2
 62
     7
  0
HATCH
  5
F9
100
AcDbEntity
  8
CK_LEVEL_2
 62
     7
100
AcDbHatch
 10
0.0
 20
0.0
 30
0.0
210
0.0
220
0.0
230
1.0
  2
SOLID
 70
     1
 71
     0
 91
        1
 92
        3
 72
     0
 73
     1
 93
        3
 10
73.871804470486111
 20
113.74706217447915
 10
70.965521918402771
 20
111.96284722222221
 10
73.13610432942707
 20
114.59283311631944
 97
        0
 75
     2
 76
     1
 98
        1
 10
0.0
 20
0.0
  0
LINE
  5
F8
100
AcDbEntity
  8
CK_LEVEL_2
 62
     7
100
AcDbLine
 10
73.503868
 20
114.169775
 30
0.0
 11
111.143604
 21
146.890948
 31
0.0
  0
POLYLINE
  5
F3
100
AcDbEntity
  8
CK_LEVEL_2
 62
     7
100
AcDb2dPolyline
 66
     1
 10
0.0
 20
0.0
 30
0.0
 70
     1
  0
VERTEX
  5
F4
100
AcDbEntity
  8
CK_LEVEL_2
 62
     7
100
AcDbVertex
100
AcDb2dVertex
 10
71.193759
 20
118.413444
 30
0.0
  0
VERTEX
  5
F5
100
AcDbEntity
  8
CK_LEVEL_2
 62
     7
100
AcDbVertex
100
AcDb2dVertex
 10
68.112811
 20
116.952724
 30
0.0
  0
VERTEX
  5
F6
100
AcDbEntity
  8
CK_LEVEL_2
 62
     7
100
AcDbVertex
100
AcDb2dVertex
 10
70.553488
 20
119.333974
 30
0.0
  0
SEQEND
  5
F7
100
AcDbEntity
  8
CK_LEVEL_2
 62
     7
  0
HATCH
  5
F2
100
AcDbEntity
  8
CK_LEVEL_2
 62
     7
100
AcDbHatch
 10
0.0
 20
0.0
 30
0.0
210
0.0
220
0.0
230
1.0
  2
SOLID
 70
     1
 71
     0
 91
        1
 92
        3
 72
     0
 73
     1
 93
        3
 10
71.193759494357636
 20
118.41344401041665
 10
68.112810601128473
 20
116.95272352430554
 10
70.553488498263889
 20
119.33397352430555
 97
        0
 75
     2
 76
     1
 98
        1
 10
0.0
 20
0.0
  0
POLYLINE
  5
ED
100
AcDbEntity
  8
CK_LEVEL_2
 62
     7
100
AcDb2dPolyline
 66
     1
 10
0.0
 20
0.0
 30
0.0
  0
VERTEX
  5
EE
100
AcDbEntity
  8
CK_LEVEL_2
 62
     7
100
AcDbVertex
100
AcDb2dVertex
 10
70.873538
 20
118.873709
 30
0.0
  0
VERTEX
  5
EF
100
AcDbEntity
  8
CK_LEVEL_2
 62
     7
100
AcDbVertex
100
AcDb2dVertex
 10
111.143604
 20
146.890948
 30
0.0
  0
VERTEX
  5
F0
100
AcDbEntity
  8
CK_LEVEL_2
 62
     7
100
AcDbVertex
100
AcDb2dVertex
 10
114.471566
 20
146.890948
 30
0.0
  0
SEQEND
  5
F1
100
AcDbEntity
  8
CK_LEVEL_2
 62
     7
  0
LINE
  5
EC
100
AcDbEntity
  8
CK_LEVEL_2
 62
     7
100
AcDbLine
 10
105.964247
 20
145.14394
 30
0.0
 11
105.964247
 21
199.63846
 31
0.0
  0
LINE
  5
EB
100
AcDbEntity
  8
CK_LEVEL_2
 62
     7
100
AcDbLine
 10
30.012466
 20
145.116379
 30
0.0
 11
30.012466
 21
199.63846
 31
0.0
  0
LINE
  5
EA
100
AcDbEntity
  8
CK_LEVEL_2
 62
     7
100
AcDbLine
 10
102.600972
 20
197.72626
 30
0.0
 11
77.027684
 21
197.72626
 31
0.0
  0
LINE
  5
E9
100
AcDbEntity
  8
CK_LEVEL_2
 62
     7
100
AcDbLine
 10
33.375741
 20
197.72626
 30
0.0
 11
58.949201
 21
197.72626
 31
0.0
  0
POLYLINE
  5
E4
100
AcDbEntity
  8
CK_LEVEL_2
 62
     7
100
AcDb2dPolyline
 66
     1
 10
0.0
 20
0.0
 30
0.0
 70
     1
  0
VERTEX
  5
E5
100
AcDbEntity
  8
CK_LEVEL_2
 62
     7
100
AcDbVertex
100
AcDb2dVertex
 10
102.600972
 20
198.286949
 30
0.0
  0
VERTEX
  5
E6
100
AcDbEntity
  8
CK_LEVEL_2
 62
     7
100
AcDbVertex
100
AcDb2dVertex
 10
102.600972
 20
197.165571
 30
0.0
  0
VERTEX
  5
E7
100
AcDbEntity
  8
CK_LEVEL_2
 62
     7
100
AcDbVertex
100
AcDb2dVertex
 10
105.964247
 20
197.72626
 30
0.0
  0
SEQEND
  5
E8
100
AcDbEntity
  8
CK_LEVEL_2
 62
     7
  0
HATCH
  5
E3
100
AcDbEntity
  8
CK_LEVEL_2
 62
     7
100
AcDbHatch
 10
0.0
 20
0.0
 30
0.0
210
0.0
220
0.0
230
1.0
  2
SOLID
 70
     1
 71
     0
 91
        1
 92
        3
 72
     0
 73
     1
 93
        3
 10
102.60097249348958
 20
198.28694932725693
 10
102.60097249348958
 20
197.16557074652775
 10
105.96424696180554
 20
197.72626003689234
 97
        0
 75
     2
 76
     1
 98
        1
 10
0.0
 20
0.0
  0
POLYLINE
  5
DE
100
AcDbEntity
  8
CK_LEVEL_2
 62
     7
100
AcDb2dPolyline
 66
     1
 10
0.0
 20
0.0
 30
0.0
 70
     1
  0
VERTEX
  5
DF
100
AcDbEntity
  8
CK_LEVEL_2
 62
     7
100
AcDbVertex
100
AcDb2dVertex
 10
33.375741
 20
198.286949
 30
0.0
  0
VERTEX
  5
E0
100
AcDbEntity
  8
CK_LEVEL_2
 62
     7
100
AcDbVertex
100
AcDb2dVertex
 10
33.375741
 20
197.165571
 30
0.0
  0
VERTEX
  5
E1
100
AcDbEntity
  8
CK_LEVEL_2
 62
     7
100
AcDbVertex
100
AcDb2dVertex
 10
30.012466
 20
197.72626
 30
0.0
  0
SEQEND
  5
E2
100
AcDbEntity
  8
CK_LEVEL_2
 62
     7
  0
HATCH
  5
DD
100
AcDbEntity
  8
CK_LEVEL_2
 62
     7
100
AcDbHatch
 10
0.0
 20
0.0
 30
0.0
210
0.0
220
0.0
230
1.0
  2
SOLID
 70
     1
 71
     0
 91
        1
 92
        3
 72
     0
 73
     1
 93
        3
 10
33.375740559895831
 20
198.28694932725693
 10
33.375740559895831
 20
197.16557074652775
 10
30.01246609157986
 20
197.72626003689234
 97
        0
 75
     2
 76
     1
 98
        1
 10
0.0
 20
0.0
  0
MTEXT
  5
DC
100
AcDbEntity
  8
CK_LEVEL_2
 62
     7
100
AcDbMText
 10
63.752698
 20
199.479699
 30
0.0
 40
3.674768
 41
0.0
 71
     1
 72
     2
  1
\fArial|b0|i0;\H3.6748;\C7;\U+0032\U+0037\U+0030
  7
STD
210
0.0
220
0.0
230
1.0
 73
     1
 44
1.0
  0
LINE
  5
DB
100
AcDbEntity
  8
CK_LEVEL_2
 62
     7
100
AcDbLine
 10
60.473484
 20
176.001316
 30
0.0
 11
4.863958
 21
176.001316
 31
0.0
  0
LINE
  5
DA
100
AcDbEntity
  8
CK_LEVEL_2
 62
     7
100
AcDbLine
 10
47.771761
 20
100.049363
 30
0.0
 11
4.863958
 21
100.049363
 31
0.0
  0
LINE
  5
D9
100
AcDbEntity
  8
CK_LEVEL_2
 62
     7
100
AcDbLine
 10
6.776158
 20
172.638041
 30
0.0
 11
6.776158
 21
143.125803
 31
0.0
  0
LINE
  5
D8
100
AcDbEntity
  8
CK_LEVEL_2
 62
     7
100
AcDbLine
 10
6.776158
 20
103.412809
 30
0.0
 11
6.776158
 21
132.92522
 31
0.0
  0
POLYLINE
  5
D3
100
AcDbEntity
  8
CK_LEVEL_2
 62
     7
100
AcDb2dPolyline
 66
     1
 10
0.0
 20
0.0
 30
0.0
 70
     1
  0
VERTEX
  5
D4
100
AcDbEntity
  8
CK_LEVEL_2
 62
     7
100
AcDbVertex
100
AcDb2dVertex
 10
6.215469
 20
172.638041
 30
0.0
  0
VERTEX
  5
D5
100
AcDbEntity
  8
CK_LEVEL_2
 62
     7
100
AcDbVertex
100
AcDb2dVertex
 10
7.336675
 20
172.638041
 30
0.0
  0
VERTEX
  5
D6
100
AcDbEntity
  8
CK_LEVEL_2
 62
     7
100
AcDbVertex
100
AcDb2dVertex
 10
6.776158
 20
176.001316
 30
0.0
  0
SEQEND
  5
D7
100
AcDbEntity
  8
CK_LEVEL_2
 62
     7
  0
HATCH
  5
D2
100
AcDbEntity
  8
CK_LEVEL_2
 62
     7
100
AcDbHatch
 10
0.0
 20
0.0
 30
0.0
210
0.0
220
0.0
230
1.0
  2
SOLID
 70
     1
 71
     0
 91
        1
 92
        3
 72
     0
 73
     1
 93
        3
 10
6.2154690212673609
 20
172.63804117838541
 10
7.3366753472222213
 20
172.63804117838541
 10
6.7761583116319439
 20
176.00131564670139
 97
        0
 75
     2
 76
     1
 98
        1
 10
0.0
 20
0.0
  0
POLYLINE
  5
CD
100
AcDbEntity
  8
CK_LEVEL_2
 62
     7
100
AcDb2dPolyline
 66
     1
 10
0.0
 20
0.0
 30
0.0
 70
     1
  0
VERTEX
  5
CE
100
AcDbEntity
  8
CK_LEVEL_2
 62
     7
100
AcDbVertex
100
AcDb2dVertex
 10
6.215469
 20
103.412809
 30
0.0
  0
VERTEX
  5
CF
100
AcDbEntity
  8
CK_LEVEL_2
 62
     7
100
AcDbVertex
100
AcDb2dVertex
 10
7.336675
 20
103.412809
 30
0.0
  0
VERTEX
  5
D0
100
AcDbEntity
  8
CK_LEVEL_2
 62
     7
100
AcDbVertex
100
AcDb2dVertex
 10
6.776158
 20
100.049363
 30
0.0
  0
SEQEND
  5
D1
100
AcDbEntity
  8
CK_LEVEL_2
 62
     7
  0
HATCH
  5
CC
100
AcDbEntity
  8
CK_LEVEL_2
 62
     7
100
AcDbHatch
 10
0.0
 20
0.0
 30
0.0
210
0.0
220
0.0
230
1.0
  2
SOLID
 70
     1
 71
     0
 91
        1
 92
        3
 72
     0
 73
     1
 93
        3
 10
6.2154690212673609
 20
103.41280924479166
 10
7.3366753472222213
 20
103.41280924479166
 10
6.7761583116319439
 20
100.04936252170138
 97
        0
 75
     2
 76
     1
 98
        1
 10
0.0
 20
0.0
  0
MTEXT
  5
CB
100
AcDbEntity
  8
CK_LEVEL_2
 62
     7
100
AcDbMText
 10
2.305286
 20
139.778778
 30
0.0
 40
3.674768
 41
0.0
 71
     1
 72
     2
  1
\fArial|b0|i0;\H3.6748;\C7;\U+0032\U+0037\U+0030
  7
STD
210
0.0
220
0.0
230
1.0
 73
     1
 44
1.0
  0
MTEXT
  5
CA
100
AcDbEntity
  8
CK_LEVEL_2
 62
     7
100
AcDbMText
 10
64.562812
 20
93.275845
 30
0.0
 40
3.674768
 41
0.0
 71
     1
 72
     2
  1
\fArial|b0|i0;\H3.6748;\C7;\U+0038\U+0036
  7
STD
210
0.0
220
0.0
230
1.0
 73
     1
 44
1.0
  0
LINE
  5
C9
100
AcDbEntity
  8
CK_LEVEL_2
 62
     7
100
AcDbLine
 10
66.403699
 20
137.642244
 30
0.0
 11
69.546143
 21
137.642244
 31
0.0
  0
LINE
  5
C8
100
AcDbEntity
  8
CK_LEVEL_2
 62
     7
100
AcDbLine
 10
69.546143
 20
137.642244
 30
0.0
 11
69.546143
 21
138.391553
 31
0.0
  0
LINE
  5
C7
100
AcDbEntity
  8
CK_LEVEL_2
 62
     7
100
AcDbLine
 10
69.546143
 20
138.391553
 30
0.0
 11
66.403699
 21
138.391553
 31
0.0
  0
LINE
  5
C6
100
AcDbEntity
  8
CK_LEVEL_2
 62
     7
100
AcDbLine
 10
66.403699
 20
138.391553
 30
0.0
 11
66.403699
 21
137.642244
 31
0.0
  0
POLYLINE
  5
C1
100
AcDbEntity
  8
CK_LEVEL_2
 62
     7
100
AcDb2dPolyline
 66
     1
 10
0.0
 20
0.0
 30
0.0
 70
     1
  0
VERTEX
  5
C2
100
AcDbEntity
  8
CK_LEVEL_2
 62
     7
100
AcDbVertex
100
AcDb2dVertex
 10
58.016097
 20
163.267554
 30
0.0
  0
VERTEX
  5
C3
100
AcDbEntity
  8
CK_LEVEL_2
 62
     7
100
AcDbVertex
100
AcDb2dVertex
 10
58.840853
 20
159.959056
 30
0.0
  0
VERTEX
  5
C4
100
AcDbEntity
  8
CK_LEVEL_2
 62
     7
100
AcDbVertex
100
AcDb2dVertex
 10
56.987736
 20
162.821242
 30
0.0
  0
SEQEND
  5
C5
100
AcDbEntity
  8
CK_LEVEL_2
 62
     7
  0
HATCH
  5
C0
100
AcDbEntity
  8
CK_LEVEL_2
 62
     7
100
AcDbHatch
 10
0.0
 20
0.0
 30
0.0
210
0.0
220
0.0
230
1.0
  2
SOLID
 70
     1
 71
     0
 91
        1
 92
        3
 72
     0
 73
     1
 93
        3
 10
58.01609700520833
 20
163.26755371093748
 10
58.840852864583326
 20
159.95905626085067
 10
56.987736002604159
 20
162.82124159071179
 97
        0
 75
     2
 76
     1
 98
        1
 10
0.0
 20
0.0
  0
POLYLINE
  5
BB
100
AcDbEntity
  8
CK_LEVEL_2
 62
     7
100
AcDb2dPolyline
 66
     1
 10
0.0
 20
0.0
 30
0.0
  0
VERTEX
  5
BC
100
AcDbEntity
  8
CK_LEVEL_2
 62
     7
100
AcDbVertex
100
AcDb2dVertex
 10
57.501744
 20
163.044312
 30
0.0
  0
VERTEX
  5
BD
100
AcDbEntity
  8
CK_LEVEL_2
 62
     7
100
AcDbVertex
100
AcDb2dVertex
 10
36.255668
 20
211.994295
 30
0.0
  0
VERTEX
  5
BE
100
AcDbEntity
  8
CK_LEVEL_2
 62
     7
100
AcDbVertex
100
AcDb2dVertex
 10
33.402957
 20
211.994295
 30
0.0
  0
SEQEND
  5
BF
100
AcDbEntity
  8
CK_LEVEL_2
 62
     7
  0
MTEXT
  5
BA
100
AcDbEntity
  8
CK_LEVEL_2
 62
     7
100
AcDbMText
 10
13.664282
 20
117.807534
 30
0.0
 40
2.099868
 41
0.0
 71
     1
 72
     2
  1
\fArial|b0|i0;\H2.0999;\C7;\U+0054\U+0055\U+004D\U+0042\U+004C\U+0045\U+0052
  7
STD
210
0.0
220
0.0
230
1.0
 73
     1
 44
1.0
  0
MTEXT
  5
B9
100
AcDbEntity
  8
CK_LEVEL_2
 62
     7
100
AcDbMText
 10
9.901204
 20
115.061104
 30
0.0
 40
2.099868
 41
0.0
 71
     1
 72
     2
  1
\fArial|b0|i0;\H2.0999;\C7;\U+004C\U+004F\U+0043\U+004B\U+0020\U+0026
  7
STD
210
0.0
220
0.0
230
1.0
 73
     1
 44
1.0
  0
MTEXT
  5
B8
100
AcDbEntity
  8
CK_LEVEL_2
 62
     7
100
AcDbMText
 10
21.190266
 20
114.901596
 30
0.0
 40
2.099868
 41
0.0
 71
     1
 72
     2
  1
\fArial|b0|i0;\H2.0999;\C7;\U+004B\U+0045\U+0059
  7
STD
210
0.0
220
0.0
230
1.0
 73
     1
 44
1.0
  0
MTEXT
  5
B7
100
AcDbEntity
  8
CK_LEVEL_2
 62
     7
100
AcDbMText
 10
6.481947
 20
214.058162
 30
0.0
 40
2.099868
 41
0.0
 71
     1
 72
     2
  1
\fArial|b0|i0;\H2.0999;\C7;\U+0023\U+0020\U+0031\U+0036\U+0020\U+0047\U+0041\U+0055\U+0047\U+0045\U+0020\U+0053\U+0054\U+0045\U+0045\U+004C\U+0020
  7
STD
210
0.0
220
0.0
230
1.0
 73
     1
 44
1.0
  0
MTEXT
  5
B6
100
AcDbEntity
  8
CK_LEVEL_2
 62
     7
100
AcDbMText
 10
10.71528
 20
210.841304
 30
0.0
 40
2.099868
 41
0.0
 71
     1
 72
     2
  1
\fArial|b0|i0;\H2.0999;\C7;\U+0050\U+0041\U+0049\U+004E\U+0054\U+0045\U+0044\U+0020\U+0057\U+0048\U+0049\U+0054\U+0045
  7
STD
210
0.0
220
0.0
230
1.0
 73
     1
 44
1.0
  0
MTEXT
  5
B5
100
AcDbEntity
  8
CK_LEVEL_2
 62
     7
100
AcDbMText
 10
3.424597
 20
207.859746
 30
0.0
 40
2.099868
 41
0.0
 71
     1
 72
     2
  1
\fArial|b0|i0;\H2.0999;\C7;\U+0057\U+0049\U+0054\U+0048\U+0020\U+0046\U+0049\U+0058\U+0045\U+0044
  7
STD
210
0.0
220
0.0
230
1.0
 73
     1
 44
1.0
  0
MTEXT
  5
B4
100
AcDbEntity
  8
CK_LEVEL_2
 62
     7
100
AcDbMText
 10
20.593058
 20
207.935366
 30
0.0
 40
2.099868
 41
0.0
 71
     1
 72
     2
  1
\fArial|b0|i0;\H2.0999;\C7;\U+0053\U+0050\U+0049\U+004E\U+0044\U+004C\U+0045\U+0020
  7
STD
210
0.0
220
0.0
230
1.0
 73
     1
 44
1.0
  0
POLYLINE
  5
AF
100
AcDbEntity
  8
CK_LEVEL_2
 62
     7
100
AcDb2dPolyline
 66
     1
 10
0.0
 20
0.0
 30
0.0
 70
     1
  0
VERTEX
  5
B0
100
AcDbEntity
  8
CK_LEVEL_2
 62
     7
100
AcDbVertex
100
AcDb2dVertex
 10
70.4665
 20
153.30072
 30
0.0
  0
VERTEX
  5
B1
100
AcDbEntity
  8
CK_LEVEL_2
 62
     7
100
AcDbVertex
100
AcDb2dVertex
 10
68.588234
 20
150.454899
 30
0.0
  0
VERTEX
  5
B2
100
AcDbEntity
  8
CK_LEVEL_2
 62
     7
100
AcDbVertex
100
AcDb2dVertex
 10
69.441756
 20
153.756162
 30
0.0
  0
SEQEND
  5
B3
100
AcDbEntity
  8
CK_LEVEL_2
 62
     7
  0
HATCH
  5
AE
100
AcDbEntity
  8
CK_LEVEL_2
 62
     7
100
AcDbHatch
 10
0.0
 20
0.0
 30
0.0
210
0.0
220
0.0
230
1.0
  2
SOLID
 70
     1
 71
     0
 91
        1
 92
        3
 72
     0
 73
     1
 93
        3
 10
70.466499837239581
 20
153.30072021484375
 10
68.588233778211801
 20
150.45489908854165
 10
69.441756184895823
 20
153.75616183810763
 97
        0
 75
     2
 76
     1
 98
        1
 10
0.0
 20
0.0
  0
LINE
  5
AD
100
AcDbEntity
  8
CK_LEVEL_2
 62
     7
100
AcDbLine
 10
69.954214
 20
153.528269
 30
0.0
 11
93.079762
 21
205.564197
 31
0.0
  0
LINE
  5
AC
100
AcDbEntity
  8
CK_LEVEL_2
  6
AI9-LType1
 62
     7
100
AcDbLine
 10
67.040869
 20
174.281696
 30
0.0
 11
68.98442
 21
174.281696
 31
0.0
  0
LINE
  5
AB
100
AcDbEntity
  8
CK_LEVEL_2
  6
AI9-LType1
 62
     7
100
AcDbLine
 10
68.98442
 20
174.281696
 30
0.0
 11
68.98442
 21
174.702342
 31
0.0
  0
LINE
  5
AA
100
AcDbEntity
  8
CK_LEVEL_2
  6
AI9-LType1
 62
     7
100
AcDbLine
 10
68.98442
 20
174.702342
 30
0.0
 11
67.040869
 21
174.702342
 31
0.0
  0
LINE
  5
A9
100
AcDbEntity
  8
CK_LEVEL_2
  6
AI9-LType1
 62
     7
100
AcDbLine
 10
67.040869
 20
174.702342
 30
0.0
 11
67.040869
 21
174.281696
 31
0.0
  0
LINE
  5
A8
100
AcDbEntity
  8
CK_LEVEL_2
 62
     7
100
AcDbLine
 10
195.777542
 20
125.506551
 30
0.0
 11
207.437812
 21
125.506551
 31
0.0
  0
LINE
  5
A7
100
AcDbEntity
  8
CK_LEVEL_2
 62
     7
100
AcDbLine
 10
195.777542
 20
149.266858
 30
0.0
 11
207.437812
 21
149.266858
 31
0.0
  0
LINE
  5
A6
100
AcDbEntity
  8
CK_LEVEL_2
 62
     7
100
AcDbLine
 10
205.526128
 20
128.869653
 30
0.0
 11
205.526128
 21
132.286155
 31
0.0
  0
LINE
  5
A5
100
AcDbEntity
  8
CK_LEVEL_2
 62
     7
100
AcDbLine
 10
205.526128
 20
145.903583
 30
0.0
 11
205.526128
 21
142.487082
 31
0.0
  0
POLYLINE
  5
A0
100
AcDbEntity
  8
CK_LEVEL_2
 62
     7
100
AcDb2dPolyline
 66
     1
 10
0.0
 20
0.0
 30
0.0
 70
     1
  0
VERTEX
  5
A1
100
AcDbEntity
  8
CK_LEVEL_2
 62
     7
100
AcDbVertex
100
AcDb2dVertex
 10
204.965267
 20
128.869653
 30
0.0
  0
VERTEX
  5
A2
100
AcDbEntity
  8
CK_LEVEL_2
 62
     7
100
AcDbVertex
100
AcDb2dVertex
 10
206.086301
 20
128.869653
 30
0.0
  0
VERTEX
  5
A3
100
AcDbEntity
  8
CK_LEVEL_2
 62
     7
100
AcDbVertex
100
AcDb2dVertex
 10
205.526128
 20
125.506551
 30
0.0
  0
SEQEND
  5
A4
100
AcDbEntity
  8
CK_LEVEL_2
 62
     7
  0
HATCH
  5
9F
100
AcDbEntity
  8
CK_LEVEL_2
 62
     7
100
AcDbHatch
 10
0.0
 20
0.0
 30
0.0
210
0.0
220
0.0
230
1.0
  2
SOLID
 70
     1
 71
     0
 91
        1
 92
        3
 72
     0
 73
     1
 93
        3
 10
204.96526692708332
 20
128.86965332031249
 10
206.08630099826388
 20
128.86965332031249
 10
205.52612847222221
 20
125.50655110677083
 97
        0
 75
     2
 76
     1
 98
        1
 10
0.0
 20
0.0
  0
POLYLINE
  5
9A
100
AcDbEntity
  8
CK_LEVEL_2
 62
     7
100
AcDb2dPolyline
 66
     1
 10
0.0
 20
0.0
 30
0.0
 70
     1
  0
VERTEX
  5
9B
100
AcDbEntity
  8
CK_LEVEL_2
 62
     7
100
AcDbVertex
100
AcDb2dVertex
 10
204.965267
 20
145.903583
 30
0.0
  0
VERTEX
  5
9C
100
AcDbEntity
  8
CK_LEVEL_2
 62
     7
100
AcDbVertex
100
AcDb2dVertex
 10
206.086301
 20
145.903583
 30
0.0
  0
VERTEX
  5
9D
100
AcDbEntity
  8
CK_LEVEL_2
 62
     7
100
AcDbVertex
100
AcDb2dVertex
 10
205.526128
 20
149.266858
 30
0.0
  0
SEQEND
  5
9E
100
AcDbEntity
  8
CK_LEVEL_2
 62
     7
  0
HATCH
  5
99
100
AcDbEntity
  8
CK_LEVEL_2
 62
     7
100
AcDbHatch
 10
0.0
 20
0.0
 30
0.0
210
0.0
220
0.0
230
1.0
  2
SOLID
 70
     1
 71
     0
 91
        1
 92
        3
 72
     0
 73
     1
 93
        3
 10
204.96526692708332
 20
145.90358344184025
 10
206.08630099826388
 20
145.90358344184025
 10
205.52612847222221
 20
149.26685791015623
 97
        0
 75
     2
 76
     1
 98
        1
 10
0.0
 20
0.0
  0
MTEXT
  5
98
100
AcDbEntity
  8
CK_LEVEL_2
 62
     7
100
AcDbMText
 10
202.665321
 20
139.375701
 30
0.0
 40
3.674768
 41
0.0
 71
     1
 72
     2
  1
\fArial|b0|i0;\H3.6748;\C7;\U+0038\U+0036
  7
STD
210
0.0
220
0.0
230
1.0
 73
     1
 44
1.0
  0
MTEXT
  5
97
100
AcDbEntity
  8
CK_LEVEL_2
 62
     7
100
AcDbMText
 10
115.429991
 20
148.717275
 30
0.0
 40
2.099868
 41
0.0
 71
     1
 72
     2
  1
\fArial|b0|i0;\H2.0999;\C7;\U+0056\U+0049\U+0045\U+0057\U+0049\U+004E\U+0047
  7
STD
210
0.0
220
0.0
230
1.0
 73
     1
 44
1.0
  0
MTEXT
  5
96
100
AcDbEntity
  8
CK_LEVEL_2
 62
     7
100
AcDbMText
 10
115.429991
 20
145.9705
 30
0.0
 40
2.099868
 41
0.0
 71
     1
 72
     2
  1
\fArial|b0|i0;\H2.0999;\C7;\U+0053\U+004C\U+004F\U+0054\U+0020\U+0057\U+0049\U+0054\U+0048
  7
STD
210
0.0
220
0.0
230
1.0
 73
     1
 44
1.0
  0
MTEXT
  5
95
100
AcDbEntity
  8
CK_LEVEL_2
 62
     7
100
AcDbMText
 10
114.959391
 20
143.224415
 30
0.0
 40
2.099868
 41
0.0
 71
     1
 72
     2
  1
\fArial|b0|i0;\H2.0999;\C7;\U+0043\U+004C\U+0045\U+0041\U+0052
  7
STD
210
0.0
220
0.0
230
1.0
 73
     1
 44
1.0
  0
MTEXT
  5
94
100
AcDbEntity
  8
CK_LEVEL_2
 62
     7
100
AcDbMText
 10
125.307769
 20
143.064907
 30
0.0
 40
2.099868
 41
0.0
 71
     1
 72
     2
  1
\fArial|b0|i0;\H2.0999;\C7;\U+0050\U+004C\U+0041\U+0053\U+0054\U+0049\U+0043
  7
STD
210
0.0
220
0.0
230
1.0
 73
     1
 44
1.0
  0
POLYLINE
  5
8F
100
AcDbEntity
  8
CK_LEVEL_2
 62
     7
100
AcDb2dPolyline
 66
     1
 10
0.0
 20
0.0
 30
0.0
 70
     1
  0
VERTEX
  5
90
100
AcDbEntity
  8
CK_LEVEL_2
 62
     7
100
AcDbVertex
100
AcDb2dVertex
 10
169.037055
 20
103.835522
 30
0.0
  0
VERTEX
  5
91
100
AcDbEntity
  8
CK_LEVEL_2
 62
     7
100
AcDbVertex
100
AcDb2dVertex
 10
171.529237
 20
101.508705
 30
0.0
  0
VERTEX
  5
92
100
AcDbEntity
  8
CK_LEVEL_2
 62
     7
100
AcDbVertex
100
AcDb2dVertex
 10
168.416938
 20
102.901557
 30
0.0
  0
SEQEND
  5
93
100
AcDbEntity
  8
CK_LEVEL_2
 62
     7
  0
HATCH
  5
8E
100
AcDbEntity
  8
CK_LEVEL_2
 62
     7
100
AcDbHatch
 10
0.0
 20
0.0
 30
0.0
210
0.0
220
0.0
230
1.0
  2
SOLID
 70
     1
 71
     0
 91
        1
 92
        3
 72
     0
 73
     1
 93
        3
 10
169.03705512152777
 20
103.8355224609375
 10
171.52923719618053
 20
101.50870496961805
 10
168.41693793402777
 20
102.90155707465277
 97
        0
 75
     2
 76
     1
 98
        1
 10
0.0
 20
0.0
  0
POLYLINE
  5
89
100
AcDbEntity
  8
CK_LEVEL_2
 62
     7
100
AcDb2dPolyline
 66
     1
 10
0.0
 20
0.0
 30
0.0
  0
VERTEX
  5
8A
100
AcDbEntity
  8
CK_LEVEL_2
 62
     7
100
AcDbVertex
100
AcDb2dVertex
 10
168.726997
 20
103.368712
 30
0.0
  0
VERTEX
  5
8B
100
AcDbEntity
  8
CK_LEVEL_2
 62
     7
100
AcDbVertex
100
AcDb2dVertex
 10
141.098364
 20
121.704888
 30
0.0
  0
VERTEX
  5
8C
100
AcDbEntity
  8
CK_LEVEL_2
 62
     7
100
AcDbVertex
100
AcDb2dVertex
 10
136.343788
 20
121.704888
 30
0.0
  0
SEQEND
  5
8D
100
AcDbEntity
  8
CK_LEVEL_2
 62
     7
  0
MTEXT
  5
88
100
AcDbEntity
  8
CK_LEVEL_2
 62
     7
100
AcDbMText
 10
118.252214
 20
123.766515
 30
0.0
 40
2.099868
 41
0.0
 71
     1
 72
     2
  1
\fArial|b0|i0;\H2.0999;\C7;\U+0044\U+0049\U+0045\U+0020\U+0046\U+004F\U+0052\U+004D\U+0045\U+0044
  7
STD
210
0.0
220
0.0
230
1.0
 73
     1
 44
1.0
  0
MTEXT
  5
87
100
AcDbEntity
  8
CK_LEVEL_2
 62
     7
100
AcDbMText
 10
121.074436
 20
120.784785
 30
0.0
 40
2.099868
 41
0.0
 71
     1
 72
     2
  1
\fArial|b0|i0;\H2.0999;\C7;\U+0053\U+0045\U+0052\U+0052\U+0041\U+0054\U+0045\U+0044
  7
STD
210
0.0
220
0.0
230
1.0
 73
     1
 44
1.0
  0
MTEXT
  5
86
100
AcDbEntity
  8
CK_LEVEL_2
 62
     7
100
AcDbMText
 10
119.898625
 20
118.038011
 30
0.0
 40
2.099868
 41
0.0
 71
     1
 72
     2
  1
\fArial|b0|i0;\H2.0999;\C7;\U+0045\U+0044\U+0047\U+0045\U+0053\U+0020\U+0046\U+004F\U+0052
  7
STD
210
0.0
220
0.0
230
1.0
 73
     1
 44
1.0
  0
MTEXT
  5
85
100
AcDbEntity
  8
CK_LEVEL_2
 62
     7
100
AcDbMText
 10
106.963669
 20
115.056969
 30
0.0
 40
2.099868
 41
0.0
 71
     1
 72
     2
  1
\fArial|b0|i0;\H2.0999;\C7;\U+0054\U+0045\U+0041\U+0052\U+0049\U+004E\U+0047
  7
STD
210
0.0
220
0.0
230
1.0
 73
     1
 44
1.0
  0
MTEXT
  5
84
100
AcDbEntity
  8
CK_LEVEL_2
 62
     7
100
AcDbMText
 10
120.133925
 20
115.132417
 30
0.0
 40
2.099868
 41
0.0
 71
     1
 72
     2
  1
\fArial|b0|i0;\H2.0999;\C7;\U+0054\U+0048\U+0045\U+0020\U+0054\U+0049\U+0053\U+0053\U+0055\U+0045
  7
STD
210
0.0
220
0.0
230
1.0
 73
     1
 44
1.0
  0
POLYLINE
  5
7F
100
AcDbEntity
  8
CK_LEVEL_2
 62
     7
100
AcDb2dPolyline
 66
     1
 10
0.0
 20
0.0
 30
0.0
 70
     1
  0
VERTEX
  5
80
100
AcDbEntity
  8
CK_LEVEL_2
 62
     7
100
AcDbVertex
100
AcDb2dVertex
 10
187.344293
 20
98.750906
 30
0.0
  0
VERTEX
  5
81
100
AcDbEntity
  8
CK_LEVEL_2
 62
     7
100
AcDbVertex
100
AcDb2dVertex
 10
190.072808
 20
100.79557
 30
0.0
  0
VERTEX
  5
82
100
AcDbEntity
  8
CK_LEVEL_2
 62
     7
100
AcDbVertex
100
AcDb2dVertex
 10
188.155268
 20
97.976449
 30
0.0
  0
SEQEND
  5
83
100
AcDbEntity
  8
CK_LEVEL_2
 62
     7
  0
HATCH
  5
7E
100
AcDbEntity
  8
CK_LEVEL_2
 62
     7
100
AcDbHatch
 10
0.0
 20
0.0
 30
0.0
210
0.0
220
0.0
230
1.0
  2
SOLID
 70
     1
 71
     0
 91
        1
 92
        3
 72
     0
 73
     1
 93
        3
 10
187.3442925347222
 20
98.750906032986109
 10
190.0728081597222
 20
100.79557020399305
 10
188.15526801215276
 20
97.976448567708331
 97
        0
 75
     2
 76
     1
 98
        1
 10
0.0
 20
0.0
  0
POLYLINE
  5
79
100
AcDbEntity
  8
CK_LEVEL_2
 62
     7
100
AcDb2dPolyline
 66
     1
 10
0.0
 20
0.0
 30
0.0
  0
VERTEX
  5
7A
100
AcDbEntity
  8
CK_LEVEL_2
 62
     7
100
AcDbVertex
100
AcDb2dVertex
 10
187.74978
 20
98.363677
 30
0.0
  0
VERTEX
  5
7B
100
AcDbEntity
  8
CK_LEVEL_2
 62
     7
100
AcDbVertex
100
AcDb2dVertex
 10
180.087888
 20
90.341428
 30
0.0
  0
VERTEX
  5
7C
100
AcDbEntity
  8
CK_LEVEL_2
 62
     7
100
AcDbVertex
100
AcDb2dVertex
 10
176.52187
 20
90.341428
 30
0.0
  0
SEQEND
  5
7D
100
AcDbEntity
  8
CK_LEVEL_2
 62
     7
  0
MTEXT
  5
78
100
AcDbEntity
  8
CK_LEVEL_2
 62
     7
100
AcDbMText
 10
166.773972
 20
91.461855
 30
0.0
 40
2.099868
 41
0.0
 71
     1
 72
     2
  1
\fArial|b0|i0;\H2.0999;\C7;\U+0048\U+0049\U+004E\U+0047\U+0045
  7
STD
210
0.0
220
0.0
230
1.0
 73
     1
 44
1.0
  0
MTEXT
  5
77
100
AcDbEntity
  8
CK_LEVEL_2
 62
     7
100
AcDbMText
 10
166.773972
 20
88.245169
 30
0.0
 40
2.099868
 41
0.0
 71
     1
 72
     2
  1
\fArial|b0|i0;\H2.0999;\C7;\U+0050\U+0049\U+0056\U+004F\U+0054
  7
STD
210
0.0
220
0.0
230
1.0
 73
     1
 44
1.0
  0
MTEXT
  5
76
100
AcDbEntity
  8
CK_LEVEL_2
 62
     7
100
AcDbMText
 10
202.948853
 20
91.898496
 30
0.0
 40
3.674768
 41
0.0
 71
     1
 72
     2
  1
\fArial|b0|i0;\H3.6748;\C7;\U+0031\U+0033
  7
STD
210
0.0
220
0.0
230
1.0
 73
     1
 44
1.0
  0
MTEXT
  5
75
100
AcDbEntity
  8
CK_LEVEL_2
 62
     7
100
AcDbMText
 10
202.11135
 20
116.814116
 30
0.0
 40
3.674768
 41
0.0
 71
     1
 72
     2
  1
\fArial|b0|i0;\H3.6748;\C7;\U+0037\U+0039
  7
STD
210
0.0
220
0.0
230
1.0
 73
     1
 44
1.0
  0
POLYLINE
  5
70
100
AcDbEntity
  8
CK_LEVEL_2
 62
     7
100
AcDb2dPolyline
 66
     1
 10
0.0
 20
0.0
 30
0.0
 70
     1
  0
VERTEX
  5
71
100
AcDbEntity
  8
CK_LEVEL_2
 62
     7
100
AcDbVertex
100
AcDb2dVertex
 10
169.16728
 20
148.031274
 30
0.0
  0
VERTEX
  5
72
100
AcDbEntity
  8
CK_LEVEL_2
 62
     7
100
AcDbVertex
100
AcDb2dVertex
 10
170.102623
 20
144.752233
 30
0.0
  0
VERTEX
  5
73
100
AcDbEntity
  8
CK_LEVEL_2
 62
     7
100
AcDbVertex
100
AcDb2dVertex
 10
168.154422
 20
147.550684
 30
0.0
  0
SEQEND
  5
74
100
AcDbEntity
  8
CK_LEVEL_2
 62
     7
  0
HATCH
  5
6F
100
AcDbEntity
  8
CK_LEVEL_2
 62
     7
100
AcDbHatch
 10
0.0
 20
0.0
 30
0.0
210
0.0
220
0.0
230
1.0
  2
SOLID
 70
     1
 71
     0
 91
        1
 92
        3
 72
     0
 73
     1
 93
        3
 10
169.16727973090275
 20
148.03127441406249
 10
170.10262315538193
 20
144.75223253038192
 10
168.15442165798609
 20
147.55068359374999
 97
        0
 75
     2
 76
     1
 98
        1
 10
0.0
 20
0.0
  0
LINE
  5
6E
100
AcDbEntity
  8
CK_LEVEL_2
 62
     7
100
AcDbLine
 10
168.660851
 20
147.791151
 30
0.0
 11
150.370494
 21
186.332985
 31
0.0
  0
POLYLINE
  5
69
100
AcDbEntity
  8
CK_LEVEL_2
 62
     7
100
AcDb2dPolyline
 66
     1
 10
0.0
 20
0.0
 30
0.0
 70
     1
  0
VERTEX
  5
6A
100
AcDbEntity
  8
CK_LEVEL_2
 62
     7
100
AcDbVertex
100
AcDb2dVertex
 10
176.378898
 20
146.466168
 30
0.0
  0
VERTEX
  5
6B
100
AcDbEntity
  8
CK_LEVEL_2
 62
     7
100
AcDbVertex
100
AcDb2dVertex
 10
177.710428
 20
143.326997
 30
0.0
  0
VERTEX
  5
6C
100
AcDbEntity
  8
CK_LEVEL_2
 62
     7
100
AcDbVertex
100
AcDb2dVertex
 10
175.432875
 20
145.864309
 30
0.0
  0
SEQEND
  5
6D
100
AcDbEntity
  8
CK_LEVEL_2
 62
     7
  0
HATCH
  5
68
100
AcDbEntity
  8
CK_LEVEL_2
 62
     7
100
AcDbHatch
 10
0.0
 20
0.0
 30
0.0
210
0.0
220
0.0
230
1.0
  2
SOLID
 70
     1
 71
     0
 91
        1
 92
        3
 72
     0
 73
     1
 93
        3
 10
176.37889811197914
 20
146.46616753472222
 10
177.7104275173611
 20
143.32699652777777
 10
175.43287489149304
 20
145.86430935329861
 97
        0
 75
     2
 76
     1
 98
        1
 10
0.0
 20
0.0
  0
POLYLINE
  5
63
100
AcDbEntity
  8
CK_LEVEL_2
 62
     7
100
AcDb2dPolyline
 66
     1
 10
0.0
 20
0.0
 30
0.0
  0
VERTEX
  5
64
100
AcDbEntity
  8
CK_LEVEL_2
 62
     7
100
AcDbVertex
100
AcDb2dVertex
 10
175.906231
 20
146.165066
 30
0.0
  0
VERTEX
  5
65
100
AcDbEntity
  8
CK_LEVEL_2
 62
     7
100
AcDbVertex
100
AcDb2dVertex
 10
150.370494
 20
186.332985
 30
0.0
  0
VERTEX
  5
66
100
AcDbEntity
  8
CK_LEVEL_2
 62
     7
100
AcDbVertex
100
AcDb2dVertex
 10
146.566764
 20
186.332985
 30
0.0
  0
SEQEND
  5
67
100
AcDbEntity
  8
CK_LEVEL_2
 62
     7
  0
MTEXT
  5
62
100
AcDbEntity
  8
CK_LEVEL_2
 62
     7
100
AcDbMText
 10
119.653334
 20
189.099823
 30
0.0
 40
2.099868
 41
0.0
 71
     1
 72
     2
  1
\fArial|b0|i0;\H2.0999;\C7;\U+0023\U+0020\U+0032\U+0030\U+0020\U+0047\U+0041\U+0055\U+0047\U+0045\U+0020\U+0053\U+0054\U+0045\U+0045\U+004C
  7
STD
210
0.0
220
0.0
230
1.0
 73
     1
 44
1.0
  0
MTEXT
  5
61
100
AcDbEntity
  8
CK_LEVEL_2
 62
     7
100
AcDbMText
 10
124.591878
 20
186.22868
 30
0.0
 40
2.099868
 41
0.0
 71
     1
 72
     2
  1
\fArial|b0|i0;\H2.0999;\C7;\U+0046\U+0049\U+0058\U+0045\U+0044\U+0020\U+0053\U+0050\U+0049\U+004E\U+0044\U+004C\U+0045
  7
STD
210
0.0
220
0.0
230
1.0
 73
     1
 44
1.0
  0
MTEXT
  5
60
100
AcDbEntity
  8
CK_LEVEL_2
 62
     7
100
AcDbMText
 10
131.412478
 20
183.482078
 30
0.0
 40
2.099868
 41
0.0
 71
     1
 72
     2
  1
\fArial|b0|i0;\H2.0999;\C7;\U+0057\U+0049\U+0054\U+0048\U+0020\U+0054\U+0057\U+004F
  7
STD
210
0.0
220
0.0
230
1.0
 73
     1
 44
1.0
  0
MTEXT
  5
5F
100
AcDbEntity
  8
CK_LEVEL_2
 62
     7
100
AcDbMText
 10
128.354956
 20
180.265565
 30
0.0
 40
2.099868
 41
0.0
 71
     1
 72
     2
  1
\fArial|b0|i0;\H2.0999;\C7;\U+0052\U+0045\U+004D\U+004F\U+0056\U+0041\U+0042\U+004C\U+0045\U+0020
  7
STD
210
0.0
220
0.0
230
1.0
 73
     1
 44
1.0
  0
MTEXT
  5
5E
100
AcDbEntity
  8
CK_LEVEL_2
 62
     7
100
AcDbMText
 10
123.181112
 20
177.519307
 30
0.0
 40
2.099868
 41
0.0
 71
     1
 72
     2
  1
\fArial|b0|i0;\H2.0999;\C7;\U+0052\U+0055\U+0042\U+0042\U+0045\U+0052\U+0020\U+004F\U+002D\U+0052\U+0049\U+004E\U+0047
  7
STD
210
0.0
220
0.0
230
1.0
 73
     1
 44
1.0
  0
MTEXT
  5
5D
100
AcDbEntity
  8
CK_LEVEL_2
 62
     7
100
AcDbMText
 10
121.534701
 20
174.537749
 30
0.0
 40
2.099868
 41
0.0
 71
     1
 72
     2
  1
\fArial|b0|i0;\H2.0999;\C7;\U+0043\U+004F\U+0052\U+0045\U+002D\U+0041\U+0044\U+0041\U+0050\U+0054\U+0045\U+0052\U+0053
  7
STD
210
0.0
220
0.0
230
1.0
 73
     1
 44
1.0
  0
MTEXT
  5
5C
100
AcDbEntity
  8
CK_LEVEL_2
 62
     7
100
AcDbMText
 10
98.019512
 20
206.928364
 30
0.0
 40
2.099868
 41
0.0
 71
     1
 72
     2
  1
\fArial|b0|i0;\H2.0999;\C7;\U+00D8
  7
STD
210
0.0
220
0.0
230
1.0
 73
     1
 44
1.0
  0
MTEXT
  5
5B
100
AcDbEntity
  8
CK_LEVEL_2
 62
     7
100
AcDbMText
 10
101.285118
 20
208.549085
 30
0.0
 40
3.674768
 41
0.0
 71
     1
 72
     2
  1
\fArial|b0|i0;\H3.6748;\C7;\U+0035\U+002E\U+0036\U+0020\H2.0999;\U+0044\U+0049\U+0041\U+002E
  7
STD
210
0.0
220
0.0
230
1.0
 73
     1
 44
1.0
  0
MTEXT
  5
5A
100
AcDbEntity
  8
CK_LEVEL_2
 62
     7
100
AcDbMText
 10
98.262564
 20
203.529605
 30
0.0
 40
2.099868
 41
0.0
 71
     1
 72
     2
  1
\fArial|b0|i0;\H2.0999;\C7;\U+0044\U+0049\U+004D\U+0050\U+004C\U+0045\U+0020\U+004D\U+004F\U+0055\U+004E\U+0054\U+0049\U+004E\U+0047\U+0020\U+0048\U+004F\U+004C\U+0045\U+0053
  7
STD
210
0.0
220
0.0
230
1.0
 73
     1
 44
1.0
  0
POLYLINE
  5
55
100
AcDbEntity
  8
CK_LEVEL_2
 62
     7
100
AcDb2dPolyline
 66
     1
 10
0.0
 20
0.0
 30
0.0
 70
     1
  0
VERTEX
  5
56
100
AcDbEntity
  8
CK_LEVEL_2
 62
     7
100
AcDbVertex
100
AcDb2dVertex
 10
191.494944
 20
179.31343
 30
0.0
  0
VERTEX
  5
57
100
AcDbEntity
  8
CK_LEVEL_2
 62
     7
100
AcDbVertex
100
AcDb2dVertex
 10
190.31052
 20
176.116037
 30
0.0
  0
VERTEX
  5
58
100
AcDbEntity
  8
CK_LEVEL_2
 62
     7
100
AcDbVertex
100
AcDb2dVertex
 10
190.393891
 20
179.524959
 30
0.0
  0
SEQEND
  5
59
100
AcDbEntity
  8
CK_LEVEL_2
 62
     7
  0
HATCH
  5
54
100
AcDbEntity
  8
CK_LEVEL_2
 62
     7
100
AcDbHatch
 10
0.0
 20
0.0
 30
0.0
210
0.0
220
0.0
230
1.0
  2
SOLID
 70
     1
 71
     0
 91
        1
 92
        3
 72
     0
 73
     1
 93
        3
 10
191.49494357638886
 20
179.3134304470486
 10
190.31051974826389
 20
176.11603732638886
 10
190.39389105902777
 20
179.52495930989582
 97
        0
 75
     2
 76
     1
 98
        1
 10
0.0
 20
0.0
  0
POLYLINE
  5
4F
100
AcDbEntity
  8
CK_LEVEL_2
 62
     7
100
AcDb2dPolyline
 66
     1
 10
0.0
 20
0.0
 30
0.0
  0
VERTEX
  5
50
100
AcDbEntity
  8
CK_LEVEL_2
 62
     7
100
AcDbVertex
100
AcDb2dVertex
 10
190.944417
 20
179.419195
 30
0.0
  0
VERTEX
  5
51
100
AcDbEntity
  8
CK_LEVEL_2
 62
     7
100
AcDbVertex
100
AcDb2dVertex
 10
196.967478
 20
210.806254
 30
0.0
  0
VERTEX
  5
52
100
AcDbEntity
  8
CK_LEVEL_2
 62
     7
100
AcDbVertex
100
AcDb2dVertex
 10
199.820017
 20
210.806254
 30
0.0
  0
SEQEND
  5
53
100
AcDbEntity
  8
CK_LEVEL_2
 62
     7
  0
LINE
  5
4E
100
AcDbEntity
  8
CK_LEVEL_2
 62
     7
100
AcDbLine
 10
192.587728
 20
177.313208
 30
0.0
 11
192.587728
 21
199.690653
 31
0.0
  0
LINE
  5
4D
100
AcDbEntity
  8
CK_LEVEL_2
 62
     7
100
AcDbLine
 10
160.419838
 20
177.313208
 30
0.0
 11
160.419838
 21
199.690653
 31
0.0
  0
LINE
  5
4C
100
AcDbEntity
  8
CK_LEVEL_2
 62
     7
100
AcDbLine
 10
189.224281
 20
197.778453
 30
0.0
 11
184.506223
 21
197.778453
 31
0.0
  0
LINE
  5
4B
100
AcDbEntity
  8
CK_LEVEL_2
 62
     7
100
AcDbLine
 10
163.783285
 20
197.778453
 30
0.0
 11
168.500998
 21
197.778453
 31
0.0
  0
POLYLINE
  5
46
100
AcDbEntity
  8
CK_LEVEL_2
 62
     7
100
AcDb2dPolyline
 66
     1
 10
0.0
 20
0.0
 30
0.0
 70
     1
  0
VERTEX
  5
47
100
AcDbEntity
  8
CK_LEVEL_2
 62
     7
100
AcDbVertex
100
AcDb2dVertex
 10
189.224281
 20
198.33897
 30
0.0
  0
VERTEX
  5
48
100
AcDbEntity
  8
CK_LEVEL_2
 62
     7
100
AcDbVertex
100
AcDb2dVertex
 10
189.224281
 20
197.217936
 30
0.0
  0
VERTEX
  5
49
100
AcDbEntity
  8
CK_LEVEL_2
 62
     7
100
AcDbVertex
100
AcDb2dVertex
 10
192.587728
 20
197.778453
 30
0.0
  0
SEQEND
  5
4A
100
AcDbEntity
  8
CK_LEVEL_2
 62
     7
  0
HATCH
  5
45
100
AcDbEntity
  8
CK_LEVEL_2
 62
     7
100
AcDbHatch
 10
0.0
 20
0.0
 30
0.0
210
0.0
220
0.0
230
1.0
  2
SOLID
 70
     1
 71
     0
 91
        1
 92
        3
 72
     0
 73
     1
 93
        3
 10
189.22428114149304
 20
198.33897026909722
 10
189.22428114149304
 20
197.21793619791666
 10
192.58772786458331
 20
197.77845323350692
 97
        0
 75
     2
 76
     1
 98
        1
 10
0.0
 20
0.0
  0
POLYLINE
  5
40
100
AcDbEntity
  8
CK_LEVEL_2
 62
     7
100
AcDb2dPolyline
 66
     1
 10
0.0
 20
0.0
 30
0.0
 70
     1
  0
VERTEX
  5
41
100
AcDbEntity
  8
CK_LEVEL_2
 62
     7
100
AcDbVertex
100
AcDb2dVertex
 10
163.783285
 20
198.33897
 30
0.0
  0
VERTEX
  5
42
100
AcDbEntity
  8
CK_LEVEL_2
 62
     7
100
AcDbVertex
100
AcDb2dVertex
 10
163.783285
 20
197.217936
 30
0.0
  0
VERTEX
  5
43
100
AcDbEntity
  8
CK_LEVEL_2
 62
     7
100
AcDbVertex
100
AcDb2dVertex
 10
160.419838
 20
197.778453
 30
0.0
  0
SEQEND
  5
44
100
AcDbEntity
  8
CK_LEVEL_2
 62
     7
  0
HATCH
  5
3F
100
AcDbEntity
  8
CK_LEVEL_2
 62
     7
100
AcDbHatch
 10
0.0
 20
0.0
 30
0.0
210
0.0
220
0.0
230
1.0
  2
SOLID
 70
     1
 71
     0
 91
        1
 92
        3
 72
     0
 73
     1
 93
        3
 10
163.78328450520831
 20
198.33897026909722
 10
163.78328450520831
 20
197.21793619791666
 10
160.41983778211804
 20
197.77845323350692
 97
        0
 75
     2
 76
     1
 98
        1
 10
0.0
 20
0.0
  0
MTEXT
  5
3E
100
AcDbEntity
  8
CK_LEVEL_2
  6
AI9-LType1
 62
     7
100
AcDbMText
 10
171.356293
 20
198.355908
 30
0.0
 40
3.674768
 41
0.0
 71
     1
 72
     2
  1
\fArial|b0|i0;\H3.6748;\C7;\U+0031\U+0031\U+0034
  7
STD
210
0.0
220
0.0
230
1.0
 73
     1
 44
1.0
  0
MTEXT
  5
3D
100
AcDbEntity
  8
CK_LEVEL_2
  6
AI9-LType1
 62
     7
100
AcDbMText
 10
202.538886
 20
176.040991
 30
0.0
 40
3.674768
 41
0.0
 71
     1
 72
     2
  1
\fArial|b0|i0;\H3.6748;\C7;\U+0036\U+0034
  7
STD
210
0.0
220
0.0
230
1.0
 73
     1
 44
1.0
  0
LINE
  5
3C
100
AcDbEntity
  8
CK_LEVEL_2
  6
AI9-LType1
 62
     7
100
AcDbLine
 10
189.160547
 20
173.806618
 30
0.0
 11
191.10427
 21
173.806618
 31
0.0
  0
LINE
  5
3B
100
AcDbEntity
  8
CK_LEVEL_2
  6
AI9-LType1
 62
     7
100
AcDbLine
 10
191.10427
 20
173.806618
 30
0.0
 11
191.10427
 21
174.227091
 31
0.0
  0
LINE
  5
3A
100
AcDbEntity
  8
CK_LEVEL_2
  6
AI9-LType1
 62
     7
100
AcDbLine
 10
191.10427
 20
174.227091
 30
0.0
 11
189.160547
 21
174.227091
 31
0.0
  0
LINE
  5
39
100
AcDbEntity
  8
CK_LEVEL_2
  6
AI9-LType1
 62
     7
100
AcDbLine
 10
189.160547
 20
174.227091
 30
0.0
 11
189.160547
 21
173.806618
 31
0.0
  0
MTEXT
  5
37
100
AcDbEntity
  8
CK_LEVEL_2
 62
     7
100
AcDbMText
 10
200.770519
 20
211.926681
 30
0.0
 40
2.099868
 41
0.0
 71
     1
 72
     2
  1
\fArial|b0|i0;\H2.0999;\C7;\U+0053\U+0054\U+0041\U+0049\U+004E\U+004C\U+0045\U+0053\U+0053\U+0020\U+0053\U+0054\U+0045\U+0045\U+004C
  7
STD
210
0.0
220
0.0
230
1.0
 73
     1
 44
1.0
  0
MTEXT
  5
36
100
AcDbEntity
  8
CK_LEVEL_2
 62
     7
100
AcDbMText
 10
200.770519
 20
208.710168
 30
0.0
 40
2.099868
 41
0.0
 71
     1
 72
     2
  1
\fArial|b0|i0;\H2.0999;\C7;\U+0050\U+0049\U+004E
  7
STD
210
0.0
220
0.0
230
1.0
 73
     1
 44
1.0
  0
POLYLINE
  5
31
100
AcDbEntity
  8
CK_LEVEL_2
 62
     7
100
AcDb2dPolyline
 66
     1
 10
0.0
 20
0.0
 30
0.0
 70
     1
  0
VERTEX
  5
32
100
AcDbEntity
  8
CK_LEVEL_2
 62
     7
100
AcDbVertex
100
AcDb2dVertex
 10
62.0882
 20
135.155575
 30
0.0
  0
VERTEX
  5
33
100
AcDbEntity
  8
CK_LEVEL_2
 62
     7
100
AcDbVertex
100
AcDb2dVertex
 10
65.249419
 20
136.434049
 30
0.0
  0
VERTEX
  5
34
100
AcDbEntity
  8
CK_LEVEL_2
 62
     7
100
AcDbVertex
100
AcDb2dVertex
 10
62.673694
 20
134.199561
 30
0.0
  0
SEQEND
  5
35
100
AcDbEntity
  8
CK_LEVEL_2
 62
     7
  0
HATCH
  5
30
100
AcDbEntity
  8
CK_LEVEL_2
 62
     7
100
AcDbHatch
 10
0.0
 20
0.0
 30
0.0
210
0.0
220
0.0
230
1.0
  2
SOLID
 70
     1
 71
     0
 91
        1
 92
        3
 72
     0
 73
     1
 93
        3
 10
62.088199869791659
 20
135.15557454427082
 10
65.24941948784722
 20
136.43404947916665
 10
62.673693847656246
 20
134.19956054687498
 97
        0
 75
     2
 76
     1
 98
        1
 10
0.0
 20
0.0
  0
POLYLINE
  5
2B
100
AcDbEntity
  8
CK_LEVEL_2
 62
     7
100
AcDb2dPolyline
 66
     1
 10
0.0
 20
0.0
 30
0.0
  0
VERTEX
  5
2C
100
AcDbEntity
  8
CK_LEVEL_2
 62
     7
100
AcDbVertex
100
AcDb2dVertex
 10
62.381033
 20
134.67774
 30
0.0
  0
VERTEX
  5
2D
100
AcDbEntity
  8
CK_LEVEL_2
 62
     7
100
AcDbVertex
100
AcDb2dVertex
 10
31.481799
 20
115.757275
 30
0.0
  0
VERTEX
  5
2E
100
AcDbEntity
  8
CK_LEVEL_2
 62
     7
100
AcDbVertex
100
AcDb2dVertex
 10
27.439152
 20
115.757275
 30
0.0
  0
SEQEND
  5
2F
100
AcDbEntity
  8
CK_LEVEL_2
 62
     7
  0
ENDSEC
  0
SECTION
  2
OBJECTS
  0
DICTIONARY
  5
19
100
AcDbDictionary
280
     0
281
     1
  3
ACAD_GROUP
350
1A
  3
ACAD_MLINESTYLE
350
1B
  3
ACAD_LAYOUT
350
1E
  3
ACAD_PLOTSETTINGS
350
22
  3
ACAD_PLOTSTYLENAME
350
1F
  3
ACAD_WIPEOUT_VARS
350
23
  0
DICTIONARY
  5
1A
102
{ACAD_REACTORS
330
19
102
}
100
AcDbDictionary
280
     0
281
     1
  0
DICTIONARY
  5
1B
102
{ACAD_REACTORS
330
19
102
}
100
AcDbDictionary
280
     0
281
     1
  3
Standard
350
1C
  0
MLINESTYLE
  5
1C
102
{ACAD_REACTORS
330
1B
102
}
100
AcDbMlineStyle
  2
Standard
 70
     0
  3

 62
     0
 51
90.0
 52
90.0
 71
     2
 49
0.5
 62
   256
  6
ByLayer
 49
-0.5
 62
   256
  6
ByLayer
  0
ACDBDICTIONARYWDFLT
  5
1F
102
{ACAD_REACTORS
330
19
102
}
100
AcDbDictionary
281
     1
  3
Normal
350
1D
100
AcDbDictionaryWithDefault
340
1D
  0
ACDBPLACEHOLDER
  5
1D
102
{ACAD_REACTORS
330
1F
102
}
  0
LAYOUT
  5
20
102
{ACAD_REACTORS
330
1E
102
}
100
AcDbPlotSettings
  1

  2

  4

  6

 40
0.0
 41
0.0
 42
0.0
 43
0.0
 44
0.0
 45
0.0
 46
0.0
 47
0.0
 48
0.0
 49
0.0
140
0.0
141
0.0
142
1.0
143
1.0
 70
  1024
 72
     0
 73
     0
 74
     0
  7

 75
     0
147
1.0
148
0.0
149
0.0
100
AcDbLayout
  1
Model
 70
     0
 71
     0
 10
0.0
 20
0.0
 11
0.0
 21
0.0
 12
0.0
 22
0.0
 32
0.0
 14
0.0
 24
0.0
 34
0.0
 15
0.0
 25
0.0
 35
0.0
146
0.0
 13
0.0
 23
0.0
 33
0.0
 16
0.0
 26
0.0
 36
0.0
 17
0.0
 27
0.0
 37
0.0
 76
     0
330
A
331
0
345
0
346
0
  0
LAYOUT
  5
21
102
{ACAD_REACTORS
330
1E
102
}
100
AcDbPlotSettings
  1

  2

  4

  6

 40
0.0
 41
0.0
 42
0.0
 43
0.0
 44
0.0
 45
0.0
 46
0.0
 47
0.0
 48
0.0
 49
0.0
140
0.0
141
0.0
142
1.0
143
1.0
 70
     0
 72
     0
 73
     0
 74
     0
  7

 75
     0
147
1.0
148
0.0
149
0.0
100
AcDbLayout
  1
Layout1
 70
     0
 71
     0
 10
0.0
 20
0.0
 11
0.0
 21
0.0
 12
0.0
 22
0.0
 32
0.0
 14
0.0
 24
0.0
 34
0.0
 15
0.0
 25
0.0
 35
0.0
146
0.0
 13
0.0
 23
0.0
 33
0.0
 16
0.0
 26
0.0
 36
0.0
 17
0.0
 27
0.0
 37
0.0
 76
     0
330
B
331
0
345
0
346
0
  0
DICTIONARY
  5
1E
102
{ACAD_REACTORS
330
19
102
}
100
AcDbDictionary
280
     0
281
     1
  3
Layout1
350
21
  3
Model
350
20
  0
DICTIONARY
  5
22
102
{ACAD_REACTORS
330
19
102
}
100
AcDbDictionary
280
     0
281
     1
  0
WIPEOUTVARIABLES
  5
23
100
AcDbWipeoutVariables
 70
     1
  0
ENDSEC
  0
EOF
