  0
SECTION
  2
HEADER
  9
$ACADVER
  1
AC1027
  9
$ACADMAINTVER
 70
   125
  9
$DWGCODEPAGE
  3
ANSI_1252
  9
$LASTSAVEDBY
  1
fleminab
  9
$REQUIREDVERSIONS
160
                 0
  9
$INSBASE
 10
0.0
 20
0.0
 30
0.0
  9
$EXTMIN
 10
0.1209771527690151
 20
2.623185762572283
 30
-0.0000000349181948
  9
$EXTMAX
 10
16.56177545882634
 20
9.868310236535407
 30
0.0000000814935746
  9
$LIMMIN
 10
0.0
 20
0.0
  9
$LIMMAX
 10
12.0
 20
9.0
  9
$ORTHOMODE
 70
     0
  9
$REGENMODE
 70
     1
  9
$FILLMODE
 70
     1
  9
$QTEXTMODE
 70
     0
  9
$MIRRTEXT
 70
     0
  9
$LTSCALE
 40
1.0
  9
$ATTMODE
 70
     1
  9
$TEXTSIZE
 40
0.2
  9
$TRACEWID
 40
0.05
  9
$TEXTSTYLE
  7
Standard
  9
$CLAYER
  8
0
  9
$CELTYPE
  6
ByLayer
  9
$CECOLOR
 62
   256
  9
$CELTSCALE
 40
1.0
  9
$DISPSILH
 70
     0
  9
$DIMSCALE
 40
1.0
  9
$DIMASZ
 40
0.18
  9
$DIMEXO
 40
0.0625
  9
$DIMDLI
 40
0.38
  9
$DIMRND
 40
0.0
  9
$DIMDLE
 40
0.0
  9
$DIMEXE
 40
0.18
  9
$DIMTP
 40
0.0
  9
$DIMTM
 40
0.0
  9
$DIMTXT
 40
0.18
  9
$DIMCEN
 40
0.09
  9
$DIMTSZ
 40
0.0
  9
$DIMTOL
 70
     0
  9
$DIMLIM
 70
     0
  9
$DIMTIH
 70
     1
  9
$DIMTOH
 70
     1
  9
$DIMSE1
 70
     0
  9
$DIMSE2
 70
     0
  9
$DIMTAD
 70
     0
  9
$DIMZIN
 70
     0
  9
$DIMBLK
  1

  9
$DIMASO
 70
     1
  9
$DIMSHO
 70
     1
  9
$DIMPOST
  1

  9
$DIMAPOST
  1

  9
$DIMALT
 70
     0
  9
$DIMALTD
 70
     2
  9
$DIMALTF
 40
25.4
  9
$DIMLFAC
 40
1.0
  9
$DIMTOFL
 70
     0
  9
$DIMTVP
 40
0.0
  9
$DIMTIX
 70
     0
  9
$DIMSOXD
 70
     0
  9
$DIMSAH
 70
     0
  9
$DIMBLK1
  1

  9
$DIMBLK2
  1

  9
$DIMSTYLE
  2
Standard
  9
$DIMCLRD
 70
     0
  9
$DIMCLRE
 70
     0
  9
$DIMCLRT
 70
     0
  9
$DIMTFAC
 40
1.0
  9
$DIMGAP
 40
0.09
  9
$DIMJUST
 70
     0
  9
$DIMSD1
 70
     0
  9
$DIMSD2
 70
     0
  9
$DIMTOLJ
 70
     1
  9
$DIMTZIN
 70
     0
  9
$DIMALTZ
 70
     0
  9
$DIMALTTZ
 70
     0
  9
$DIMUPT
 70
     0
  9
$DIMDEC
 70
     4
  9
$DIMTDEC
 70
     4
  9
$DIMALTU
 70
     2
  9
$DIMALTTD
 70
     2
  9
$DIMTXSTY
  7
Standard
  9
$DIMAUNIT
 70
     0
  9
$DIMADEC
 70
     0
  9
$DIMALTRND
 40
0.0
  9
$DIMAZIN
 70
     0
  9
$DIMDSEP
 70
    46
  9
$DIMATFIT
 70
     3
  9
$DIMFRAC
 70
     0
  9
$DIMLDRBLK
  1

  9
$DIMLUNIT
 70
     2
  9
$DIMLWD
 70
    -2
  9
$DIMLWE
 70
    -2
  9
$DIMTMOVE
 70
     0
  9
$DIMFXL
 40
1.0
  9
$DIMFXLON
 70
     0
  9
$DIMJOGANG
 40
0.7853981633974483
  9
$DIMTFILL
 70
     0
  9
$DIMTFILLCLR
 70
     0
  9
$DIMARCSYM
 70
     0
  9
$DIMLTYPE
  6

  9
$DIMLTEX1
  6

  9
$DIMLTEX2
  6

  9
$DIMTXTDIRECTION
 70
     0
  9
$LUNITS
 70
     2
  9
$LUPREC
 70
     4
  9
$SKETCHINC
 40
0.1
  9
$FILLETRAD
 40
0.0
  9
$AUNITS
 70
     0
  9
$AUPREC
 70
     0
  9
$MENU
  1
.
  9
$ELEVATION
 40
0.0
  9
$PELEVATION
 40
0.0
  9
$THICKNESS
 40
0.0
  9
$LIMCHECK
 70
     0
  9
$CHAMFERA
 40
0.0
  9
$CHAMFERB
 40
0.0
  9
$CHAMFERC
 40
0.0
  9
$CHAMFERD
 40
0.0
  9
$SKPOLY
 70
     0
  9
$TDCREATE
 40
2458248.478020834
  9
$TDUCREATE
 40
2458248.061354167
  9
$TDUPDATE
 40
2458248.478402778
  9
$TDUUPDATE
 40
2458248.061736111
  9
$TDINDWG
 40
0.0003819444
  9
$TDUSRTIMER
 40
0.0003819444
  9
$USRTIMER
 70
     1
  9
$ANGBASE
 50
0.0
  9
$ANGDIR
 70
     0
  9
$PDMODE
 70
     0
  9
$PDSIZE
 40
0.0
  9
$PLINEWID
 40
0.0
  9
$SPLFRAME
 70
     0
  9
$SPLINETYPE
 70
     6
  9
$SPLINESEGS
 70
     8
  9
$HANDSEED
  5
50A
  9
$SURFTAB1
 70
     6
  9
$SURFTAB2
 70
     6
  9
$SURFTYPE
 70
     6
  9
$SURFU
 70
     6
  9
$SURFV
 70
     6
  9
$UCSBASE
  2

  9
$UCSNAME
  2

  9
$UCSORG
 10
0.0
 20
0.0
 30
0.0
  9
$UCSXDIR
 10
1.0
 20
0.0
 30
0.0
  9
$UCSYDIR
 10
0.0
 20
1.0
 30
0.0
  9
$UCSORTHOREF
  2

  9
$UCSORTHOVIEW
 70
     0
  9
$UCSORGTOP
 10
0.0
 20
0.0
 30
0.0
  9
$UCSORGBOTTOM
 10
0.0
 20
0.0
 30
0.0
  9
$UCSORGLEFT
 10
0.0
 20
0.0
 30
0.0
  9
$UCSORGRIGHT
 10
0.0
 20
0.0
 30
0.0
  9
$UCSORGFRONT
 10
0.0
 20
0.0
 30
0.0
  9
$UCSORGBACK
 10
0.0
 20
0.0
 30
0.0
  9
$PUCSBASE
  2

  9
$PUCSNAME
  2

  9
$PUCSORG
 10
0.0
 20
0.0
 30
0.0
  9
$PUCSXDIR
 10
1.0
 20
0.0
 30
0.0
  9
$PUCSYDIR
 10
0.0
 20
1.0
 30
0.0
  9
$PUCSORTHOREF
  2

  9
$PUCSORTHOVIEW
 70
     0
  9
$PUCSORGTOP
 10
0.0
 20
0.0
 30
0.0
  9
$PUCSORGBOTTOM
 10
0.0
 20
0.0
 30
0.0
  9
$PUCSORGLEFT
 10
0.0
 20
0.0
 30
0.0
  9
$PUCSORGRIGHT
 10
0.0
 20
0.0
 30
0.0
  9
$PUCSORGFRONT
 10
0.0
 20
0.0
 30
0.0
  9
$PUCSORGBACK
 10
0.0
 20
0.0
 30
0.0
  9
$USERI1
 70
     0
  9
$USERI2
 70
     0
  9
$USERI3
 70
     0
  9
$USERI4
 70
     0
  9
$USERI5
 70
     0
  9
$USERR1
 40
0.0
  9
$USERR2
 40
0.0
  9
$USERR3
 40
0.0
  9
$USERR4
 40
0.0
  9
$USERR5
 40
0.0
  9
$WORLDVIEW
 70
     1
  9
$SHADEDGE
 70
     3
  9
$SHADEDIF
 70
    70
  9
$TILEMODE
 70
     1
  9
$MAXACTVP
 70
    64
  9
$PINSBASE
 10
0.0
 20
0.0
 30
0.0
  9
$PLIMCHECK
 70
     0
  9
$PEXTMIN
 10
1.000000000000000E+20
 20
1.000000000000000E+20
 30
1.000000000000000E+20
  9
$PEXTMAX
 10
-1.000000000000000E+20
 20
-1.000000000000000E+20
 30
-1.000000000000000E+20
  9
$PLIMMIN
 10
-0.7524054877282309
 20
-0.5025428238148726
  9
$PLIMMAX
 10
35.24759547345533
 20
23.49745621500156
  9
$UNITMODE
 70
     0
  9
$VISRETAIN
 70
     1
  9
$PLINEGEN
 70
     0
  9
$PSLTSCALE
 70
     1
  9
$TREEDEPTH
 70
  3020
  9
$CMLSTYLE
  2
Standard
  9
$CMLJUST
 70
     0
  9
$CMLSCALE
 40
1.0
  9
$PROXYGRAPHICS
 70
     1
  9
$MEASUREMENT
 70
     0
  9
$CELWEIGHT
370
    -1
  9
$ENDCAPS
280
     0
  9
$JOINSTYLE
280
     0
  9
$LWDISPLAY
290
     0
  9
$INSUNITS
 70
     1
  9
$HYPERLINKBASE
  1

  9
$STYLESHEET
  1

  9
$XEDIT
290
     1
  9
$CEPSNTYPE
380
     0
  9
$PSTYLEMODE
290
     1
  9
$FINGERPRINTGUID
  2
{C426410D-4C7A-884F-9E2C-9967CE2F4D83}
  9
$VERSIONGUID
  2
{E4521E43-3061-764F-AAA7-4C12AA292933}
  9
$EXTNAMES
290
     1
  9
$PSVPSCALE
 40
0.0
  9
$OLESTARTUP
290
     0
  9
$SORTENTS
280
   127
  9
$INDEXCTL
280
     0
  9
$HIDETEXT
280
     0
  9
$XCLIPFRAME
280
     0
  9
$HALOGAP
280
     0
  9
$OBSCOLOR
 70
   257
  9
$OBSLTYPE
280
     0
  9
$INTERSECTIONDISPLAY
280
     0
  9
$INTERSECTIONCOLOR
 70
   257
  9
$DIMASSOC
280
     1
  9
$PROJECTNAME
  1

  9
$CAMERADISPLAY
290
     0
  9
$LENSLENGTH
 40
50.0
  9
$CAMERAHEIGHT
 40
0.0
  9
$STEPSPERSEC
 40
2.0
  9
$STEPSIZE
 40
6.0
  9
$3DDWFPREC
 40
2.0
  9
$PSOLWIDTH
 40
0.25
  9
$PSOLHEIGHT
 40
4.0
  9
$LOFTANG1
 40
1.570796326794896
  9
$LOFTANG2
 40
1.570796326794896
  9
$LOFTMAG1
 40
0.0
  9
$LOFTMAG2
 40
0.0
  9
$LOFTPARAM
 70
     7
  9
$LOFTNORMALS
280
     1
  9
$LATITUDE
 40
37.795
  9
$LONGITUDE
 40
-122.394
  9
$NORTHDIRECTION
 40
0.0
  9
$TIMEZONE
 70
 -8000
  9
$LIGHTGLYPHDISPLAY
280
     1
  9
$TILEMODELIGHTSYNCH
280
     1
  9
$CMATERIAL
347
7F
  9
$SOLIDHIST
280
     1
  9
$SHOWHIST
280
     1
  9
$DWFFRAME
280
     2
  9
$DGNFRAME
280
     0
  9
$REALWORLDSCALE
290
     1
  9
$INTERFERECOLOR
 62
     1
  9
$INTERFEREOBJVS
345
8C
  9
$INTERFEREVPVS
346
A5
  9
$CSHADOW
280
     0
  9
$SHADOWPLANELOCATION
 40
0.0
  0
ENDSEC
  0
SECTION
  2
CLASSES
  0
CLASS
  1
ACDBDICTIONARYWDFLT
  2
AcDbDictionaryWithDefault
  3
ObjectDBX Classes
 90
        0
 91
        1
280
     0
281
     0
  0
CLASS
  1
PLOTSETTINGS
  2
AcDbPlotSettings
  3
ObjectDBX Classes
 90
        0
 91
        0
280
     0
281
     0
  0
CLASS
  1
MATERIAL
  2
AcDbMaterial
  3
ObjectDBX Classes
 90
     1153
 91
        3
280
     0
281
     0
  0
CLASS
  1
VISUALSTYLE
  2
AcDbVisualStyle
  3
ObjectDBX Classes
 90
     4095
 91
       26
280
     0
281
     0
  0
CLASS
  1
TABLESTYLE
  2
AcDbTableStyle
  3
ObjectDBX Classes
 90
     4095
 91
        1
280
     0
281
     0
  0
CLASS
  1
DICTIONARYVAR
  2
AcDbDictionaryVar
  3
ObjectDBX Classes
 90
        0
 91
       17
280
     0
281
     0
  0
CLASS
  1
SCALE
  2
AcDbScale
  3
ObjectDBX Classes
 90
     1153
 91
       17
280
     0
281
     0
  0
CLASS
  1
MLEADERSTYLE
  2
AcDbMLeaderStyle
  3
ACDB_MLEADERSTYLE_CLASS
 90
     4095
 91
        1
280
     0
281
     0
  0
CLASS
  1
ACDBSECTIONVIEWSTYLE
  2
AcDbSectionViewStyle
  3
ObjectDBX Classes
 90
     1025
 91
        1
280
     0
281
     0
  0
CLASS
  1
ACDBDETAILVIEWSTYLE
  2
AcDbDetailViewStyle
  3
ObjectDBX Classes
 90
     1025
 91
        1
280
     0
281
     0
  0
CLASS
  1
CELLSTYLEMAP
  2
AcDbCellStyleMap
  3
ObjectDBX Classes
 90
     1152
 91
        1
280
     0
281
     0
  0
ENDSEC
  0
SECTION
  2
TABLES
  0
TABLE
  2
VPORT
  5
19
330
0
100
AcDbSymbolTable
 70
     1
1001
ACAD
1000
DbSaveVer
1071
        5
  0
VPORT
  5
7D
330
19
100
AcDbSymbolTableRecord
100
AcDbViewportTableRecord
  2
*Active
 70
     0
 10
0.0
 20
0.0
 11
1.0
 21
1.0
 12
8.34137630579768
 22
6.245747999553845
 13
0.0
 23
0.0
 14
0.5
 24
0.5
 15
0.5
 25
0.5
 16
0.0
 26
0.0
 36
1.0
 17
0.0
 27
0.0
 37
0.0
 40
7.296998873538037
 41
2.292712066905615
 42
50.0
 43
0.0
 44
0.0
 50
0.0
 51
0.0
 71
     0
 72
  1000
 73
     1
 74
     3
 75
     0
 76
     0
 77
     0
 78
     0
281
     0
 65
     1
110
0.0
120
0.0
130
0.0
111
1.0
121
0.0
131
0.0
112
0.0
122
1.0
132
0.0
 79
     0
146
0.0
348
88
 60
     3
 61
     5
292
     1
282
     1
141
0.0
142
0.0
 63
   250
421
  3355443
1001
ACAD_NAV_VCDISPLAY
1070
     3
  0
ENDTAB
  0
TABLE
  2
LTYPE
  5
14
330
0
100
AcDbSymbolTable
 70
     1
  0
LTYPE
  5
15
330
14
100
AcDbSymbolTableRecord
100
AcDbLinetypeTableRecord
  2
ByBlock
 70
     0
  3

 72
    65
 73
     0
 40
0.0
  0
LTYPE
  5
16
330
14
100
AcDbSymbolTableRecord
100
AcDbLinetypeTableRecord
  2
ByLayer
 70
     0
  3

 72
    65
 73
     0
 40
0.0
  0
LTYPE
  5
8
330
14
100
AcDbSymbolTableRecord
100
AcDbLinetypeTableRecord
  2
Continuous
 70
     0
  3
Solid line
 72
    65
 73
     0
 40
0.0
  0
ENDTAB
  0
TABLE
  2
LAYER
  5
10
330
0
100
AcDbSymbolTable
 70
     4
  0
LAYER
  5
4
102
{ACAD_XDICTIONARY
360
4E5
102
}
330
10
100
AcDbSymbolTableRecord
100
AcDbLayerTableRecord
  2
0
 70
     0
 62
     7
  6
Continuous
370
    -3
390
5
347
81
348
0
  0
LAYER
  5
25
102
{ACAD_XDICTIONARY
360
4E7
102
}
330
10
100
AcDbSymbolTableRecord
100
AcDbLayerTableRecord
  2
Title Block
 70
     0
 62
     7
  6
Continuous
370
    -3
390
5
347
81
348
0
  0
LAYER
  5
CE
102
{ACAD_XDICTIONARY
360
4E9
102
}
330
10
100
AcDbSymbolTableRecord
100
AcDbLayerTableRecord
  2
PDF_Layer 1
 70
     0
 62
    28
420
  1052429
  6
Continuous
370
    -3
390
5
347
81
348
0
  0
LAYER
  5
DE
102
{ACAD_XDICTIONARY
360
4EB
102
}
330
10
100
AcDbSymbolTableRecord
100
AcDbLayerTableRecord
  2
PDF_Text
 70
     0
 62
   250
420
  2301728
  6
Continuous
370
    -3
390
5
347
81
348
0
  0
ENDTAB
  0
TABLE
  2
STYLE
  5
11
330
0
100
AcDbSymbolTable
 70
     3
  0
STYLE
  5
12
330
11
100
AcDbSymbolTableRecord
100
AcDbTextStyleTableRecord
  2
Standard
 70
     0
 40
0.0
 41
1.0
 50
0.0
 71
     0
 42
0.2
  3
txt
  4

  0
STYLE
  5
27
330
11
100
AcDbSymbolTableRecord
100
AcDbTextStyleTableRecord
  2
Roman
 70
     0
 40
0.0
 41
1.0
 50
0.0
 71
     0
 42
0.2
  3
ROMANS.SHX
  4

  0
STYLE
  5
DD
330
11
100
AcDbSymbolTableRecord
100
AcDbTextStyleTableRecord
  2
PDF Arial
 70
     0
 40
0.0
 41
1.0
 50
0.0
 71
     0
 42
0.2
  3
arial.ttf
  4

1001
ACAD
1000
Arial
1071
       34
  0
ENDTAB
  0
TABLE
  2
VIEW
  5
17
330
0
100
AcDbSymbolTable
 70
     0
  0
ENDTAB
  0
TABLE
  2
UCS
  5
18
330
0
100
AcDbSymbolTable
 70
     0
  0
ENDTAB
  0
TABLE
  2
APPID
  5
1B
330
0
100
AcDbSymbolTable
 70
     2
  0
APPID
  5
1C
330
1B
100
AcDbSymbolTableRecord
100
AcDbRegAppTableRecord
  2
ACAD
 70
     0
  0
APPID
  5
4ED
330
1B
100
AcDbSymbolTableRecord
100
AcDbRegAppTableRecord
  2
ACAD_NAV_VCDISPLAY
 70
     0
  0
ENDTAB
  0
TABLE
  2
DIMSTYLE
  5
1D
330
0
100
AcDbSymbolTable
 70
     1
100
AcDbDimStyleTable
 71
     0
  0
DIMSTYLE
105
23
330
1D
100
AcDbSymbolTableRecord
100
AcDbDimStyleTableRecord
  2
Standard
 70
     0
340
12
  0
ENDTAB
  0
TABLE
  2
BLOCK_RECORD
  5
1
330
0
100
AcDbSymbolTable
 70
     0
  0
BLOCK_RECORD
  5
2
330
1
100
AcDbSymbolTableRecord
100
AcDbBlockTableRecord
  2
*Model_Space
340
A
 70
     0
280
     1
281
     0
  0
BLOCK_RECORD
  5
C
330
1
100
AcDbSymbolTableRecord
100
AcDbBlockTableRecord
  2
*Paper_Space
340
F
 70
     0
280
     1
281
     0
  0
ENDTAB
  0
ENDSEC
  0
SECTION
  2
BLOCKS
  0
BLOCK
  5
3
330
2
100
AcDbEntity
  8
0
100
AcDbBlockBegin
  2
*Model_Space
 70
     2
 10
0.0
 20
0.0
 30
0.0
  3
*Model_Space
  1

  0
ENDBLK
  5
9
330
2
100
AcDbEntity
  8
0
100
AcDbBlockEnd
  0
BLOCK
  5
D
330
C
100
AcDbEntity
 67
     1
  8
0
100
AcDbBlockBegin
  2
*Paper_Space
 70
     0
 10
0.0
 20
0.0
 30
0.0
  3
*Paper_Space
  1

  0
ENDBLK
  5
E
330
C
100
AcDbEntity
 67
     1
  8
0
100
AcDbBlockEnd
  0
ENDSEC
  0
SECTION
  2
ENTITIES
  0
SOLID
  5
CF
330
2
100
AcDbEntity
  8
PDF_Layer 1
 62
     7
420
 16777215
440
 33554559
370
    25
100
AcDbTrace
 10
8.537895833333333
 20
4.955145833333332
 30
0.0
 11
8.515020833333332
 21
4.920034722222221
 31
0.0
 12
8.556840277777778
 22
4.857715277777777
 32
0.0
 13
8.473854166666667
 23
4.912131944444444
 33
0.0
  0
SOLID
  5
D0
330
2
100
AcDbEntity
  8
PDF_Layer 1
 62
     7
420
 16777215
440
 33554559
370
    25
100
AcDbTrace
 10
7.747388888888886
 20
6.132663888888888
 30
0.0
 11
7.706236111111109
 21
6.12476111111111
 31
0.0
 12
7.664388888888886
 22
6.187080555555555
 32
0.0
 13
7.68333333333333
 23
6.089649999999999
 33
0.0
  0
SOLID
  5
D1
330
2
100
AcDbEntity
  8
PDF_Layer 1
 62
     7
420
 16777215
440
 33554559
370
    25
100
AcDbTrace
 10
14.76843194444444
 20
6.62320972222222
 30
0.0
 11
14.78483472222222
 21
6.584640277777776
 31
0.0
 12
14.85987638888889
 22
6.584640277777776
 32
0.0
 13
14.76843194444444
 23
6.546056944444442
 33
0.0
  0
SOLID
  5
D2
330
2
100
AcDbEntity
  8
PDF_Layer 1
 62
     7
420
 16777215
440
 33554559
370
    25
100
AcDbTrace
 10
11.50162777777777
 20
6.62320972222222
 30
0.0
 11
11.48523888888888
 21
6.584640277777776
 31
0.0
 12
11.41018333333333
 22
6.584640277777776
 32
0.0
 13
11.50162777777777
 23
6.546056944444442
 33
0.0
  0
SOLID
  5
D3
330
2
100
AcDbEntity
  8
PDF_Layer 1
 62
     7
420
 16777215
440
 33554559
370
    25
100
AcDbTrace
 10
15.76369861111111
 20
7.282722222222219
 30
0.0
 11
15.80226805555555
 21
7.299111111111108
 31
0.0
 12
15.80226805555555
 22
7.374152777777775
 32
0.0
 13
15.84085138888888
 23
7.282722222222219
 33
0.0
  0
SOLID
  5
D4
330
2
100
AcDbEntity
  8
PDF_Layer 1
 62
     7
420
 16777215
440
 33554559
370
    25
100
AcDbTrace
 10
15.76369861111111
 20
3.674248611111111
 30
0.0
 11
15.80226805555555
 21
3.657859722222222
 31
0.0
 12
15.80226805555555
 22
3.582818055555555
 32
0.0
 13
15.84085138888888
 23
3.674248611111111
 33
0.0
  0
SOLID
  5
D5
330
2
100
AcDbEntity
  8
PDF_Layer 1
 62
     7
420
 16777215
440
 33554559
370
    25
100
AcDbTrace
 10
11.78569861111111
 20
7.2972
 30
0.0
 11
11.76890694444444
 21
7.335602777777777
 31
0.0
 12
11.69386527777778
 22
7.334811111111111
 32
0.0
 13
11.78489305555555
 23
7.374352777777778
 33
0.0
  0
SOLID
  5
D6
330
2
100
AcDbEntity
  8
PDF_Layer 1
 62
     7
420
 16777215
440
 33554559
370
    25
100
AcDbTrace
 10
0.190525
 20
4.029975
 30
0.0
 11
0.1991638888888889
 21
4.070975
 31
0.0
 12
0.1376083333333333
 22
4.113933333333333
 32
0.0
 13
0.2346777777777777
 23
4.093238888888889
 33
0.0
  0
SOLID
  5
D7
330
2
100
AcDbEntity
  8
PDF_Layer 1
 62
     7
420
 16777215
440
 33554559
370
    25
100
AcDbTrace
 10
2.144320833333333
 20
2.666544444444444
 30
0.0
 11
2.179834722222222
 21
2.688808333333333
 31
0.0
 12
2.241376388888888
 22
2.645849999999999
 32
0.0
 13
2.188473611111111
 23
2.729822222222222
 33
0.0
  0
SOLID
  5
D8
330
2
100
AcDbEntity
  8
PDF_Layer 1
 62
     7
420
 16777215
440
 33554559
370
    25
100
AcDbTrace
 10
16.05103888888888
 20
7.803649999999997
 30
0.0
 11
16.0189
 21
7.776761111111108
 31
0.0
 12
16.04071944444444
 22
7.704955555555552
 32
0.0
 13
15.97723333333333
 23
7.781219444444442
 33
0.0
  0
SOLID
  5
D9
330
2
100
AcDbEntity
  8
PDF_Layer 1
 62
     7
420
 16777215
440
 33554559
370
    25
100
AcDbTrace
 10
16.12190694444444
 20
7.287747222222222
 30
0.0
 11
16.0835875
 21
7.304747222222222
 31
0.0
 12
16.08478194444444
 22
7.379788888888889
 32
0.0
 13
16.04475416666667
 23
7.288969444444444
 33
0.0
  0
SOLID
  5
DA
330
2
100
AcDbEntity
  8
PDF_Layer 1
 62
     7
420
 16777215
440
 33554559
370
    25
100
AcDbTrace
 10
10.05107916666666
 20
3.674248611111111
 30
0.0
 11
10.01250972222222
 21
3.657859722222222
 31
0.0
 12
10.01250972222222
 22
3.582818055555555
 32
0.0
 13
9.973926388888889
 23
3.674248611111111
 33
0.0
  0
SOLID
  5
DB
330
2
100
AcDbEntity
  8
PDF_Layer 1
 62
     7
420
 16777215
440
 33554559
370
    25
100
AcDbTrace
 10
10.05107916666666
 20
9.767490277777778
 30
0.0
 11
10.01250972222222
 21
9.783879166666666
 31
0.0
 12
10.01250972222222
 22
9.858920833333334
 32
0.0
 13
9.973926388888889
 23
9.767490277777778
 33
0.0
  0
LWPOLYLINE
  5
DF
330
2
100
AcDbEntity
  8
PDF_Layer 1
 62
     7
420
 16777215
370
    25
100
AcDbPolyline
 90
        2
 70
     0
 43
0.0
 10
8.522176388888889
 20
4.909355555555555
 10
7.699051388888888
 20
6.135438888888888
  0
LWPOLYLINE
  5
E0
330
2
100
AcDbEntity
  8
PDF_Layer 1
 62
     7
420
 16777215
370
    25
100
AcDbPolyline
 90
        2
 70
     0
 43
0.0
 10
14.79768888888889
 20
6.584634722222221
 10
11.47236944444444
 20
6.584634722222221
  0
LWPOLYLINE
  5
E1
330
2
100
AcDbEntity
  8
PDF_Layer 1
 62
     7
420
 16777215
370
    25
100
AcDbPolyline
 90
        3
 70
     0
 43
0.0
 10
15.87656527777778
 20
3.582818055555555
 10
11.30457916666666
 20
3.582818055555555
 10
9.896551388888889
 20
3.582818055555555
  0
LWPOLYLINE
  5
E2
330
2
100
AcDbEntity
  8
PDF_Layer 1
 62
     7
420
 16777215
370
    25
100
AcDbPolyline
 90
        2
 70
     0
 43
0.0
 10
15.80227361111111
 20
7.311977777777776
 10
15.80227361111111
 20
3.644991666666665
  0
LWPOLYLINE
  5
E3
330
2
100
AcDbEntity
  8
PDF_Layer 1
 62
     7
420
 16777215
370
    25
100
AcDbPolyline
 90
        2
 70
     0
 43
0.0
 10
7.233704166666665
 20
5.897786111111111
 10
7.688204166666666
 20
6.202827777777778
  0
LWPOLYLINE
  5
E4
330
2
100
AcDbEntity
  8
PDF_Layer 1
 62
     7
420
 16777215
370
    25
100
AcDbPolyline
 90
        2
 70
     0
 43
0.0
 10
11.75604861111111
 20
7.335469444444444
 10
12.60949305555555
 20
7.344413888888889
  0
LWPOLYLINE
  5
E5
330
2
100
AcDbEntity
  8
PDF_Layer 1
 62
     7
420
 16777215
370
    25
100
AcDbPolyline
 90
        2
 70
     0
 43
0.0
 10
0.1886055555555556
 20
4.078341666666667
 10
2.190383333333333
 20
2.68143888888889
  0
LWPOLYLINE
  5
E6
330
2
100
AcDbEntity
  8
PDF_Layer 1
 62
     7
420
 16777215
370
    70
100
AcDbPolyline
 90
       25
 70
     0
 43
0.0
 10
0.6739152777777777
 20
4.783788888888889
 10
0.6739152777777777
 20
4.77965
 10
0.6780402777777777
 20
4.769288888888889
 10
0.6884013888888889
 20
4.756858333333333
 10
0.7029013888888888
 20
4.742372222222222
 10
0.7236097222222221
 20
4.723747222222222
 10
0.7463736111111111
 20
4.703025
 10
0.7732902777777776
 20
4.682316666666666
 10
0.8002208333333332
 20
4.661622222222222
 10
0.8312763888888888
 20
4.638830555555555
 10
0.8602624999999999
 20
4.620205555555555
 10
0.8892486111111109
 20
4.599497222222222
 10
0.9161652777777776
 20
4.584997222222222
 10
0.9410263888888888
 20
4.570511111111111
 10
0.961720833333333
 20
4.56015
 10
0.9762208333333331
 20
4.553941666666666
 10
0.9886513888888886
 20
4.549802777777777
 10
0.994859722222222
 20
4.551886111111111
 10
0.994859722222222
 20
4.553941666666666
 10
0.9969291666666665
 20
4.553941666666666
 10
1.106665277777777
 20
4.754802777777777
 10
1.222623611111111
 20
4.953566666666667
 10
1.342720833333333
 20
5.148219444444444
 10
1.466970833333333
 20
5.338719444444444
 10
1.543581944444444
 20
5.450538888888888
  0
LWPOLYLINE
  5
E7
330
2
100
AcDbEntity
  8
PDF_Layer 1
 62
     7
420
 16777215
370
    70
100
AcDbPolyline
 90
        8
 70
     0
 43
0.0
 10
1.344790277777777
 20
5.576830555555555
 10
1.237123611111111
 20
5.436038888888888
 10
1.09424861111111
 20
5.257955555555555
 10
0.947234722222222
 20
5.086094444444444
 10
0.7981374999999998
 20
4.916316666666666
 10
0.6739152777777777
 20
4.785858333333333
 10
0.6718319444444444
 20
4.781705555555555
 10
0.6697624999999999
 20
4.781705555555555
  0
LWPOLYLINE
  5
E8
330
2
100
AcDbEntity
  8
PDF_Layer 1
 62
     7
420
 16777215
370
    70
100
AcDbPolyline
 90
        5
 70
     0
 43
0.0
 10
0.6531930555555555
 20
4.789997222222222
 10
0.6469847222222221
 20
4.792080555555555
 10
0.6366375
 20
4.789997222222222
 10
0.6304291666666666
 20
4.785858333333333
 10
0.6283458333333332
 20
4.781705555555555
  0
LWPOLYLINE
  5
E9
330
2
100
AcDbEntity
  8
PDF_Layer 1
 62
     7
420
 16777215
370
    70
100
AcDbPolyline
 90
        6
 70
     0
 43
0.0
 10
1.007290277777777
 20
4.508399999999999
 10
1.011415277777777
 20
4.510455555555555
 10
1.013498611111111
 20
4.520816666666666
 10
1.011415277777777
 20
4.529094444444444
 10
1.007290277777777
 20
4.537386111111111
 10
1.003137499999999
 20
4.541511111111111
  0
LWPOLYLINE
  5
EA
330
2
100
AcDbEntity
  8
PDF_Layer 1
 62
     7
420
 16777215
370
    70
100
AcDbPolyline
 90
       46
 70
     0
 43
0.0
 10
0.9700124999999998
 20
4.477330555555555
 10
0.9741513888888887
 20
4.477330555555555
 10
0.9824291666666663
 20
4.4794
 10
0.9907208333333331
 20
4.483552777777777
 10
0.9927902777777775
 20
4.485608333333333
 10
1.009345833333333
 20
4.508399999999999
 10
1.005206944444444
 20
4.506316666666666
 10
0.994859722222222
 20
4.508399999999999
 10
0.980359722222222
 20
4.512538888888888
 10
0.961720833333333
 20
4.520816666666666
 10
0.9368736111111109
 20
4.533247222222222
 10
0.9099569444444442
 20
4.549802777777777
 10
0.8809708333333333
 20
4.568441666666666
 10
0.8499152777777776
 20
4.58915
 10
0.8167763888888886
 20
4.609844444444444
 10
0.7836513888888888
 20
4.634691666666666
 10
0.7525958333333333
 20
4.657469444444444
 10
0.7236097222222221
 20
4.680261111111111
 10
0.6966791666666666
 20
4.703025
 10
0.6739152777777777
 20
4.723747222222222
 10
0.6552763888888889
 20
4.742372222222222
 10
0.6407763888888888
 20
4.758941666666666
 10
0.6304291666666666
 20
4.771358333333333
 10
0.6283458333333332
 20
4.77965
 10
0.6283458333333332
 20
4.783788888888889
 10
0.6117902777777778
 20
4.761011111111111
 10
0.6097208333333333
 20
4.758941666666666
 10
0.6117902777777778
 20
4.752733333333333
 10
0.617998611111111
 20
4.740302777777777
 10
0.6304291666666666
 20
4.727872222222222
 10
0.6469847222222221
 20
4.709247222222222
 10
0.6676930555555554
 20
4.690608333333333
 10
0.6925402777777777
 20
4.667830555555555
 10
0.7215263888888888
 20
4.645052777777777
 10
0.7525958333333333
 20
4.622275
 10
0.7836513888888888
 20
4.597427777777777
 10
0.8167763888888886
 20
4.57465
 10
0.8478458333333332
 20
4.553941666666666
 10
0.8789013888888888
 20
4.535302777777777
 10
0.9078874999999998
 20
4.516663888888889
 10
0.932734722222222
 20
4.504247222222222
 10
0.9534430555555553
 20
4.4939
 10
0.9720819444444442
 20
4.485608333333333
 10
0.9844986111111108
 20
4.483552777777777
 10
0.9907208333333331
 20
4.483552777777777
 10
0.9927902777777775
 20
4.485608333333333
  0
LWPOLYLINE
  5
ED
330
2
100
AcDbEntity
  8
PDF_Layer 1
 62
     7
420
 16777215
370
    70
100
AcDbPolyline
 90
        6
 70
     0
 43
0.0
 10
0.6117902777777778
 20
4.758941666666666
 10
0.6097208333333333
 20
4.756858333333333
 10
0.6076513888888888
 20
4.748594444444444
 10
0.6097208333333333
 20
4.740302777777777
 10
0.6138597222222222
 20
4.732011111111111
 10
0.617998611111111
 20
4.725802777777778
  0
LWPOLYLINE
  5
EF
330
2
100
AcDbEntity
  8
PDF_Layer 1
 62
     7
420
 16777215
370
    70
100
AcDbPolyline
 90
        3
 70
     0
 43
0.0
 10
0.994859722222222
 20
4.547733333333333
 10
0.994859722222222
 20
4.549802777777777
 10
0.9969291666666665
 20
4.553941666666666
  0
LWPOLYLINE
  5
F1
330
2
100
AcDbEntity
  8
PDF_Layer 1
 62
     7
420
 16777215
370
    70
100
AcDbPolyline
 90
        6
 70
     0
 43
0.0
 10
7.072193055555555
 20
5.450538888888888
 10
7.177790277777777
 20
5.295233333333333
 10
7.302040277777777
 20
5.104733333333333
 10
7.420054166666666
 20
4.910094444444444
 10
7.531873611111111
 20
4.713372222222222
 10
7.618845833333332
 20
4.553941666666666
  0
LWPOLYLINE
  5
F2
330
2
100
AcDbEntity
  8
PDF_Layer 1
 62
     7
420
 16777215
370
    70
100
AcDbPolyline
 90
       45
 70
     0
 43
0.0
 10
7.61262361111111
 20
4.543594444444444
 10
7.606415277777776
 20
4.533247222222222
 10
7.604345833333332
 20
4.524955555555555
 10
7.602276388888888
 20
4.516663888888889
 10
7.606415277777776
 20
4.508399999999999
 10
7.622984722222221
 20
4.485608333333333
 10
7.62712361111111
 20
4.483552777777777
 10
7.637484722222222
 20
4.483552777777777
 10
7.651970833333333
 20
4.489761111111111
 10
7.670609722222223
 20
4.498038888888888
 10
7.695456944444443
 20
4.510455555555555
 10
7.72237361111111
 20
4.524955555555555
 10
7.751359722222221
 20
4.543594444444444
 10
7.784498611111111
 20
4.564302777777777
 10
7.815554166666665
 20
4.587080555555555
 10
7.848679166666665
 20
4.609844444444444
 10
7.879734722222221
 20
4.634691666666666
 10
7.908734722222221
 20
4.657469444444444
 10
7.935651388888888
 20
4.680261111111111
 10
7.958429166666666
 20
4.700955555555555
 10
7.977068055555554
 20
4.719594444444444
 10
7.991554166666666
 20
4.734094444444444
 10
8.001915277777776
 20
4.746511111111111
 10
8.006054166666665
 20
4.756858333333333
 10
8.003984722222222
 20
4.761011111111111
 10
7.987415277777777
 20
4.783788888888889
 10
7.983276388888888
 20
4.787927777777778
 10
7.974984722222222
 20
4.792080555555555
 10
7.966706944444443
 20
4.792080555555555
 10
7.956359722222221
 20
4.789997222222222
 10
7.941859722222222
 20
4.783788888888889
 10
7.904581944444443
 20
4.823136111111111
 10
7.749290277777777
 20
4.992913888888889
 10
7.598137499999999
 20
5.164774999999999
 10
7.453193055555555
 20
5.340788888888888
 10
7.312387499999999
 20
5.520927777777777
 10
7.273040277777777
 20
5.576830555555555
 10
7.277193055555555
 20
5.576830555555555
 10
7.291679166666666
 20
5.576830555555555
 10
7.306179166666665
 20
5.583052777777777
 10
7.316526388888888
 20
5.593413888888888
 10
7.320665277777776
 20
5.605830555555555
 10
7.324804166666665
 20
5.622399999999999
 10
7.322734722222222
 20
5.643108333333333
 10
7.320665277777776
 20
5.661747222222222
  0
LWPOLYLINE
  5
F7
330
2
100
AcDbEntity
  8
PDF_Layer 1
 62
     7
420
 16777215
370
    70
100
AcDbPolyline
 90
       11
 70
     0
 43
0.0
 10
7.625054166666666
 20
4.485608333333333
 10
7.62712361111111
 20
4.481469444444444
 10
7.635415277777777
 20
4.477330555555555
 10
7.643693055555554
 20
4.477330555555555
 10
7.656109722222222
 20
4.4794
 10
7.670609722222223
 20
4.485608333333333
 10
7.693387499999999
 20
4.495969444444444
 10
7.716165277777776
 20
4.508399999999999
 10
7.743081944444444
 20
4.522886111111111
 10
7.769998611111111
 20
4.539455555555555
 10
7.792776388888888
 20
4.556011111111111
  0
LWPOLYLINE
  5
F8
330
2
100
AcDbEntity
  8
PDF_Layer 1
 62
     7
420
 16777215
370
    70
100
AcDbPolyline
 90
        5
 70
     0
 43
0.0
 10
7.999831944444443
 20
4.727872222222222
 10
8.003984722222222
 20
4.736163888888889
 10
8.008123611111109
 20
4.744441666666666
 10
8.008123611111109
 20
4.752733333333333
 10
8.003984722222222
 20
4.758941666666666
  0
LWPOLYLINE
  5
F9
330
2
100
AcDbEntity
  8
PDF_Layer 1
 62
     7
420
 16777215
370
    70
100
AcDbPolyline
 90
        3
 70
     0
 43
0.0
 10
7.94599861111111
 20
4.781705555555555
 10
7.941859722222222
 20
4.783788888888889
 10
7.941859722222222
 20
4.785858333333333
  0
LWPOLYLINE
  5
FA
330
2
100
AcDbEntity
  8
PDF_Layer 1
 62
     7
420
 16777215
370
    70
100
AcDbPolyline
 90
       28
 70
     0
 43
0.0
 10
7.943929166666666
 20
4.785858333333333
 10
7.956359722222221
 20
4.787927777777778
 10
7.9646375
 20
4.787927777777778
 10
7.966706944444443
 20
4.783788888888889
 10
7.966706944444443
 20
4.77965
 10
7.9646375
 20
4.777580555555555
 10
7.958429166666666
 20
4.76515
 10
7.94599861111111
 20
4.75065
 10
7.927373611111111
 20
4.734094444444444
 10
7.906651388888889
 20
4.713372222222222
 10
7.879734722222221
 20
4.692677777777777
 10
7.852818055555554
 20
4.6699
 10
7.821762499999999
 20
4.647122222222222
 10
7.790706944444443
 20
4.624344444444444
 10
7.7596375
 20
4.603636111111111
 10
7.728581944444443
 20
4.582941666666666
 10
7.701665277777776
 20
4.566372222222222
 10
7.674748611111111
 20
4.551886111111111
 10
7.651970833333333
 20
4.539455555555555
 10
7.635415277777777
 20
4.531163888888888
 10
7.620915277777776
 20
4.527038888888888
 10
7.61262361111111
 20
4.527038888888888
 10
7.608484722222221
 20
4.531163888888888
 10
7.610568055555554
 20
4.539455555555555
 10
7.616762499999999
 20
4.545663888888888
 10
7.618845833333332
 20
4.549802777777777
 10
7.620915277777776
 20
4.551886111111111
 10
7.620915277777776
 20
4.547733333333333
  0
ARC
  5
FC
330
2
100
AcDbEntity
  8
PDF_Layer 1
 62
     7
420
 16777215
370
    70
100
AcDbCircle
 10
6.886550792612428
 20
5.663530506914006
 30
0.0
 40
0.4328649917815311
100
AcDbArc
 50
356.4728498875902
 51
71.40685093821478
  0
LWPOLYLINE
  5
FE
330
2
100
AcDbEntity
  8
PDF_Layer 1
 62
     7
420
 16777215
370
    70
100
AcDbPolyline
 90
        9
 70
     0
 43
0.0
 10
7.049415277777776
 20
6.065511111111111
 10
7.034915277777777
 20
6.075872222222222
 10
7.014220833333332
 20
6.084149999999999
 10
6.995581944444444
 20
6.088288888888889
 10
6.981081944444444
 20
6.088288888888889
 10
6.968665277777778
 20
6.082080555555555
 10
6.958304166666666
 20
6.071719444444444
 10
6.952095833333332
 20
6.057233333333333
 10
6.952095833333332
 20
6.053080555555555
  0
LWPOLYLINE
  5
101
330
2
100
AcDbEntity
  8
PDF_Layer 1
 62
     7
420
 16777215
370
    70
100
AcDbPolyline
 90
       50
 70
     0
 43
0.0
 10
7.053554166666665
 20
5.438108333333333
 10
7.053554166666665
 20
5.436038888888888
 10
7.07012361111111
 20
5.448455555555555
 10
7.072193055555555
 20
5.450538888888888
 10
7.074262499999999
 20
5.452608333333333
 10
7.078401388888888
 20
5.458816666666666
 10
7.082540277777777
 20
5.46088611111111
 10
7.086679166666666
 20
5.467094444444445
 10
7.090831944444444
 20
5.471247222222222
 10
7.094970833333333
 20
5.475386111111111
 10
7.101179166666667
 20
5.481594444444445
 10
7.107401388888888
 20
5.487802777777777
 10
7.121887499999999
 20
5.498149999999999
 10
7.130165277777777
 20
5.504372222222222
 10
7.13637361111111
 20
5.50851111111111
 10
7.144665277777776
 20
5.514719444444444
 10
7.161234722222221
 20
5.525080555555555
 10
7.169512499999999
 20
5.529219444444444
 10
7.177790277777777
 20
5.533358333333333
 10
7.194359722222222
 20
5.54163611111111
 10
7.202637499999999
 20
5.545774999999999
 10
7.21299861111111
 20
5.549927777777778
 10
7.22749861111111
 20
5.558205555555555
 10
7.235776388888888
 20
5.560274999999999
 10
7.241984722222221
 20
5.564413888888888
 10
7.248193055555555
 20
5.568566666666666
 10
7.254401388888888
 20
5.570622222222222
 10
7.256470833333332
 20
5.572705555555555
 10
7.268901388888887
 20
5.580983333333334
 10
7.256470833333332
 20
5.578913888888888
 10
7.241984722222221
 20
5.583052777777777
 10
7.223345833333332
 20
5.591330555555555
 10
7.202637499999999
 20
5.605830555555555
 10
7.179859722222222
 20
5.626538888888888
 10
7.155012499999998
 20
5.65138611111111
 10
7.128095833333333
 20
5.678302777777777
 10
7.101179166666667
 20
5.711441666666666
 10
7.076331944444444
 20
5.746636111111111
 10
7.051484722222221
 20
5.781830555555555
 10
7.026637499999999
 20
5.819108333333333
 10
7.005929166666666
 20
5.856372222222222
 10
6.987304166666666
 20
5.891580555555555
 10
6.970734722222221
 20
5.926788888888888
 10
6.958304166666666
 20
5.957844444444444
 10
6.950026388888888
 20
5.986830555555555
 10
6.945887499999999
 20
6.009608333333333
 10
6.945887499999999
 20
6.028233333333333
 10
6.950026388888888
 20
6.042733333333333
 10
6.952095833333332
 20
6.046872222222222
 10
6.738818055555555
 20
5.903997222222222
  0
LWPOLYLINE
  5
102
330
2
100
AcDbEntity
  8
PDF_Layer 1
 62
     7
420
 16777215
370
    70
100
AcDbPolyline
 90
        8
 70
     0
 43
0.0
 10
6.740887499999999
 20
5.90815
 10
6.728470833333332
 20
5.910205555555555
 10
6.713970833333332
 20
5.90815
 10
6.701540277777777
 20
5.901941666666666
 10
6.693262499999999
 20
5.891580555555555
 10
6.687054166666666
 20
5.87915
 10
6.684984722222222
 20
5.862594444444444
 10
6.687054166666666
 20
5.839816666666666
  0
LWPOLYLINE
  5
103
330
2
100
AcDbEntity
  8
PDF_Layer 1
 62
     7
420
 16777215
370
    70
100
AcDbPolyline
 90
        8
 70
     0
 43
0.0
 10
6.9790125
 20
5.411191666666667
 10
6.995581944444444
 20
5.402913888888889
 10
7.012151388888888
 20
5.39876111111111
 10
7.026637499999999
 20
5.39876111111111
 10
7.039068055555555
 20
5.404969444444444
 10
7.049415277777776
 20
5.415344444444444
 10
7.05562361111111
 20
5.42776111111111
 10
7.057693055555555
 20
5.440191666666666
  0
LWPOLYLINE
  5
104
330
2
100
AcDbEntity
  8
PDF_Layer 1
 62
     7
420
 16777215
370
    70
100
AcDbPolyline
 90
       24
 70
     0
 43
0.0
 10
6.687054166666666
 20
5.854302777777777
 10
6.678776388888889
 20
5.835663888888888
 10
6.668415277777776
 20
5.804608333333333
 10
6.662206944444444
 20
5.771483333333333
 10
6.662206944444444
 20
5.740427777777777
 10
6.664276388888888
 20
5.709358333333333
 10
6.668415277777776
 20
5.68038611111111
 10
6.670484722222222
 20
5.672094444444444
 10
6.678776388888889
 20
5.65138611111111
 10
6.691193055555554
 20
5.624469444444444
 10
6.705693055555555
 20
5.597552777777777
 10
6.722262499999999
 20
5.568566666666666
 10
6.740887499999999
 20
5.54163611111111
 10
6.761595833333332
 20
5.514719444444444
 10
6.782304166666666
 20
5.491941666666666
 10
6.800943055555555
 20
5.471247222222222
 10
6.81749861111111
 20
5.456747222222221
 10
6.819568055555556
 20
5.456747222222221
 10
6.827859722222221
 20
5.450538888888888
 10
6.856845833333332
 20
5.433969444444444
 10
6.889970833333332
 20
5.419469444444444
 10
6.923095833333333
 20
5.411191666666667
 10
6.958304166666666
 20
5.407052777777777
 10
6.987304166666666
 20
5.407052777777777
  0
LWPOLYLINE
  5
106
330
2
100
AcDbEntity
  8
PDF_Layer 1
 62
     7
420
 16777215
370
    70
100
AcDbPolyline
 90
       16
 70
     0
 43
0.0
 10
1.589137499999999
 20
6.073802777777777
 10
1.580845833333333
 20
6.071719444444444
 10
1.543581944444444
 20
6.055163888888889
 10
1.50837361111111
 20
6.036525
 10
1.477318055555555
 20
6.015816666666666
 10
1.44624861111111
 20
5.990969444444444
 10
1.419331944444444
 20
5.966122222222222
 10
1.394484722222222
 20
5.939205555555555
 10
1.377929166666666
 20
5.916427777777777
 10
1.355151388888888
 20
5.881219444444444
 10
1.334443055555555
 20
5.841872222222222
 10
1.319943055555555
 20
5.802538888888888
 10
1.307526388888888
 20
5.763191666666666
 10
1.299248611111111
 20
5.721788888888888
 10
1.295095833333333
 20
5.676233333333333
 10
1.297179166666666
 20
5.638955555555555
  0
LWPOLYLINE
  5
108
330
2
100
AcDbEntity
  8
PDF_Layer 1
 62
     7
420
 16777215
370
    70
100
AcDbPolyline
 90
        9
 70
     0
 43
0.0
 10
1.663679166666666
 20
6.048955555555555
 10
1.661595833333333
 20
6.063455555555555
 10
1.653318055555555
 20
6.075872222222222
 10
1.642970833333333
 20
6.084149999999999
 10
1.628470833333333
 20
6.088288888888889
 10
1.613984722222221
 20
6.088288888888889
 10
1.597415277777777
 20
6.084149999999999
 10
1.578776388888888
 20
6.073802777777777
 10
1.566345833333333
 20
6.065511111111111
  0
LWPOLYLINE
  5
109
330
2
100
AcDbEntity
  8
PDF_Layer 1
 62
     7
420
 16777215
370
    70
100
AcDbPolyline
 90
        9
 70
     0
 43
0.0
 10
1.297179166666666
 20
5.663802777777777
 10
1.293026388888888
 20
5.643108333333333
 10
1.290956944444444
 20
5.620316666666666
 10
1.295095833333333
 20
5.60376111111111
 10
1.301304166666666
 20
5.591330555555555
 10
1.313734722222221
 20
5.580983333333334
 10
1.326165277777777
 20
5.576830555555555
 10
1.340651388888888
 20
5.576830555555555
 10
1.355151388888888
 20
5.580983333333334
  0
LWPOLYLINE
  5
10A
330
2
100
AcDbEntity
  8
PDF_Layer 1
 62
     7
420
 16777215
370
    70
100
AcDbPolyline
 90
       68
 70
     1
 43
0.0
 10
1.663679166666666
 20
6.046872222222222
 10
1.66574861111111
 20
6.042733333333333
 10
1.669887499999999
 20
6.028233333333333
 10
1.669887499999999
 20
6.009608333333333
 10
1.66574861111111
 20
5.986830555555555
 10
1.657470833333333
 20
5.957844444444444
 10
1.645040277777777
 20
5.926788888888888
 10
1.628470833333333
 20
5.891580555555555
 10
1.609831944444444
 20
5.856372222222222
 10
1.589137499999999
 20
5.819108333333333
 10
1.564290277777777
 20
5.781830555555555
 10
1.539429166666666
 20
5.746636111111111
 10
1.514581944444444
 20
5.711441666666666
 10
1.487665277777777
 20
5.678302777777777
 10
1.46074861111111
 20
5.65138611111111
 10
1.435901388888888
 20
5.626538888888888
 10
1.41312361111111
 20
5.605830555555555
 10
1.392429166666666
 20
5.591330555555555
 10
1.373790277777777
 20
5.583052777777777
 10
1.359290277777777
 20
5.578913888888888
 10
1.351012499999999
 20
5.578913888888888
 10
1.359290277777777
 20
5.572705555555555
 10
1.363429166666666
 20
5.570622222222222
 10
1.369637499999999
 20
5.566483333333333
 10
1.382068055555555
 20
5.560274999999999
 10
1.388276388888888
 20
5.558205555555555
 10
1.396554166666666
 20
5.554066666666666
 10
1.41312361111111
 20
5.545774999999999
 10
1.421401388888888
 20
5.54163611111111
 10
1.429693055555555
 20
5.537497222222222
 10
1.440040277777777
 20
5.533358333333333
 10
1.448331944444444
 20
5.527136111111111
 10
1.458679166666666
 20
5.520927777777777
 10
1.466970833333333
 20
5.516788888888888
 10
1.483526388888888
 20
5.506441666666666
 10
1.491818055555555
 20
5.500233333333333
 10
1.498026388888888
 20
5.496094444444444
 10
1.510443055555555
 20
5.485733333333333
 10
1.516651388888888
 20
5.479524999999999
 10
1.520804166666666
 20
5.475386111111111
 10
1.529081944444444
 20
5.467094444444445
 10
1.533220833333333
 20
5.462955555555556
 10
1.53737361111111
 20
5.458816666666666
 10
1.54149861111111
 20
5.452608333333333
 10
1.543581944444444
 20
5.450538888888888
 10
1.545651388888888
 20
5.448455555555555
 10
1.562220833333332
 20
5.436038888888888
 10
1.564290277777777
 20
5.436038888888888
 10
1.574637499999999
 20
5.433969444444444
 10
1.591206944444444
 20
5.436038888888888
 10
1.607762499999999
 20
5.4464
 10
1.630554166666666
 20
5.46088611111111
 10
1.653318055555555
 20
5.481594444444445
 10
1.678165277777777
 20
5.506441666666666
 10
1.703012499999999
 20
5.533358333333333
 10
1.729929166666666
 20
5.566483333333333
 10
1.756859722222221
 20
5.601691666666666
 10
1.781706944444444
 20
5.636899999999999
 10
1.804470833333333
 20
5.674163888888888
 10
1.825179166666666
 20
5.711441666666666
 10
1.845887499999999
 20
5.746636111111111
 10
1.860387499999999
 20
5.781830555555555
 10
1.872804166666666
 20
5.812899999999999
 10
1.881095833333333
 20
5.839816666666666
 10
1.885234722222222
 20
5.864663888888888
 10
1.887304166666666
 20
5.883302777777777
 10
1.883165277777777
 20
5.897788888888888
 10
1.876956944444444
 20
5.903997222222222
  0
LWPOLYLINE
  5
10D
330
2
100
AcDbEntity
  8
PDF_Layer 1
 62
     7
420
 16777215
370
    70
100
AcDbPolyline
 90
        9
 70
     0
 43
0.0
 10
1.928720833333333
 20
5.839816666666666
 10
1.928720833333333
 20
5.848094444444444
 10
1.928720833333333
 20
5.868802777777777
 10
1.926651388888888
 20
5.885358333333333
 10
1.918359722222222
 20
5.897788888888888
 10
1.908012499999999
 20
5.906080555555555
 10
1.893512499999999
 20
5.910205555555555
 10
1.879026388888888
 20
5.910205555555555
 10
1.872804166666666
 20
5.90815
  0
LWPOLYLINE
  5
10E
330
2
100
AcDbEntity
  8
PDF_Layer 1
 62
     7
420
 16777215
370
    70
100
AcDbPolyline
 90
        8
 70
     0
 43
0.0
 10
1.558068055555555
 20
5.442247222222222
 10
1.560137499999999
 20
5.425691666666667
 10
1.568429166666666
 20
5.411191666666667
 10
1.578776388888888
 20
5.402913888888889
 10
1.591206944444444
 20
5.39876111111111
 10
1.605693055555555
 20
5.39876111111111
 10
1.622262499999999
 20
5.402913888888889
 10
1.628470833333333
 20
5.407052777777777
  0
LWPOLYLINE
  5
10F
330
2
100
AcDbEntity
  8
PDF_Layer 1
 62
     7
420
 16777215
370
    70
100
AcDbPolyline
 90
        7
 70
     0
 43
0.0
 10
1.945276388888888
 20
5.678302777777777
 10
1.949429166666666
 20
5.699011111111111
 10
1.953568055555555
 20
5.732136111111111
 10
1.953568055555555
 20
5.767344444444444
 10
1.947359722222222
 20
5.802538888888888
 10
1.936998611111111
 20
5.837747222222222
 10
1.928720833333333
 20
5.854302777777777
  0
LWPOLYLINE
  5
110
330
2
100
AcDbEntity
  8
PDF_Layer 1
 62
     7
420
 16777215
370
    70
100
AcDbPolyline
 90
        7
 70
     0
 43
0.0
 10
1.620193055555555
 20
5.407052777777777
 10
1.653318055555555
 20
5.404969444444444
 10
1.686443055555555
 20
5.409122222222221
 10
1.717512499999999
 20
5.417399999999999
 10
1.74649861111111
 20
5.42776111111111
 10
1.773415277777777
 20
5.442247222222222
 10
1.798262499999999
 20
5.458816666666666
  0
LWPOLYLINE
  5
111
330
2
100
AcDbEntity
  8
PDF_Layer 1
 62
     7
420
 16777215
370
    70
100
AcDbPolyline
 90
       67
 70
     0
 43
0.0
 10
4.661970833333333
 20
8.194136111111109
 10
4.661970833333333
 20
8.196205555555554
 10
4.655748611111111
 20
8.208636111111111
 10
4.645401388888888
 20
8.218983333333333
 10
4.626762499999999
 20
8.2314
 10
4.601915277777776
 20
8.241761111111109
 10
4.572929166666666
 20
8.252108333333332
 10
4.537720833333333
 20
8.2604
 10
4.498387499999999
 20
8.266608333333334
 10
4.456970833333333
 20
8.270747222222222
 10
4.413484722222221
 20
8.27488611111111
 10
4.367929166666666
 20
8.276955555555556
 10
4.324443055555555
 20
8.276955555555556
 10
4.280970833333332
 20
8.27488611111111
 10
4.239554166666666
 20
8.270747222222222
 10
4.200206944444444
 20
8.264538888888889
 10
4.165012499999999
 20
8.258316666666665
 10
4.136026388888888
 20
8.250038888888889
 10
4.111179166666666
 20
8.239691666666667
 10
4.092540277777777
 20
8.229330555555556
 10
4.080109722222221
 20
8.216913888888889
 10
4.075970833333332
 20
8.204483333333332
 10
4.073901388888888
 20
8.202413888888887
 10
4.078040277777777
 20
8.214830555555554
 10
4.088401388888888
 20
8.225191666666667
 10
4.104956944444444
 20
8.237622222222221
 10
4.129804166666666
 20
8.247969444444443
 10
4.156720833333332
 20
8.256247222222221
 10
4.191929166666666
 20
8.262469444444445
 10
4.229206944444444
 20
8.268677777777776
 10
4.270609722222221
 20
8.272816666666667
 10
4.314095833333333
 20
8.276955555555556
 10
4.357581944444444
 20
8.276955555555556
 10
4.403137499999999
 20
8.27488611111111
 10
4.446609722222222
 20
8.272816666666667
 10
4.490095833333333
 20
8.268677777777776
 10
4.529443055555555
 20
8.2604
 10
4.564637499999999
 20
8.254177777777776
 10
4.595706944444443
 20
8.243830555555556
 10
4.620554166666666
 20
8.233469444444443
 10
4.641262499999999
 20
8.223122222222222
 10
4.653679166666665
 20
8.210705555555556
 10
4.659887499999999
 20
8.198274999999998
 10
4.661970833333333
 20
8.192066666666665
 10
4.664040277777777
 20
8.390844444444443
 10
4.666109722222222
 20
8.440538888888887
 10
4.668179166666666
 20
8.531649999999999
 10
4.668179166666666
 20
8.62276111111111
 10
4.670248611111111
 20
8.711788888888889
 10
4.672318055555555
 20
8.796691666666665
 10
4.672318055555555
 20
8.877441666666666
 10
4.674387499999999
 20
8.95613611111111
 10
4.676456944444444
 20
9.032747222222221
 10
4.676456944444444
 20
9.103136111111112
 10
4.678526388888888
 20
9.169399999999999
 10
4.678526388888888
 20
9.231524999999997
 10
4.680609722222222
 20
9.289497222222221
 10
4.680609722222222
 20
9.34126111111111
 10
4.680609722222222
 20
9.388899999999999
 10
4.682665277777777
 20
9.43238611111111
 10
4.682665277777777
 20
9.469649999999997
 10
4.682665277777777
 20
9.500705555555555
 10
4.684734722222222
 20
9.525566666666666
 10
4.684734722222222
 20
9.544191666666666
 10
4.684734722222222
 20
9.558691666666668
 10
4.684734722222222
 20
9.564899999999999
 10
4.684734722222222
 20
9.566969444444442
  0
LWPOLYLINE
  5
112
330
2
100
AcDbEntity
  8
PDF_Layer 1
 62
     7
420
 16777215
370
    70
100
AcDbPolyline
 90
      119
 70
     0
 43
0.0
 10
3.972443055555555
 20
7.512886111111111
 10
3.972443055555555
 20
7.517038888888889
 10
3.980720833333333
 20
7.529455555555555
 10
3.997290277777777
 20
7.541886111111111
 10
4.01799861111111
 20
7.554302777777778
 10
4.046984722222221
 20
7.566733333333333
 10
4.080109722222221
 20
7.577080555555555
 10
4.1173875
 20
7.585372222222222
 10
4.16087361111111
 20
7.591580555555555
 10
4.206415277777777
 20
7.597788888888889
 10
4.25612361111111
 20
7.601927777777778
 10
4.305818055555555
 20
7.603997222222222
 10
4.357581944444444
 20
7.603997222222222
 10
4.409345833333333
 20
7.601927777777778
 10
4.459040277777777
 20
7.597788888888889
 10
4.508734722222222
 20
7.59365
 10
4.554290277777777
 20
7.585372222222222
 10
4.595706944444443
 20
7.577080555555555
 10
4.635040277777776
 20
7.566733333333333
 10
4.668179166666666
 20
7.556372222222222
 10
4.695095833333332
 20
7.543955555555555
 10
4.717873611111111
 20
7.531525
 10
4.73237361111111
 20
7.517038888888889
 10
4.740651388888888
 20
7.504608333333333
 10
4.742720833333333
 20
7.500469444444444
 10
4.717873611111111
 20
7.616427777777778
 10
4.695095833333332
 20
7.76551111111111
 10
4.678526388888888
 20
7.912525
 10
4.666109722222222
 20
8.061608333333333
 10
4.661970833333333
 20
8.194136111111109
 10
4.664040277777777
 20
8.279038888888887
 10
4.664040277777777
 20
8.374275
 10
4.666109722222222
 20
8.469524999999999
 10
4.668179166666666
 20
8.56063611111111
 10
4.670248611111111
 20
8.649677777777776
 10
4.670248611111111
 20
8.736636111111112
 10
4.672318055555555
 20
8.821538888888888
 10
4.674387499999999
 20
8.902302777777777
 10
4.674387499999999
 20
8.980983333333334
 10
4.676456944444444
 20
9.053455555555554
 10
4.676456944444444
 20
9.123858333333332
 10
4.678526388888888
 20
9.190108333333334
 10
4.678526388888888
 20
9.250163888888888
 10
4.680609722222222
 20
9.306066666666666
 10
4.680609722222222
 20
9.357830555555555
 10
4.682665277777777
 20
9.40338611111111
 10
4.682665277777777
 20
9.444802777777777
 10
4.682665277777777
 20
9.479997222222221
 10
4.682665277777777
 20
9.508997222222221
 10
4.684734722222222
 20
9.531774999999999
 10
4.684734722222222
 20
9.550399999999999
 10
4.684734722222222
 20
9.562830555555557
 10
4.684734722222222
 20
9.569038888888888
 10
4.684734722222222
 20
9.571108333333331
 10
4.684734722222222
 20
9.573177777777777
 10
4.684734722222222
 20
9.575247222222222
 10
4.684734722222222
 20
9.577330555555555
 10
4.684734722222222
 20
9.585608333333333
 10
4.682665277777777
 20
9.598024999999999
 10
4.680609722222222
 20
9.618733333333333
 10
4.676456944444444
 20
9.64151111111111
 10
4.666109722222222
 20
9.676719444444444
 10
4.649540277777777
 20
9.713983333333331
 10
4.630901388888887
 20
9.740899999999999
 10
4.608123611111111
 20
9.769886111111111
 10
4.581206944444444
 20
9.796816666666664
 10
4.552220833333333
 20
9.819580555555553
 10
4.517026388888888
 20
9.838219444444444
 10
4.481818055555555
 20
9.852719444444444
 10
4.442484722222221
 20
9.863066666666666
 10
4.39899861111111
 20
9.867219444444444
 10
4.357581944444444
 20
9.865136111111109
 10
4.318234722222221
 20
9.856858333333333
 10
4.280970833333332
 20
9.844441666666664
 10
4.247831944444444
 20
9.829941666666666
 10
4.216776388888888
 20
9.809233333333331
 10
4.189859722222221
 20
9.786455555555555
 10
4.167081944444444
 20
9.763677777777777
 10
4.148443055555556
 20
9.73676111111111
 10
4.13187361111111
 20
9.711913888888888
 10
4.119456944444443
 20
9.687066666666666
 10
4.111179166666666
 20
9.662219444444442
 10
4.104956944444444
 20
9.639441666666666
 10
4.100818055555555
 20
9.618733333333333
 10
4.098748611111111
 20
9.602177777777775
 10
4.098748611111111
 20
9.591816666666666
 10
4.098748611111111
 20
9.585608333333333
 10
4.098748611111111
 20
9.583538888888888
 10
4.096679166666667
 20
9.581455555555553
 10
4.096679166666667
 20
9.579399999999999
 10
4.096679166666667
 20
9.575247222222222
 10
4.096679166666667
 20
9.566969444444442
 10
4.096679166666667
 20
9.552483333333332
 10
4.096679166666667
 20
9.531774999999999
 10
4.096679166666667
 20
9.506927777777777
 10
4.096679166666667
 20
9.473788888888888
 10
4.094609722222222
 20
9.43651111111111
 10
4.094609722222222
 20
9.395108333333332
 10
4.094609722222222
 20
9.345413888888888
 10
4.092540277777777
 20
9.293649999999999
 10
4.092540277777777
 20
9.235663888888888
 10
4.090470833333333
 20
9.171469444444444
 10
4.090470833333333
 20
9.105219444444443
 10
4.088401388888888
 20
9.032747222222221
 10
4.086318055555555
 20
8.958191666666666
 10
4.086318055555555
 20
8.877441666666666
 10
4.0842625
 20
8.796691666666665
 10
4.082193055555555
 20
8.709719444444443
 10
4.082193055555555
 20
8.62276111111111
 10
4.080109722222221
 20
8.531649999999999
 10
4.078040277777777
 20
8.438469444444443
 10
4.078040277777777
 20
8.399136111111111
 10
4.073901388888888
 20
8.202413888888887
 10
4.071831944444443
 20
8.154788888888887
 10
4.059401388888888
 20
8.007774999999998
 10
4.040776388888889
 20
7.860761111111111
 10
4.015929166666666
 20
7.717886111111111
 10
3.986929166666666
 20
7.575011111111111
 10
3.97037361111111
 20
7.512886111111111
  0
LWPOLYLINE
  5
115
330
2
100
AcDbEntity
  8
PDF_Layer 1
 62
     7
420
 16777215
370
    70
100
AcDbPolyline
 90
        2
 70
     0
 43
0.0
 10
4.059401388888888
 20
7.305830555555555
 10
4.030415277777777
 20
5.527136111111111
  0
LWPOLYLINE
  5
116
330
2
100
AcDbEntity
  8
PDF_Layer 1
 62
     7
420
 16777215
370
    70
100
AcDbPolyline
 90
        2
 70
     0
 43
0.0
 10
4.618484722222221
 20
5.516788888888888
 10
4.647470833333332
 20
7.295483333333333
  0
LWPOLYLINE
  5
117
330
2
100
AcDbEntity
  8
PDF_Layer 1
 62
     7
420
 16777215
370
    70
100
AcDbPolyline
 90
        2
 70
     0
 43
0.0
 10
1.792054166666666
 20
5.454677777777777
 10
2.380109722222222
 20
5.059177777777778
  0
LWPOLYLINE
  5
118
330
2
100
AcDbEntity
  8
PDF_Layer 1
 62
     7
420
 16777215
370
    70
100
AcDbPolyline
 90
        2
 70
     0
 43
0.0
 10
2.535415277777777
 20
5.291094444444444
 10
1.947359722222222
 20
5.684511111111111
  0
LWPOLYLINE
  5
119
330
2
100
AcDbEntity
  8
PDF_Layer 1
 62
     7
420
 16777215
370
    70
100
AcDbPolyline
 90
        2
 70
     0
 43
0.0
 10
6.668415277777776
 20
5.684511111111111
 10
6.080359722222222
 20
5.291094444444444
  0
LWPOLYLINE
  5
11A
330
2
100
AcDbEntity
  8
PDF_Layer 1
 62
     7
420
 16777215
370
    70
100
AcDbPolyline
 90
        2
 70
     0
 43
0.0
 10
6.235651388888888
 20
5.059177777777778
 10
6.823720833333332
 20
5.454677777777777
  0
LWPOLYLINE
  5
11B
330
2
100
AcDbEntity
  8
PDF_Layer 1
 62
     7
420
 16777215
370
    70
100
AcDbPolyline
 90
       41
 70
     0
 43
0.0
 10
3.974512499999999
 20
7.512886111111111
 10
3.960012499999999
 20
7.506677777777778
 10
3.939304166666666
 20
7.490108333333333
 10
3.92274861111111
 20
7.473552777777777
 10
3.914456944444443
 20
7.454913888888889
 10
3.90824861111111
 20
7.436275
 10
3.90824861111111
 20
7.415580555555555
 10
3.914456944444443
 20
7.394858333333333
 10
3.924818055555555
 20
7.378302777777777
 10
3.939304166666666
 20
7.361733333333333
 10
3.960012499999999
 20
7.347247222222222
 10
3.986929166666666
 20
7.330677777777777
 10
4.020068055555555
 20
7.318247222222222
 10
4.057345833333332
 20
7.305830555555555
 10
4.096679166666667
 20
7.295483333333333
 10
4.140165277777778
 20
7.287191666666666
 10
4.185720833333332
 20
7.278913888888888
 10
4.233345833333332
 20
7.274761111111111
 10
4.283040277777777
 20
7.270636111111111
 10
4.332734722222222
 20
7.268552777777777
 10
4.38449861111111
 20
7.266483333333333
 10
4.434193055555555
 20
7.268552777777777
 10
4.481818055555555
 20
7.270636111111111
 10
4.529443055555555
 20
7.274761111111111
 10
4.57499861111111
 20
7.280983333333333
 10
4.618484722222221
 20
7.289261111111111
 10
4.655748611111111
 20
7.297552777777777
 10
4.693026388888887
 20
7.3079
 10
4.724081944444444
 20
7.320330555555555
 10
4.753068055555554
 20
7.336886111111111
 10
4.773776388888888
 20
7.351386111111111
 10
4.788276388888887
 20
7.367941666666666
 10
4.79862361111111
 20
7.386580555555555
 10
4.8027625
 20
7.405219444444444
 10
4.8027625
 20
7.427997222222222
 10
4.796554166666665
 20
7.446636111111111
 10
4.786206944444443
 20
7.463191666666666
 10
4.769637499999999
 20
7.479761111111111
 10
4.748929166666665
 20
7.494261111111111
 10
4.722012499999999
 20
7.510830555555555
 10
4.715804166666665
 20
7.512886111111111
  0
LWPOLYLINE
  5
122
330
2
100
AcDbEntity
  8
PDF_Layer 1
 62
     7
420
 16777215
370
    70
100
AcDbPolyline
 90
       81
 70
     0
 43
0.0
 10
4.73649861111111
 20
5.384274999999999
 10
4.738581944444444
 20
5.380122222222222
 10
4.744790277777776
 20
5.367705555555555
 10
4.746859722222223
 20
5.349066666666666
 10
4.742720833333333
 20
5.015691666666667
 10
4.738581944444444
 20
5.015691666666667
 10
4.728220833333333
 20
5.015691666666667
 10
4.711651388888888
 20
5.017775
 10
4.688887499999998
 20
5.017775
 10
4.659887499999999
 20
5.019844444444444
 10
4.626762499999999
 20
5.019844444444444
 10
4.587429166666666
 20
5.0219
 10
4.543943055555555
 20
5.0219
 10
4.498387499999999
 20
5.023983333333333
 10
4.448693055555555
 20
5.023983333333333
 10
4.396929166666666
 20
5.026052777777778
 10
4.343081944444444
 20
5.026052777777778
 10
4.28924861111111
 20
5.028122222222222
 10
4.237484722222221
 20
5.028122222222222
 10
4.185720833333332
 20
5.028122222222222
 10
4.136026388888888
 20
5.030191666666667
 10
4.088401388888888
 20
5.030191666666667
 10
4.044915277777777
 20
5.030191666666667
 10
4.005568055555555
 20
5.030191666666667
 10
3.972443055555555
 20
5.030191666666667
 10
3.943456944444443
 20
5.030191666666667
 10
3.920679166666666
 20
5.030191666666667
 10
3.904109722222221
 20
5.030191666666667
 10
3.893762499999999
 20
5.030191666666667
 10
3.891679166666666
 20
5.028122222222222
 10
3.895831944444444
 20
5.361497222222221
 10
3.895831944444444
 20
5.363566666666667
 10
3.899970833333333
 20
5.382205555555556
 10
3.90824861111111
 20
5.396705555555556
 10
3.910318055555555
 20
5.396705555555556
 10
3.920679166666666
 20
5.396705555555556
 10
3.937248611111111
 20
5.396705555555556
 10
3.960012499999999
 20
5.396705555555556
 10
3.989012499999999
 20
5.396705555555556
 10
4.024206944444443
 20
5.396705555555556
 10
4.063554166666666
 20
5.396705555555556
 10
4.107040277777777
 20
5.396705555555556
 10
4.154651388888888
 20
5.396705555555556
 10
4.204345833333333
 20
5.394622222222221
 10
4.25612361111111
 20
5.394622222222221
 10
4.309956944444444
 20
5.394622222222221
 10
4.361720833333333
 20
5.392552777777777
 10
4.415568055555555
 20
5.392552777777777
 10
4.46524861111111
 20
5.390483333333333
 10
4.514943055555555
 20
5.390483333333333
 10
4.560512499999999
 20
5.388413888888888
 10
4.601915277777776
 20
5.388413888888888
 10
4.639193055555555
 20
5.386344444444444
 10
4.670248611111111
 20
5.386344444444444
 10
4.697165277777776
 20
5.384274999999999
 10
4.715804166666665
 20
5.384274999999999
 10
4.730290277777776
 20
5.384274999999999
 10
4.73649861111111
 20
5.382205555555556
 10
4.647470833333332
 20
5.514719444444444
 10
4.639193055555555
 20
5.516788888888888
 10
4.626762499999999
 20
5.516788888888888
 10
4.606054166666665
 20
5.516788888888888
 10
4.579137499999999
 20
5.518872222222221
 10
4.548081944444444
 20
5.518872222222221
 10
4.51287361111111
 20
5.520927777777777
 10
4.471456944444444
 20
5.520927777777777
 10
4.427984722222221
 20
5.522997222222222
 10
4.382429166666666
 20
5.522997222222222
 10
4.33687361111111
 20
5.525080555555555
 10
4.28924861111111
 20
5.525080555555555
 10
4.243693055555555
 20
5.525080555555555
 10
4.198137499999999
 20
5.527136111111111
 10
4.156720833333332
 20
5.527136111111111
 10
4.1173875
 20
5.527136111111111
 10
4.0842625
 20
5.527136111111111
 10
4.055262499999999
 20
5.527136111111111
 10
4.032484722222221
 20
5.527136111111111
 10
4.015929166666666
 20
5.527136111111111
 10
4.005568055555555
 20
5.527136111111111
 10
4.001429166666666
 20
5.525080555555555
 10
3.90824861111111
 20
5.396705555555556
  0
LWPOLYLINE
  5
124
330
2
100
AcDbEntity
  8
PDF_Layer 1
 62
     7
420
 16777215
370
    70
100
AcDbPolyline
 90
       12
 70
     0
 43
0.0
 10
5.473651388888888
 20
4.247497222222222
 10
6.320554166666666
 20
4.893525
 10
6.322623611111111
 20
4.893525
 10
6.335040277777777
 20
4.908025
 10
6.343318055555555
 20
4.924594444444444
 10
6.347470833333332
 20
4.94115
 10
6.347470833333332
 20
4.961858333333333
 10
6.345401388888888
 20
4.986705555555555
 10
6.337109722222223
 20
5.017775
 10
6.324693055555555
 20
5.0509
 10
6.310193055555555
 20
5.084025
 10
6.301915277777777
 20
5.102663888888889
  0
LWPOLYLINE
  5
125
330
2
100
AcDbEntity
  8
PDF_Layer 1
 62
     7
420
 16777215
370
    70
100
AcDbPolyline
 90
       25
 70
     0
 43
0.0
 10
6.146609722222221
 20
5.334580555555556
 10
6.130054166666666
 20
5.353219444444444
 10
6.10312361111111
 20
5.378066666666666
 10
6.080359722222222
 20
5.400844444444444
 10
6.055512499999999
 20
5.419469444444444
 10
6.030665277777777
 20
5.431899999999999
 10
6.009956944444444
 20
5.440191666666666
 10
5.991318055555555
 20
5.442247222222222
 10
5.972679166666665
 20
5.438108333333333
 10
5.958179166666667
 20
5.431899999999999
 10
5.0408875
 20
4.893525
 10
5.038818055555555
 20
4.891469444444444
 10
5.030540277777777
 20
4.883177777777778
 10
5.026401388888888
 20
4.866622222222222
 10
5.026401388888888
 20
4.8459
 10
5.028470833333332
 20
4.821052777777778
 10
5.03674861111111
 20
4.792080555555555
 10
5.047109722222222
 20
4.758941666666666
 10
5.061595833333333
 20
4.721663888888889
 10
5.078165277777777
 20
4.6844
 10
5.100943055555554
 20
4.642983333333333
 10
5.123720833333332
 20
4.599497222222222
 10
5.148568055555555
 20
4.558094444444444
 10
5.177554166666667
 20
4.514608333333333
 10
5.206540277777777
 20
4.473191666666666
  0
LWPOLYLINE
  5
128
330
2
100
AcDbEntity
  8
PDF_Layer 1
 62
     7
420
 16777215
370
    70
100
AcDbPolyline
 90
        8
 70
     0
 43
0.0
 10
5.03674861111111
 20
4.908025
 10
5.020179166666665
 20
4.910094444444444
 10
5.00362361111111
 20
4.908025
 10
4.987054166666665
 20
4.901816666666666
 10
4.974623611111111
 20
4.889386111111111
 10
4.966345833333333
 20
4.874886111111111
 10
4.9601375
 20
4.856261111111111
 10
4.9601375
 20
4.835552777777778
  0
LWPOLYLINE
  5
129
330
2
100
AcDbEntity
  8
PDF_Layer 1
 62
     7
420
 16777215
370
    70
100
AcDbPolyline
 90
        9
 70
     0
 43
0.0
 10
5.394970833333332
 20
4.193663888888888
 10
5.411540277777777
 20
4.187441666666666
 10
5.43224861111111
 20
4.185372222222222
 10
5.448804166666667
 20
4.187441666666666
 10
5.463304166666666
 20
4.195719444444444
 10
5.475734722222221
 20
4.208149999999999
 10
5.484012499999999
 20
4.224719444444444
 10
5.488151388888888
 20
4.241274999999999
 10
5.488151388888888
 20
4.243358333333333
  0
LWPOLYLINE
  5
12A
330
2
100
AcDbEntity
  8
PDF_Layer 1
 62
     7
420
 16777215
370
    70
100
AcDbPolyline
 90
       18
 70
     1
 43
0.0
 10
5.380484722222221
 20
4.195719444444444
 10
5.405331944444444
 20
4.18951111111111
 10
5.397040277777775
 20
4.191580555555553
 42
-0.1091092356399363
 10
5.152706944444444
 20
4.433858333333333
 10
5.121651388888889
 20
4.477330555555555
 10
5.092665277777777
 20
4.520816666666666
 10
5.065748611111112
 20
4.566372222222222
 10
5.0408875
 20
4.609844444444444
 10
5.020179166666665
 20
4.653330555555555
 10
4.999484722222221
 20
4.694747222222222
 10
4.984984722222221
 20
4.734094444444444
 10
4.972568055555554
 20
4.769288888888889
 10
4.964276388888888
 20
4.800344444444444
 10
4.9601375
 20
4.827275
 10
4.9601375
 20
4.837622222222222
 10
4.9601375
 20
4.850038888888889
 10
4.958068055555555
 20
4.827275
 42
0.1309786489671698
 10
5.142359722222218
 20
4.427636111111108
 42
0.1225188259596813
  0
LWPOLYLINE
  5
12C
330
2
100
AcDbEntity
  8
PDF_Layer 1
 62
     7
420
 16777215
370
    70
100
AcDbPolyline
 90
       16
 70
     0
 43
0.0
 10
3.409220833333332
 20
4.473191666666666
 10
3.438206944444444
 20
4.514608333333333
 10
3.467206944444443
 20
4.558094444444444
 10
3.492054166666666
 20
4.599497222222222
 10
3.514831944444444
 20
4.642983333333333
 10
3.535540277777777
 20
4.6844
 10
3.554179166666666
 20
4.721663888888889
 10
3.568665277777777
 20
4.758941666666666
 10
3.579026388888888
 20
4.792080555555555
 10
3.587304166666666
 20
4.821052777777778
 10
3.58937361111111
 20
4.8459
 10
3.58937361111111
 20
4.866622222222222
 10
3.585234722222221
 20
4.883177777777778
 10
3.576943055555555
 20
4.891469444444444
 10
3.57487361111111
 20
4.893525
 10
2.657581944444444
 20
5.431899999999999
  0
LWPOLYLINE
  5
12D
330
2
100
AcDbEntity
  8
PDF_Layer 1
 62
     7
420
 16777215
370
    70
100
AcDbPolyline
 90
       13
 70
     0
 43
0.0
 10
2.518845833333333
 20
5.081969444444444
 10
2.491929166666666
 20
5.044691666666667
 10
2.465012499999999
 20
5.011552777777778
 10
2.436026388888888
 20
4.980497222222222
 10
2.411179166666666
 20
4.953566666666667
 10
2.384262499999999
 20
4.930802777777778
 10
2.361484722222221
 20
4.912163888888889
 10
2.340776388888888
 20
4.897677777777778
 10
2.322137499999999
 20
4.891469444444444
 10
2.307651388888888
 20
4.887316666666666
 10
2.295220833333333
 20
4.891469444444444
 10
2.295220833333333
 20
4.893525
 10
3.142109722222222
 20
4.247497222222222
  0
LWPOLYLINE
  5
12E
330
2
100
AcDbEntity
  8
PDF_Layer 1
 62
     7
420
 16777215
370
    70
100
AcDbPolyline
 90
       11
 70
     0
 43
0.0
 10
2.655512499999999
 20
5.431899999999999
 10
2.651373611111111
 20
5.436038888888888
 10
2.634804166666666
 20
5.440191666666666
 10
2.616165277777777
 20
5.440191666666666
 10
2.599609722222222
 20
5.438108333333333
 10
2.580970833333333
 20
5.429816666666666
 10
2.55612361111111
 20
5.415344444444444
 10
2.531276388888888
 20
5.396705555555556
 10
2.504359722222222
 20
5.371858333333333
 10
2.479512499999999
 20
5.344927777777777
 10
2.469151388888888
 20
5.334580555555556
  0
ELLIPSE
  5
12F
330
2
100
AcDbEntity
  8
PDF_Layer 1
 62
     7
420
 16777215
370
    70
100
AcDbEllipse
 10
2.63561184415053
 20
5.261418518937222
 30
0.0
 11
0.3477184391640281
 21
0.361982010656906
 31
0.0
210
0.0
220
0.0
230
1.0
 40
0.3284447048618136
 41
2.307929478718733
 42
3.198518217268027
  0
LWPOLYLINE
  5
130
330
2
100
AcDbEntity
  8
PDF_Layer 1
 62
     7
420
 16777215
370
    70
100
AcDbPolyline
 90
        9
 70
     0
 43
0.0
 10
3.12762361111111
 20
4.241274999999999
 10
3.1317625
 20
4.224719444444444
 10
3.140040277777777
 20
4.210219444444444
 10
3.150401388888888
 20
4.197788888888888
 10
3.166956944444444
 20
4.187441666666666
 10
3.183526388888888
 20
4.185372222222222
 10
3.202165277777777
 20
4.187441666666666
 10
3.220804166666666
 20
4.191580555555555
 10
3.224943055555555
 20
4.193663888888888
  0
LWPOLYLINE
  5
131
330
2
100
AcDbEntity
  8
PDF_Layer 1
 62
     7
420
 16777215
370
    70
100
AcDbPolyline
 90
        9
 70
     0
 43
0.0
 10
3.655637499999999
 20
4.839691666666666
 10
3.655637499999999
 20
4.854191666666666
 10
3.649415277777777
 20
4.872830555555555
 10
3.641137499999999
 20
4.889386111111111
 10
3.630790277777777
 20
4.899733333333333
 10
3.614220833333332
 20
4.908025
 10
3.597651388888888
 20
4.910094444444444
 10
3.579026388888888
 20
4.908025
 10
3.572804166666666
 20
4.908025
  0
LWPOLYLINE
  5
132
330
2
100
AcDbEntity
  8
PDF_Layer 1
 62
     7
420
 16777215
370
    70
100
AcDbPolyline
 90
       65
 70
     0
 43
0.0
 10
4.057345833333332
 20
4.595358333333333
 10
4.020068055555555
 20
4.624344444444444
 10
3.982790277777777
 20
4.647122222222222
 10
3.951734722222222
 20
4.674038888888889
 10
3.933095833333332
 20
4.6989
 10
3.920679166666666
 20
4.725802777777778
 10
3.916526388888888
 20
4.748594444444444
 10
3.910318055555555
 20
4.75065
 10
3.902040277777777
 20
4.754802777777777
 10
3.887540277777776
 20
4.761011111111111
 10
3.862693055555555
 20
4.769288888888889
 10
3.846137499999999
 20
4.775497222222222
 10
3.829568055555554
 20
4.781705555555555
 10
3.806790277777777
 20
4.783788888888889
 10
3.815068055555555
 20
4.798288888888889
 10
3.823359722222221
 20
4.806552777777778
 10
3.833706944444444
 20
4.816927777777777
 10
3.846137499999999
 20
4.829344444444444
 10
3.858554166666666
 20
4.843830555555555
 10
3.870984722222221
 20
4.8604
 10
3.837845833333332
 20
4.8459
 10
3.804720833333333
 20
4.841775
 10
3.771581944444444
 20
4.839691666666666
 10
3.744665277777777
 20
4.837622222222222
 10
3.719818055555555
 20
4.835552777777778
 10
3.697040277777777
 20
4.831413888888889
 10
3.697040277777777
 20
4.823136111111111
 10
3.697040277777777
 20
4.814844444444444
 10
3.690831944444443
 20
4.816927777777777
 10
3.686693055555555
 20
4.818983333333333
 10
3.682554166666665
 20
4.825191666666666
 10
3.678415277777776
 20
4.816927777777777
 10
3.674262499999999
 20
4.810705555555555
 10
3.672206944444443
 20
4.804497222222222
 10
3.668054166666666
 20
4.812775
 10
3.665984722222222
 20
4.818983333333333
 10
3.657706944444444
 20
4.827275
 10
3.655637499999999
 20
4.850038888888889
 10
3.655637500000002
 20
4.841774999999999
 42
-0.1259491671313871
 10
3.463054166666665
 20
4.433858333333333
 10
3.43199861111111
 20
4.390372222222222
 10
3.39887361111111
 20
4.351024999999999
 10
3.367818055555555
 20
4.315816666666666
 10
3.33674861111111
 20
4.282691666666666
 10
3.307762499999999
 20
4.253705555555555
 10
3.278776388888888
 20
4.228858333333333
 10
3.253929166666666
 20
4.210219444444444
 10
3.231151388888888
 20
4.197788888888888
 10
3.220804166666666
 20
4.193663888888888
 10
3.210443055555555
 20
4.18951111111111
 10
3.235290277777777
 20
4.195719444444444
 42
0.1321960503477588
 10
3.473415277777777
 20
4.427636111111111
 10
3.475484722222221
 20
4.429705555555555
 10
3.47962361111111
 20
4.429705555555555
 10
3.483776388888888
 20
4.429705555555555
 10
3.452706944444444
 20
4.390372222222222
 10
3.423720833333333
 20
4.353094444444444
 10
3.407151388888888
 20
4.332386111111111
 10
3.392665277777777
 20
4.313747222222222
 10
3.374026388888888
 20
4.297191666666666
 10
3.39887361111111
 20
4.259913888888888
 10
3.427859722222221
 20
4.224719444444444
 10
3.442359722222221
 20
4.20401111111111
 10
3.456845833333332
 20
4.185372222222222
 10
3.475484722222221
 20
4.164663888888888
  0
LWPOLYLINE
  5
134
330
2
100
AcDbEntity
  8
PDF_Layer 1
 62
     7
420
 16777215
370
    70
100
AcDbPolyline
 90
       85
 70
     0
 43
0.0
 10
3.572804166666666
 20
3.576608333333333
 10
3.587304166666666
 20
3.576608333333333
 10
3.570734722222221
 20
3.576608333333333
 10
3.572804166666666
 20
3.576608333333333
 10
3.576943055555555
 20
3.576608333333333
 10
3.581081944444444
 20
3.576608333333333
 10
3.587304166666666
 20
3.576608333333333
 10
3.593512499999999
 20
3.576608333333333
 10
3.612151388888888
 20
3.576608333333333
 10
3.6266375
 20
3.576608333333333
 10
3.645276388888888
 20
3.576608333333333
 10
3.672206944444443
 20
3.576608333333333
 10
3.709470833333333
 20
3.576608333333333
 10
3.790220833333332
 20
3.576608333333333
 10
3.883401388888888
 20
3.576608333333333
 10
3.980720833333333
 20
3.576608333333333
 10
4.090470833333333
 20
3.576608333333333
 10
4.212637499999999
 20
3.576608333333333
 10
4.260262499999999
 20
3.576608333333333
 10
4.316165277777777
 20
3.576608333333333
 10
4.380359722222221
 20
3.576608333333333
 10
4.448693055555555
 20
3.576608333333333
 10
4.450762499999999
 20
3.576608333333333
 10
4.450762499999999
 20
3.578663888888889
 10
4.452831944444444
 20
3.578663888888889
 10
4.454901388888888
 20
3.580747222222222
 10
4.386568055555555
 20
3.580747222222222
 10
4.318234722222221
 20
3.580747222222222
 10
4.210568055555555
 20
3.582816666666666
 10
4.208498611111111
 20
3.599372222222222
 10
4.208498611111111
 20
3.62215
 10
4.206415277777777
 20
3.682205555555555
 10
4.204345833333333
 20
3.727761111111111
 10
4.200206944444444
 20
3.773316666666666
 10
4.191929166666666
 20
3.823011111111111
 10
4.247831944444444
 20
3.808511111111111
 10
4.297526388888888
 20
3.794011111111111
 10
4.349304166666666
 20
3.783663888888888
 10
4.415568055555555
 20
3.775372222222222
 10
4.47974861111111
 20
3.771247222222222
 10
4.54187361111111
 20
3.769163888888888
 10
4.535651388888888
 20
3.721538888888888
 10
4.523234722222222
 20
3.675997222222222
 10
4.498387499999999
 20
3.628358333333333
 10
4.477679166666666
 20
3.601455555555555
 10
4.454901388888888
 20
3.580747222222222
 10
4.548081944444444
 20
3.580747222222222
 10
4.587429166666666
 20
3.580747222222222
 10
4.626762499999999
 20
3.580747222222222
 10
4.666109722222222
 20
3.578663888888889
 10
4.678526388888888
 20
3.603511111111111
 10
4.686818055555554
 20
3.632511111111111
 10
4.695095833333332
 20
3.659427777777778
 10
4.711651388888888
 20
3.727761111111111
 10
4.618484722222221
 20
3.750538888888889
 10
4.581206944444444
 20
3.760886111111111
 10
4.54187361111111
 20
3.769163888888888
 10
4.550151388888888
 20
3.889275
 10
4.554290277777777
 20
3.936886111111111
 10
4.554290277777777
 20
3.982455555555555
 10
4.543943055555555
 20
4.021802777777778
 10
4.529443055555555
 20
4.06113611111111
 10
4.517026388888888
 20
4.100483333333333
 10
4.483887499999999
 20
4.191580555555555
 10
4.438331944444444
 20
4.301330555555555
 10
4.423845833333333
 20
4.328247222222222
 10
4.411415277777777
 20
4.357233333333333
 10
4.401068055555555
 20
4.380011111111111
 10
4.386568055555555
 20
4.386219444444444
 10
4.36999861111111
 20
4.392427777777777
 10
4.353443055555555
 20
4.396580555555555
 10
4.316165277777777
 20
4.411066666666666
 10
4.309956944444444
 20
4.437983333333333
 10
4.30374861111111
 20
4.462830555555555
 10
4.295456944444444
 20
4.529094444444444
 10
4.167081944444444
 20
4.572580555555555
 10
4.13187361111111
 20
4.582941666666666
 10
4.096679166666667
 20
4.58915
 10
4.057345833333332
 20
4.595358333333333
 10
4.090470833333333
 20
4.562233333333333
 10
4.121526388888888
 20
4.531163888888888
 10
4.154651388888888
 20
4.502177777777777
 10
4.200206944444444
 20
4.464913888888888
 10
4.216776388888888
 20
4.450413888888888
 10
4.227137499999999
 20
4.437983333333333
  0
LWPOLYLINE
  5
136
330
2
100
AcDbEntity
  8
PDF_Layer 1
 62
     7
420
 16777215
370
    70
100
AcDbPolyline
 90
        5
 70
     0
 43
0.0
 10
4.450762499999999
 20
3.576608333333333
 10
4.504595833333333
 20
3.576608333333333
 10
4.558429166666666
 20
3.576608333333333
 10
4.601915277777776
 20
3.576608333333333
 10
4.641262499999999
 20
3.576608333333333
  0
LWPOLYLINE
  5
138
330
2
100
AcDbEntity
  8
PDF_Layer 1
 62
     7
420
 16777215
370
    70
100
AcDbPolyline
 90
       62
 70
     0
 43
0.0
 10
4.639193055555555
 20
3.576608333333333
 10
4.655748611111111
 20
3.576608333333333
 10
4.680609722222222
 20
3.576608333333333
 10
4.740651388888888
 20
3.576608333333333
 10
4.794484722222221
 20
3.576608333333333
 10
4.852470833333333
 20
3.576608333333333
 10
4.881443055555555
 20
3.576608333333333
 10
4.90837361111111
 20
3.576608333333333
 10
4.935290277777776
 20
3.576608333333333
 10
4.958068055555555
 20
3.576608333333333
 10
4.974623611111111
 20
3.578663888888889
 10
4.978776388888888
 20
3.589025
 10
4.976706944444443
 20
3.605594444444444
 10
4.976706944444443
 20
3.624233333333333
 10
4.974623611111111
 20
3.63665
 10
4.972568055555554
 20
3.65115
 10
4.97049861111111
 20
3.661497222222222
 10
4.958068055555555
 20
3.669788888888889
 10
4.941498611111111
 20
3.678066666666667
 10
4.924929166666665
 20
3.684275
 10
4.881443055555555
 20
3.698775
 10
4.895943055555554
 20
3.7319
 10
4.914581944444443
 20
3.762955555555556
 10
4.931151388888888
 20
3.787802777777777
 10
4.945651388888888
 20
3.810594444444444
 10
4.895943055555554
 20
3.831288888888888
 10
4.840040277777777
 20
3.845788888888889
 10
4.792415277777776
 20
3.854066666666666
 10
4.748929166666665
 20
3.872705555555555
 10
4.757220833333333
 20
3.947247222222222
 10
4.763429166666666
 20
4.030066666666666
 10
4.773776388888888
 20
4.110830555555555
 10
4.777915277777777
 20
4.148094444444444
 10
4.784137499999999
 20
4.187441666666666
 10
4.788276388888887
 20
4.224719444444444
 10
4.796554166666665
 20
4.266122222222222
 10
4.806915277777776
 20
4.315816666666666
 10
4.817262499999999
 20
4.367580555555555
 10
4.821401388888888
 20
4.406927777777777
 10
4.827609722222221
 20
4.446274999999999
 10
4.831762499999999
 20
4.483552777777777
 10
4.837970833333333
 20
4.522886111111111
 10
4.846248611111111
 20
4.595358333333333
 10
4.854526388888888
 20
4.659552777777777
 10
4.856595833333333
 20
4.6844
 10
4.858679166666666
 20
4.705108333333333
 10
4.858679166666666
 20
4.725802777777778
 10
4.860748611111112
 20
4.746511111111111
 10
4.862818055555554
 20
4.76515
 10
4.877318055555554
 20
4.769288888888889
 10
4.900081944444443
 20
4.775497222222222
 10
4.922859722222221
 20
4.777580555555555
 10
4.937359722222222
 20
4.77965
 10
4.949776388888889
 20
4.77965
 10
4.97049861111111
 20
4.719594444444444
 10
4.978776388888888
 20
4.6989
 10
4.984984722222221
 20
4.678177777777777
 10
4.993262499999999
 20
4.655413888888888
 10
5.005693055555554
 20
4.630566666666666
 10
5.009831944444443
 20
4.636775
 10
5.011901388888888
 20
4.638830555555555
 10
5.013970833333332
 20
4.638830555555555
  0
LWPOLYLINE
  5
13B
330
2
100
AcDbEntity
  8
PDF_Layer 1
 62
     7
420
 16777215
370
    70
100
AcDbPolyline
 90
        4
 70
     0
 43
0.0
 10
4.001429166666666
 20
3.63665
 10
3.986929166666666
 20
3.63665
 10
3.97037361111111
 20
3.638719444444444
 10
3.949665277777777
 20
3.63665
  0
LWPOLYLINE
  5
13D
330
2
100
AcDbEntity
  8
PDF_Layer 1
 62
     7
420
 16777215
370
    70
100
AcDbPolyline
 90
        3
 70
     0
 43
0.0
 10
4.955998611111111
 20
3.576608333333333
 10
4.972568055555554
 20
3.576608333333333
 10
4.980845833333332
 20
3.576608333333333
  0
LWPOLYLINE
  5
13E
330
2
100
AcDbEntity
  8
PDF_Layer 1
 62
     7
420
 16777215
370
    70
100
AcDbPolyline
 90
        2
 70
     0
 43
0.0
 10
4.982915277777777
 20
3.576608333333333
 10
4.982915277777777
 20
3.576608333333333
  0
LWPOLYLINE
  5
13F
330
2
100
AcDbEntity
  8
PDF_Layer 1
 62
     7
420
 16777215
370
    70
100
AcDbPolyline
 90
        6
 70
     0
 43
0.0
 10
4.984984722222221
 20
3.576608333333333
 10
4.995345833333332
 20
3.576608333333333
 10
5.007762499999999
 20
3.576608333333333
 10
5.028470833333332
 20
3.576608333333333
 10
5.063665277777777
 20
3.574525
 10
5.065748611111112
 20
3.574525
  0
LWPOLYLINE
  5
141
330
2
100
AcDbEntity
  8
PDF_Layer 1
 62
     7
420
 16777215
370
    70
100
AcDbPolyline
 90
       46
 70
     0
 43
0.0
 10
3.697040277777777
 20
3.584886111111111
 10
3.653568055555555
 20
3.582816666666666
 10
3.618359722222222
 20
3.582816666666666
 10
3.587304166666666
 20
3.582816666666666
 10
3.566595833333332
 20
3.582816666666666
 10
3.543818055555555
 20
3.586955555555555
 10
3.525179166666666
 20
3.595247222222222
 10
3.514831944444444
 20
3.646997222222222
 10
3.506540277777777
 20
3.700844444444444
 10
3.487915277777777
 20
3.771247222222222
 10
3.460998611111111
 20
3.837497222222222
 10
3.477554166666666
 20
3.831288888888888
 10
3.496193055555555
 20
3.820941666666666
 10
3.523109722222221
 20
3.81265
 10
3.554179166666666
 20
3.810594444444444
 10
3.529318055555555
 20
3.858205555555555
 10
3.506540277777777
 20
3.9079
 10
3.473415277777777
 20
3.967955555555555
 10
3.436137499999999
 20
4.023858333333333
 10
3.407151388888888
 20
4.023858333333333
 10
3.376095833333332
 20
4.030066666666666
 10
3.35124861111111
 20
4.040427777777777
 10
3.340901388888888
 20
4.044566666666666
 10
3.334679166666666
 20
4.046649999999999
 10
3.326401388888888
 20
4.056997222222221
 10
3.318109722222221
 20
4.06526111111111
 10
3.309831944444443
 20
4.073552777777777
 10
3.280845833333333
 20
4.106691666666666
 10
3.280845833333333
 20
4.098399999999999
 10
3.282915277777777
 20
4.088052777777777
 10
3.287054166666666
 20
4.077691666666666
 10
3.295345833333332
 20
4.069413888888888
 10
3.295345833333332
 20
4.06526111111111
 10
3.328470833333333
 20
4.023858333333333
 10
3.363679166666666
 20
3.976233333333333
 10
3.421651388888888
 20
3.880983333333333
 10
3.442359722222221
 20
3.843705555555555
 10
3.458929166666666
 20
3.800219444444444
 10
3.47962361111111
 20
3.7319
 10
3.49412361111111
 20
3.671844444444444
 10
3.502401388888888
 20
3.620094444444444
 10
3.508623611111111
 20
3.597302777777778
 10
3.516901388888888
 20
3.582816666666666
 10
3.521040277777777
 20
3.578663888888889
 10
3.527262499999999
 20
3.576608333333333
 10
3.531387499999999
 20
3.576608333333333
  0
LWPOLYLINE
  5
143
330
2
100
AcDbEntity
  8
PDF_Layer 1
 62
     7
420
 16777215
370
    70
100
AcDbPolyline
 90
        3
 70
     0
 43
0.0
 10
3.274637499999999
 20
4.092191666666666
 10
3.284984722222222
 20
4.07976111111111
 10
3.295345833333332
 20
4.067344444444444
  0
LWPOLYLINE
  5
145
330
2
100
AcDbEntity
  8
PDF_Layer 1
 62
     7
420
 16777215
370
    70
100
AcDbPolyline
 90
        6
 70
     0
 43
0.0
 10
4.949776388888889
 20
4.866622222222222
 10
4.918720833333332
 20
4.868677777777778
 10
4.883526388888888
 20
4.866622222222222
 10
4.846248611111111
 20
4.868677777777778
 10
4.825554166666666
 20
4.874886111111111
 10
4.806915277777776
 20
4.883177777777778
  0
LWPOLYLINE
  5
146
330
2
100
AcDbEntity
  8
PDF_Layer 1
 62
     7
420
 16777215
370
    70
100
AcDbPolyline
 90
        3
 70
     0
 43
0.0
 10
4.748929166666665
 20
4.974288888888889
 10
4.742720833333333
 20
5.007413888888889
 10
4.738581944444444
 20
5.013636111111111
  0
LWPOLYLINE
  5
147
330
2
100
AcDbEntity
  8
PDF_Layer 1
 62
     7
420
 16777215
370
    70
100
AcDbPolyline
 90
        3
 70
     0
 43
0.0
 10
4.738581944444444
 20
5.013636111111111
 10
4.740651388888888
 20
5.007413888888889
 10
4.738581944444444
 20
5.013636111111111
  0
LWPOLYLINE
  5
148
330
2
100
AcDbEntity
  8
PDF_Layer 1
 62
     7
420
 16777215
370
    70
100
AcDbPolyline
 90
       36
 70
     0
 43
0.0
 10
5.283151388888889
 20
4.017649999999999
 10
5.283151388888889
 20
4.021802777777778
 10
5.287304166666666
 20
4.030066666666666
 10
5.291443055555555
 20
4.040427777777777
 10
5.295581944444444
 20
4.063205555555555
 10
5.297651388888888
 20
4.083899999999999
 10
5.293512499999999
 20
4.102538888888888
 10
5.328706944444443
 20
4.162594444444444
 10
5.343206944444443
 20
4.187441666666666
 10
5.347345833333333
 20
4.212288888888888
 10
5.376331944444443
 20
4.193663888888888
 10
5.386693055555554
 20
4.185372222222222
 10
5.392901388888889
 20
4.177080555555555
 10
5.399109722222221
 20
4.175024999999999
 10
5.376331944444443
 20
4.139816666666666
 10
5.351484722222222
 20
4.104608333333333
 10
5.328706944444443
 20
4.07563611111111
 10
5.305929166666666
 20
4.046649999999999
 10
5.283151388888889
 20
4.017649999999999
 10
5.281081944444444
 20
4.007302777777778
 10
5.291443055555555
 20
4.019719444444444
 10
5.301790277777777
 20
4.034219444444444
 10
5.326637499999999
 20
4.06526111111111
 10
5.328706944444443
 20
4.067344444444444
 10
5.330790277777778
 20
4.071483333333333
 10
5.355637499999999
 20
4.100483333333333
 10
5.384609722222222
 20
4.139816666666666
 10
5.407401388888888
 20
4.177080555555555
 10
5.411540277777777
 20
4.187441666666666
 10
5.407401388888888
 20
4.181233333333333
 10
5.40324861111111
 20
4.175024999999999
 10
5.399109722222221
 20
4.175024999999999
 10
5.401179166666666
 20
4.179163888888888
 10
5.40324861111111
 20
4.183288888888888
 10
5.405331944444444
 20
4.187441666666666
 10
5.405331944444444
 20
4.18951111111111
  0
LWPOLYLINE
  5
149
330
2
100
AcDbEntity
  8
PDF_Layer 1
 62
     7
420
 16777215
370
    70
100
AcDbPolyline
 90
        7
 70
     0
 43
0.0
 10
3.771581944444444
 20
4.876969444444444
 10
3.746734722222221
 20
4.872830555555555
 10
3.734318055555554
 20
4.872830555555555
 10
3.728095833333332
 20
4.872830555555555
 10
3.721887499999999
 20
4.870761111111111
 10
3.678415277777776
 20
4.866622222222222
 10
3.653568055555555
 20
4.858330555555555
  0
LWPOLYLINE
  5
14B
330
2
100
AcDbEntity
  8
PDF_Layer 1
 62
     7
420
 16777215
370
    70
100
AcDbPolyline
 90
       11
 70
     0
 43
0.0
 10
5.152706944444444
 20
3.794011111111111
 10
5.169276388888889
 20
3.831288888888888
 10
5.177554166666667
 20
3.849927777777777
 10
5.181693055555555
 20
3.860288888888889
 10
5.187901388888889
 20
3.868552777777777
 10
5.194123611111111
 20
3.883052777777777
 10
5.204470833333332
 20
3.899622222222222
 10
5.225179166666666
 20
3.932747222222222
 10
5.24174861111111
 20
3.955525
 10
5.2603875
 20
3.980372222222222
 10
5.281081944444444
 20
4.007302777777778
  0
LWPOLYLINE
  5
14C
330
2
100
AcDbEntity
  8
PDF_Layer 1
 62
     7
420
 16777215
370
    70
100
AcDbPolyline
 90
        6
 70
     0
 43
0.0
 10
3.202165277777777
 20
4.187441666666666
 10
3.20837361111111
 20
4.172941666666666
 10
3.22287361111111
 20
4.154316666666666
 10
3.229081944444444
 20
4.146024999999999
 10
3.241498611111111
 20
4.131538888888888
 10
3.266345833333332
 20
4.102538888888888
  0
LWPOLYLINE
  5
154
330
2
100
AcDbEntity
  8
PDF_Layer 1
 62
     7
420
 16777215
370
    70
100
AcDbPolyline
 90
        2
 70
     0
 43
0.0
 10
4.806915277777776
 20
4.885247222222222
 10
4.792415277777776
 20
4.893525
  0
LWPOLYLINE
  5
155
330
2
100
AcDbEntity
  8
PDF_Layer 1
 62
     7
420
 16777215
370
    70
100
AcDbPolyline
 90
        2
 70
     0
 43
0.0
 10
4.962206944444445
 20
4.864538888888889
 10
4.953929166666666
 20
4.864538888888889
  0
LWPOLYLINE
  5
156
330
2
100
AcDbEntity
  8
PDF_Layer 1
 62
     7
420
 16777215
370
    70
100
AcDbPolyline
 90
        2
 70
     0
 43
0.0
 10
4.943568055555555
 20
4.866622222222222
 10
4.937359722222222
 20
4.868677777777778
  0
LWPOLYLINE
  5
157
330
2
100
AcDbEntity
  8
PDF_Layer 1
 62
     7
420
 16777215
370
    70
100
AcDbPolyline
 90
        2
 70
     0
 43
0.0
 10
4.784137499999999
 20
4.905955555555555
 10
4.771706944444443
 20
4.918372222222222
  0
LWPOLYLINE
  5
15A
330
2
100
AcDbEntity
  8
PDF_Layer 1
 62
     7
420
 16777215
370
    70
100
AcDbPolyline
 90
        8
 70
     0
 43
0.0
 10
5.080234722222223
 20
3.576608333333333
 10
5.084373611111111
 20
3.576608333333333
 10
5.090595833333332
 20
3.576608333333333
 10
5.092665277777777
 20
3.578663888888889
 10
5.094720833333333
 20
3.580747222222222
 10
5.100943055555554
 20
3.591094444444444
 10
5.111290277777777
 20
3.630441666666667
 10
5.123720833333332
 20
3.696691666666666
  0
LWPOLYLINE
  5
15D
330
2
100
AcDbEntity
  8
PDF_Layer 1
 62
     7
420
 16777215
370
    70
100
AcDbPolyline
 90
        7
 70
     0
 43
0.0
 10
3.556234722222221
 20
3.576608333333333
 10
3.564526388888888
 20
3.576608333333333
 10
3.579026388888888
 20
3.574525
 10
3.599720833333333
 20
3.574525
 10
3.632859722222221
 20
3.576608333333333
 10
3.674262499999999
 20
3.576608333333333
 10
3.726040277777777
 20
3.574525
  0
LWPOLYLINE
  5
15E
330
2
100
AcDbEntity
  8
PDF_Layer 1
 62
     7
420
 16777215
370
    70
100
AcDbPolyline
 90
        3
 70
     0
 43
0.0
 10
5.013970833333332
 20
3.574525
 10
5.0408875
 20
3.574525
 10
5.061595833333333
 20
3.574525
  0
LWPOLYLINE
  5
15F
330
2
100
AcDbEntity
  8
PDF_Layer 1
 62
     7
420
 16777215
370
    70
100
AcDbPolyline
 90
       60
 70
     0
 43
0.0
 10
4.825554166666666
 20
3.574525
 10
4.871095833333333
 20
3.574525
 10
4.90837361111111
 20
3.574525
 10
4.939429166666666
 20
3.574525
 10
4.978776388888888
 20
3.574525
 10
5.016040277777777
 20
3.574525
 10
5.009831944444443
 20
3.574525
 10
5.001540277777777
 20
3.576608333333333
 10
4.982915277777777
 20
3.576608333333333
 10
4.980845833333332
 20
3.576608333333333
 10
4.974623611111111
 20
3.578663888888889
 10
4.951859722222222
 20
3.578663888888889
 10
4.9270125
 20
3.578663888888889
 10
4.895943055555554
 20
3.578663888888889
 10
4.862818055555554
 20
3.580747222222222
 10
4.866956944444443
 20
3.595247222222222
 10
4.869026388888888
 20
3.613872222222222
 10
4.871095833333333
 20
3.644941666666666
 10
4.881443055555555
 20
3.698775
 10
4.788276388888887
 20
3.715330555555556
 10
4.711651388888888
 20
3.727761111111111
 10
4.73237361111111
 20
3.806441666666666
 10
4.738581944444444
 20
3.825066666666666
 10
4.742720833333333
 20
3.845788888888889
 10
4.748929166666665
 20
3.872705555555555
 10
4.697165277777776
 20
3.9079
 10
4.643331944444444
 20
3.945177777777777
 10
4.593637499999999
 20
3.972094444444444
 10
4.572929166666666
 20
3.980372222222222
 10
4.554290277777777
 20
3.982455555555555
 10
4.531512499999999
 20
3.976233333333333
 10
4.508734722222222
 20
3.961733333333333
 10
4.483887499999999
 20
3.953469444444444
 10
4.452831944444444
 20
3.949316666666666
 10
4.421762499999999
 20
3.959677777777777
 10
4.3886375
 20
3.978316666666666
 10
4.357581944444444
 20
4.001080555555555
 10
4.326512499999999
 20
4.021802777777778
 10
4.305818055555555
 20
3.984525
 10
4.280970833333332
 20
3.949316666666666
 10
4.25612361111111
 20
3.912038888888888
 10
4.235415277777778
 20
3.885136111111111
 10
4.214706944444444
 20
3.856136111111111
 10
4.191929166666666
 20
3.823011111111111
 10
4.148443055555556
 20
3.81265
 10
4.109109722222221
 20
3.804372222222222
 10
4.071831944444443
 20
3.796094444444444
 10
4.034554166666667
 20
3.787802777777777
 10
3.976581944444443
 20
3.773316666666666
 10
3.918609722222221
 20
3.758816666666666
 10
3.945526388888888
 20
3.717413888888889
 10
3.968304166666666
 20
3.671844444444444
 10
3.980720833333333
 20
3.624233333333333
 10
3.980720833333333
 20
3.599372222222222
 10
3.978651388888888
 20
3.580747222222222
 10
4.078040277777777
 20
3.582816666666666
 10
4.210568055555555
 20
3.582816666666666
 10
4.210568055555555
 20
3.576608333333333
 10
4.212637499999999
 20
3.576608333333333
 10
4.214706944444444
 20
3.576608333333333
  0
LWPOLYLINE
  5
161
330
2
100
AcDbEntity
  8
PDF_Layer 1
 62
     7
420
 16777215
370
    70
100
AcDbPolyline
 90
        2
 70
     0
 43
0.0
 10
4.883526388888888
 20
3.576608333333333
 10
4.879387499999999
 20
3.576608333333333
  0
LWPOLYLINE
  5
163
330
2
100
AcDbEntity
  8
PDF_Layer 1
 62
     7
420
 16777215
370
    70
100
AcDbPolyline
 90
        8
 70
     0
 43
0.0
 10
4.829679166666666
 20
3.574525
 10
4.806915277777776
 20
3.574525
 10
4.779984722222222
 20
3.574525
 10
4.786206944444443
 20
3.574525
 10
4.788276388888887
 20
3.576608333333333
 10
4.790345833333332
 20
3.576608333333333
 10
4.792415277777776
 20
3.576608333333333
 10
4.794484722222221
 20
3.576608333333333
  0
LWPOLYLINE
  5
164
330
2
100
AcDbEntity
  8
PDF_Layer 1
 62
     7
420
 16777215
370
    70
100
AcDbPolyline
 90
        4
 70
     0
 43
0.0
 10
3.723970833333333
 20
3.574525
 10
3.746734722222221
 20
3.574525
 10
3.76537361111111
 20
3.576608333333333
 10
3.784012499999999
 20
3.574525
  0
LWPOLYLINE
  5
166
330
2
100
AcDbEntity
  8
PDF_Layer 1
 62
     7
420
 16777215
370
    70
100
AcDbPolyline
 90
        8
 70
     0
 43
0.0
 10
4.784137499999999
 20
3.574525
 10
4.782068055555555
 20
3.574525
 10
4.761345833333333
 20
3.574525
 10
4.742720833333333
 20
3.576608333333333
 10
4.763429166666666
 20
3.576608333333333
 10
4.775845833333332
 20
3.576608333333333
 10
4.777915277777777
 20
3.576608333333333
 10
4.779984722222222
 20
3.574525
  0
LWPOLYLINE
  5
167
330
2
100
AcDbEntity
  8
PDF_Layer 1
 62
     7
420
 16777215
370
    70
100
AcDbPolyline
 90
        2
 70
     0
 43
0.0
 10
4.320304166666666
 20
3.576608333333333
 10
4.320304166666666
 20
3.576608333333333
  0
LWPOLYLINE
  5
168
330
2
100
AcDbEntity
  8
PDF_Layer 1
 62
     7
420
 16777215
370
    70
100
AcDbPolyline
 90
        3
 70
     0
 43
0.0
 10
4.27474861111111
 20
3.576608333333333
 10
4.3223875
 20
3.576608333333333
 10
4.318234722222221
 20
3.576608333333333
  0
LWPOLYLINE
  5
169
330
2
100
AcDbEntity
  8
PDF_Layer 1
 62
     7
420
 16777215
370
    70
100
AcDbPolyline
 90
       18
 70
     0
 43
0.0
 10
3.777804166666666
 20
3.576608333333333
 10
3.784012499999999
 20
3.576608333333333
 10
3.786081944444444
 20
3.576608333333333
 10
3.815068055555555
 20
3.576608333333333
 10
3.84199861111111
 20
3.574525
 10
3.856484722222221
 20
3.574525
 10
3.87512361111111
 20
3.576608333333333
 10
3.904109722222221
 20
3.574525
 10
3.974512499999999
 20
3.574525
 10
4.032484722222221
 20
3.574525
 10
4.096679166666667
 20
3.574525
 10
4.162943055555555
 20
3.574525
 10
4.218845833333332
 20
3.574525
 10
4.262331944444444
 20
3.574525
 10
4.314095833333333
 20
3.574525
 10
4.372081944444444
 20
3.574525
 10
4.436262499999999
 20
3.574525
 10
4.415568055555555
 20
3.574525
  0
LWPOLYLINE
  5
16A
330
2
100
AcDbEntity
  8
PDF_Layer 1
 62
     7
420
 16777215
370
    70
100
AcDbPolyline
 90
       11
 70
     0
 43
0.0
 10
4.436262499999999
 20
3.574525
 10
4.492179166666666
 20
3.574525
 10
4.546012499999999
 20
3.574525
 10
4.572929166666666
 20
3.574525
 10
4.599845833333333
 20
3.574525
 10
4.62262361111111
 20
3.574525
 10
4.635040277777776
 20
3.574525
 10
4.643331944444444
 20
3.574525
 10
4.684734722222222
 20
3.574525
 10
4.734443055555555
 20
3.574525
 10
4.786206944444443
 20
3.574525
  0
LWPOLYLINE
  5
16D
330
2
100
AcDbEntity
  8
PDF_Layer 1
 62
     7
420
 16777215
370
    70
100
AcDbPolyline
 90
       12
 70
     0
 43
0.0
 10
4.552220833333333
 20
3.576608333333333
 10
4.556359722222221
 20
3.574525
 10
4.564637499999999
 20
3.574525
 10
4.57499861111111
 20
3.574525
 10
4.572929166666666
 20
3.574525
 10
4.570859722222222
 20
3.574525
 10
4.572929166666666
 20
3.574525
 10
4.577068055555555
 20
3.574525
 10
4.585345833333333
 20
3.574525
 10
4.591554166666666
 20
3.574525
 10
4.595706944444443
 20
3.576608333333333
 10
4.597776388888887
 20
3.576608333333333
  0
LWPOLYLINE
  5
171
330
2
100
AcDbEntity
  8
PDF_Layer 1
 62
     7
420
 16777215
370
    70
100
AcDbPolyline
 90
        2
 70
     0
 43
0.0
 10
4.39899861111111
 20
3.574525
 10
4.427984722222221
 20
3.574525
  0
LWPOLYLINE
  5
173
330
2
100
AcDbEntity
  8
PDF_Layer 1
 62
     7
420
 16777215
370
    70
100
AcDbPolyline
 90
        2
 70
     0
 43
0.0
 10
4.606054166666665
 20
3.576608333333333
 10
4.595706944444443
 20
3.576608333333333
  0
LWPOLYLINE
  5
175
330
2
100
AcDbEntity
  8
PDF_Layer 1
 62
     7
420
 16777215
370
    70
100
AcDbPolyline
 90
        2
 70
     0
 43
0.0
 10
4.334804166666666
 20
3.576608333333333
 10
4.320304166666666
 20
3.576608333333333
  0
LWPOLYLINE
  5
176
330
2
100
AcDbEntity
  8
PDF_Layer 1
 62
     7
420
 16777215
370
    70
100
AcDbPolyline
 90
        7
 70
     0
 43
0.0
 10
4.293387499999999
 20
3.576608333333333
 10
4.291318055555555
 20
3.576608333333333
 10
4.28924861111111
 20
3.576608333333333
 10
4.291318055555555
 20
3.574525
 10
4.30374861111111
 20
3.574525
 10
4.326512499999999
 20
3.576608333333333
 10
4.396929166666666
 20
3.574525
  0
LWPOLYLINE
  5
17B
330
2
100
AcDbEntity
  8
PDF_Layer 1
 62
     7
420
 16777215
370
    70
100
AcDbPolyline
 90
       28
 70
     0
 43
0.0
 10
0.6718319444444444
 20
4.785858333333333
 10
0.6594152777777777
 20
4.787927777777778
 10
0.651123611111111
 20
4.787927777777778
 10
0.6469847222222221
 20
4.783788888888889
 10
0.6490680555555555
 20
4.781705555555555
 10
0.651123611111111
 20
4.777580555555555
 10
0.6573458333333332
 20
4.76515
 10
0.6697624999999999
 20
4.75065
 10
0.6884013888888889
 20
4.734094444444444
 10
0.7091097222222221
 20
4.713372222222222
 10
0.7360263888888888
 20
4.692677777777777
 10
0.7629430555555555
 20
4.6699
 10
0.7940125
 20
4.647122222222222
 10
0.8250680555555554
 20
4.624344444444444
 10
0.856123611111111
 20
4.603636111111111
 10
0.885109722222222
 20
4.582941666666666
 10
0.9141097222222221
 20
4.566372222222222
 10
0.9368736111111109
 20
4.553941666666666
 10
0.9410263888888888
 20
4.551886111111111
 10
0.9638041666666666
 20
4.539455555555555
 10
0.980359722222222
 20
4.531163888888888
 10
0.994859722222222
 20
4.527038888888888
 10
1.003137499999999
 20
4.527038888888888
 10
1.007290277777777
 20
4.531163888888888
 10
1.005206944444444
 20
4.539455555555555
 10
1.001068055555555
 20
4.545663888888888
 10
0.9969291666666665
 20
4.549802777777777
 10
0.994859722222222
 20
4.551886111111111
  0
LWPOLYLINE
  5
17D
330
2
100
AcDbEntity
  8
PDF_Layer 1
 62
     7
420
 16777215
370
    70
100
AcDbPolyline
 90
       16
 70
     0
 43
0.0
 10
0.961720833333333
 20
4.481469444444444
 10
0.947234722222222
 20
4.485608333333333
 10
0.9285958333333331
 20
4.491816666666666
 10
0.9058180555555553
 20
4.504247222222222
 10
0.8809708333333333
 20
4.518747222222222
 10
0.8519847222222221
 20
4.537386111111111
 10
0.8209291666666665
 20
4.556011111111111
 10
0.7898597222222222
 20
4.578788888888889
 10
0.7588041666666666
 20
4.599497222222222
 10
0.7298180555555555
 20
4.622275
 10
0.7008319444444444
 20
4.645052777777777
 10
0.6759847222222222
 20
4.667830555555555
 10
0.6531930555555555
 20
4.686469444444444
 10
0.6366375
 20
4.703025
 10
0.6242069444444443
 20
4.717525
 10
0.6200680555555556
 20
4.721663888888889
  0
LWPOLYLINE
  5
17E
330
2
100
AcDbEntity
  8
PDF_Layer 1
 62
     7
420
 16777215
370
    70
100
AcDbPolyline
 90
       15
 70
     0
 43
0.0
 10
0.8540541666666666
 20
4.605719444444444
 10
0.822984722222222
 20
4.626427777777777
 10
0.7919291666666667
 20
4.649191666666666
 10
0.7629430555555555
 20
4.671969444444444
 10
0.7360263888888888
 20
4.694747222222222
 10
0.7111791666666666
 20
4.715455555555555
 10
0.6904708333333332
 20
4.734094444444444
 10
0.6739152777777777
 20
4.75065
 10
0.6614847222222222
 20
4.76515
 10
0.6594152777777777
 20
4.767219444444444
 10
0.6552763888888889
 20
4.775497222222222
 10
0.6552763888888889
 20
4.781705555555555
 10
0.6594152777777777
 20
4.783788888888889
 10
0.6697624999999999
 20
4.783788888888889
 10
0.6718319444444444
 20
4.781705555555555
  0
LWPOLYLINE
  5
17F
330
2
100
AcDbEntity
  8
PDF_Layer 1
 62
     7
420
 16777215
370
    70
100
AcDbPolyline
 90
        3
 70
     0
 43
0.0
 10
0.994859722222222
 20
4.549802777777777
 10
0.9969291666666665
 20
4.545663888888888
 10
0.9989986111111109
 20
4.539455555555555
  0
LWPOLYLINE
  5
180
330
2
100
AcDbEntity
  8
PDF_Layer 1
 62
     7
420
 16777215
370
    70
100
AcDbPolyline
 90
       18
 70
     0
 43
0.0
 10
0.6159291666666667
 20
4.734094444444444
 10
0.6159291666666667
 20
4.729955555555555
 10
0.6242069444444443
 20
4.717525
 10
0.6366375
 20
4.703025
 10
0.6552763888888889
 20
4.686469444444444
 10
0.6759847222222222
 20
4.665761111111111
 10
0.7008319444444444
 20
4.645052777777777
 10
0.7298180555555555
 20
4.622275
 10
0.7588041666666666
 20
4.599497222222222
 10
0.7898597222222222
 20
4.578788888888889
 10
0.8209291666666665
 20
4.556011111111111
 10
0.8519847222222221
 20
4.537386111111111
 10
0.8809708333333333
 20
4.518747222222222
 10
0.9058180555555553
 20
4.504247222222222
 10
0.9285958333333331
 20
4.4939
 10
0.947234722222222
 20
4.485608333333333
 10
0.9596513888888887
 20
4.481469444444444
 10
0.9658736111111108
 20
4.4794
  0
LWPOLYLINE
  5
183
330
2
100
AcDbEntity
  8
PDF_Layer 1
 62
     7
420
 16777215
370
    70
100
AcDbPolyline
 90
       10
 70
     0
 43
0.0
 10
7.995706944444443
 20
4.723747222222222
 10
7.991554166666666
 20
4.717525
 10
7.979137499999999
 20
4.703025
 10
7.96049861111111
 20
4.686469444444444
 10
7.939790277777777
 20
4.667830555555555
 10
7.914943055555554
 20
4.645052777777777
 10
7.885956944444444
 20
4.622275
 10
7.856970833333333
 20
4.599497222222222
 10
7.825901388888888
 20
4.578788888888889
 10
7.794845833333332
 20
4.556011111111111
  0
LWPOLYLINE
  5
184
330
2
100
AcDbEntity
  8
PDF_Layer 1
 62
     7
420
 16777215
370
    70
100
AcDbPolyline
 90
       15
 70
     0
 43
0.0
 10
7.943929166666666
 20
4.781705555555555
 10
7.952220833333332
 20
4.783788888888889
 10
7.958429166666666
 20
4.783788888888889
 10
7.96049861111111
 20
4.77965
 10
7.958429166666666
 20
4.769288888888889
 10
7.954290277777777
 20
4.76515
 10
7.948068055555554
 20
4.758941666666666
 10
7.935651388888888
 20
4.742372222222222
 10
7.914943055555554
 20
4.725802777777778
 10
7.892165277777777
 20
4.705108333333333
 10
7.867318055555555
 20
4.682316666666666
 10
7.838331944444443
 20
4.659552777777777
 10
7.807276388888888
 20
4.638830555555555
 10
7.776206944444444
 20
4.616066666666666
 10
7.7596375
 20
4.605719444444444
  0
LWPOLYLINE
  5
185
330
2
100
AcDbEntity
  8
PDF_Layer 1
 62
     7
420
 16777215
370
    70
100
AcDbPolyline
 90
        2
 70
     0
 43
0.0
 10
7.616762499999999
 20
4.541511111111111
 10
7.620915277777776
 20
4.549802777777777
  0
LWPOLYLINE
  5
186
330
2
100
AcDbEntity
  8
PDF_Layer 1
 62
     7
420
 16777215
370
    70
100
AcDbPolyline
 90
       13
 70
     0
 43
0.0
 10
7.11774861111111
 20
5.773566666666666
 10
7.142595833333333
 20
5.740427777777777
 10
7.169512499999999
 20
5.709358333333333
 10
7.194359722222222
 20
5.68038611111111
 10
7.219206944444444
 20
5.655524999999999
 10
7.241984722222221
 20
5.636899999999999
 10
7.262693055555555
 20
5.622399999999999
 10
7.281318055555555
 20
5.612052777777777
 10
7.295818055555556
 20
5.607899999999999
 10
7.30824861111111
 20
5.612052777777777
 10
7.314456944444443
 20
5.61826111111111
 10
7.318595833333333
 20
5.632747222222222
 10
7.318595833333333
 20
5.634816666666666
  0
ELLIPSE
  5
187
330
2
100
AcDbEntity
  8
PDF_Layer 1
 62
     7
420
 16777215
370
    70
100
AcDbEllipse
 10
7.119698445811893
 20
5.878796311824441
 30
0.0
 11
-0.1205885328454749
 21
0.1983588333931051
 31
0.0
210
0.0
220
0.0
230
0.9999999999999998
 40
0.2626842402230599
 41
5.93008234568973
 42
8.247003247145812
  0
LWPOLYLINE
  5
188
330
2
100
AcDbEntity
  8
PDF_Layer 1
 62
     7
420
 16777215
370
    70
100
AcDbPolyline
 90
       10
 70
     0
 43
0.0
 10
6.954165277777777
 20
6.053080555555555
 42
0.1855223829509368
 10
7.084609722222221
 20
5.750774999999999
 10
7.111526388888888
 20
5.715580555555555
 10
7.138456944444444
 20
5.684511111111111
 10
7.163304166666666
 20
5.655524999999999
 10
7.188151388888888
 20
5.630677777777777
 10
7.21299861111111
 20
5.609969444444444
 10
7.233706944444444
 20
5.593413888888888
 10
7.252345833333333
 20
5.583052777777777
 10
7.266831944444444
 20
5.578913888888888
  0
LWPOLYLINE
  5
18D
330
2
100
AcDbEntity
  8
PDF_Layer 1
 62
     7
420
 16777215
370
    70
100
AcDbPolyline
 90
       59
 70
     1
 43
0.0
 10
6.865123611111111
 20
5.60376111111111
 10
6.871331944444444
 20
5.597552777777777
 10
6.875484722222221
 20
5.593413888888888
 10
6.87962361111111
 20
5.589261111111111
 10
6.887901388888888
 20
5.585122222222222
 10
6.894123611111111
 20
5.583052777777777
 10
6.8982625
 20
5.580983333333334
 10
6.908609722222221
 20
5.578913888888888
 10
6.91274861111111
 20
5.578913888888888
 10
6.918970833333332
 20
5.578913888888888
 10
6.923095833333333
 20
5.578913888888888
 10
6.929318055555555
 20
5.580983333333334
 10
6.933456944444444
 20
5.580983333333334
 10
6.939665277777777
 20
5.583052777777777
 10
6.947956944444444
 20
5.587205555555555
 10
6.952095833333332
 20
5.591330555555555
 10
6.956234722222221
 20
5.593413888888888
 10
6.962456944444444
 20
5.599622222222222
 10
6.966581944444444
 20
5.60376111111111
 10
6.968665277777778
 20
5.607899999999999
 10
6.972804166666666
 20
5.616177777777777
 10
6.97487361111111
 20
5.620316666666666
 10
6.97487361111111
 20
5.626538888888888
 10
6.976943055555555
 20
5.634816666666666
 10
6.976943055555555
 20
5.641038888888888
 10
6.97487361111111
 20
5.645163888888888
 10
6.972804166666666
 20
5.655524999999999
 10
6.970734722222221
 20
5.659663888888888
 10
6.968665277777778
 20
5.663802777777777
 10
6.962456944444444
 20
5.672094444444444
 10
6.96037361111111
 20
5.676233333333333
 10
6.956234722222221
 20
5.68038611111111
 10
6.947956944444444
 20
5.686594444444444
 10
6.943818055555555
 20
5.688649999999999
 10
6.939665277777777
 20
5.692802777777777
 10
6.929318055555555
 20
5.694858333333333
 10
6.925179166666666
 20
5.696941666666666
 10
6.921040277777777
 20
5.699011111111111
 10
6.914818055555555
 20
5.699011111111111
 10
6.910679166666666
 20
5.699011111111111
 10
6.904470833333332
 20
5.699011111111111
 10
6.900331944444444
 20
5.696941666666666
 10
6.889970833333332
 20
5.694858333333333
 10
6.885831944444444
 20
5.692802777777777
 10
6.881693055555555
 20
5.690733333333333
 10
6.873415277777777
 20
5.684511111111111
 10
6.869276388888888
 20
5.68038611111111
 10
6.867206944444444
 20
5.676233333333333
 10
6.860984722222221
 20
5.667955555555555
 10
6.858915277777777
 20
5.663802777777777
 10
6.856845833333332
 20
5.659663888888888
 10
6.854776388888888
 20
5.649316666666666
 10
6.854776388888888
 20
5.643108333333333
 10
6.854776388888888
 20
5.638955555555555
 10
6.854776388888888
 20
5.632747222222222
 10
6.854776388888888
 20
5.628608333333333
 10
6.856845833333332
 20
5.624469444444444
 10
6.856845833333332
 20
5.61826111111111
 10
6.860984722222221
 20
5.612052777777777
  0
LWPOLYLINE
  5
18E
330
2
100
AcDbEntity
  8
PDF_Layer 1
 62
     7
420
 16777215
370
    70
100
AcDbPolyline
 90
       28
 70
     0
 43
0.0
 10
7.057693055555555
 20
5.438108333333333
 10
7.05562361111111
 20
5.436038888888888
 10
7.05562361111111
 20
5.433969444444444
 10
7.047345833333332
 20
5.423608333333333
 10
7.036984722222221
 20
5.419469444444444
 10
7.024568055555555
 20
5.421552777777778
 10
7.005929166666666
 20
5.42776111111111
 10
6.985220833333332
 20
5.442247222222222
 10
6.964512499999999
 20
5.458816666666666
 10
6.939665277777777
 20
5.481594444444445
 10
6.91274861111111
 20
5.50851111111111
 10
6.887901388888888
 20
5.539566666666666
 10
6.860984722222221
 20
5.574774999999999
 10
6.836137499999999
 20
5.609969444444444
 10
6.811290277777777
 20
5.647247222222222
 10
6.7885125
 20
5.684511111111111
 10
6.767804166666667
 20
5.721788888888888
 10
6.749179166666666
 20
5.756983333333333
 10
6.734679166666666
 20
5.790122222222222
 10
6.724318055555555
 20
5.821177777777777
 10
6.716040277777777
 20
5.846025
 10
6.713970833333332
 20
5.868802777777777
 10
6.713970833333332
 20
5.887441666666666
 10
6.718109722222222
 20
5.899858333333333
 10
6.728470833333332
 20
5.906080555555555
 10
6.734679166666666
 20
5.90815
 10
6.740887499999999
 20
5.90815
 10
6.742956944444443
 20
5.906080555555555
  0
LWPOLYLINE
  5
190
330
2
100
AcDbEntity
  8
PDF_Layer 1
 62
     7
420
 16777215
370
    70
100
AcDbPolyline
 90
       19
 70
     0
 43
0.0
 10
6.687054166666666
 20
5.860511111111111
 10
6.687054166666666
 20
5.858455555555555
 10
6.687054166666666
 20
5.837747222222222
 10
6.693262499999999
 20
5.812899999999999
 10
6.701540277777777
 20
5.785983333333333
 10
6.716040277777777
 20
5.752844444444444
 10
6.730540277777777
 20
5.719719444444444
 10
6.749179166666666
 20
5.682441666666666
 10
6.771943055555555
 20
5.647247222222222
 10
6.794720833333332
 20
5.609969444444444
 10
6.819568055555556
 20
5.572705555555555
 10
6.846484722222221
 20
5.539566666666666
 10
6.871331944444444
 20
5.506441666666666
 10
6.8982625
 20
5.477455555555556
 10
6.923095833333333
 20
5.452608333333333
 10
6.945887499999999
 20
5.433969444444444
 10
6.966581944444444
 20
5.417399999999999
 10
6.985220833333332
 20
5.407052777777777
 10
6.997651388888888
 20
5.402913888888889
  0
LWPOLYLINE
  5
194
330
2
100
AcDbEntity
  8
PDF_Layer 1
 62
     7
420
 16777215
370
    70
100
AcDbPolyline
 90
       26
 70
     0
 43
0.0
 10
1.297179166666666
 20
5.634816666666666
 10
1.297179166666666
 20
5.632747222222222
 10
1.299248611111111
 20
5.61826111111111
 10
1.307526388888888
 20
5.612052777777777
 10
1.319943055555555
 20
5.607899999999999
 10
1.334443055555555
 20
5.612052777777777
 10
1.353081944444444
 20
5.622399999999999
 10
1.373790277777777
 20
5.636899999999999
 10
1.396554166666666
 20
5.655524999999999
 10
1.421401388888888
 20
5.68038611111111
 10
1.44624861111111
 20
5.709358333333333
 10
1.473179166666666
 20
5.740427777777777
 10
1.498026388888888
 20
5.773566666666666
 10
1.52287361111111
 20
5.810816666666666
 10
1.545651388888888
 20
5.848094444444444
 10
1.568429166666666
 20
5.883302777777777
 10
1.587068055555555
 20
5.918497222222222
 10
1.601554166666666
 20
5.953691666666666
 10
1.613984722222221
 20
5.984761111111111
 10
1.622262499999999
 20
6.011677777777777
 10
1.626401388888888
 20
6.034455555555555
 10
1.626401388888888
 20
6.055163888888889
 10
1.624331944444444
 20
6.067580555555555
 10
1.616054166666666
 20
6.075872222222222
 10
1.60362361111111
 20
6.077941666666666
 10
1.591206944444444
 20
6.075872222222222
  0
LWPOLYLINE
  5
195
330
2
100
AcDbEntity
  8
PDF_Layer 1
 62
     7
420
 16777215
370
    70
100
AcDbPolyline
 90
       20
 70
     0
 43
0.0
 10
1.344790277777777
 20
5.578913888888888
 10
1.355151388888888
 20
5.580983333333334
 10
1.371706944444444
 20
5.587205555555555
 10
1.392429166666666
 20
5.601691666666666
 10
1.415193055555555
 20
5.61826111111111
 10
1.440040277777777
 20
5.641038888888888
 10
1.464887499999999
 20
5.670011111111111
 10
1.491818055555555
 20
5.699011111111111
 10
1.516651388888888
 20
5.734205555555555
 10
1.543581944444444
 20
5.769413888888888
 10
1.568429166666666
 20
5.806677777777777
 10
1.591206944444444
 20
5.843955555555555
 10
1.609831944444444
 20
5.87915
 10
1.628470833333333
 20
5.916427777777777
 10
1.642970833333333
 20
5.949552777777777
 10
1.653318055555555
 20
5.978538888888889
 10
1.661595833333333
 20
6.005469444444444
 10
1.663679166666666
 20
6.028233333333333
 10
1.663679166666666
 20
6.046872222222222
 10
1.661595833333333
 20
6.055163888888889
  0
LWPOLYLINE
  5
197
330
2
100
AcDbEntity
  8
PDF_Layer 1
 62
     7
420
 16777215
370
    70
100
AcDbPolyline
 90
        2
 70
     0
 43
0.0
 10
1.876956944444444
 20
5.903997222222222
 10
1.87487361111111
 20
5.906080555555555
  0
LWPOLYLINE
  5
198
330
2
100
AcDbEntity
  8
PDF_Layer 1
 62
     7
420
 16777215
370
    70
100
AcDbPolyline
 90
        2
 70
     0
 43
0.0
 10
1.560137499999999
 20
5.431899999999999
 10
1.558068055555555
 20
5.438108333333333
  0
LWPOLYLINE
  5
199
330
2
100
AcDbEntity
  8
PDF_Layer 1
 62
     7
420
 16777215
370
    70
100
AcDbPolyline
 90
       15
 70
     0
 43
0.0
 10
1.872804166666666
 20
5.906080555555555
 10
1.879026388888888
 20
5.90815
 10
1.883165277777777
 20
5.90815
 10
1.893512499999999
 20
5.903997222222222
 10
1.899720833333332
 20
5.89365
 10
1.901804166666666
 20
5.87915
 10
1.901804166666666
 20
5.858455555555555
 10
1.895595833333333
 20
5.833608333333333
 10
1.887304166666666
 20
5.804608333333333
 10
1.872804166666666
 20
5.773566666666666
 10
1.858318055555555
 20
5.738344444444444
 10
1.837609722222222
 20
5.703149999999999
 10
1.816901388888888
 20
5.66588611111111
 10
1.792054166666666
 20
5.628608333333333
 10
1.767206944444444
 20
5.591330555555555
  0
LWPOLYLINE
  5
19A
330
2
100
AcDbEntity
  8
PDF_Layer 1
 62
     7
420
 16777215
370
    70
100
AcDbPolyline
 90
       18
 70
     0
 43
0.0
 10
1.616054166666666
 20
5.402913888888889
 10
1.622262499999999
 20
5.404969444444444
 10
1.638831944444444
 20
5.411191666666667
 10
1.659526388888888
 20
5.425691666666667
 10
1.680234722222222
 20
5.442247222222222
 10
1.705081944444444
 20
5.465038888888889
 10
1.729929166666666
 20
5.491941666666666
 10
1.756859722222221
 20
5.522997222222222
 10
1.781706944444444
 20
5.55613611111111
 10
1.80862361111111
 20
5.591330555555555
 10
1.831387499999999
 20
5.628608333333333
 10
1.854179166666666
 20
5.66588611111111
 10
1.87487361111111
 20
5.701080555555555
 10
1.893512499999999
 20
5.736288888888888
 10
1.908012499999999
 20
5.769413888888888
 10
1.918359722222222
 20
5.800469444444444
 10
1.924568055555555
 20
5.825316666666666
 10
1.926651388888888
 20
5.837747222222222
  0
LWPOLYLINE
  5
19B
330
2
100
AcDbEntity
  8
PDF_Layer 1
 62
     7
420
 16777215
370
    70
100
AcDbPolyline
 90
       12
 70
     0
 43
0.0
 10
1.796193055555555
 20
5.456747222222221
 10
1.798262499999999
 20
5.456747222222221
 10
1.814831944444444
 20
5.471247222222222
 10
1.833470833333333
 20
5.491941666666666
 10
1.854179166666666
 20
5.514719444444444
 10
1.87487361111111
 20
5.54163611111111
 10
1.893512499999999
 20
5.568566666666666
 10
1.910081944444444
 20
5.597552777777777
 10
1.924568055555555
 20
5.624469444444444
 10
1.936998611111111
 20
5.65138611111111
 10
1.945276388888888
 20
5.672094444444444
 10
1.947359722222222
 20
5.68038611111111
  0
ELLIPSE
  5
19D
330
2
100
AcDbEntity
  8
PDF_Layer 1
 62
     7
420
 16777215
370
    70
100
AcDbEllipse
 10
4.356050440926527
 20
7.378429589148682
 30
0.0
 11
-0.4027823708102418
 21
0.0067198677977208
 31
0.0
210
0.0
220
0.0
230
1.0
 40
0.2720361285686588
 41
4.718263040960883
 42
11.00144834814047
  0
ARC
  5
19E
330
2
100
AcDbEntity
  8
PDF_Layer 1
 62
     7
420
 16777215
370
    70
100
AcDbCircle
 10
4.340204894585959
 20
6.403350427260702
 30
0.0
 40
1.169567275158224
100
AcDbArc
 50
70.6243492580687
 51
108.1137081673416
  0
ELLIPSE
  5
19F
330
2
100
AcDbEntity
  8
PDF_Layer 1
 62
     7
420
 16777215
370
    70
100
AcDbEllipse
 10
4.354731369938765
 20
7.378023447880808
 30
0.0
 11
-0.3203617736079693
 21
0.0060118577271323
 31
0.0
210
0.0
220
0.0
230
1.0
 40
0.2705881961462491
 41
1.571852724910253
 42
7.855038032089839
  0
LWPOLYLINE
  5
1A2
330
2
100
AcDbEntity
  8
PDF_Layer 1
 62
     7
420
 16777215
370
    70
100
AcDbPolyline
 90
       13
 70
     0
 43
0.0
 10
4.11324861111111
 20
7.438344444444444
 10
4.142234722222221
 20
7.430066666666666
 10
4.17949861111111
 20
7.421788888888888
 10
4.220915277777777
 20
7.415580555555555
 10
4.264401388888888
 20
7.409358333333333
 10
4.309956944444444
 20
7.407288888888889
 10
4.355512499999999
 20
7.405219444444444
 10
4.403137499999999
 20
7.405219444444444
 10
4.448693055555555
 20
7.407288888888889
 10
4.492179166666666
 20
7.411427777777777
 10
4.531512499999999
 20
7.415580555555555
 10
4.568790277777777
 20
7.423858333333333
 10
4.597776388888887
 20
7.430066666666666
  0
LWPOLYLINE
  5
1A4
330
2
100
AcDbEntity
  8
PDF_Layer 1
 62
     7
420
 16777215
370
    70
100
AcDbPolyline
 90
       13
 70
     0
 43
0.0
 10
4.127734722222221
 20
7.442497222222222
 10
4.152581944444444
 20
7.434205555555555
 10
4.185720833333332
 20
7.425927777777777
 10
4.225054166666666
 20
7.419705555555555
 10
4.266470833333332
 20
7.415580555555555
 10
4.312026388888888
 20
7.411427777777777
 10
4.355512499999999
 20
7.409358333333333
 10
4.401068055555555
 20
7.409358333333333
 10
4.444540277777777
 20
7.411427777777777
 10
4.485956944444444
 20
7.415580555555555
 10
4.525304166666666
 20
7.421788888888888
 10
4.560512499999999
 20
7.427997222222222
 10
4.585345833333333
 20
7.434205555555555
  0
LWPOLYLINE
  5
1A7
330
2
100
AcDbEntity
  8
PDF_Layer 1
 62
     7
420
 16777215
370
    70
100
AcDbPolyline
 90
       15
 70
     1
 43
0.0
 10
4.150512499999999
 20
5.411191666666667
 10
4.218845833333332
 20
5.442247222222222
 10
4.249901388888888
 20
5.452608333333333
 10
4.293387499999999
 20
5.46088611111111
 10
4.338943055555555
 20
5.46088611111111
 10
4.382429166666666
 20
5.454677777777777
 10
4.425915277777777
 20
5.440191666666666
 10
4.49424861111111
 20
5.404969444444444
 10
4.452831944444444
 20
5.404969444444444
 10
4.411415277777777
 20
5.407052777777777
 10
4.365859722222221
 20
5.407052777777777
 10
4.3223875
 20
5.407052777777777
 10
4.278901388888889
 20
5.409122222222221
 10
4.235415277777778
 20
5.409122222222221
 10
4.191929166666666
 20
5.409122222222221
  0
ELLIPSE
  5
1AA
330
2
100
AcDbEntity
  8
PDF_Layer 1
 62
     7
420
 16777215
370
    70
100
AcDbEllipse
 10
5.296706815267039
 20
4.47144704574717
 30
0.0
 11
-0.1748838112162424
 21
0.2258163490152675
 31
0.0
210
0.0
220
0.0
230
1.0
 40
0.2508242636323799
 41
1.371350346310174
 42
3.180298193641259
  0
LWPOLYLINE
  5
1AC
330
2
100
AcDbEntity
  8
PDF_Layer 1
 62
     7
420
 16777215
370
    70
100
AcDbPolyline
 90
       21
 70
     0
 43
0.0
 10
6.107276388888888
 20
5.309733333333332
 10
6.105206944444444
 20
5.311788888888888
 10
6.092776388888888
 20
5.313872222222222
 10
6.084498611111111
 20
5.311788888888888
 10
6.080359722222222
 20
5.303525
 10
6.080359722222222
 20
5.291094444444444
 10
6.084498611111111
 20
5.272455555555556
 10
6.092776388888888
 20
5.251747222222222
 10
6.10312361111111
 20
5.226899999999999
 10
6.117623611111111
 20
5.199997222222222
 10
6.134193055555555
 20
5.173066666666667
 10
6.152831944444444
 20
5.14615
 10
6.171456944444443
 20
5.121302777777778
 10
6.190095833333333
 20
5.098525
 10
6.208734722222222
 20
5.079886111111111
 10
6.225304166666666
 20
5.067469444444444
 10
6.239790277777777
 20
5.057122222222222
 10
6.250151388888887
 20
5.055038888888889
 10
6.258429166666665
 20
5.057122222222222
 10
6.262568055555554
 20
5.065386111111111
 10
6.262568055555554
 20
5.077816666666667
  0
LWPOLYLINE
  5
1AE
330
2
100
AcDbEntity
  8
PDF_Layer 1
 62
     7
420
 16777215
370
    70
100
AcDbPolyline
 90
        2
 70
     0
 43
0.0
 10
5.488151388888888
 20
4.249566666666666
 10
5.488151388888888
 20
4.257844444444444
  0
LWPOLYLINE
  5
1AF
330
2
100
AcDbEntity
  8
PDF_Layer 1
 62
     7
420
 16777215
370
    70
100
AcDbPolyline
 90
       18
 70
     0
 43
0.0
 10
5.057456944444444
 20
4.901816666666666
 10
5.042956944444443
 20
4.905955555555555
 10
5.038818055555555
 20
4.908025
 10
5.022262499999999
 20
4.908025
 10
5.011901388888888
 20
4.901816666666666
 10
5.00362361111111
 20
4.889386111111111
 10
4.999484722222221
 20
4.872830555555555
 10
4.999484722222221
 20
4.850038888888889
 10
5.00362361111111
 20
4.823136111111111
 10
5.011901388888888
 20
4.792080555555555
 10
5.024331944444444
 20
4.756858333333333
 10
5.038818055555555
 20
4.719594444444444
 10
5.059526388888889
 20
4.678177777777777
 10
5.080234722222223
 20
4.634691666666666
 10
5.105081944444443
 20
4.591219444444444
 10
5.131998611111111
 20
4.545663888888888
 10
5.160984722222221
 20
4.502177777777777
 10
5.189970833333333
 20
4.458705555555555
  0
ELLIPSE
  5
1B5
330
2
100
AcDbEntity
  8
PDF_Layer 1
 62
     7
420
 16777215
370
    70
100
AcDbEllipse
 10
3.308611183413304
 20
4.440342607989355
 30
0.0
 11
0.1628411472798516
 21
0.1973296901113516
 31
0.0
210
0.0
220
0.0
230
1.0
 40
0.2364826067582415
 41
3.047618000163392
 42
5.069239408428835
  0
LWPOLYLINE
  5
1B6
330
2
100
AcDbEntity
  8
PDF_Layer 1
 62
     7
420
 16777215
370
    70
100
AcDbPolyline
 90
       12
 70
     0
 43
0.0
 10
2.462943055555555
 20
5.14615
 10
2.481581944444444
 20
5.173066666666667
 10
2.498137499999999
 20
5.199997222222222
 10
2.512637499999999
 20
5.226899999999999
 10
2.522984722222221
 20
5.251747222222222
 10
2.531276388888888
 20
5.272455555555556
 10
2.535415277777777
 20
5.291094444444444
 10
2.533345833333333
 20
5.303525
 10
2.529206944444444
 20
5.311788888888888
 10
2.522984722222221
 20
5.313872222222222
 10
2.510568055555555
 20
5.311788888888888
 10
2.50849861111111
 20
5.309733333333332
  0
ELLIPSE
  5
1B7
330
2
100
AcDbEntity
  8
PDF_Layer 1
 62
     7
420
 16777215
370
    70
100
AcDbEllipse
 10
2.44394423889014
 20
5.186699224906201
 30
0.0
 11
0.0851674603655133
 21
0.1307186553014975
 31
0.0
210
0.0
220
0.0
230
1.0
 40
0.2467507413160255
 41
2.695809182464294
 42
4.56051821107437
  0
LWPOLYLINE
  5
1B8
330
2
100
AcDbEntity
  8
PDF_Layer 1
 62
     7
420
 16777215
370
    70
100
AcDbPolyline
 90
        2
 70
     0
 43
0.0
 10
3.568665277777777
 20
4.905955555555555
 10
3.558304166666666
 20
4.901816666666666
  0
LWPOLYLINE
  5
1B9
330
2
100
AcDbEntity
  8
PDF_Layer 1
 62
     7
420
 16777215
370
    70
100
AcDbPolyline
 90
       16
 70
     0
 43
0.0
 10
3.125554166666666
 20
4.257844444444444
 10
3.12762361111111
 20
4.245413888888888
 10
3.12762361111111
 20
4.241274999999999
 10
3.133831944444444
 20
4.226774999999999
 10
3.144179166666666
 20
4.21851111111111
 10
3.156609722222221
 20
4.214358333333333
 10
3.175248611111111
 20
4.216427777777777
 10
3.193887499999999
 20
4.224719444444444
 10
3.218734722222221
 20
4.239205555555555
 10
3.243581944444444
 20
4.257844444444444
 10
3.27049861111111
 20
4.280622222222222
 10
3.301554166666666
 20
4.309608333333333
 10
3.330540277777777
 20
4.342733333333333
 10
3.361595833333332
 20
4.377941666666666
 10
3.394734722222221
 20
4.417275
 10
3.423720833333333
 20
4.458705555555555
  0
LWPOLYLINE
  5
1C8
330
2
100
AcDbEntity
  8
PDF_Layer 1
 62
     7
420
 16777215
370
    70
100
AcDbPolyline
 90
        2
 70
     0
 43
0.0
 10
4.448693055555555
 20
3.576608333333333
 10
4.448693055555555
 20
3.576608333333333
  0
LWPOLYLINE
  5
1CA
330
2
100
AcDbEntity
  8
PDF_Layer 1
 62
     7
420
 16777215
370
    70
100
AcDbPolyline
 90
       34
 70
     0
 43
0.0
 10
4.191929166666666
 20
3.823011111111111
 10
4.152581944444444
 20
3.860288888888889
 10
4.1173875
 20
3.8934
 10
4.082193055555555
 20
3.926538888888888
 10
4.038706944444444
 20
3.967955555555555
 10
3.993151388888888
 20
4.011427777777777
 10
3.949665277777777
 20
4.056997222222221
 10
3.931026388888888
 20
4.038358333333333
 10
3.912387499999999
 20
4.023858333333333
 10
3.895831944444444
 20
4.007302777777778
 10
3.881331944444444
 20
3.990733333333333
 10
3.866831944444444
 20
3.974163888888888
 10
3.852345833333332
 20
3.955525
 10
3.84199861111111
 20
3.943108333333333
 10
3.852345833333332
 20
3.909983333333333
 10
3.864762499999999
 20
3.874774999999999
 10
3.879262499999999
 20
3.839566666666666
 10
3.918609722222221
 20
3.758816666666666
 10
3.866831944444444
 20
3.756761111111111
 10
3.815068055555555
 20
3.758816666666666
 10
3.775734722222221
 20
3.760886111111111
 10
3.736387499999999
 20
3.769163888888888
 10
3.730179166666665
 20
3.713275
 10
3.71774861111111
 20
3.661497222222222
 10
3.711540277777777
 20
3.634580555555555
 10
3.705331944444444
 20
3.609733333333333
 10
3.697040277777777
 20
3.584886111111111
 10
3.736387499999999
 20
3.582816666666666
 10
3.775734722222221
 20
3.580747222222222
 10
3.815068055555555
 20
3.580747222222222
 10
3.893762499999999
 20
3.580747222222222
 10
3.978651388888888
 20
3.580747222222222
 10
3.978651388888888
 20
3.576608333333333
 10
3.980720833333333
 20
3.576608333333333
  0
LWPOLYLINE
  5
1CD
330
2
100
AcDbEntity
  8
PDF_Layer 1
 62
     7
420
 16777215
370
    70
100
AcDbPolyline
 90
       30
 70
     0
 43
0.0
 10
5.20240138888889
 20
4.175025000000001
 42
-0.0050141877969366
 10
4.806915277777775
 20
4.315816666666666
 42
-0.0204330394270431
 10
4.483887499999999
 20
4.191580555555555
 10
4.452831944444444
 20
4.191580555555555
 10
4.421762499999999
 20
4.195719444444444
 10
4.392776388888888
 20
4.199872222222222
 10
4.3223875
 20
4.216427777777777
 10
4.326512499999999
 20
4.106691666666666
 10
4.326512499999999
 20
4.077691666666666
 10
4.328595833333332
 20
4.048705555555555
 10
4.326512499999999
 20
4.021802777777778
 10
4.260262499999999
 20
4.052844444444444
 10
4.191929166666666
 20
4.077691666666666
 10
4.156720833333332
 20
4.09426111111111
 10
4.123595833333332
 20
4.110830555555555
 10
4.096679166666667
 20
4.12738611111111
 10
4.078040277777777
 20
4.119108333333333
 10
4.055262499999999
 20
4.108747222222222
 10
4.020068055555555
 20
4.092191666666666
 10
3.997290277777777
 20
4.081844444444444
 10
3.976581944444443
 20
4.069413888888888
 10
3.949665277777777
 20
4.056997222222221
 10
3.949665277777777
 20
4.104608333333333
 10
3.95587361111111
 20
4.148094444444444
 10
3.960012499999999
 20
4.20401111111111
 10
3.957943055555555
 20
4.259913888888888
 10
4.044915277777777
 20
4.270261111111111
 10
4.080109722222221
 20
4.278552777777777
 10
4.1173875
 20
4.282691666666666
 10
4.158804166666666
 20
4.284761111111111
  0
LWPOLYLINE
  5
1D5
330
2
100
AcDbEntity
  8
PDF_Layer 1
 62
     7
420
 16777215
370
    70
100
AcDbPolyline
 90
       10
 70
     0
 43
0.0
 10
4.628831944444444
 20
3.576608333333333
 10
4.63712361111111
 20
3.576608333333333
 10
4.649540277777777
 20
3.576608333333333
 10
4.666109722222222
 20
3.578663888888889
 10
4.707526388888888
 20
3.580747222222222
 10
4.744790277777776
 20
3.580747222222222
 10
4.779984722222222
 20
3.580747222222222
 10
4.862818055555554
 20
3.580747222222222
 10
4.854526388888888
 20
3.576608333333333
 10
4.852470833333333
 20
3.576608333333333
  0
LWPOLYLINE
  5
1D6
330
2
100
AcDbEntity
  8
PDF_Layer 1
 62
     7
420
 16777215
370
    70
100
AcDbPolyline
 90
       73
 70
     0
 43
0.0
 10
5.045026388888889
 20
4.580858333333333
 10
5.034679166666666
 20
4.597427777777777
 10
5.020179166666665
 20
4.611927777777777
 10
5.005693055555554
 20
4.630566666666666
 10
4.922859722222221
 20
4.651261111111111
 10
4.887665277777776
 20
4.653330555555555
 10
4.854526388888888
 20
4.659552777777777
 10
4.81312361111111
 20
4.6699
 10
4.771706944444443
 20
4.680261111111111
 10
4.740651388888888
 20
4.692677777777777
 10
4.713734722222222
 20
4.709247222222222
 10
4.686818055555554
 20
4.680261111111111
 10
4.655748611111111
 20
4.651261111111111
 10
4.606054166666665
 20
4.607775
 10
4.597776388888887
 20
4.640913888888889
 10
4.595706944444443
 20
4.676108333333333
 10
4.589484722222222
 20
4.732011111111111
 10
4.583276388888888
 20
4.831413888888889
 10
4.556359722222221
 20
4.823136111111111
 10
4.529443055555555
 20
4.810705555555555
 10
4.508734722222222
 20
4.800344444444444
 10
4.485956944444444
 20
4.792080555555555
 10
4.463179166666665
 20
4.796205555555555
 10
4.440401388888888
 20
4.802427777777777
 10
4.41762361111111
 20
4.808636111111111
 10
4.39899861111111
 20
4.812775
 10
4.380359722222221
 20
4.816927777777777
 10
4.365859722222221
 20
4.818983333333333
 10
4.361720833333333
 20
4.800344444444444
 10
4.355512499999999
 20
4.773441666666666
 10
4.349304166666666
 20
4.748594444444444
 10
4.343081944444444
 20
4.723747222222222
 10
4.326512499999999
 20
4.640913888888889
 10
4.216776388888888
 20
4.717525
 10
4.133956944444443
 20
4.773441666666666
 10
4.092540277777777
 20
4.674038888888889
 10
4.082193055555555
 20
4.649191666666666
 10
4.069762499999999
 20
4.624344444444444
 10
4.057345833333332
 20
4.595358333333333
 10
4.038706944444444
 20
4.580858333333333
 10
4.022137499999999
 20
4.568441666666666
 10
4.0076375
 20
4.553941666666666
 10
3.966220833333333
 20
4.524955555555555
 10
4.0076375
 20
4.473191666666666
 10
4.051123611111111
 20
4.421427777777777
 10
4.086318055555555
 20
4.377941666666666
 10
4.121526388888888
 20
4.332386111111111
 10
4.158804166666666
 20
4.284761111111111
 10
4.173290277777777
 20
4.309608333333333
 10
4.183651388888888
 20
4.332386111111111
 10
4.193998611111111
 20
4.357233333333333
 10
4.210568055555555
 20
4.394511111111111
 10
4.218845833333332
 20
4.417275
 10
4.225054166666666
 20
4.429705555555555
 10
4.227137499999999
 20
4.437983333333333
 10
4.233345833333332
 20
4.435913888888888
 10
4.24162361111111
 20
4.433858333333333
 10
4.264401388888888
 20
4.427636111111111
 10
4.316165277777777
 20
4.411066666666666
 10
4.318234722222221
 20
4.357233333333333
 10
4.320304166666666
 20
4.301330555555555
 10
4.3223875
 20
4.216427777777777
 10
4.233345833333332
 20
4.251622222222222
 10
4.208498611111111
 20
4.261983333333333
 10
4.185720833333332
 20
4.274413888888888
 10
4.158804166666666
 20
4.284761111111111
 10
4.150512499999999
 20
4.251622222222222
 10
4.136026388888888
 20
4.220566666666666
 10
4.123595833333332
 20
4.191580555555555
 10
4.107040277777777
 20
4.152233333333333
 10
4.098748611111111
 20
4.135677777777777
 10
4.098748611111111
 20
4.131538888888888
 10
4.096679166666667
 20
4.12738611111111
  0
LWPOLYLINE
  5
1E1
330
2
100
AcDbEntity
  8
PDF_Layer 1
 62
     7
420
 16777215
370
    70
100
AcDbPolyline
 90
       34
 70
     0
 43
0.0
 10
4.425915277777777
 20
5.023983333333333
 10
4.450762499999999
 20
4.968066666666667
 10
4.471456944444444
 20
4.901816666666666
 10
4.47974861111111
 20
4.8459
 10
4.485956944444444
 20
4.792080555555555
 10
4.490095833333333
 20
4.717525
 10
4.488026388888888
 20
4.645052777777777
 10
4.47974861111111
 20
4.587080555555555
 10
4.467331944444444
 20
4.533247222222222
 10
4.471456944444444
 20
4.533247222222222
 10
4.477679166666666
 20
4.533247222222222
 10
4.49424861111111
 20
4.541511111111111
 10
4.529443055555555
 20
4.56015
 10
4.606054166666623
 20
4.607775000000053
 42
0.0010030745224918
 10
4.806915277777775
 20
4.315816666666666
 42
0.0046478433036697
 10
4.436262499999999
 20
4.452483333333333
 10
4.450762499999999
 20
4.485608333333333
 10
4.456970833333333
 20
4.500108333333333
 10
4.461109722222222
 20
4.514608333333333
 10
4.467331944444444
 20
4.533247222222222
 10
4.454901388888888
 20
4.541511111111111
 10
4.446609722222222
 20
4.551886111111111
 10
4.427984722222221
 20
4.570511111111111
 10
4.392776388888888
 20
4.597427777777777
 10
4.326512499999999
 20
4.640913888888889
 10
4.307887499999999
 20
4.578788888888889
 10
4.295456944444444
 20
4.529094444444444
 10
4.357581944444444
 20
4.498038888888888
 10
4.382429166666666
 20
4.483552777777777
 10
4.407276388888888
 20
4.466969444444444
 10
4.436262499999999
 20
4.452483333333333
 10
4.415568055555555
 20
4.411066666666666
 10
4.407276388888888
 20
4.394511111111111
 10
4.401068055555555
 20
4.380011111111111
  0
LWPOLYLINE
  5
1EB
330
2
100
AcDbEntity
  8
PDF_Layer 1
 62
     7
420
 16777215
370
    70
100
AcDbPolyline
 90
       29
 70
     1
 43
0.0
 10
3.740526388888888
 20
4.692677777777777
 10
3.759165277777777
 20
4.711316666666666
 10
3.777804166666666
 20
4.734094444444444
 10
3.792304166666666
 20
4.756858333333333
 10
3.798512499999999
 20
4.76515
 10
3.800581944444444
 20
4.775497222222222
 10
3.806790277777777
 20
4.783788888888889
 10
3.837845833333332
 20
4.736163888888889
 10
3.868915277777777
 20
4.682316666666666
 10
3.912387499999999
 20
4.603636111111111
 10
3.966220833333333
 20
4.524955555555555
 10
3.920679166666666
 20
4.502177777777777
 10
3.881331944444444
 20
4.491816666666666
 10
3.928956944444443
 20
4.363441666666666
 10
3.945526388888888
 20
4.311691666666666
 10
3.957943055555555
 20
4.259913888888888
 10
3.904109722222221
 20
4.264052777777777
 10
3.850276388888888
 20
4.274413888888888
 10
3.767443055555555
 20
4.293052777777777
 10
3.665984722222222
 20
4.317899999999999
 10
3.587304166666666
 20
4.344802777777777
 10
3.6266375
 20
4.419358333333333
 10
3.651484722222221
 20
4.466969444444444
 10
3.67012361111111
 20
4.516663888888889
 10
3.719818055555555
 20
4.504247222222222
 10
3.784012499999999
 20
4.4939
 10
3.777804166666666
 20
4.541511111111111
 10
3.769512499999999
 20
4.587080555555555
 10
3.759165277777777
 20
4.640913888888889
  0
LWPOLYLINE
  5
201
330
2
100
AcDbEntity
  8
PDF_Layer 1
 62
     7
420
 16777215
370
    70
100
AcDbPolyline
 90
       51
 70
     0
 43
0.0
 10
3.806790277777777
 20
4.783788888888889
 10
3.784012499999999
 20
4.794136111111111
 10
3.761234722222221
 20
4.798288888888889
 10
3.740526388888888
 20
4.804497222222222
 10
3.715679166666666
 20
4.808636111111111
 10
3.697040277777777
 20
4.814844444444444
 10
3.688762499999999
 20
4.798288888888889
 10
3.682554166666665
 20
4.785858333333333
 10
3.674262499999999
 20
4.767219444444444
 10
3.665984722222222
 20
4.752733333333333
 10
3.676331944444444
 20
4.746511111111111
 10
3.688762499999999
 20
4.738233333333333
 10
3.709470833333333
 20
4.723747222222222
 10
3.728095833333332
 20
4.709247222222222
 10
3.740526388888888
 20
4.692677777777777
 10
3.711540277777777
 20
4.661622222222222
 10
3.69912361111111
 20
4.651261111111111
 10
3.688762499999999
 20
4.642983333333333
 10
3.688762499999999
 20
4.622275
 10
3.686693055555555
 20
4.599497222222222
 10
3.682554166666665
 20
4.57465
 10
3.67012361111111
 20
4.516663888888889
 10
3.645276388888888
 20
4.531163888888888
 10
3.620429166666666
 20
4.547733333333333
 10
3.601790277777777
 20
4.564302777777777
 10
3.58937361111111
 20
4.576733333333333
 10
3.570734722222221
 20
4.547733333333333
 10
3.552095833333333
 20
4.520816666666666
 10
3.531387499999999
 20
4.491816666666666
 10
3.506540277777777
 20
4.460761111111111
 10
3.483776388888888
 20
4.429705555555555
 10
3.500331944444444
 20
4.413136111111111
 10
3.523109722222221
 20
4.388288888888888
 10
3.554179166666666
 20
4.365524999999999
 10
3.587304166666666
 20
4.344802777777777
 10
3.556234722222221
 20
4.290969444444444
 10
3.525179166666666
 20
4.241274999999999
 10
3.508623611111111
 20
4.214358333333333
 10
3.492054166666666
 20
4.191580555555555
 10
3.475484722222221
 20
4.164663888888888
 10
3.514831944444444
 20
4.160524999999999
 10
3.550026388888888
 20
4.158441666666666
 10
3.585234722222221
 20
4.152233333333333
 10
3.721887499999999
 20
4.12738611111111
 10
3.709470833333333
 20
4.056997222222221
 10
3.705331944444444
 20
4.030066666666666
 10
3.705331944444444
 20
4.003163888888889
 10
3.767443055555555
 20
3.976233333333333
 10
3.802651388888888
 20
3.959677777777777
 10
3.823359722222221
 20
3.949316666666666
 10
3.84199861111111
 20
3.943108333333333
  0
LWPOLYLINE
  5
20E
330
2
100
AcDbEntity
  8
PDF_Layer 1
 62
     7
420
 16777215
370
    70
100
AcDbPolyline
 90
       37
 70
     0
 43
0.0
 10
4.97049861111111
 20
3.661497222222222
 10
4.980845833333332
 20
3.669788888888889
 10
4.995345833333332
 20
3.680136111111111
 10
5.009831944444443
 20
3.692552777777777
 10
5.020179166666665
 20
3.698775
 10
5.026401388888888
 20
3.707052777777778
 10
5.011901388888888
 20
3.742261111111111
 10
4.98912361111111
 20
3.769163888888888
 10
4.968415277777777
 20
3.789872222222222
 10
4.945651388888888
 20
3.810594444444444
 10
4.97049861111111
 20
3.854066666666666
 10
4.995345833333332
 20
3.899622222222222
 10
5.0408875
 20
3.963816666666666
 10
5.009831944444443
 20
4.017649999999999
 10
4.968415277777777
 20
4.077691666666666
 10
4.924929166666665
 20
4.139816666666666
 10
4.906304166666666
 20
4.164663888888888
 10
4.887665277777776
 20
4.18951111111111
 10
4.871095833333333
 20
4.216427777777777
 10
4.852470833333333
 20
4.243358333333333
 10
4.833831944444443
 20
4.274413888888888
 10
4.806915277777776
 20
4.315816666666666
 10
4.848318055555555
 20
4.336538888888888
 10
4.877318055555554
 20
4.348941666666666
 10
4.904234722222221
 20
4.361372222222222
 10
4.931151388888888
 20
4.371733333333333
 10
4.958068055555555
 20
4.382080555555555
 10
5.016040277777777
 20
4.402788888888888
 10
5.074026388888889
 20
4.421427777777777
 10
5.129929166666665
 20
4.435913888888888
 10
5.105081944444443
 20
4.462830555555555
 10
5.086443055555555
 20
4.489761111111111
 10
5.067804166666666
 20
4.516663888888889
 10
5.051248611111111
 20
4.543594444444444
 10
5.034679166666666
 20
4.57465
 10
5.018109722222222
 20
4.601580555555555
 10
5.005693055555554
 20
4.630566666666666
  0
LWPOLYLINE
  5
217
330
2
100
AcDbEntity
  8
PDF_Layer 1
 62
     7
420
 16777215
370
    70
100
AcDbPolyline
 90
       41
 70
     0
 43
0.0
 10
4.974623611111111
 20
3.578663888888889
 10
4.995345833333332
 20
3.578663888888889
 10
5.009831944444443
 20
3.578663888888889
 10
5.026401388888888
 20
3.580747222222222
 10
5.045026388888889
 20
3.580747222222222
 10
5.059526388888889
 20
3.586955555555555
 10
5.053318055555555
 20
3.599372222222222
 10
5.049179166666665
 20
3.62215
 10
5.042956944444443
 20
3.646997222222222
 10
5.026401388888888
 20
3.707052777777778
 10
5.03674861111111
 20
3.733969444444444
 10
5.047109722222222
 20
3.758816666666666
 10
5.078165277777777
 20
3.823011111111111
 10
5.059526388888889
 20
3.899622222222222
 10
5.0553875
 20
3.920330555555555
 10
5.049179166666665
 20
3.941038888888888
 10
5.0408875
 20
3.963816666666666
 10
5.107151388888888
 20
4.038358333333333
 10
5.138206944444443
 20
4.069413888888888
 10
5.150637499999999
 20
4.081844444444444
 10
5.154776388888889
 20
4.085983333333333
 10
5.156845833333333
 20
4.088052777777777
 10
5.158915277777778
 20
4.088052777777777
 10
5.167206944444444
 20
4.110830555555555
 10
5.179623611111111
 20
4.135677777777777
 10
5.187901388888889
 20
4.154316666666666
 10
5.202401388888888
 20
4.175024999999999
 10
5.21274861111111
 20
4.14188611111111
 10
5.21274861111111
 20
4.110830555555555
 10
5.210693055555555
 20
4.081844444444444
 10
5.189970833333333
 20
3.970025
 10
5.169276388888889
 20
3.901691666666666
 10
5.158915277777778
 20
3.870636111111111
 10
5.148568055555555
 20
3.837497222222222
 10
5.140290277777777
 20
3.806441666666666
 10
5.134068055555554
 20
3.798163888888889
 10
5.129929166666665
 20
3.789872222222222
 10
5.125790277777777
 20
3.781594444444444
 10
5.121651388888889
 20
3.775372222222222
 10
5.121651388888889
 20
3.773316666666666
 10
5.119568055555554
 20
3.771247222222222
  0
LWPOLYLINE
  5
222
330
2
100
AcDbEntity
  8
PDF_Layer 1
 62
     7
420
 16777215
370
    70
100
AcDbPolyline
 90
       13
 70
     0
 43
0.0
 10
3.62249861111111
 20
3.847858333333333
 10
3.612151388888888
 20
3.837497222222222
 10
3.599720833333333
 20
3.829219444444444
 10
3.585234722222221
 20
3.820941666666666
 10
3.554179166666666
 20
3.810594444444444
 10
3.58937361111111
 20
3.742261111111111
 10
3.624568055555555
 20
3.678066666666667
 10
3.645276388888888
 20
3.644941666666666
 10
3.668054166666666
 20
3.613872222222222
 10
3.697040277777777
 20
3.584886111111111
 10
3.70324861111111
 20
3.578663888888889
 10
3.705331944444444
 20
3.576608333333333
 10
3.709470833333333
 20
3.576608333333333
  0
LWPOLYLINE
  5
223
330
2
100
AcDbEntity
  8
PDF_Layer 1
 62
     7
420
 16777215
370
    70
100
AcDbPolyline
 90
       24
 70
     0
 43
0.0
 10
3.58937361111111
 20
4.576733333333333
 10
3.587304166666666
 20
4.578788888888889
 10
3.583151388888889
 20
4.578788888888889
 10
3.566595833333332
 20
4.564302777777777
 10
3.560387499999999
 20
4.553941666666666
 10
3.552095833333333
 20
4.545663888888888
 10
3.54174861111111
 20
4.531163888888888
 10
3.539679166666666
 20
4.527038888888888
 10
3.537609722222221
 20
4.520816666666666
 10
3.533470833333332
 20
4.516663888888889
 10
3.531387499999999
 20
4.510455555555555
 10
3.54174861111111
 20
4.524955555555555
 10
3.554179166666666
 20
4.539455555555555
 10
3.568665277777777
 20
4.558094444444444
 10
3.58937361111111
 20
4.576733333333333
 10
3.597651388888888
 20
4.591219444444444
 10
3.60387361111111
 20
4.605719444444444
 10
3.610081944444444
 20
4.618136111111111
 10
3.62249861111111
 20
4.645052777777777
 10
3.632859722222221
 20
4.6699
 10
3.647345833333332
 20
4.663677777777778
 10
3.663915277777777
 20
4.655413888888888
 10
3.678415277777776
 20
4.649191666666666
 10
3.688762499999999
 20
4.642983333333333
  0
LWPOLYLINE
  5
228
330
2
100
AcDbEntity
  8
PDF_Layer 1
 62
     7
420
 16777215
370
    70
100
AcDbPolyline
 90
       16
 70
     0
 43
0.0
 10
4.235415277777778
 20
5.028122222222222
 10
4.227137499999999
 20
5.005344444444444
 10
4.212637499999999
 20
4.968066666666667
 10
4.196068055555556
 20
4.930802777777778
 10
4.181568055555555
 20
4.893525
 10
4.133956944444443
 20
4.773441666666666
 10
4.090470833333333
 20
4.808636111111111
 10
4.051123611111111
 20
4.843830555555555
 10
4.032484722222221
 20
4.8604
 10
4.013859722222222
 20
4.879038888888889
 10
3.995220833333333
 20
4.891469444444444
 10
3.976581944444443
 20
4.8459
 10
3.95587361111111
 20
4.802427777777777
 10
3.933095833333332
 20
4.769288888888889
 10
3.92274861111111
 20
4.756858333333333
 10
3.916526388888888
 20
4.748594444444444
  0
LWPOLYLINE
  5
22E
330
2
100
AcDbEntity
  8
PDF_Layer 1
 62
     7
420
 16777215
370
    70
100
AcDbPolyline
 90
       24
 70
     0
 43
0.0
 10
4.862818055555554
 20
4.76515
 10
4.850401388888888
 20
4.773441666666666
 10
4.835901388888888
 20
4.783788888888889
 10
4.823470833333333
 20
4.794136111111111
 10
4.806915277777776
 20
4.804497222222222
 10
4.788276388888887
 20
4.816927777777777
 10
4.76549861111111
 20
4.794136111111111
 10
4.744790277777776
 20
4.763080555555555
 10
4.728220833333333
 20
4.738233333333333
 10
4.713734722222222
 20
4.709247222222222
 10
4.699234722222221
 20
4.727872222222222
 10
4.686818055555554
 20
4.748594444444444
 10
4.676456944444444
 20
4.771358333333333
 10
4.664040277777777
 20
4.798288888888889
 10
4.655748611111111
 20
4.825191666666666
 10
4.645401388888888
 20
4.827275
 10
4.630901388888887
 20
4.829344444444444
 10
4.616401388888887
 20
4.831413888888889
 10
4.583276388888888
 20
4.831413888888889
 10
4.589484722222222
 20
4.895608333333333
 10
4.601915277777776
 20
4.957719444444444
 10
4.606054166666665
 20
4.982566666666667
 10
4.612276388888888
 20
5.005344444444444
 10
4.616401388888887
 20
5.019844444444444
  0
LWPOLYLINE
  5
235
330
2
100
AcDbEntity
  8
PDF_Layer 1
 62
     7
420
 16777215
370
    70
100
AcDbPolyline
 90
       19
 70
     0
 43
0.0
 10
4.123595833333332
 20
5.028122222222222
 10
4.121526388888888
 20
5.028122222222222
 10
4.092540277777777
 20
5.0219
 10
4.078040277777777
 20
5.005344444444444
 10
4.059401388888888
 20
4.986705555555555
 10
4.034554166666667
 20
4.953566666666667
 10
4.013859722222222
 20
4.924594444444444
 10
3.995220833333333
 20
4.891469444444444
 10
3.976581944444443
 20
4.889386111111111
 10
3.957943055555555
 20
4.885247222222222
 10
3.928956944444443
 20
4.876969444444444
 10
3.902040277777777
 20
4.868677777777778
 10
3.870984722222221
 20
4.8604
 10
3.895831944444444
 20
4.885247222222222
 10
3.914456944444443
 20
4.912163888888889
 10
3.928956944444443
 20
4.939080555555555
 10
3.951734722222222
 20
4.986705555555555
 10
3.964165277777777
 20
5.017775
 10
3.972443055555555
 20
5.028122222222222
  0
LWPOLYLINE
  5
236
330
2
100
AcDbEntity
  8
PDF_Layer 1
 62
     7
420
 16777215
370
    70
100
AcDbPolyline
 90
        3
 70
     0
 43
0.0
 10
4.686818055555554
 20
3.576608333333333
 10
4.678526388888888
 20
3.576608333333333
 10
4.666109722222222
 20
3.578663888888889
  0
LWPOLYLINE
  5
23A
330
2
100
AcDbEntity
  8
PDF_Layer 1
 62
     7
420
 16777215
370
    70
100
AcDbPolyline
 90
       21
 70
     0
 43
0.0
 10
3.605943055555555
 20
4.649191666666666
 10
3.60799861111111
 20
4.651261111111111
 10
3.614220833333332
 20
4.657469444444444
 10
3.630790277777777
 20
4.696816666666666
 10
3.639068055555555
 20
4.719594444444444
 10
3.645276388888888
 20
4.742372222222222
 10
3.649415277777777
 20
4.742372222222222
 10
3.655637499999999
 20
4.746511111111111
 10
3.659776388888888
 20
4.75065
 10
3.665984722222222
 20
4.752733333333333
 10
3.657706944444444
 20
4.729955555555555
 10
3.649415277777777
 20
4.707163888888889
 10
3.632859722222221
 20
4.6699
 10
3.628720833333332
 20
4.667830555555555
 10
3.624568055555555
 20
4.665761111111111
 10
3.614220833333332
 20
4.657469444444444
 10
3.58937361111111
 20
4.605719444444444
 10
3.579026388888888
 20
4.584997222222222
 10
3.566595833333332
 20
4.564302777777777
 10
3.558304166666666
 20
4.558094444444444
 10
3.556234722222221
 20
4.553941666666666
  0
LWPOLYLINE
  5
241
330
2
100
AcDbEntity
  8
PDF_Layer 1
 62
     7
420
 16777215
370
    70
100
AcDbPolyline
 90
       21
 70
     0
 43
0.0
 10
4.964276388888888
 20
4.787927777777778
 10
4.958068055555555
 20
4.781705555555555
 10
4.955998611111111
 20
4.77965
 10
4.949776388888889
 20
4.77965
 10
4.941498611111111
 20
4.810705555555555
 10
4.935290277777776
 20
4.835552777777778
 10
4.922859722222221
 20
4.852122222222222
 10
4.914581944444443
 20
4.858330555555555
 10
4.902165277777776
 20
4.862469444444444
 10
4.891804166666665
 20
4.862469444444444
 10
4.879387499999999
 20
4.862469444444444
 10
4.858679166666666
 20
4.862469444444444
 10
4.821401388888888
 20
4.870761111111111
 10
4.792415277777776
 20
4.885247222222222
 10
4.769637499999999
 20
4.908025
 10
4.773776388888888
 20
4.905955555555555
 10
4.777915277777777
 20
4.905955555555555
 10
4.782068055555555
 20
4.905955555555555
 10
4.782068055555555
 20
4.908025
 10
4.806915277777776
 20
4.883177777777778
 10
4.831762499999999
 20
4.872830555555555
  0
LWPOLYLINE
  5
246
330
2
100
AcDbEntity
  8
PDF_Layer 1
 62
     7
420
 16777215
370
    70
100
AcDbPolyline
 90
       10
 70
     0
 43
0.0
 10
4.655748611111111
 20
4.825191666666666
 10
4.659887499999999
 20
4.837622222222222
 10
4.666109722222222
 20
4.854191666666666
 10
4.674387499999999
 20
4.870761111111111
 10
4.688887499999998
 20
4.897677777777778
 10
4.70337361111111
 20
4.916316666666666
 10
4.686818055555554
 20
4.95565
 10
4.666109722222222
 20
4.992913888888889
 10
4.655748611111111
 20
5.013636111111111
 10
4.651609722222221
 20
5.019844444444444
  0
LWPOLYLINE
  5
24A
330
2
100
AcDbEntity
  8
PDF_Layer 1
 62
     7
420
 16777215
370
    70
100
AcDbPolyline
 90
       23
 70
     0
 43
0.0
 10
4.941498611111111
 20
4.866622222222222
 10
4.947706944444444
 20
4.866622222222222
 10
4.962206944444445
 20
4.862469444444444
 10
4.958068055555555
 20
4.862469444444444
 10
4.949776388888889
 20
4.864538888888889
 10
4.939429166666666
 20
4.864538888888889
 10
4.902165277777776
 20
4.862469444444444
 10
4.8648875
 20
4.854191666666666
 10
4.829679166666666
 20
4.8459
 10
4.806915277777776
 20
4.833483333333333
 10
4.788276388888887
 20
4.816927777777777
 10
4.759290277777777
 20
4.837622222222222
 10
4.73237361111111
 20
4.864538888888889
 10
4.715804166666665
 20
4.889386111111111
 10
4.70337361111111
 20
4.916316666666666
 10
4.719943055555554
 20
4.924594444444444
 10
4.734443055555555
 20
4.924594444444444
 10
4.750998611111111
 20
4.918372222222222
 10
4.769637499999999
 20
4.908025
 10
4.753068055555554
 20
4.943219444444444
 10
4.742720833333333
 20
4.980497222222222
 10
4.73649861111111
 20
5.009483333333333
 10
4.73649861111111
 20
5.015691666666667
  0
LWPOLYLINE
  5
252
330
2
100
AcDbEntity
  8
PDF_Layer 1
 62
     7
420
 16777215
370
    70
100
AcDbPolyline
 90
       55
 70
     0
 43
0.0
 10
3.287054166666666
 20
4.224719444444444
 10
3.287054166666666
 20
4.21851111111111
 10
3.247720833333332
 20
4.18951111111111
 10
3.237359722222222
 20
4.179163888888888
 10
3.231151388888888
 20
4.166733333333333
 10
3.237359722222222
 20
4.15638611111111
 10
3.245651388888888
 20
4.146024999999999
 10
3.258068055555555
 20
4.131538888888888
 10
3.280845833333333
 20
4.106691666666666
 10
3.293262499999999
 20
4.106691666666666
 10
3.309831944444443
 20
4.108747222222222
 10
3.332609722222222
 20
4.112899999999999
 10
3.359526388888888
 20
4.121177777777777
 10
3.403012499999999
 20
4.067344444444444
 10
3.419581944444444
 20
4.046649999999999
 10
3.436137499999999
 20
4.023858333333333
 10
3.489984722222221
 20
4.023858333333333
 10
3.564526388888888
 20
4.025927777777777
 10
3.624568055555555
 20
4.025927777777777
 10
3.665984722222222
 20
4.017649999999999
 10
3.705331944444444
 20
4.003163888888889
 10
3.715679166666666
 20
3.938969444444444
 10
3.728095833333332
 20
3.872705555555555
 10
3.734318055555554
 20
3.820941666666666
 10
3.736387499999999
 20
3.769163888888888
 10
3.701179166666666
 20
3.787802777777777
 10
3.668054166666666
 20
3.810594444444444
 10
3.651484722222221
 20
3.823011111111111
 10
3.634929166666666
 20
3.837497222222222
 10
3.62249861111111
 20
3.847858333333333
 10
3.616290277777777
 20
3.870636111111111
 10
3.60799861111111
 20
3.897552777777777
 10
3.599720833333333
 20
3.926538888888888
 10
3.581081944444444
 20
3.976233333333333
 10
3.564526388888888
 20
4.025927777777777
 10
3.545887499999999
 20
4.056997222222221
 10
3.525179166666666
 20
4.088052777777777
 10
3.508623611111111
 20
4.112899999999999
 10
3.492054166666666
 20
4.135677777777777
 10
3.475484722222221
 20
4.164663888888888
 10
3.448568055555555
 20
4.154316666666666
 10
3.425790277777777
 20
4.143955555555555
 10
3.405081944444444
 20
4.135677777777777
 10
3.359526388888888
 20
4.121177777777777
 10
3.322262499999999
 20
4.162594444444444
 10
3.307762499999999
 20
4.179163888888888
 10
3.295345833333332
 20
4.197788888888888
 10
3.287054166666666
 20
4.21851111111111
 10
3.322262499999999
 20
4.245413888888888
 10
3.338831944444443
 20
4.261983333333333
 10
3.357456944444443
 20
4.276469444444444
 10
3.374026388888888
 20
4.297191666666666
 10
3.378165277777777
 20
4.305469444444444
 10
3.380234722222221
 20
4.311691666666666
 10
3.382304166666666
 20
4.315816666666666
  0
LWPOLYLINE
  5
264
330
2
100
AcDbEntity
  8
PDF_Layer 1
 62
     7
420
 16777215
370
    70
100
AcDbPolyline
 90
       41
 70
     0
 43
0.0
 10
5.134068055555554
 20
4.437983333333333
 10
5.131998611111111
 20
4.440066666666666
 10
5.131998611111111
 20
4.437983333333333
 10
5.129929166666665
 20
4.437983333333333
 10
5.129929166666665
 20
4.435913888888888
 10
5.144429166666666
 20
4.404858333333333
 10
5.163054166666666
 20
4.380011111111111
 10
5.181693055555555
 20
4.353094444444444
 10
5.206540277777777
 20
4.324108333333333
 10
5.233456944444444
 20
4.297191666666666
 10
5.258304166666666
 20
4.270261111111111
 10
5.247956944444443
 20
4.251622222222222
 10
5.233456944444444
 20
4.230927777777777
 10
5.225179166666666
 20
4.21851111111111
 10
5.214818055555554
 20
4.206080555555555
 10
5.206540277777777
 20
4.193663888888888
 10
5.202401388888888
 20
4.175024999999999
 10
5.223109722222221
 20
4.164663888888888
 10
5.237609722222221
 20
4.152233333333333
 10
5.252095833333332
 20
4.14188611111111
 10
5.276943055555555
 20
4.123247222222222
 10
5.293512499999999
 20
4.102538888888888
 10
5.256234722222222
 20
4.044566666666666
 10
5.24174861111111
 20
4.019719444444444
 10
5.22724861111111
 20
3.996941666666666
 10
5.214818055555554
 20
3.976233333333333
 10
5.210693055555555
 20
3.976233333333333
 10
5.204470833333332
 20
3.974163888888888
 10
5.1982625
 20
3.974163888888888
 10
5.189970833333333
 20
3.970025
 10
5.181693055555555
 20
3.965886111111111
 10
5.175484722222222
 20
3.959677777777777
 10
5.167206944444444
 20
3.949316666666666
 10
5.156845833333333
 20
3.938969444444444
 10
5.156845833333333
 20
3.978316666666666
 10
5.152706944444444
 20
4.019719444444444
 10
5.154776388888889
 20
4.06113611111111
 10
5.158915277777778
 20
4.077691666666666
 10
5.158915277777778
 20
4.083899999999999
 10
5.158915277777778
 20
4.085983333333333
 10
5.158915277777778
 20
4.088052777777777
  0
LWPOLYLINE
  5
268
330
2
100
AcDbEntity
  8
PDF_Layer 1
 62
     7
420
 16777215
370
    70
100
AcDbPolyline
 90
       15
 70
     1
 43
0.0
 10
5.156845833333333
 20
3.938969444444444
 10
5.134068055555554
 20
3.9079
 10
5.111290277777777
 20
3.876844444444444
 10
5.078165277777777
 20
3.823011111111111
 10
5.086443055555555
 20
3.758816666666666
 10
5.0885125
 20
3.721538888888888
 10
5.090595833333332
 20
3.696691666666666
 10
5.094720833333333
 20
3.678066666666667
 10
5.109220833333332
 20
3.7319
 10
5.113359722222221
 20
3.752608333333333
 10
5.119568055555554
 20
3.771247222222222
 10
5.125790277777777
 20
3.800219444444444
 10
5.131998611111111
 20
3.833358333333333
 10
5.140290277777777
 20
3.866497222222222
 10
5.150637499999999
 20
3.903761111111111
  0
LWPOLYLINE
  5
26C
330
2
100
AcDbEntity
  8
PDF_Layer 1
 62
     7
420
 16777215
370
    70
100
AcDbPolyline
 90
       29
 70
     0
 43
0.0
 10
3.949665277777777
 20
4.056997222222221
 10
3.904109722222221
 20
4.073552777777777
 10
3.862693055555555
 20
4.088052777777777
 10
3.821276388888888
 20
4.098399999999999
 10
3.721887499999999
 20
4.12738611111111
 10
3.742595833333333
 20
4.199872222222222
 10
3.767443055555555
 20
4.293052777777777
 10
3.77987361111111
 20
4.380011111111111
 10
3.784012499999999
 20
4.437983333333333
 10
3.784012499999999
 20
4.4939
 10
3.825429166666666
 20
4.489761111111111
 10
3.881331944444444
 20
4.491816666666666
 10
3.858554166666666
 20
4.551886111111111
 10
3.835776388888888
 20
4.607775
 10
3.817151388888888
 20
4.653330555555555
 10
3.798512499999999
 20
4.696816666666666
 10
3.777804166666666
 20
4.734094444444444
 10
3.759165277777777
 20
4.752733333333333
 10
3.736387499999999
 20
4.76515
 10
3.707401388888888
 20
4.777580555555555
 10
3.682554166666665
 20
4.785858333333333
 10
3.678415277777776
 20
4.789997222222222
 10
3.676331944444444
 20
4.792080555555555
 10
3.672206944444443
 20
4.804497222222222
 10
3.665984722222222
 20
4.787927777777778
 10
3.657706944444444
 20
4.771358333333333
 10
3.653568055555555
 20
4.756858333333333
 10
3.645276388888888
 20
4.742372222222222
 10
3.649415277777777
 20
4.758941666666666
  0
LWPOLYLINE
  5
274
330
2
100
AcDbEntity
  8
PDF_Layer 1
 62
     7
420
 16777215
370
    70
100
AcDbPolyline
 90
       20
 70
     0
 43
0.0
 10
3.419581944444444
 20
3.885136111111111
 10
3.423720833333333
 20
3.880983333333333
 10
3.458929166666666
 20
3.804372222222222
 10
3.47962361111111
 20
3.740177777777777
 10
3.49412361111111
 20
3.675997222222222
 10
3.498262499999999
 20
3.640788888888888
 10
3.506540277777777
 20
3.609733333333333
 10
3.518970833333332
 20
3.582816666666666
 10
3.521040277777777
 20
3.584886111111111
 10
3.521040277777777
 20
3.589025
 10
3.521040277777777
 20
3.591094444444444
 10
3.521040277777777
 20
3.595247222222222
 10
3.525179166666666
 20
3.595247222222222
 10
3.529318055555555
 20
3.586955555555555
 10
3.535540277777777
 20
3.580747222222222
 10
3.54174861111111
 20
3.576608333333333
 10
3.547956944444444
 20
3.576608333333333
 10
3.562456944444444
 20
3.576608333333333
 10
3.57487361111111
 20
3.576608333333333
 10
3.587304166666666
 20
3.576608333333333
  0
LWPOLYLINE
  5
27F
330
2
100
AcDbEntity
  8
PDF_Layer 1
 62
     7
420
 16777215
370
    70
100
AcDbPolyline
 90
       12
 70
     0
 43
0.0
 10
3.870984722222221
 20
4.8604
 10
3.862693055555555
 20
4.870761111111111
 10
3.854415277777778
 20
4.876969444444444
 10
3.850276388888888
 20
4.879038888888889
 10
3.848193055555555
 20
4.883177777777778
 10
3.844068055555554
 20
4.885247222222222
 10
3.864762499999999
 20
4.901816666666666
 10
3.877193055555555
 20
4.922511111111111
 10
3.885470833333332
 20
4.945302777777778
 10
3.893762499999999
 20
4.974288888888889
 10
3.902040277777777
 20
5.005344444444444
 10
3.910318055555555
 20
5.032261111111111
  0
LWPOLYLINE
  5
282
330
2
100
AcDbEntity
  8
PDF_Layer 1
 62
     7
420
 16777215
370
    70
100
AcDbPolyline
 90
       15
 70
     0
 43
0.0
 10
3.361595833333332
 20
3.978316666666666
 10
3.357456944444443
 20
3.984525
 10
3.345040277777776
 20
4.005219444444444
 10
3.332609722222222
 20
4.030066666666666
 10
3.330540277777777
 20
4.040427777777777
 10
3.334679166666666
 20
4.046649999999999
 10
3.359526388888888
 20
4.013511111111111
 10
3.386443055555555
 20
3.974163888888888
 10
3.409220833333332
 20
3.936886111111111
 10
3.436137499999999
 20
3.889275
 10
3.460998611111111
 20
3.837497222222222
 10
3.458929166666666
 20
3.833358333333333
 10
3.456845833333332
 20
3.827149999999999
 10
3.456845833333332
 20
3.816802777777778
 10
3.458929166666666
 20
3.804372222222222
  0
LWPOLYLINE
  5
289
330
2
100
AcDbEntity
  8
PDF_Layer 1
 62
     7
420
 16777215
370
    70
100
AcDbPolyline
 90
        2
 70
     0
 43
0.0
 10
4.962206944444445
 20
3.576608333333333
 10
4.978776388888888
 20
3.576608333333333
  0
LWPOLYLINE
  5
28A
330
2
100
AcDbEntity
  8
PDF_Layer 1
 62
     7
420
 16777215
370
    70
100
AcDbPolyline
 90
       15
 70
     1
 43
0.0
 10
5.113359722222221
 20
3.688427777777778
 10
5.103012499999999
 20
3.638719444444444
 10
5.096804166666666
 20
3.609733333333333
 10
5.092665277777777
 20
3.593163888888889
 10
5.080234722222223
 20
3.578663888888889
 10
5.06987361111111
 20
3.580747222222222
 10
5.059526388888889
 20
3.586955555555555
 10
5.063665277777777
 20
3.591094444444444
 10
5.06987361111111
 20
3.599372222222222
 10
5.074026388888889
 20
3.611802777777778
 10
5.082304166666665
 20
3.634580555555555
 10
5.094720833333333
 20
3.678066666666667
 10
5.096804166666666
 20
3.675997222222222
 10
5.100943055555554
 20
3.678066666666667
 10
5.103012499999999
 20
3.680136111111111
  0
LWPOLYLINE
  5
28F
330
2
100
AcDbEntity
  8
PDF_Layer 1
 62
     7
420
 16777215
370
    70
100
AcDbPolyline
 90
       39
 70
     0
 43
0.0
 10
3.473415277777777
 20
4.427636111111111
 42
0.146700826453403
 10
3.657706944444444
 20
4.827275
 10
3.661845833333333
 20
4.831413888888889
 10
3.663915277777777
 20
4.833483333333333
 10
3.67012361111111
 20
4.837622222222222
 10
3.676331944444444
 20
4.833483333333333
 10
3.682554166666665
 20
4.825191666666666
 10
3.68462361111111
 20
4.829344444444444
 10
3.68462361111111
 20
4.831413888888889
 10
3.68462361111111
 20
4.833483333333333
 10
3.686693055555555
 20
4.833483333333333
 10
3.688762499999999
 20
4.831413888888889
 10
3.690831944444443
 20
4.831413888888889
 10
3.692901388888888
 20
4.831413888888889
 10
3.694970833333333
 20
4.831413888888889
 10
3.697040277777777
 20
4.831413888888889
 10
3.697040277777777
 20
4.837622222222222
 10
3.694970833333333
 20
4.841775
 10
3.694970833333333
 20
4.8459
 10
3.713609722222221
 20
4.850038888888889
 10
3.736387499999999
 20
4.854191666666666
 10
3.759165277777777
 20
4.858330555555555
 10
3.798512499999999
 20
4.864538888888889
 10
3.821276388888888
 20
4.872830555555555
 10
3.844068055555554
 20
4.885247222222222
 10
3.829568055555554
 20
4.881108333333333
 10
3.817151388888888
 20
4.876969444444444
 10
3.804720833333333
 20
4.874886111111111
 10
3.771581944444444
 20
4.872830555555555
 10
3.775734722222221
 20
4.874886111111111
 10
3.773665277777777
 20
4.876969444444444
 10
3.771581944444444
 20
4.876969444444444
 10
3.804720833333333
 20
4.883177777777778
 10
3.84199861111111
 20
4.905955555555555
 10
3.862693055555555
 20
4.930802777777778
 10
3.87512361111111
 20
4.965997222222222
 10
3.879262499999999
 20
4.990844444444444
 10
3.885470833333332
 20
5.015691666666667
 10
3.889609722222222
 20
5.028122222222222
  0
LWPOLYLINE
  5
293
330
2
100
AcDbEntity
  8
PDF_Layer 1
 62
     7
420
 16777215
370
    70
100
AcDbPolyline
 90
       16
 70
     0
 43
0.0
 10
5.214818055555554
 20
3.976233333333333
 10
5.210693055555555
 20
3.959677777777777
 10
5.202401388888888
 20
3.943108333333333
 10
5.196193055555554
 20
3.9224
 10
5.181693055555555
 20
3.891344444444444
 10
5.173415277777777
 20
3.870636111111111
 10
5.169276388888889
 20
3.860288888888889
 10
5.167206944444444
 20
3.851997222222222
 10
5.1837625
 20
3.880983333333333
 10
5.204470833333332
 20
3.912038888888888
 10
5.22724861111111
 20
3.943108333333333
 10
5.243818055555554
 20
3.967955555555555
 10
5.262456944444444
 20
3.990733333333333
 10
5.283151388888889
 20
4.017649999999999
 10
5.310068055555555
 20
4.044566666666666
 10
5.326637499999999
 20
4.06526111111111
  0
LWPOLYLINE
  5
297
330
2
100
AcDbEntity
  8
PDF_Layer 1
 62
     7
420
 16777215
370
    70
100
AcDbPolyline
 90
       18
 70
     0
 43
0.0
 10
5.152706944444444
 20
3.791955555555555
 10
5.1361375
 20
3.746386111111111
 10
5.123720833333332
 20
3.698775
 10
5.119568055555554
 20
3.694636111111111
 10
5.113359722222221
 20
3.688427777777778
 10
5.127859722222221
 20
3.756761111111111
 10
5.131998611111111
 20
3.773316666666666
 10
5.1361375
 20
3.787802777777777
 10
5.140290277777777
 20
3.806441666666666
 10
5.146484722222221
 20
3.816802777777778
 10
5.150637499999999
 20
3.823011111111111
 10
5.154776388888889
 20
3.831288888888888
 10
5.158915277777778
 20
3.839566666666666
 10
5.167206944444444
 20
3.851997222222222
 10
5.167206944444444
 20
3.849927777777777
 10
5.171345833333333
 20
3.851997222222222
 10
5.179623611111111
 20
3.860288888888889
 10
5.187901388888889
 20
3.868552777777777
  0
LWPOLYLINE
  5
298
330
2
100
AcDbEntity
  8
PDF_Layer 1
 62
     7
420
 16777215
370
    70
100
AcDbPolyline
 90
       21
 70
     0
 43
0.0
 10
3.686693055555555
 20
4.833483333333333
 10
3.682554166666665
 20
4.837622222222222
 10
3.678415277777776
 20
4.841775
 10
3.688762499999999
 20
4.843830555555555
 10
3.694970833333333
 20
4.8459
 10
3.686693055555555
 20
4.847983333333333
 10
3.676331944444444
 20
4.850038888888889
 10
3.697040277777777
 20
4.856261111111111
 10
3.721887499999999
 20
4.862469444444444
 10
3.748818055555555
 20
4.866622222222222
 10
3.763304166666666
 20
4.868677777777778
 10
3.771581944444444
 20
4.872830555555555
 10
3.746734722222221
 20
4.870761111111111
 10
3.736387499999999
 20
4.870761111111111
 10
3.728095833333332
 20
4.870761111111111
 10
3.726040277777777
 20
4.870761111111111
 10
3.719818055555555
 20
4.868677777777778
 10
3.709470833333333
 20
4.866622222222222
 10
3.688762499999999
 20
4.862469444444444
 10
3.661845833333333
 20
4.852122222222222
 10
3.655637499999999
 20
4.847983333333333
  0
LWPOLYLINE
  5
29A
330
2
100
AcDbEntity
  8
PDF_Layer 1
 62
     7
420
 16777215
370
    70
100
AcDbPolyline
 90
       19
 70
     0
 43
0.0
 10
3.67012361111111
 20
4.8459
 10
3.668054166666666
 20
4.8459
 10
3.663915277777777
 20
4.843830555555555
 10
3.661845833333333
 20
4.843830555555555
 10
3.657706944444444
 20
4.843830555555555
 10
3.657706944444444
 20
4.8459
 10
3.659776388888888
 20
4.850038888888889
 10
3.661845833333333
 20
4.852122222222222
 10
3.665984722222222
 20
4.852122222222222
 10
3.67012361111111
 20
4.850038888888889
 10
3.676331944444444
 20
4.850038888888889
 10
3.674262499999999
 20
4.847983333333333
 10
3.67012361111111
 20
4.8459
 10
3.674262499999999
 20
4.843830555555555
 10
3.678415277777776
 20
4.841775
 10
3.674262499999999
 20
4.839691666666666
 10
3.67012361111111
 20
4.837622222222222
 10
3.663915277777777
 20
4.839691666666666
 10
3.657706944444444
 20
4.843830555555555
  0
LWPOLYLINE
  5
2A2
330
2
100
AcDbEntity
  8
PDF_Layer 1
 62
     7
420
 16777215
370
    70
100
AcDbPolyline
 90
       10
 70
     0
 43
0.0
 10
3.229081944444444
 20
4.191580555555555
 10
3.229081944444444
 20
4.179163888888888
 10
3.231151388888888
 20
4.166733333333333
 10
3.229081944444444
 20
4.164663888888888
 10
3.227012499999999
 20
4.164663888888888
 10
3.224943055555555
 20
4.164663888888888
 10
3.218734722222221
 20
4.166733333333333
 10
3.214581944444444
 20
4.166733333333333
 10
3.212512499999999
 20
4.166733333333333
 10
3.22287361111111
 20
4.154316666666666
  0
LWPOLYLINE
  5
2A6
330
2
100
AcDbEntity
  8
PDF_Layer 1
 62
     7
420
 16777215
370
    70
100
AcDbPolyline
 90
        7
 70
     0
 43
0.0
 10
3.212512499999999
 20
4.18951111111111
 10
3.214581944444444
 20
4.179163888888888
 10
3.218734722222221
 20
4.166733333333333
 10
3.237359722222222
 20
4.135677777777777
 10
3.260137499999999
 20
4.108747222222222
 10
3.272568055555555
 20
4.09426111111111
 10
3.276706944444443
 20
4.090108333333333
  0
LWPOLYLINE
  5
2B0
330
2
100
AcDbEntity
  8
PDF_Layer 1
 62
     7
420
 16777215
370
    70
100
AcDbPolyline
 90
        5
 70
     0
 43
0.0
 10
4.786206944444443
 20
4.901816666666666
 10
4.782068055555555
 20
4.908025
 10
4.763429166666666
 20
4.930802777777778
 10
4.7551375
 20
4.95565
 10
4.748929166666665
 20
4.976358333333333
  0
LWPOLYLINE
  5
2B7
330
2
100
AcDbEntity
  8
PDF_Layer 1
 62
     7
420
 16777215
370
    70
100
AcDbPolyline
 90
        5
 70
     0
 43
0.0
 10
5.150637499999999
 20
3.789872222222222
 10
5.152706944444444
 20
3.794011111111111
 10
5.148568055555555
 20
3.794011111111111
 10
5.144429166666666
 20
3.798163888888889
 10
5.140290277777777
 20
3.806441666666666
  0
LWPOLYLINE
  5
2B9
330
2
100
AcDbEntity
  8
PDF_Layer 1
 62
     7
420
 16777215
370
    70
100
AcDbPolyline
 90
        3
 70
     0
 43
0.0
 10
4.966345833333333
 20
3.576608333333333
 10
4.968415277777777
 20
3.576608333333333
 10
4.964276388888888
 20
3.576608333333333
  0
LWPOLYLINE
  5
2BA
330
2
100
AcDbEntity
  8
PDF_Layer 1
 62
     7
420
 16777215
370
    70
100
AcDbPolyline
 90
       10
 70
     0
 43
0.0
 10
5.123720833333332
 20
3.698775
 10
5.113359722222221
 20
3.646997222222222
 10
5.107151388888888
 20
3.613872222222222
 10
5.096804166666666
 20
3.582816666666666
 10
5.092665277777777
 20
3.580747222222222
 10
5.0885125
 20
3.580747222222222
 10
5.080234722222223
 20
3.578663888888889
 10
5.076095833333334
 20
3.576608333333333
 10
5.067804166666666
 20
3.574525
 10
5.063665277777777
 20
3.576608333333333
  0
LWPOLYLINE
  5
2BB
330
2
100
AcDbEntity
  8
PDF_Layer 1
 62
     7
420
 16777215
370
    70
100
AcDbPolyline
 90
        3
 70
     0
 43
0.0
 10
3.206304166666666
 20
4.177080555555555
 10
3.206304166666666
 20
4.179163888888888
 10
3.204234722222221
 20
4.183288888888888
  0
LWPOLYLINE
  5
2BE
330
2
100
AcDbEntity
  8
PDF_Layer 1
 62
     7
420
 16777215
370
    70
100
AcDbPolyline
 90
        3
 70
     0
 43
0.0
 10
3.597651388888888
 20
3.576608333333333
 10
3.591443055555555
 20
3.576608333333333
 10
3.601790277777777
 20
3.576608333333333
  0
LWPOLYLINE
  5
2BF
330
2
100
AcDbEntity
  8
PDF_Layer 1
 62
     7
420
 16777215
370
    70
100
AcDbPolyline
 90
        5
 70
     0
 43
0.0
 10
5.094720833333333
 20
3.582816666666666
 10
5.096804166666666
 20
3.582816666666666
 10
5.0885125
 20
3.576608333333333
 10
5.080234722222223
 20
3.574525
 10
5.065748611111112
 20
3.576608333333333
  0
LWPOLYLINE
  5
2C0
330
2
100
AcDbEntity
  8
PDF_Layer 1
 62
     7
420
 16777215
370
    70
100
AcDbPolyline
 90
        2
 70
     0
 43
0.0
 10
3.726040277777777
 20
3.576608333333333
 10
3.726040277777777
 20
3.576608333333333
  0
LWPOLYLINE
  5
2C1
330
2
100
AcDbEntity
  8
PDF_Layer 1
 62
     7
420
 16777215
370
    70
100
AcDbPolyline
 90
        7
 70
     0
 43
0.0
 10
4.881443055555555
 20
3.576608333333333
 10
4.875234722222222
 20
3.576608333333333
 10
4.840040277777777
 20
3.576608333333333
 10
4.835901388888888
 20
3.574525
 10
4.829679166666666
 20
3.574525
 10
4.825554166666666
 20
3.574525
 10
4.823470833333333
 20
3.574525
  0
LWPOLYLINE
  5
2C2
330
2
100
AcDbEntity
  8
PDF_Layer 1
 62
     7
420
 16777215
370
    70
100
AcDbPolyline
 90
       17
 70
     0
 43
0.0
 10
4.291318055555555
 20
3.576608333333333
 10
4.272679166666666
 20
3.576608333333333
 10
4.218845833333332
 20
3.576608333333333
 10
4.189859722222221
 20
3.576608333333333
 10
4.162943055555555
 20
3.576608333333333
 10
4.088401388888888
 20
3.576608333333333
 10
4.032484722222221
 20
3.576608333333333
 10
3.966220833333333
 20
3.576608333333333
 10
3.937248611111111
 20
3.576608333333333
 10
3.899970833333333
 20
3.576608333333333
 10
3.877193055555555
 20
3.576608333333333
 10
3.862693055555555
 20
3.576608333333333
 10
3.848193055555555
 20
3.576608333333333
 10
3.839915277777777
 20
3.576608333333333
 10
3.829568055555554
 20
3.576608333333333
 10
3.810929166666666
 20
3.576608333333333
 10
3.825429166666666
 20
3.576608333333333
  0
LWPOLYLINE
  5
2C5
330
2
100
AcDbEntity
  8
PDF_Layer 1
 62
     7
420
 16777215
370
    70
100
AcDbPolyline
 90
        8
 70
     0
 43
0.0
 10
4.643331944444444
 20
3.574525
 10
4.624693055555555
 20
3.576608333333333
 10
4.651609722222221
 20
3.576608333333333
 10
4.678526388888888
 20
3.574525
 10
4.711651388888888
 20
3.574525
 10
4.742720833333333
 20
3.576608333333333
 10
4.734443055555555
 20
3.574525
 10
4.719943055555554
 20
3.574525
  0
ELLIPSE
  5
2D3
330
2
100
AcDbEntity
  8
PDF_Layer 1
 62
     7
420
 16777215
370
    70
100
AcDbEllipse
 10
0.7934246504956018
 20
4.68300436083914
 30
0.0
 11
-0.2056580032155155
 21
0.1496453978086011
 31
0.0
210
0.0
220
0.0
230
1.0
 40
0.1135778575459101
 41
1.951457926714676
 42
3.311345534809554
  0
LWPOLYLINE
  5
2D4
330
2
100
AcDbEntity
  8
PDF_Layer 1
 62
     7
420
 16777215
370
    70
100
AcDbPolyline
 90
       18
 70
     1
 43
0.0
 10
0.9513736111111109
 20
4.4794
 10
0.9451652777777775
 20
4.477330555555555
 10
0.932734722222222
 20
4.481469444444444
 10
0.9161652777777776
 20
4.487677777777777
 10
0.8954708333333332
 20
4.498038888888888
 10
0.8685541666666665
 20
4.512538888888888
 10
0.8416236111111109
 20
4.529094444444444
 10
0.8126374999999999
 20
4.549802777777777
 10
0.7815819444444444
 20
4.570511111111111
 10
0.7505263888888888
 20
4.593288888888888
 10
0.7215263888888888
 20
4.613997222222222
 10
0.6946097222222221
 20
4.636775
 10
0.6697624999999999
 20
4.657469444444444
 10
0.6490680555555555
 20
4.676108333333333
 10
0.6345680555555555
 20
4.692677777777777
 10
0.6242069444444443
 20
4.705108333333333
 10
0.617998611111111
 20
4.715455555555555
 10
0.617998611111111
 20
4.719594444444444
 42
0.9284684644650582
  0
LWPOLYLINE
  5
2D5
330
2
100
AcDbEntity
  8
PDF_Layer 1
 62
     7
420
 16777215
370
    70
100
AcDbPolyline
 90
       19
 70
     0
 43
0.0
 10
7.620915277777776
 20
4.553941666666666
 10
7.620915277777776
 20
4.551886111111111
 10
7.62712361111111
 20
4.549802777777777
 10
7.639540277777776
 20
4.553941666666666
 10
7.654040277777776
 20
4.56015
 10
7.674748611111111
 20
4.570511111111111
 10
7.699595833333332
 20
4.584997222222222
 10
7.7265125
 20
4.599497222222222
 10
7.7555125
 20
4.620205555555555
 10
7.784498611111111
 20
4.638830555555555
 10
7.815554166666665
 20
4.661622222222222
 10
7.842470833333332
 20
4.682316666666666
 10
7.869387499999999
 20
4.703025
 10
7.892165277777777
 20
4.723747222222222
 10
7.91287361111111
 20
4.742372222222222
 10
7.927373611111111
 20
4.756858333333333
 10
7.937720833333332
 20
4.769288888888889
 10
7.941859722222222
 20
4.77965
 10
7.941859722222222
 20
4.783788888888889
  0
LWPOLYLINE
  5
2D7
330
2
100
AcDbEntity
  8
PDF_Layer 1
 62
     7
420
 16777215
370
    70
100
AcDbPolyline
 90
       20
 70
     0
 43
0.0
 10
7.987415277777777
 20
4.783788888888889
 10
7.987415277777777
 20
4.781705555555555
 10
7.987415277777777
 20
4.775497222222222
 10
7.981206944444443
 20
4.76515
 10
7.968776388888889
 20
4.75065
 10
7.952220833333332
 20
4.734094444444444
 10
7.931498611111109
 20
4.713372222222222
 10
7.904581944444443
 20
4.692677777777777
 10
7.877665277777778
 20
4.6699
 10
7.846609722222221
 20
4.645052777777777
 10
7.815554166666665
 20
4.622275
 10
7.782429166666665
 20
4.599497222222222
 10
7.751359722222221
 20
4.576733333333333
 10
7.720304166666665
 20
4.558094444444444
 10
7.691318055555555
 20
4.541511111111111
 10
7.666456944444444
 20
4.527038888888888
 10
7.643693055555554
 20
4.516663888888889
 10
7.62712361111111
 20
4.510455555555555
 10
7.614693055555554
 20
4.506316666666666
 10
7.606415277777776
 20
4.508399999999999
  0
ELLIPSE
  5
2DD
330
2
100
AcDbEntity
  8
PDF_Layer 1
 62
     7
420
 16777215
370
    70
100
AcDbEllipse
 10
7.826548169244158
 20
4.699681596286593
 30
0.0
 11
0.2090270621098648
 21
0.1650525765153855
 31
0.0
210
0.0
220
0.0
230
1.0
 40
0.1332600037056709
 41
2.975400363118279
 42
4.283563669340221
  0
LWPOLYLINE
  5
2DE
330
2
100
AcDbEntity
  8
PDF_Layer 1
 62
     7
420
 16777215
370
    70
100
AcDbPolyline
 90
       18
 70
     1
 43
0.0
 10
7.997762499999999
 20
4.719594444444444
 10
7.997762499999999
 20
4.715455555555555
 10
7.991554166666666
 20
4.705108333333333
 10
7.981206944444443
 20
4.692677777777777
 10
7.966706944444443
 20
4.676108333333333
 10
7.94599861111111
 20
4.657469444444444
 10
7.921151388888888
 20
4.636775
 10
7.894234722222221
 20
4.613997222222222
 10
7.865248611111111
 20
4.593288888888888
 10
7.834193055555554
 20
4.570511111111111
 10
7.80312361111111
 20
4.549802777777777
 10
7.7741375
 20
4.529094444444444
 10
7.745151388888888
 20
4.512538888888888
 10
7.720304166666665
 20
4.498038888888888
 10
7.699595833333332
 20
4.487677777777777
 10
7.683026388888889
 20
4.481469444444444
 10
7.670609722222223
 20
4.477330555555555
 10
7.664401388888888
 20
4.4794
 42
0.9285135618742293
  0
LWPOLYLINE
  5
2E2
330
2
100
AcDbEntity
  8
PDF_Layer 1
 62
     7
420
 16777215
370
    70
100
AcDbPolyline
 90
       11
 70
     0
 43
0.0
 10
6.858915277777777
 20
5.601691666666666
 10
6.885831944444444
 20
5.566483333333333
 10
6.91274861111111
 20
5.533358333333333
 10
6.937595833333332
 20
5.506441666666666
 10
6.962456944444444
 20
5.481594444444445
 10
6.985220833333332
 20
5.46088611111111
 10
7.005929166666666
 20
5.4464
 10
7.024568055555555
 20
5.436038888888888
 10
7.041137499999999
 20
5.433969444444444
 10
7.051484722222221
 20
5.436038888888888
 10
7.053554166666665
 20
5.436038888888888
  0
ELLIPSE
  5
2E3
330
2
100
AcDbEntity
  8
PDF_Layer 1
 62
     7
420
 16777215
370
    70
100
AcDbEllipse
 10
6.902182616045331
 20
5.665977940101818
 30
0.0
 11
-0.1616223218397871
 21
0.2393568944880833
 31
0.0
210
0.0
220
0.0
230
1.0
 40
0.2499872823498104
 41
0.0303708782148829
 42
1.67160300356791
  0
LWPOLYLINE
  5
2E5
330
2
100
AcDbEntity
  8
PDF_Layer 1
 62
     7
420
 16777215
370
    70
100
AcDbPolyline
 90
       19
 70
     0
 43
0.0
 10
6.985220833333332
 20
5.407052777777777
 10
6.9790125
 20
5.409122222222221
 10
6.96037361111111
 20
5.419469444444444
 10
6.939665277777777
 20
5.433969444444444
 10
6.916887499999999
 20
5.452608333333333
 10
6.892040277777777
 20
5.477455555555556
 10
6.867206944444444
 20
5.506441666666666
 10
6.842359722222221
 20
5.537497222222222
 10
6.815429166666666
 20
5.572705555555555
 10
6.790581944444443
 20
5.607899999999999
 10
6.767804166666667
 20
5.645163888888888
 10
6.747095833333332
 20
5.68038611111111
 10
6.728470833333332
 20
5.715580555555555
 10
6.711901388888889
 20
5.750774999999999
 10
6.699470833333332
 20
5.781830555555555
 10
6.691193055555554
 20
5.808761111111111
 10
6.687054166666666
 20
5.831525
 10
6.687054166666666
 20
5.850163888888888
 10
6.687054166666666
 20
5.852247222222222
  0
ELLIPSE
  5
2E9
330
2
100
AcDbEntity
  8
PDF_Layer 1
 62
     7
420
 16777215
370
    70
100
AcDbEllipse
 10
1.848157034904425
 20
5.926019407158922
 30
0.0
 11
0.2790768972464389
 21
0.5029100474439048
 31
0.0
210
0.0
220
0.0
230
1.0
 40
0.1950486226946797
 41
3.033659464009511
 42
4.097201933038167
  0
LWPOLYLINE
  5
2EB
330
2
100
AcDbEntity
  8
PDF_Layer 1
 62
     7
420
 16777215
370
    70
100
AcDbPolyline
 90
       18
 70
     0
 43
0.0
 10
1.928720833333333
 20
5.843955555555555
 10
1.928720833333333
 20
5.831525
 10
1.924568055555555
 20
5.808761111111111
 10
1.916290277777777
 20
5.781830555555555
 10
1.90387361111111
 20
5.750774999999999
 10
1.887304166666666
 20
5.715580555555555
 10
1.868665277777777
 20
5.68038611111111
 10
1.847956944444444
 20
5.645163888888888
 10
1.825179166666666
 20
5.607899999999999
 10
1.800331944444444
 20
5.572705555555555
 10
1.773415277777777
 20
5.537497222222222
 10
1.748568055555555
 20
5.506441666666666
 10
1.723720833333333
 20
5.477455555555556
 10
1.69887361111111
 20
5.452608333333333
 10
1.676095833333333
 20
5.433969444444444
 10
1.655387499999999
 20
5.419469444444444
 10
1.636762499999999
 20
5.409122222222221
 10
1.630554166666666
 20
5.407052777777777
  0
LWPOLYLINE
  5
2EC
330
2
100
AcDbEntity
  8
PDF_Layer 1
 62
     7
420
 16777215
370
    70
100
AcDbPolyline
 90
       22
 70
     0
 43
0.0
 10
4.664040277777777
 20
8.390844444444443
 10
4.664040277777777
 20
8.397052777777776
 10
4.657818055555554
 20
8.409483333333334
 10
4.643331944444444
 20
8.419830555555556
 10
4.624693055555555
 20
8.43226111111111
 10
4.597776388888887
 20
8.442608333333332
 10
4.566706944444444
 20
8.450899999999998
 10
4.531512499999999
 20
8.459177777777778
 10
4.492179166666666
 20
8.465386111111111
 10
4.450762499999999
 20
8.469524999999999
 10
4.407276388888888
 20
8.473677777777776
 10
4.361720833333333
 20
8.473677777777776
 10
4.316165277777777
 20
8.473677777777776
 10
4.272679166666666
 20
8.471594444444443
 10
4.233345833333332
 20
8.467455555555554
 10
4.193998611111111
 20
8.461247222222221
 10
4.16087361111111
 20
8.452955555555554
 10
4.13187361111111
 20
8.444677777777776
 10
4.109109722222221
 20
8.434330555555554
 10
4.092540277777777
 20
8.423983333333334
 10
4.082193055555555
 20
8.411552777777778
 10
4.078040277777777
 20
8.399136111111111
  0
LWPOLYLINE
  5
2EF
330
2
100
AcDbEntity
  8
PDF_Layer 1
 62
     7
420
 16777215
370
    70
100
AcDbPolyline
 90
       26
 70
     0
 43
0.0
 10
4.746859722222223
 20
5.349066666666666
 10
4.744790277777776
 20
5.349066666666666
 10
4.734443055555555
 20
5.349066666666666
 10
4.717873611111111
 20
5.35113611111111
 10
4.695095833333332
 20
5.35113611111111
 10
4.666109722222222
 20
5.353219444444444
 10
4.632970833333333
 20
5.353219444444444
 10
4.593637499999999
 20
5.355274999999999
 10
4.550151388888888
 20
5.355274999999999
 10
4.502526388888888
 20
5.357358333333333
 10
4.452831944444444
 20
5.357358333333333
 10
4.401068055555555
 20
5.359427777777778
 10
4.349304166666666
 20
5.359427777777778
 10
4.295456944444444
 20
5.361497222222221
 10
4.24162361111111
 20
5.361497222222221
 10
4.189859722222221
 20
5.361497222222221
 10
4.140165277777778
 20
5.363566666666667
 10
4.094609722222222
 20
5.363566666666667
 10
4.051123611111111
 20
5.363566666666667
 10
4.011776388888888
 20
5.363566666666667
 10
3.978651388888888
 20
5.363566666666667
 10
3.949665277777777
 20
5.363566666666667
 10
3.926887499999999
 20
5.363566666666667
 10
3.910318055555555
 20
5.363566666666667
 10
3.899970833333333
 20
5.363566666666667
 10
3.895831944444444
 20
5.361497222222221
  0
ELLIPSE
  5
2F1
330
2
100
AcDbEntity
  8
PDF_Layer 1
 62
     7
420
 16777215
370
    70
100
AcDbEllipse
 10
6.141865750009411
 20
5.157934945929372
 30
0.0
 11
-0.1849159880632318
 21
0.2731978767789829
 31
0.0
210
0.0
220
0.0
230
1.0
 40
0.2435093135862331
 41
6.265157545492188
 42
7.968552093388803
  0
LWPOLYLINE
  5
2F2
330
2
100
AcDbEntity
  8
PDF_Layer 1
 62
     7
420
 16777215
370
    70
100
AcDbPolyline
 90
       12
 70
     0
 43
0.0
 10
6.320554166666666
 20
4.893525
 10
6.320554166666666
 20
4.891469444444444
 10
6.308123611111111
 20
4.887316666666666
 10
6.293637499999999
 20
4.891469444444444
 10
6.274998611111111
 20
4.897677777777778
 10
6.254290277777777
 20
4.912163888888889
 10
6.2315125
 20
4.930802777777778
 10
6.204595833333333
 20
4.953566666666667
 10
6.179748611111111
 20
4.980497222222222
 10
6.150762499999999
 20
5.011552777777778
 10
6.123845833333333
 20
5.044691666666667
 10
6.096915277777777
 20
5.081969444444444
  0
ELLIPSE
  5
2F3
330
2
100
AcDbEntity
  8
PDF_Layer 1
 62
     7
420
 16777215
370
    70
100
AcDbEllipse
 10
6.184710226846999
 20
5.164493559904085
 30
0.0
 11
-0.1446629427524445
 21
0.2137863345258097
 31
0.0
210
0.0
220
0.0
230
1.0
 40
0.2630971492287408
 41
1.624178012112206
 42
4.247474178915396
  0
ELLIPSE
  5
2F4
330
2
100
AcDbEntity
  8
PDF_Layer 1
 62
     7
420
 16777215
370
    70
100
AcDbEllipse
 10
6.161391629127502
 20
5.198940257428541
 30
0.0
 11
-0.1452968211895993
 21
0.2189055051191597
 31
0.0
210
0.0
220
0.0
230
1.0
 40
0.2622165160332782
 41
5.196704538715286
 42
8.068665108712318
  0
ELLIPSE
  5
2F5
330
2
100
AcDbEntity
  8
PDF_Layer 1
 62
     7
420
 16777215
370
    70
100
AcDbEllipse
 10
5.163195696508619
 20
4.711604159120237
 30
0.0
 11
-0.3091061689045071
 21
0.4935594517689112
 31
0.0
210
0.0
220
0.0
230
1.0
 40
0.2082371858658389
 41
1.974085087110031
 42
3.392964778242113
  0
ELLIPSE
  5
2FA
330
2
100
AcDbEntity
  8
PDF_Layer 1
 62
     7
420
 16777215
370
    70
100
AcDbEllipse
 10
2.472799569487935
 20
5.15698710654791
 30
0.0
 11
0.185981282444344
 21
0.2741610505965564
 31
0.0
210
0.0
220
0.0
230
1.0
 40
0.2436039859684744
 41
4.602804732789724
 42
6.300710005483793
  0
ELLIPSE
  5
2FB
330
2
100
AcDbEntity
  8
PDF_Layer 1
 62
     7
420
 16777215
370
    70
100
AcDbEllipse
 10
2.448495522179459
 20
5.191445160039299
 30
0.0
 11
0.1516283810879575
 21
0.2268949710755612
 31
0.0
210
0.0
220
0.0
230
1.0
 40
0.2536509018831821
 41
4.542058313919525
 42
7.350634948400183
  0
ELLIPSE
  5
2FC
330
2
100
AcDbEntity
  8
PDF_Layer 1
 62
     7
420
 16777215
370
    70
100
AcDbEllipse
 10
2.445243472915259
 20
5.186922166875577
 30
0.0
 11
0.1595668490800438
 21
0.2364984800987374
 31
0.0
210
0.0
220
0.0
230
1.0
 40
0.2428607857892465
 41
2.092476773499393
 42
4.570349021111884
  0
ELLIPSE
  5
2FD
330
2
100
AcDbEntity
  8
PDF_Layer 1
 62
     7
420
 16777215
370
    70
100
AcDbEllipse
 10
3.384720677103172
 20
4.57675229792463
 30
0.0
 11
0.216337468791329
 21
0.327034460466492
 31
0.0
210
0.0
220
0.0
230
1.0
 40
0.2539873704941199
 41
4.514896362218152
 42
6.570405489592965
  0
LWPOLYLINE
  5
304
330
2
100
AcDbEntity
  8
PDF_Layer 1
 62
     7
420
 16777215
370
    70
100
AcDbPolyline
 90
        8
 70
     0
 43
0.0
 10
4.254054166666666
 20
5.028122222222222
 10
4.262331944444444
 20
5.011552777777778
 10
4.278901388888889
 20
4.980497222222222
 10
4.295456944444444
 20
4.947358333333333
 10
4.314095833333333
 20
4.916316666666666
 10
4.332734722222222
 20
4.881108333333333
 10
4.351359722222222
 20
4.847983333333333
 10
4.365859722222221
 20
4.818983333333333
  0
LWPOLYLINE
  5
307
330
2
100
AcDbEntity
  8
PDF_Layer 1
 62
     7
420
 16777215
370
    70
100
AcDbPolyline
 90
        2
 70
     0
 43
0.0
 10
3.531387499999999
 20
4.510455555555555
 10
3.527262499999999
 20
4.506316666666666
  0
LWPOLYLINE
  5
30B
330
2
100
AcDbEntity
  8
PDF_Layer 1
 62
     7
420
 16777215
370
    70
100
AcDbPolyline
 90
        5
 70
     0
 43
0.0
 10
5.268665277777778
 20
4.276469444444444
 10
5.266595833333333
 20
4.274413888888888
 10
5.258304166666666
 20
4.270261111111111
 10
5.252095833333332
 20
4.288899999999999
 10
5.247956944444443
 20
4.29926111111111
  0
LWPOLYLINE
  5
30C
330
2
100
AcDbEntity
  8
PDF_Layer 1
 62
     7
420
 16777215
370
    70
100
AcDbPolyline
 90
        4
 70
     0
 43
0.0
 10
5.152706944444444
 20
4.413136111111111
 10
5.150637499999999
 20
4.415219444444444
 10
5.142359722222222
 20
4.423483333333333
 10
5.129929166666665
 20
4.435913888888888
  0
LWPOLYLINE
  5
30E
330
2
100
AcDbEntity
  8
PDF_Layer 1
 62
     7
420
 16777215
370
    70
100
AcDbPolyline
 90
        8
 70
     0
 43
0.0
 10
4.092540277777777
 20
5.030191666666667
 10
4.092540277777777
 20
5.028122222222222
 10
4.094609722222222
 20
5.028122222222222
 10
4.094609722222222
 20
5.026052777777778
 10
4.092540277777777
 20
5.023983333333333
 10
4.092540277777777
 20
5.0219
 10
4.067693055555555
 20
5.028122222222222
 10
4.063554166666666
 20
5.030191666666667
  0
LWPOLYLINE
  5
313
330
2
100
AcDbEntity
  8
PDF_Layer 1
 62
     7
420
 16777215
370
    70
100
AcDbPolyline
 90
        4
 70
     0
 43
0.0
 10
3.374026388888888
 20
4.297191666666666
 10
3.369887499999999
 20
4.295108333333333
 10
3.367818055555555
 20
4.295108333333333
 10
3.36574861111111
 20
4.297191666666666
  0
LWPOLYLINE
  5
316
330
2
100
AcDbEntity
  8
PDF_Layer 1
 62
     7
420
 16777215
370
    70
100
AcDbPolyline
 90
        5
 70
     0
 43
0.0
 10
5.30799861111111
 20
4.241274999999999
 10
5.301790277777777
 20
4.245413888888888
 10
5.28937361111111
 20
4.253705555555555
 10
5.274873611111111
 20
4.259913888888888
 10
5.258304166666666
 20
4.270261111111111
  0
LWPOLYLINE
  5
31B
330
2
100
AcDbEntity
  8
PDF_Layer 1
 62
     7
420
 16777215
370
    70
100
AcDbPolyline
 90
        5
 70
     0
 43
0.0
 10
5.401179166666666
 20
4.18951111111111
 10
5.401179166666666
 20
4.183288888888888
 10
5.399109722222221
 20
4.175024999999999
 10
5.397040277777777
 20
4.185372222222222
 10
5.394970833333332
 20
4.191580555555555
  0
LWPOLYLINE
  5
31F
330
2
100
AcDbEntity
  8
PDF_Layer 1
 62
     7
420
 16777215
370
    70
100
AcDbPolyline
 90
        4
 70
     0
 43
0.0
 10
3.84199861111111
 20
4.903886111111111
 10
3.844068055555554
 20
4.905955555555555
 10
3.846137499999999
 20
4.901816666666666
 10
3.844068055555554
 20
4.885247222222222
  0
LWPOLYLINE
  5
327
330
2
100
AcDbEntity
  8
PDF_Layer 1
 62
     7
420
 16777215
370
    70
100
AcDbPolyline
 90
        5
 70
     0
 43
0.0
 10
3.204234722222221
 20
4.187441666666666
 10
3.204234722222221
 20
4.183288888888888
 10
3.20837361111111
 20
4.175024999999999
 10
3.212512499999999
 20
4.166733333333333
 10
3.20837361111111
 20
4.175024999999999
  0
LWPOLYLINE
  5
328
330
2
100
AcDbEntity
  8
PDF_Layer 1
 62
     7
420
 16777215
370
    70
100
AcDbPolyline
 90
        2
 70
     0
 43
0.0
 10
3.655637499999999
 20
4.852122222222222
 10
3.661845833333333
 20
4.852122222222222
  0
LWPOLYLINE
  5
329
330
2
100
AcDbEntity
  8
PDF_Layer 1
 62
     7
420
 16777215
370
    70
100
AcDbPolyline
 90
        3
 70
     0
 43
0.0
 10
3.721887499999999
 20
4.870761111111111
 10
3.723970833333333
 20
4.870761111111111
 10
3.728095833333332
 20
4.870761111111111
  0
LWPOLYLINE
  5
32E
330
2
100
AcDbEntity
  8
PDF_Layer 1
 62
     7
420
 16777215
370
    70
100
AcDbPolyline
 90
        5
 70
     0
 43
0.0
 10
3.516901388888888
 20
3.582816666666666
 10
3.518970833333332
 20
3.582816666666666
 10
3.531387499999999
 20
3.576608333333333
 10
3.543818055555555
 20
3.576608333333333
 10
3.562456944444444
 20
3.576608333333333
  0
LWPOLYLINE
  5
332
330
2
100
AcDbEntity
  8
PDF_Layer 1
 62
     7
420
 16777215
370
    70
100
AcDbPolyline
 90
        2
 70
     0
 43
0.0
 10
5.09887361111111
 20
3.591094444444444
 10
5.100943055555554
 20
3.595247222222222
  0
LWPOLYLINE
  5
336
330
2
100
AcDbEntity
  8
PDF_Layer 1
 62
     7
420
 16777215
370
    70
100
AcDbPolyline
 90
        2
 70
     0
 43
0.0
 10
3.721887499999999
 20
3.576608333333333
 10
3.726040277777777
 20
3.576608333333333
  0
LWPOLYLINE
  5
338
330
2
100
AcDbEntity
  8
PDF_Layer 1
 62
     7
420
 16777215
370
    70
100
AcDbPolyline
 90
        5
 70
     0
 43
0.0
 10
4.829679166666666
 20
3.576608333333333
 10
4.835901388888888
 20
3.576608333333333
 10
4.840040277777777
 20
3.576608333333333
 10
4.811054166666665
 20
3.576608333333333
 10
4.796554166666665
 20
3.576608333333333
  0
LWPOLYLINE
  5
33B
330
2
100
AcDbEntity
  8
PDF_Layer 1
 62
     7
420
 16777215
370
    70
100
AcDbPolyline
 90
        3
 70
     0
 43
0.0
 10
3.786081944444444
 20
3.576608333333333
 10
3.788151388888888
 20
3.576608333333333
 10
3.810929166666666
 20
3.576608333333333
  0
LWPOLYLINE
  5
33F
330
2
100
AcDbEntity
  8
PDF_Layer 1
 62
     7
420
 16777215
370
    70
100
AcDbPolyline
 90
        3
 70
     0
 43
0.0
 10
3.848193055555555
 20
3.576608333333333
 10
3.846137499999999
 20
3.574525
 10
3.84199861111111
 20
3.574525
  0
LWPOLYLINE
  5
341
330
2
100
AcDbEntity
  8
PDF_Layer 1
 62
     7
420
 16777215
370
    70
100
AcDbPolyline
 90
        2
 70
     0
 43
0.0
 10
3.904109722222221
 20
3.574525
 10
3.899970833333333
 20
3.576608333333333
  0
LWPOLYLINE
  5
342
330
2
100
AcDbEntity
  8
PDF_Layer 1
 62
     7
420
 16777215
370
    70
100
AcDbPolyline
 90
        5
 70
     0
 43
0.0
 10
3.974512499999999
 20
3.574525
 10
3.972443055555555
 20
3.574525
 10
3.97037361111111
 20
3.574525
 10
3.97037361111111
 20
3.576608333333333
 10
3.966220833333333
 20
3.576608333333333
  0
LWPOLYLINE
  5
343
330
2
100
AcDbEntity
  8
PDF_Layer 1
 62
     7
420
 16777215
370
    70
100
AcDbPolyline
 90
        2
 70
     0
 43
0.0
 10
4.591554166666666
 20
3.574525
 10
4.593637499999999
 20
3.574525
  0
LWPOLYLINE
  5
344
330
2
100
AcDbEntity
  8
PDF_Layer 1
 62
     7
420
 16777215
370
    70
100
AcDbPolyline
 90
        4
 70
     0
 43
0.0
 10
4.601915277777776
 20
3.576608333333333
 10
4.608123611111111
 20
3.576608333333333
 10
4.616401388888887
 20
3.576608333333333
 10
4.624693055555555
 20
3.576608333333333
  0
LWPOLYLINE
  5
347
330
2
100
AcDbEntity
  8
PDF_Layer 1
 62
     7
420
 16777215
370
    70
100
AcDbPolyline
 90
        2
 70
     0
 43
0.0
 10
4.096679166666667
 20
3.574525
 10
4.088401388888888
 20
3.576608333333333
  0
LWPOLYLINE
  5
348
330
2
100
AcDbEntity
  8
PDF_Layer 1
 62
     7
420
 16777215
370
    70
100
AcDbPolyline
 90
        5
 70
     0
 43
0.0
 10
4.552220833333333
 20
3.574525
 10
4.539790277777777
 20
3.574525
 10
4.510804166666666
 20
3.576608333333333
 10
4.481818055555555
 20
3.574525
 10
4.411415277777777
 20
3.574525
  0
LWPOLYLINE
  5
349
330
2
100
AcDbEntity
  8
PDF_Layer 1
 62
     7
420
 16777215
370
    70
100
AcDbPolyline
 90
        4
 70
     0
 43
0.0
 10
4.62262361111111
 20
3.574525
 10
4.612276388888888
 20
3.574525
 10
4.597776388888887
 20
3.574525
 10
4.581206944444444
 20
3.574525
  0
LWPOLYLINE
  5
34A
330
2
100
AcDbEntity
  8
PDF_Layer 1
 62
     7
420
 16777215
370
    70
100
AcDbPolyline
 90
        2
 70
     0
 43
0.0
 10
4.570859722222222
 20
3.574525
 10
4.564637499999999
 20
3.574525
  0
LWPOLYLINE
  5
34D
330
2
100
AcDbEntity
  8
PDF_Layer 1
 62
     7
420
 16777215
370
    70
100
AcDbPolyline
 90
        3
 70
     0
 43
0.0
 10
4.220915277777777
 20
3.574525
 10
4.218845833333332
 20
3.574525
 10
4.218845833333332
 20
3.576608333333333
  0
LWPOLYLINE
  5
34E
330
2
100
AcDbEntity
  8
PDF_Layer 1
 62
     7
420
 16777215
370
    70
100
AcDbPolyline
 90
        2
 70
     0
 43
0.0
 10
12.05623333333333
 20
4.562229166666665
 10
12.06037222222222
 20
4.570520833333332
  0
LWPOLYLINE
  5
34F
330
2
100
AcDbEntity
  8
PDF_Layer 1
 62
     7
420
 16777215
370
    70
100
AcDbPolyline
 90
       37
 70
     0
 43
0.0
 10
12.02931666666666
 20
4.562229166666665
 10
12.03138611111111
 20
4.570520833333332
 10
12.03138611111111
 20
4.593284722222221
 10
12.02309444444444
 20
4.614006944444443
 10
12.00859444444444
 20
4.636770833333332
 10
11.9879
 20
4.657465277777776
 10
11.96098333333333
 20
4.676104166666665
 10
11.93199722222222
 20
4.692687499999999
 10
11.89678888888889
 20
4.705104166666665
 10
11.86158055555555
 20
4.715451388888888
 10
11.82431666666666
 20
4.719590277777776
 10
11.78703888888889
 20
4.721659722222221
 10
11.749775
 20
4.719590277777776
 10
11.71665
 20
4.711312499999999
 10
11.68765
 20
4.700951388888888
 10
11.66280277777778
 20
4.686465277777776
 10
11.64416388888889
 20
4.669895833333332
 10
11.63174722222222
 20
4.651256944444443
 10
11.625525
 20
4.628493055555554
 10
11.625525
 20
4.626409722222221
 10
11.625525
 20
4.591215277777776
 10
11.63174722222222
 20
4.556020833333332
 10
11.64416388888889
 20
4.522881944444443
 10
11.66280277777778
 20
4.491826388888887
 10
11.68558055555555
 20
4.464909722222221
 10
11.71456666666666
 20
4.442131944444443
 10
11.74563611111111
 20
4.423493055555554
 10
11.77876111111111
 20
4.411062499999998
 10
11.82017777777778
 20
4.404854166666665
 10
11.859525
 20
4.40692361111111
 10
11.89885833333333
 20
4.417270833333332
 10
11.93613611111111
 20
4.433854166666665
 10
11.96926111111111
 20
4.458701388888887
 10
11.99617777777778
 20
4.487687499999998
 10
12.01688611111111
 20
4.522881944444443
 10
12.02931666666666
 20
4.562229166666665
 10
12.02931666666666
 20
4.558090277777776
  0
LWPOLYLINE
  5
351
330
2
100
AcDbEntity
  8
PDF_Layer 1
 62
     7
420
 16777215
370
    70
100
AcDbPolyline
 90
       26
 70
     0
 43
0.0
 10
12.06451111111111
 20
4.585006944444443
 10
12.06451111111111
 20
4.59742361111111
 10
12.06244166666667
 20
4.622270833333332
 10
12.05208055555555
 20
4.64504861111111
 10
12.035525
 20
4.667840277777776
 10
12.01274722222222
 20
4.690604166666665
 10
11.98583055555555
 20
4.709243055555554
 10
11.95476111111111
 20
4.727881944444443
 10
11.91956666666666
 20
4.74029861111111
 10
11.88021944444444
 20
4.752729166666665
 10
11.84088611111111
 20
4.758937499999999
 10
11.80153888888889
 20
4.761020833333332
 10
11.764275
 20
4.761020833333332
 10
11.72699722222222
 20
4.756868055555554
 10
11.69385833333333
 20
4.748590277777776
 10
11.66487222222222
 20
4.736159722222221
 10
11.640025
 20
4.719590277777776
 10
11.61931666666666
 20
4.700951388888888
 10
11.60688611111111
 20
4.680256944444443
 10
11.60069166666666
 20
4.65954861111111
 10
11.60069166666666
 20
4.657465277777776
 10
11.59862222222222
 20
4.647118055555554
 10
11.60276111111111
 20
4.624354166666665
 10
11.60896944444444
 20
4.601576388888887
 10
11.62346944444444
 20
4.578784722222221
 10
11.63174722222222
 20
4.570520833333332
  0
LWPOLYLINE
  5
352
330
2
100
AcDbEntity
  8
PDF_Layer 1
 62
     7
420
 16777215
370
    70
100
AcDbPolyline
 90
        5
 70
     0
 43
0.0
 10
12.00445555555555
 20
4.508395833333332
 10
12.02517777777778
 20
4.520826388888887
 10
12.04380277777778
 20
4.541520833333332
 10
12.05623333333333
 20
4.562229166666665
 10
12.06244166666667
 20
4.580868055555554
  0
LWPOLYLINE
  5
353
330
2
100
AcDbEntity
  8
PDF_Layer 1
 62
     7
420
 16777215
370
    70
100
AcDbPolyline
 90
       23
 70
     0
 43
0.0
 10
12.06451111111111
 20
4.580868055555554
 10
12.06451111111111
 20
4.585006944444443
 10
12.06866388888889
 20
4.609854166666665
 10
12.06866388888889
 20
4.634701388888887
 10
12.06037222222222
 20
4.657465277777776
 10
12.04794166666667
 20
4.680256944444443
 10
12.02931666666666
 20
4.703034722222221
 10
12.00445555555555
 20
4.723743055555554
 10
11.9734
 20
4.742381944444443
 10
11.94026111111111
 20
4.758937499999999
 10
11.90299722222222
 20
4.771368055555554
 10
11.86573333333333
 20
4.779645833333332
 10
11.82638611111111
 20
4.783784722222221
 10
11.78703888888889
 20
4.785868055555554
 10
11.749775
 20
4.783784722222221
 10
11.71456666666666
 20
4.775493055555554
 10
11.68144166666666
 20
4.765145833333332
 10
11.654525
 20
4.750645833333332
 10
11.63174722222222
 20
4.734090277777776
 10
11.61726111111111
 20
4.715451388888888
 10
11.60688611111111
 20
4.692687499999999
 10
11.60483055555555
 20
4.684395833333332
 10
11.60069166666666
 20
4.65954861111111
  0
LWPOLYLINE
  5
355
330
2
100
AcDbEntity
  8
PDF_Layer 1
 62
     7
420
 16777215
370
    70
100
AcDbPolyline
 90
       23
 70
     0
 43
0.0
 10
12.06451111111111
 20
4.595368055555554
 10
12.06451111111111
 20
4.59742361111111
 10
12.06866388888889
 20
4.620201388888887
 10
12.06658055555555
 20
4.64504861111111
 10
12.05828888888889
 20
4.667840277777776
 10
12.04587222222222
 20
4.688534722222221
 10
12.02517777777778
 20
4.711312499999999
 10
12.00238611111111
 20
4.729951388888887
 10
11.9734
 20
4.748590277777776
 10
11.94234444444444
 20
4.763076388888888
 10
11.90715
 20
4.775493055555554
 10
11.87192777777777
 20
4.783784722222221
 10
11.83467777777778
 20
4.789993055555554
 10
11.7974
 20
4.792076388888887
 10
11.76219166666666
 20
4.789993055555554
 10
11.72699722222222
 20
4.783784722222221
 10
11.69594166666666
 20
4.775493055555554
 10
11.66695555555555
 20
4.763076388888888
 10
11.64416388888889
 20
4.746520833333332
 10
11.625525
 20
4.727881944444443
 10
11.61103888888889
 20
4.70717361111111
 10
11.60483055555555
 20
4.684395833333332
 10
11.60483055555555
 20
4.678187499999999
  0
LWPOLYLINE
  5
356
330
2
100
AcDbEntity
  8
PDF_Layer 1
 62
     7
420
 16777215
370
    70
100
AcDbPolyline
 90
        8
 70
     0
 43
0.0
 10
12.035525
 20
4.698895833333332
 10
12.03759444444444
 20
4.785868055555554
 10
12.04173333333333
 20
4.972215277777777
 10
12.05416388888889
 20
5.156506944444443
 10
12.07278888888889
 20
5.342854166666665
 10
12.09556666666667
 20
5.525076388888887
 10
12.09763611111111
 20
5.529215277777776
 10
12.09556666666667
 20
5.539562499999998
  0
LWPOLYLINE
  5
357
330
2
100
AcDbEntity
  8
PDF_Layer 1
 62
     7
420
 16777215
370
    70
100
AcDbPolyline
 90
        7
 70
     0
 43
0.0
 10
11.86366388888889
 20
5.562354166666665
 10
11.85123333333333
 20
5.483673611111109
 10
11.81188611111111
 20
5.301451388888887
 10
11.7684
 20
5.121298611111109
 10
11.72078888888889
 20
4.943229166666665
 10
11.66695555555555
 20
4.769284722222221
 10
11.66280277777778
 20
4.761020833333332
  0
LWPOLYLINE
  5
358
330
2
100
AcDbEntity
  8
PDF_Layer 1
 62
     7
420
 16777215
370
    70
100
AcDbPolyline
 90
        3
 70
     0
 43
0.0
 10
12.25708055555555
 20
5.568562499999998
 10
12.26121944444444
 20
5.580993055555554
 10
12.26328888888889
 20
5.595479166666665
  0
LWPOLYLINE
  5
359
330
2
100
AcDbEntity
  8
PDF_Layer 1
 62
     7
420
 16777215
370
    70
100
AcDbPolyline
 90
        3
 70
     0
 43
0.0
 10
12.33991388888889
 20
5.746631944444443
 10
12.34196944444444
 20
5.759062499999998
 10
12.34405277777778
 20
5.773562499999998
  0
LWPOLYLINE
  5
35A
330
2
100
AcDbEntity
  8
PDF_Layer 1
 62
     7
420
 16777215
370
    70
100
AcDbPolyline
 90
        2
 70
     0
 43
0.0
 10
11.76634444444444
 20
5.918493055555554
 10
11.76219166666666
 20
5.895729166666665
  0
ELLIPSE
  5
35C
330
2
100
AcDbEntity
  8
PDF_Layer 1
 62
     7
420
 16777215
370
    70
100
AcDbEllipse
 10
12.05335720315756
 20
5.832420159513796
 30
0.0
 11
-0.27405692994853
 21
0.1232339444740339
 31
0.0
210
0.0
220
0.0
230
1.0
 40
0.8185497930343879
 41
0.2104354274110173
 42
6.493620734590603
  0
LWPOLYLINE
  5
35D
330
2
100
AcDbEntity
  8
PDF_Layer 1
 62
     7
420
 16777215
370
    70
100
AcDbPolyline
 90
       13
 70
     0
 43
0.0
 10
11.76219166666666
 20
5.872937499999999
 10
11.73941388888889
 20
5.825312499999999
 10
11.72285833333333
 20
5.78804861111111
 10
11.71665
 20
5.775618055555554
 10
11.70835833333333
 20
5.740423611111109
 10
11.70628888888889
 20
5.703145833333332
 10
11.71044166666666
 20
5.667951388888887
 10
11.72078888888889
 20
5.630687499999998
 10
11.73941388888889
 20
5.59340972222222
 10
11.76219166666666
 20
5.560270833333332
 10
11.79119166666666
 20
5.529215277777776
 10
11.82431666666666
 20
5.500229166666665
 10
11.84916388888889
 20
5.483673611111109
  0
LWPOLYLINE
  5
35E
330
2
100
AcDbEntity
  8
PDF_Layer 1
 62
     7
420
 16777215
370
    70
100
AcDbPolyline
 90
        9
 70
     0
 43
0.0
 10
12.08521944444444
 20
5.440187499999998
 10
12.09556666666667
 20
5.442243055555554
 10
12.10799722222222
 20
5.446395833333331
 10
12.14526111111111
 20
5.460881944444443
 10
12.17631666666666
 20
5.481590277777776
 10
12.20324722222222
 20
5.506437499999998
 10
12.226025
 20
5.533354166666665
 10
12.23430277777778
 20
5.554062499999998
 10
12.27363611111111
 20
5.638951388888887
  0
LWPOLYLINE
  5
35F
330
2
100
AcDbEntity
  8
PDF_Layer 1
 62
     7
420
 16777215
370
    70
100
AcDbPolyline
 90
       16
 70
     0
 43
0.0
 10
11.75184444444444
 20
5.850159722222221
 10
11.74563611111111
 20
5.846034722222221
 10
11.72285833333333
 20
5.819104166666665
 10
11.70215
 20
5.790118055555554
 10
11.68971944444444
 20
5.756979166666665
 10
11.68144166666666
 20
5.728006944444443
 10
11.67937222222222
 20
5.707284722222221
 10
11.68144166666666
 20
5.672090277777776
 10
11.68765
 20
5.636895833333332
 10
11.69801111111111
 20
5.599618055555554
 10
11.71665
 20
5.566493055555554
 10
11.73941388888889
 20
5.533354166666665
 10
11.76634444444444
 20
5.502298611111109
 10
11.7974
 20
5.475381944444443
 10
11.830525
 20
5.45053472222222
 10
11.84295555555555
 20
5.444326388888887
  0
ARC
  5
360
330
2
100
AcDbEntity
  8
PDF_Layer 1
 62
     7
420
 16777215
370
    70
100
AcDbCircle
 10
12.04657975227982
 20
5.618979908061045
 30
0.0
 40
0.2167639793508497
100
AcDbArc
 50
279.158316571743
 51
358.7111190380833
  0
LWPOLYLINE
  5
362
330
2
100
AcDbEntity
  8
PDF_Layer 1
 62
     7
420
 16777215
370
    70
100
AcDbPolyline
 90
       27
 70
     0
 43
0.0
 10
15.23259444444444
 20
7.485979166666664
 10
15.24087222222222
 20
7.488048611111109
 10
15.245025
 20
7.490118055555554
 10
15.25123333333333
 20
7.494256944444442
 10
15.25537222222222
 20
7.498395833333331
 10
15.26366388888889
 20
7.508743055555553
 10
15.26778888888889
 20
7.521173611111109
 10
15.26778888888889
 20
7.53567361111111
 10
15.26366388888889
 20
7.55015972222222
 10
15.25537222222222
 20
7.560520833333332
 10
15.245025
 20
7.568798611111109
 10
15.23673333333333
 20
7.572937499999998
 10
15.22844166666667
 20
7.572937499999998
 10
15.22638611111111
 20
7.572937499999998
 10
15.22638611111111
 20
7.575006944444443
 10
15.21395555555555
 20
7.577076388888887
 10
15.20153888888889
 20
7.585368055555553
 10
15.19117777777777
 20
7.595715277777776
 10
15.18496944444444
 20
7.604006944444443
 10
15.14148333333333
 20
7.686826388888887
 10
15.07315
 20
7.827631944444442
 10
15.01103888888889
 20
7.970506944444442
 10
14.95513611111111
 20
8.115451388888887
 10
14.90544166666667
 20
8.262465277777776
 10
14.90128888888889
 20
8.276951388888887
 10
14.84537222222222
 20
8.473673611111109
 42
0.8775502939767633
 10
11.10166388888888
 20
7.937368055555555
  0
LWPOLYLINE
  5
363
330
2
100
AcDbEntity
  8
PDF_Layer 1
 62
     7
420
 16777215
370
    70
100
AcDbPolyline
 90
       27
 70
     0
 43
0.0
 10
14.33392777777777
 20
8.117520833333331
 10
14.34842777777778
 20
8.057465277777776
 10
14.37948333333333
 20
7.908381944444442
 10
14.40641388888889
 20
7.757229166666665
 10
14.42505277777778
 20
7.606076388888888
 10
14.43746944444444
 20
7.452854166666665
 10
14.44160833333333
 20
7.394868055555554
 10
14.44160833333333
 20
7.380368055555554
 10
14.43746944444444
 20
7.367951388888887
 10
14.42919166666666
 20
7.355520833333331
 10
14.42296944444444
 20
7.349312499999998
 10
14.4209
 20
7.347243055555554
 10
14.41883055555555
 20
7.34517361111111
 10
14.41262222222222
 20
7.338965277777776
 10
14.40641388888889
 20
7.328604166666664
 10
14.40226111111111
 20
7.314118055555554
 10
14.40433055555555
 20
7.299618055555554
 10
14.41262222222222
 20
7.285118055555554
 10
14.4209
 20
7.276840277777777
 10
14.42919166666666
 20
7.270631944444443
 10
14.43746944444444
 20
7.26854861111111
 10
14.44367777777778
 20
7.266493055555554
 10
14.44781666666666
 20
7.266493055555554
 10
14.45195555555555
 20
7.26854861111111
 10
14.45816388888889
 20
7.26854861111111
 10
14.46438611111111
 20
7.26854861111111
 10
14.46438611111111
 20
7.270631944444443
  0
LWPOLYLINE
  5
369
330
2
100
AcDbEntity
  8
PDF_Layer 1
 62
     7
420
 16777215
370
    70
100
AcDbPolyline
 90
       13
 70
     0
 43
0.0
 10
11.68765
 20
7.943590277777777
 42
0.008328097583895
 10
11.39362222222222
 20
7.94565972222222
 10
11.35013611111111
 20
7.94565972222222
 10
11.30458055555555
 20
7.943590277777777
 10
11.26316388888889
 20
7.943590277777777
 10
11.2259
 20
7.941520833333331
 10
11.19070555555555
 20
7.941520833333331
 10
11.16171944444444
 20
7.941520833333331
 10
11.13687222222222
 20
7.939451388888887
 10
11.11823333333333
 20
7.939451388888887
 10
11.10580277777778
 20
7.937368055555554
 10
11.10166388888889
 20
7.937368055555554
 10
11.12858055555555
 20
5.518868055555554
  0
LWPOLYLINE
  5
36A
330
2
100
AcDbEntity
  8
PDF_Layer 1
 62
     7
420
 16777215
370
    70
100
AcDbPolyline
 90
        2
 70
     0
 43
0.0
 10
11.71665
 20
5.527145833333332
 10
11.71456666666666
 20
5.566493055555554
  0
LWPOLYLINE
  5
36B
330
2
100
AcDbEntity
  8
PDF_Layer 1
 62
     7
420
 16777215
370
    70
100
AcDbPolyline
 90
       89
 70
     0
 43
0.0
 10
11.71249722222222
 20
5.804604166666665
 10
11.68765
 20
7.943590277777777
 10
11.68765
 20
7.987062499999998
 10
11.69180277777777
 20
8.07403472222222
 10
11.70421944444444
 20
8.163076388888887
 10
11.72078888888889
 20
8.250034722222221
 10
11.74149722222222
 20
8.334937499999998
 10
11.77048333333333
 20
8.419840277777776
 10
11.80362222222222
 20
8.502659722222219
 10
11.84295555555555
 20
8.581340277777776
 10
11.88851111111111
 20
8.657965277777776
 10
11.93820555555555
 20
8.732506944444443
 10
11.99203888888889
 20
8.802909722222221
 10
12.050025
 20
8.869159722222221
 10
12.11420555555555
 20
8.931284722222221
 10
12.18046944444444
 20
8.989256944444441
 10
12.25294166666667
 20
9.041034722222221
 10
12.32748333333333
 20
9.090715277777775
 10
12.40409444444444
 20
9.134201388888888
 10
12.48484444444444
 20
9.171479166666664
 10
12.56767777777778
 20
9.204604166666666
 10
12.65258055555555
 20
9.231520833333332
 10
12.73746944444444
 20
9.252229166666666
 10
12.82444166666667
 20
9.266729166666664
 10
12.91348333333333
 20
9.277076388888886
 10
13.00251111111111
 20
9.27914583333333
 10
13.09155277777778
 20
9.277076388888886
 10
13.178525
 20
9.268798611111108
 10
13.26755277777778
 20
9.25429861111111
 10
13.35244166666666
 20
9.233590277777775
 10
13.43734444444444
 20
9.208743055555554
 10
13.52016388888889
 20
9.175618055555554
 10
13.60092777777778
 20
9.138340277777775
 10
13.67960833333333
 20
9.096937499999999
 10
13.75415
 20
9.049312499999999
 10
13.82663611111111
 20
8.995465277777775
 10
13.89288611111111
 20
8.939562499999999
 10
13.95706666666666
 20
8.877451388888886
 10
14.01713611111111
 20
8.811187499999999
 10
14.07096944444444
 20
8.740784722222221
 10
14.12273333333333
 20
8.668312499999998
 10
14.16621944444444
 20
8.591701388888887
 10
14.20762222222222
 20
8.513020833333332
 10
14.24076111111111
 20
8.430187499999998
 10
14.26974722222222
 20
8.347354166666665
 10
14.28009444444444
 20
8.316298611111108
 10
14.33601111111111
 20
8.117520833333331
 10
14.33601111111111
 20
8.119590277777776
 10
14.34221944444444
 20
8.12165972222222
 10
14.35463611111111
 20
8.125798611111109
 10
14.37535833333333
 20
8.132006944444443
 10
14.40020555555555
 20
8.140298611111109
 10
14.42919166666666
 20
8.148576388888887
 10
14.46438611111111
 20
8.158937499999998
 10
14.50165
 20
8.16928472222222
 10
14.54306666666666
 20
8.181715277777776
 10
14.58448333333333
 20
8.192062499999998
 10
14.62796944444444
 20
8.204493055555554
 10
14.67145555555555
 20
8.21690972222222
 10
14.71285833333333
 20
8.229340277777776
 10
14.75220555555555
 20
8.239687499999998
 10
14.78948333333333
 20
8.250034722222221
 10
14.82053888888889
 20
8.258326388888887
 10
14.849525
 20
8.26453472222222
 10
14.87021944444444
 20
8.270743055555554
 10
14.88680277777778
 20
8.274895833333332
 10
14.89715
 20
8.276951388888887
 10
14.90128888888889
 20
8.276951388888887
 10
14.89921944444444
 20
8.276951388888887
 10
14.89506666666667
 20
8.276951388888887
 10
14.88265
 20
8.272826388888887
 10
14.86609444444444
 20
8.268673611111109
 10
14.84331666666667
 20
8.262465277777776
 10
14.81431666666666
 20
8.256256944444443
 10
14.78119166666666
 20
8.247979166666665
 10
14.74392777777778
 20
8.237618055555554
 10
14.70251111111111
 20
8.225187499999996
 10
14.66109444444444
 20
8.214840277777774
 10
14.61760833333333
 20
8.20240972222222
 10
14.57412222222222
 20
8.189993055555554
 10
14.53271944444444
 20
8.177576388888887
 10
14.49130277777778
 20
8.167215277777776
 10
14.45610833333333
 20
8.156854166666665
 10
14.4209
 20
8.146506944444443
 10
14.39398333333333
 20
8.138229166666665
 10
14.36913611111111
 20
8.129937499999998
 10
14.35256666666666
 20
8.123729166666663
 10
14.34013611111111
 20
8.119590277777776
 10
14.33601111111111
 20
8.117520833333331
  0
LWPOLYLINE
  5
370
330
2
100
AcDbEntity
  8
PDF_Layer 1
 62
     7
420
 16777215
370
    70
100
AcDbPolyline
 90
       17
 70
     0
 43
0.0
 10
11.49715
 20
5.363562499999998
 10
11.47851111111111
 20
5.363562499999998
 10
11.42467777777778
 20
5.361493055555554
 10
11.37084444444444
 20
5.361493055555554
 10
11.31908055555555
 20
5.361493055555554
 10
11.26730277777777
 20
5.359423611111109
 10
11.21969166666666
 20
5.359423611111109
 10
11.17413611111111
 20
5.357354166666665
 10
11.13271944444444
 20
5.357354166666665
 10
11.097525
 20
5.35528472222222
 10
11.06438611111111
 20
5.35528472222222
 10
11.03953888888889
 20
5.353215277777776
 10
11.01884444444444
 20
5.353215277777776
 10
11.00641388888889
 20
5.351145833333331
 10
11.00020555555555
 20
5.351145833333331
 10
10.99812222222222
 20
5.351145833333331
 10
11.00226111111111
 20
5.048826388888888
  0
LWPOLYLINE
  5
371
330
2
100
AcDbEntity
  8
PDF_Layer 1
 62
     7
420
 16777215
370
    70
100
AcDbPolyline
 90
        4
 70
     0
 43
0.0
 10
11.01055277777778
 20
5.38428472222222
 10
11.00226111111111
 20
5.371854166666665
 10
10.99812222222222
 20
5.35528472222222
 10
11.00020555555555
 20
5.351145833333331
  0
LWPOLYLINE
  5
372
330
2
100
AcDbEntity
  8
PDF_Layer 1
 62
     7
420
 16777215
370
    70
100
AcDbPolyline
 90
       25
 70
     0
 43
0.0
 10
11.75391388888889
 20
5.51265972222222
 10
11.74563611111111
 20
5.525076388888887
 10
11.74355277777777
 20
5.525076388888887
 10
11.73528888888889
 20
5.525076388888887
 10
11.71870555555555
 20
5.527145833333332
 10
11.69801111111111
 20
5.527145833333332
 10
11.67109444444444
 20
5.527145833333332
 10
11.63795555555555
 20
5.527145833333332
 10
11.60069166666666
 20
5.527145833333332
 10
11.559275
 20
5.527145833333332
 10
11.51578888888889
 20
5.527145833333332
 10
11.47024722222222
 20
5.527145833333332
 10
11.42260833333333
 20
5.525076388888887
 10
11.37498333333333
 20
5.525076388888887
 10
11.32942777777778
 20
5.525076388888887
 10
11.28595555555555
 20
5.523006944444443
 10
11.24453888888889
 20
5.523006944444443
 10
11.20726111111111
 20
5.523006944444443
 10
11.17413611111111
 20
5.520923611111109
 10
11.14721944444444
 20
5.520923611111109
 10
11.12444166666666
 20
5.518868055555554
 10
11.10994166666666
 20
5.518868055555554
 10
11.10166388888889
 20
5.516798611111109
 10
11.09959444444444
 20
5.516798611111109
 10
11.05610833333333
 20
5.452604166666665
  0
LWPOLYLINE
  5
373
330
2
100
AcDbEntity
  8
PDF_Layer 1
 62
     7
420
 16777215
370
    70
100
AcDbPolyline
 90
       16
 70
     0
 43
0.0
 10
11.05610833333333
 20
5.396701388888887
 10
11.05610833333333
 20
5.431895833333332
 10
11.05610833333333
 20
5.446395833333331
 10
11.05610833333333
 20
5.452604166666665
 10
11.05610833333333
 20
5.444326388888887
 10
11.05610833333333
 20
5.433979166666665
 10
11.05610833333333
 20
5.400840277777776
 10
11.03953888888889
 20
5.400840277777776
 10
11.02919166666666
 20
5.400840277777776
 10
11.02091388888889
 20
5.398756944444443
 10
11.01884444444444
 20
5.398756944444443
 10
11.00848333333333
 20
5.38428472222222
 42
-0.0138512764878967
 10
11.42467777777778
 20
5.396701388888887
 10
11.47645555555555
 20
5.396701388888887
 10
11.52820555555555
 20
5.396701388888887
 10
11.54063611111111
 20
5.396701388888887
  0
LWPOLYLINE
  5
375
330
2
100
AcDbEntity
  8
PDF_Layer 1
 62
     7
420
 16777215
370
    70
100
AcDbPolyline
 90
        2
 70
     0
 43
0.0
 10
11.75391388888889
 20
5.514715277777776
 10
11.60688611111111
 20
5.193784722222221
  0
LWPOLYLINE
  5
376
330
2
100
AcDbEntity
  8
PDF_Layer 1
 62
     7
420
 16777215
370
    70
100
AcDbPolyline
 90
        8
 70
     0
 43
0.0
 10
12.04794166666667
 20
5.04053472222222
 10
12.050025
 20
5.044687499999999
 10
12.050025
 20
5.048826388888888
 10
12.05416388888889
 20
5.065395833333332
 10
12.05828888888889
 20
5.084020833333331
 10
12.06037222222222
 20
5.104743055555554
 10
12.06037222222222
 20
5.142006944444442
 10
12.05623333333333
 20
5.170993055555554
  0
LWPOLYLINE
  5
377
330
2
100
AcDbEntity
  8
PDF_Layer 1
 62
     7
420
 16777215
370
    70
100
AcDbPolyline
 90
       37
 70
     0
 43
0.0
 10
11.72078888888889
 20
5.440187499999998
 10
11.70215
 20
5.442243055555554
 10
11.65866388888889
 20
5.438104166666665
 10
11.61931666666666
 20
5.431895833333332
 10
11.57998333333333
 20
5.417395833333332
 10
11.54478888888889
 20
5.400840277777776
 10
11.51371944444444
 20
5.378062499999998
 10
11.48473333333333
 20
5.351145833333331
 10
11.464025
 20
5.32215972222222
 10
11.45987222222222
 20
5.315951388888888
 10
11.13271944444444
 20
4.752729166666665
 10
11.12651111111111
 20
4.744437499999999
 10
11.10994166666666
 20
4.705104166666665
 10
11.09959444444444
 20
4.665756944444443
 10
11.097525
 20
4.624354166666665
 10
11.09959444444444
 20
4.580868055555554
 10
11.10994166666666
 20
4.539451388888887
 10
11.12444166666666
 20
4.495965277777776
 10
11.14721944444444
 20
4.45454861111111
 10
11.17413611111111
 20
4.417270833333332
 10
11.20726111111111
 20
4.380006944444443
 10
11.24453888888889
 20
4.346881944444443
 10
11.28388611111111
 20
4.317895833333332
 10
11.32942777777778
 20
4.293048611111109
 10
11.37498333333333
 20
4.272340277777776
 10
11.42260833333333
 20
4.25578472222222
 10
11.47230277777778
 20
4.247493055555554
 10
11.52199722222222
 20
4.243354166666665
 10
11.56963611111111
 20
4.243354166666665
 10
11.61726111111111
 20
4.249562499999998
 10
11.66073333333333
 20
4.261993055555554
 10
11.70215
 20
4.280631944444443
 10
11.73941388888889
 20
4.303395833333332
 10
11.77255277777778
 20
4.330312499999998
 10
11.79946944444444
 20
4.361368055555554
 10
11.82224722222222
 20
4.394506944444443
 10
11.82638611111111
 20
4.404854166666665
  0
LWPOLYLINE
  5
37A
330
2
100
AcDbEntity
  8
PDF_Layer 1
 62
     7
420
 16777215
370
    70
100
AcDbPolyline
 90
       34
 70
     0
 43
0.0
 10
11.18862222222222
 20
4.852118055555554
 10
11.18656666666666
 20
4.85004861111111
 10
11.15135833333333
 20
4.825201388888888
 10
11.12237222222222
 20
4.794131944444443
 10
11.097525
 20
4.761020833333332
 10
11.07680277777777
 20
4.72579861111111
 10
11.06231666666666
 20
4.686465277777776
 10
11.05403888888889
 20
4.647118055555554
 10
11.0499
 20
4.603631944444443
 10
11.05403888888889
 20
4.562229166666665
 10
11.06231666666666
 20
4.518743055555554
 10
11.07680277777777
 20
4.475256944444443
 10
11.09544166666666
 20
4.433854166666665
 10
11.12028888888889
 20
4.394506944444443
 10
11.14928888888889
 20
4.357229166666665
 10
11.18448333333333
 20
4.322034722222221
 10
11.22176111111111
 20
4.288895833333332
 10
11.26316388888889
 20
4.261993055555554
 10
11.30665
 20
4.237145833333332
 10
11.354275
 20
4.216437499999998
 10
11.40191388888889
 20
4.201937499999998
 10
11.45160833333333
 20
4.191576388888887
 10
11.49923333333333
 20
4.185368055555554
 10
11.54892777777777
 20
4.185368055555554
 10
11.59653888888889
 20
4.189506944444443
 10
11.64210833333333
 20
4.199868055555554
 10
11.68558055555555
 20
4.214354166666665
 10
11.72492777777778
 20
4.235062499999998
 10
11.76219166666666
 20
4.259909722222221
 10
11.79324722222222
 20
4.286840277777776
 10
11.82017777777778
 20
4.319965277777776
 10
11.84295555555555
 20
4.355159722222221
 10
11.859525
 20
4.39242361111111
 10
11.86573333333333
 20
4.411062499999998
  0
LWPOLYLINE
  5
37B
330
2
100
AcDbEntity
  8
PDF_Layer 1
 62
     7
420
 16777215
370
    70
100
AcDbPolyline
 90
       46
 70
     0
 43
0.0
 10
10.50117777777777
 20
3.574534722222221
 10
10.50531666666667
 20
3.574534722222221
 10
10.511525
 20
3.574534722222221
 10
10.526025
 20
3.574534722222221
 10
10.55501111111111
 20
3.574534722222221
 10
10.58399722222222
 20
3.574534722222221
 10
10.61299722222222
 20
3.574534722222221
 10
10.6399
 20
3.574534722222221
 10
10.66474722222222
 20
3.576604166666665
 10
10.67512222222222
 20
3.574534722222221
 10
10.68338611111111
 20
3.574534722222221
 10
10.71031666666667
 20
3.576604166666665
 10
10.73721944444444
 20
3.576604166666665
 10
10.75792777777778
 20
3.576604166666665
 10
10.77865
 20
3.574534722222221
 10
10.79934444444444
 20
3.574534722222221
 10
10.86353888888889
 20
3.576604166666665
 10
10.92358055555555
 20
3.576604166666665
 10
10.97741388888889
 20
3.574534722222221
 10
11.03746944444444
 20
3.574534722222221
 10
11.09338611111111
 20
3.576604166666665
 10
11.14308055555555
 20
3.576604166666665
 10
11.18241388888889
 20
3.576604166666665
 10
11.20520555555555
 20
3.576604166666665
 10
11.23005277777777
 20
3.576604166666665
 10
11.29009444444444
 20
3.574534722222221
 10
11.34392777777778
 20
3.576604166666665
 10
11.36670555555555
 20
3.576604166666665
 10
11.37706666666666
 20
3.576604166666665
 10
11.38741388888889
 20
3.576604166666665
 10
11.449525
 20
3.576604166666665
 10
11.51994166666666
 20
3.576604166666665
 10
11.59446944444444
 20
3.576604166666665
 10
11.66695555555555
 20
3.576604166666665
 10
11.73113611111111
 20
3.576604166666665
 10
11.77876111111111
 20
3.576604166666665
 10
11.81396944444444
 20
3.576604166666665
 10
11.83881666666666
 20
3.576604166666665
 10
11.84295555555555
 20
3.576604166666665
 10
11.84916388888889
 20
3.576604166666665
 10
11.87401111111111
 20
3.576604166666665
 10
11.89471944444444
 20
3.576604166666665
 10
11.90715
 20
3.576604166666665
 10
11.91335833333333
 20
3.576604166666665
 10
11.92163611111111
 20
3.582812499999999
 10
11.925775
 20
3.580743055555554
  0
LWPOLYLINE
  5
389
330
2
100
AcDbEntity
  8
PDF_Layer 1
 62
     7
420
 16777215
370
    70
100
AcDbPolyline
 90
       22
 70
     0
 43
0.0
 10
11.01262222222222
 20
4.711312499999999
 10
11.00226111111111
 20
4.70717361111111
 10
10.99399722222222
 20
4.70717361111111
 10
10.98570555555555
 20
4.70717361111111
 10
10.973275
 20
4.713381944444443
 10
10.96292777777778
 20
4.72579861111111
 10
10.92773333333333
 20
4.624354166666665
 10
10.90081666666667
 20
4.522881944444443
 10
10.892525
 20
4.485604166666665
 10
10.88424722222222
 20
4.446270833333332
 10
10.87596944444444
 20
4.409006944444443
 10
10.86767777777778
 20
4.367576388888887
 10
10.85733055555555
 20
4.369659722222221
 10
10.84903888888889
 20
4.37379861111111
 10
10.84076111111111
 20
4.380006944444443
 10
10.82213611111111
 20
4.390368055555554
 10
10.80970555555555
 20
4.394506944444443
 10
10.80555277777778
 20
4.398645833333332
 10
10.79106666666666
 20
4.355159722222221
 10
10.77242777777777
 20
4.307534722222221
 10
10.75380277777778
 20
4.25578472222222
 10
10.73101111111111
 20
4.199868055555554
  0
LWPOLYLINE
  5
38B
330
2
100
AcDbEntity
  8
PDF_Layer 1
 62
     7
420
 16777215
370
    70
100
AcDbPolyline
 90
       38
 70
     0
 43
0.0
 10
10.6399
 20
3.574534722222221
 10
10.635775
 20
3.574534722222221
 10
10.62955277777778
 20
3.574534722222221
 10
10.621275
 20
3.576604166666665
 10
10.61920555555555
 20
3.57867361111111
 10
10.61713611111111
 20
3.580743055555554
 10
10.61505277777778
 20
3.584881944444443
 10
10.59020555555555
 20
3.584881944444443
 10
10.57778888888889
 20
3.584881944444443
 10
10.56535833333333
 20
3.582812499999999
 10
10.54880277777778
 20
3.601451388888888
 10
10.53845555555555
 20
3.628368055555554
 10
10.53637222222222
 20
3.661493055555554
 10
10.54466388888889
 20
3.713270833333332
 10
10.56121944444444
 20
3.765034722222221
 10
10.58815
 20
3.837493055555554
 10
10.61713611111111
 20
3.909979166666665
 10
10.64819166666667
 20
3.988659722222221
 10
10.64405277777778
 20
3.988659722222221
 10
10.64198333333333
 20
3.988659722222221
 10
10.6399
 20
3.990743055555554
 10
10.635775
 20
3.986590277777776
 10
10.63163611111111
 20
3.978312499999999
 10
10.62334444444444
 20
3.961743055555554
 10
10.58194166666666
 20
3.872701388888888
 10
10.56121944444444
 20
3.829229166666665
 10
10.53637222222222
 20
3.775381944444443
 10
10.49910833333333
 20
3.684270833333332
 10
10.48253888888889
 20
3.632520833333332
 10
10.4784
 20
3.607659722222221
 10
10.4784
 20
3.584881944444443
 10
10.48046944444444
 20
3.57867361111111
 10
10.48046944444444
 20
3.576604166666665
 10
10.48253888888889
 20
3.576604166666665
 10
10.48460833333333
 20
3.574534722222221
 10
10.48876111111111
 20
3.574534722222221
 10
10.50324722222222
 20
3.574534722222221
 10
10.49910833333333
 20
3.574534722222221
  0
LWPOLYLINE
  5
38C
330
2
100
AcDbEntity
  8
PDF_Layer 1
 62
     7
420
 16777215
370
    70
100
AcDbPolyline
 90
        8
 70
     0
 43
0.0
 10
10.87596944444444
 20
4.634701388888887
 10
10.86146944444444
 20
4.580868055555554
 10
10.84903888888889
 20
4.539451388888887
 10
10.83869166666666
 20
4.502187499999998
 10
10.82834444444444
 20
4.466979166666665
 10
10.81798333333333
 20
4.435909722222221
 10
10.81176111111111
 20
4.419354166666665
 10
10.80555277777778
 20
4.400715277777776
  0
LWPOLYLINE
  5
390
330
2
100
AcDbEntity
  8
PDF_Layer 1
 62
     7
420
 16777215
370
    70
100
AcDbPolyline
 90
        9
 70
     0
 43
0.0
 10
10.73101111111111
 20
4.197798611111109
 10
10.716525
 20
4.162604166666665
 10
10.70409444444444
 20
4.135673611111109
 10
10.69373333333333
 20
4.114965277777776
 10
10.687525
 20
4.098395833333332
 10
10.67303888888889
 20
4.067340277777776
 10
10.66062222222222
 20
4.042493055555554
 10
10.64612222222222
 20
4.009368055555555
 10
10.62334444444444
 20
3.961743055555554
  0
LWPOLYLINE
  5
391
330
2
100
AcDbEntity
  8
PDF_Layer 1
 62
     7
420
 16777215
370
    70
100
AcDbPolyline
 90
       23
 70
     0
 43
0.0
 10
11.90506666666666
 20
3.576604166666665
 10
11.911275
 20
3.576604166666665
 10
11.91749722222222
 20
3.576604166666665
 10
11.925775
 20
3.580743055555554
 10
11.92991388888889
 20
3.589034722222221
 10
11.93613611111111
 20
3.603520833333332
 10
11.94026111111111
 20
3.622145833333332
 10
11.94441388888889
 20
3.647006944444443
 10
11.94441388888889
 20
3.680131944444443
 10
11.94234444444444
 20
3.719479166666665
 10
11.94026111111111
 20
3.752604166666665
 10
11.93613611111111
 20
3.789881944444443
 10
11.93199722222222
 20
3.814729166666665
 10
11.92991388888889
 20
3.839576388888887
 10
11.92370555555555
 20
3.891340277777776
 10
11.92163611111111
 20
3.926534722222221
 10
11.91749722222222
 20
3.963812499999999
 10
11.91541388888889
 20
4.003159722222221
 10
11.91335833333333
 20
4.017645833333332
 10
11.911275
 20
4.044576388888888
 10
11.90920555555555
 20
4.075631944444443
 10
11.90715
 20
4.123256944444443
 10
11.90299722222222
 20
4.212298611111109
  0
LWPOLYLINE
  5
394
330
2
100
AcDbEntity
  8
PDF_Layer 1
 62
     7
420
 16777215
370
    70
100
AcDbPolyline
 90
        2
 70
     0
 43
0.0
 10
11.90715
 20
3.576604166666665
 10
11.90715
 20
3.576604166666665
  0
LWPOLYLINE
  5
396
330
2
100
AcDbEntity
  8
PDF_Layer 1
 62
     7
420
 16777215
370
    70
100
AcDbPolyline
 90
        2
 70
     0
 43
0.0
 10
10.50117777777777
 20
3.574534722222221
 10
10.50117777777777
 20
3.574534722222221
  0
LWPOLYLINE
  5
397
330
2
100
AcDbEntity
  8
PDF_Layer 1
 62
     7
420
 16777215
370
    70
100
AcDbPolyline
 90
        2
 70
     0
 43
0.0
 10
10.497025
 20
3.574534722222221
 10
10.497025
 20
3.574534722222221
  0
LWPOLYLINE
  5
39D
330
2
100
AcDbEntity
  8
PDF_Layer 1
 62
     7
420
 16777215
370
    70
100
AcDbPolyline
 90
        6
 70
     0
 43
0.0
 10
11.89678888888889
 20
4.404854166666665
 10
11.89471944444444
 20
4.419354166666665
 10
11.89471944444444
 20
4.411062499999998
 10
11.89885833333333
 20
4.357229166666665
 10
11.90092777777778
 20
4.301326388888887
 10
11.90299722222222
 20
4.216437499999998
  0
LWPOLYLINE
  5
39F
330
2
100
AcDbEntity
  8
PDF_Layer 1
 62
     7
420
 16777215
370
    70
100
AcDbPolyline
 90
        8
 70
     0
 43
0.0
 10
10.52395555555555
 20
3.574534722222221
 10
10.53637222222222
 20
3.574534722222221
 10
10.56121944444444
 20
3.574534722222221
 10
10.57156666666666
 20
3.574534722222221
 10
10.58194166666666
 20
3.574534722222221
 10
10.58399722222222
 20
3.574534722222221
 10
10.58606666666666
 20
3.574534722222221
 10
10.59228888888888
 20
3.574534722222221
  0
LWPOLYLINE
  5
3A0
330
2
100
AcDbEntity
  8
PDF_Layer 1
 62
     7
420
 16777215
370
    70
100
AcDbPolyline
 90
       14
 70
     0
 43
0.0
 10
11.64831666666666
 20
3.576604166666665
 10
11.654525
 20
3.576604166666665
 10
11.67316388888889
 20
3.576604166666665
 10
11.71665
 20
3.576604166666665
 10
11.75391388888889
 20
3.576604166666665
 10
11.78498333333333
 20
3.576604166666665
 10
11.80567777777778
 20
3.576604166666665
 10
11.82431666666666
 20
3.576604166666665
 10
11.83673333333333
 20
3.576604166666665
 10
11.85123333333333
 20
3.576604166666665
 10
11.86366388888889
 20
3.576604166666665
 10
11.87608055555555
 20
3.576604166666665
 10
11.89058055555555
 20
3.576604166666665
 10
11.89885833333333
 20
3.576604166666665
  0
LWPOLYLINE
  5
3A2
330
2
100
AcDbEntity
  8
PDF_Layer 1
 62
     7
420
 16777215
370
    70
100
AcDbPolyline
 90
        5
 70
     0
 43
0.0
 10
10.60263611111111
 20
3.574534722222221
 10
10.621275
 20
3.574534722222221
 10
10.64612222222222
 20
3.574534722222221
 10
10.67303888888889
 20
3.574534722222221
 10
10.702025
 20
3.574534722222221
  0
LWPOLYLINE
  5
3A4
330
2
100
AcDbEntity
  8
PDF_Layer 1
 62
     7
420
 16777215
370
    70
100
AcDbPolyline
 90
       14
 70
     0
 43
0.0
 10
10.69996944444444
 20
3.574534722222221
 10
10.72687222222222
 20
3.574534722222221
 10
10.75792777777778
 20
3.574534722222221
 10
10.76415
 20
3.574534722222221
 10
10.80141388888889
 20
3.574534722222221
 10
10.87596944444444
 20
3.574534722222221
 10
10.94016388888889
 20
3.574534722222221
 10
11.00641388888889
 20
3.574534722222221
 10
11.07680277777777
 20
3.574534722222221
 10
11.14721944444444
 20
3.574534722222221
 10
11.18862222222222
 20
3.574534722222221
 10
11.22796944444444
 20
3.576604166666665
 10
11.27145555555555
 20
3.574534722222221
 10
11.27559444444444
 20
3.576604166666665
  0
LWPOLYLINE
  5
3A5
330
2
100
AcDbEntity
  8
PDF_Layer 1
 62
     7
420
 16777215
370
    70
100
AcDbPolyline
 90
        3
 70
     0
 43
0.0
 10
10.76206666666666
 20
3.574534722222221
 10
10.75585833333333
 20
3.574534722222221
 10
10.75585833333333
 20
3.576604166666665
  0
LWPOLYLINE
  5
3A6
330
2
100
AcDbEntity
  8
PDF_Layer 1
 62
     7
420
 16777215
370
    70
100
AcDbPolyline
 90
        5
 70
     0
 43
0.0
 10
10.79106666666666
 20
3.574534722222221
 10
10.79313611111111
 20
3.574534722222221
 10
10.79520555555555
 20
3.574534722222221
 10
10.80141388888889
 20
3.574534722222221
 10
10.80970555555555
 20
3.576604166666665
  0
LWPOLYLINE
  5
3AD
330
2
100
AcDbEntity
  8
PDF_Layer 1
 62
     7
420
 16777215
370
    70
100
AcDbPolyline
 90
        3
 70
     0
 43
0.0
 10
11.34599722222222
 20
3.576604166666665
 10
11.35634444444444
 20
3.576604166666665
 10
11.4164
 20
3.574534722222221
  0
LWPOLYLINE
  5
3B2
330
2
100
AcDbEntity
  8
PDF_Layer 1
 62
     7
420
 16777215
370
    70
100
AcDbPolyline
 90
        4
 70
     0
 43
0.0
 10
11.88021944444444
 20
5.587201388888887
 10
11.87815
 20
5.587201388888887
 10
11.86780277777778
 20
5.572701388888887
 10
11.86573333333333
 20
5.562354166666665
  0
ELLIPSE
  5
3B3
330
2
100
AcDbEntity
  8
PDF_Layer 1
 62
     7
420
 16777215
370
    70
100
AcDbEllipse
 10
12.05850753795076
 20
5.843523503834529
 30
0.0
 11
-0.2529184530707603
 21
0.1163561260951806
 31
0.0
210
0.0
220
0.0
230
1.0
 40
0.804693831701177
 41
0.2216777042331116
 42
6.504863011412697
  0
LWPOLYLINE
  5
3B4
330
2
100
AcDbEntity
  8
PDF_Layer 1
 62
     7
420
 16777215
370
    70
100
AcDbPolyline
 90
       13
 70
     0
 43
0.0
 10
11.859525
 20
5.541645833333332
 10
11.86158055555555
 20
5.564409722222221
 10
11.86366388888889
 20
5.570618055555554
 10
11.87815
 20
5.587201388888887
 10
11.90299722222222
 20
5.595479166666665
 10
11.93613611111111
 20
5.595479166666665
 10
11.97548333333333
 20
5.589256944444443
 10
12.01481666666667
 20
5.580993055555554
 10
12.04794166666667
 20
5.570618055555554
 10
12.07487222222222
 20
5.558201388888887
 10
12.09556666666667
 20
5.541645833333332
 10
12.09971944444444
 20
5.520923611111109
 10
12.09351111111111
 20
5.506437499999998
  0
LWPOLYLINE
  5
3B8
330
2
100
AcDbEntity
  8
PDF_Layer 1
 62
     7
420
 16777215
370
    70
100
AcDbPolyline
 90
       19
 70
     0
 43
0.0
 10
11.74355277777777
 20
5.833604166666665
 10
11.74149722222222
 20
5.825312499999999
 10
11.73528888888889
 20
5.812895833333332
 10
11.72699722222222
 20
5.796326388888887
 10
11.71870555555555
 20
5.777701388888887
 10
11.71249722222222
 20
5.756979166666665
 10
11.71044166666666
 20
5.744562499999998
 10
11.70835833333333
 20
5.730076388888887
 10
11.71044166666666
 20
5.719715277777776
 10
11.71456666666666
 20
5.715576388888887
 10
11.72078888888889
 20
5.719715277777776
 10
11.72492777777778
 20
5.730076388888887
 10
11.73113611111111
 20
5.744562499999998
 10
11.73320555555555
 20
5.763201388888887
 10
11.73734444444444
 20
5.783909722222221
 10
11.73941388888889
 20
5.804604166666665
 10
11.74149722222222
 20
5.819104166666665
 10
11.74355277777777
 20
5.831534722222221
 10
11.74563611111111
 20
5.83567361111111
  0
LWPOLYLINE
  5
3BA
330
2
100
AcDbEntity
  8
PDF_Layer 1
 62
     7
420
 16777215
370
    70
100
AcDbPolyline
 90
        3
 70
     0
 43
0.0
 10
12.09971944444444
 20
5.523006944444443
 10
12.09763611111111
 20
5.51265972222222
 10
12.09556666666667
 20
5.508506944444443
  0
LWPOLYLINE
  5
3BB
330
2
100
AcDbEntity
  8
PDF_Layer 1
 62
     7
420
 16777215
370
    70
100
AcDbPolyline
 90
        3
 70
     0
 43
0.0
 10
11.859525
 20
5.549923611111109
 10
11.859525
 20
5.556145833333332
 10
11.859525
 20
5.562354166666665
  0
LWPOLYLINE
  5
3BC
330
2
100
AcDbEntity
  8
PDF_Layer 1
 62
     7
420
 16777215
370
    70
100
AcDbPolyline
 90
       52
 70
     1
 43
0.0
 10
14.46024722222222
 20
7.270631944444443
 10
14.46645555555555
 20
7.272701388888887
 10
14.47888611111111
 20
7.276840277777777
 10
14.49751111111111
 20
7.28304861111111
 10
14.52237222222222
 20
7.291340277777776
 10
14.55134444444444
 20
7.299618055555554
 10
14.58655277777778
 20
7.309965277777776
 10
14.62381666666666
 20
7.320326388888887
 10
14.66730277777777
 20
7.332743055555554
 10
14.71285833333333
 20
7.347243055555554
 10
14.76048333333333
 20
7.35967361111111
 10
14.81017777777777
 20
7.374159722222221
 10
14.85987222222222
 20
7.388645833333332
 10
14.90956666666666
 20
7.401076388888887
 10
14.95719166666666
 20
7.415576388888887
 10
15.00483055555555
 20
7.427993055555554
 10
15.04831666666667
 20
7.440423611111109
 10
15.08971944444444
 20
7.450770833333331
 10
15.12699722222222
 20
7.461131944444443
 10
15.15805277777778
 20
7.469409722222221
 10
15.18496944444444
 20
7.475618055555553
 10
15.20774722222222
 20
7.481826388888887
 10
15.22223333333333
 20
7.485979166666664
 10
15.23259444444444
 20
7.488048611111109
 10
15.23466388888889
 20
7.488048611111109
 10
15.23673333333333
 20
7.488048611111109
 10
15.23259444444444
 20
7.485979166666664
 10
15.230525
 20
7.483909722222221
 10
15.22431666666667
 20
7.481826388888887
 10
15.20774722222222
 20
7.477687499999998
 10
15.18703888888889
 20
7.469409722222221
 10
15.16010833333333
 20
7.461131944444443
 10
15.12699722222222
 20
7.452854166666665
 10
15.08971944444444
 20
7.440423611111109
 10
15.05037222222222
 20
7.430062499999999
 10
15.00483055555555
 20
7.415576388888887
 10
14.959275
 20
7.403145833333331
 10
14.90956666666666
 20
7.388645833333332
 10
14.86195555555555
 20
7.376229166666665
 10
14.81017777777777
 20
7.361729166666664
 10
14.76255277777777
 20
7.347243055555554
 10
14.71494166666666
 20
7.334812499999999
 10
14.66937222222222
 20
7.322395833333332
 10
14.6259
 20
7.309965277777776
 10
14.58655277777778
 20
7.299618055555554
 10
14.55134444444444
 20
7.291340277777776
 10
14.52237222222222
 20
7.28304861111111
 10
14.49751111111111
 20
7.276840277777777
 10
14.47888611111111
 20
7.272701388888887
 10
14.46853888888889
 20
7.270631944444443
 10
14.46645555555555
 20
7.270631944444443
 10
14.46024722222222
 20
7.26854861111111
  0
LWPOLYLINE
  5
3BE
330
2
100
AcDbEntity
  8
PDF_Layer 1
 62
     7
420
 16777215
370
    70
100
AcDbPolyline
 90
        2
 70
     0
 43
0.0
 10
15.22844166666667
 20
7.572937499999998
 10
15.22844166666667
 20
7.572937499999998
  0
LWPOLYLINE
  5
3BF
330
2
100
AcDbEntity
  8
PDF_Layer 1
 62
     7
420
 16777215
370
    70
100
AcDbPolyline
 90
       43
 70
     1
 43
0.0
 10
14.53892777777778
 20
7.291340277777776
 10
14.54306666666666
 20
7.291340277777776
 10
14.55342777777778
 20
7.29340972222222
 10
14.56998333333333
 20
7.297548611111109
 10
14.59069166666666
 20
7.303756944444443
 10
14.61967777777777
 20
7.309965277777776
 10
14.65074722222222
 20
7.318256944444443
 10
14.68801111111111
 20
7.328604166666664
 10
14.72735833333333
 20
7.338965277777776
 10
14.77084444444444
 20
7.351381944444442
 10
14.81431666666666
 20
7.363798611111109
 10
14.85987222222222
 20
7.376229166666665
 10
14.90335833333333
 20
7.388645833333332
 10
14.94684444444444
 20
7.401076388888887
 10
14.98824722222222
 20
7.413506944444443
 10
15.02759444444444
 20
7.423854166666665
 10
15.06280277777778
 20
7.434215277777775
 10
15.09178888888889
 20
7.442493055555553
 10
15.11663611111111
 20
7.450770833333331
 10
15.13526111111111
 20
7.456979166666665
 10
15.14769166666666
 20
7.461131944444443
 10
15.1539
 20
7.463201388888887
 10
15.1539
 20
7.465270833333331
 10
15.14769166666666
 20
7.463201388888887
 10
15.13526111111111
 20
7.461131944444443
 10
15.11663611111111
 20
7.456979166666665
 10
15.09178888888889
 20
7.448701388888887
 10
15.06073333333333
 20
7.442493055555553
 10
15.025525
 20
7.432131944444442
 10
14.98824722222222
 20
7.421784722222222
 10
14.94684444444444
 20
7.411437499999998
 10
14.90335833333333
 20
7.399006944444442
 10
14.85780277777777
 20
7.386590277777776
 10
14.81226111111111
 20
7.374159722222221
 10
14.768775
 20
7.361729166666664
 10
14.72735833333333
 20
7.349312499999998
 10
14.68594166666666
 20
7.336881944444442
 10
14.65074722222222
 20
7.326534722222221
 10
14.61760833333333
 20
7.316187499999998
 10
14.59069166666666
 20
7.307895833333332
 10
14.56791388888889
 20
7.301687499999998
 10
14.55342777777778
 20
7.297548611111109
 10
14.54306666666666
 20
7.29340972222222
  0
LWPOLYLINE
  5
3C9
330
2
100
AcDbEntity
  8
PDF_Layer 1
 62
     7
420
 16777215
370
    70
100
AcDbPolyline
 90
       13
 70
     0
 43
0.0
 10
11.65037222222222
 20
5.291104166666665
 10
11.64831666666666
 20
5.289020833333331
 10
11.62967777777778
 20
5.270381944444443
 10
11.61517777777778
 20
5.247618055555554
 10
11.60896944444444
 20
5.222770833333331
 10
11.60688611111111
 20
5.195840277777776
 10
11.61310833333333
 20
5.168937499999999
 10
11.625525
 20
5.142006944444442
 10
11.64210833333333
 20
5.11715972222222
 10
11.66487222222222
 20
5.096451388888887
 10
11.69180277777777
 20
5.077812499999999
 10
11.72078888888889
 20
5.065395833333332
 10
11.75184444444444
 20
5.057118055555554
  0
LWPOLYLINE
  5
3CA
330
2
100
AcDbEntity
  8
PDF_Layer 1
 62
     7
420
 16777215
370
    70
100
AcDbPolyline
 90
        4
 70
     0
 43
0.0
 10
11.63381666666666
 20
5.251756944444442
 10
11.62967777777778
 20
5.247618055555554
 10
11.61103888888889
 20
5.23103472222222
 10
11.60896944444444
 20
5.226895833333331
  0
LWPOLYLINE
  5
3CB
330
2
100
AcDbEntity
  8
PDF_Layer 1
 62
     7
420
 16777215
370
    70
100
AcDbPolyline
 90
       83
 70
     0
 43
0.0
 10
11.34184444444444
 20
4.222645833333332
 10
11.33978888888889
 20
4.218506944444443
 10
11.33978888888889
 20
4.214354166666665
 10
11.33771944444444
 20
4.212298611111109
 10
11.33563611111111
 20
4.208145833333332
 10
11.30665
 20
4.189506944444443
 10
11.27559444444444
 20
4.168812499999998
 10
11.24660833333333
 20
4.148104166666665
 10
11.21346944444444
 20
4.123256944444443
 10
11.18241388888889
 20
4.094270833333331
 10
11.178275
 20
4.112895833333332
 10
11.17206666666666
 20
4.13153472222222
 10
11.16585833333333
 20
4.152229166666665
 10
11.163775
 20
4.164659722222221
 10
11.15549722222222
 20
4.177090277777776
 10
11.11615
 20
4.125326388888887
 10
11.097525
 20
4.102534722222221
 10
11.09130277777778
 20
4.092187499999998
 10
11.08717777777778
 20
4.088048611111109
 10
11.09338611111111
 20
4.071479166666665
 10
11.097525
 20
4.061131944444443
 10
11.09959444444444
 20
4.050784722222221
 10
11.11408055555555
 20
4.054923611111109
 10
11.12444166666666
 20
4.063201388888887
 10
11.13478888888889
 20
4.06942361111111
 10
11.14928888888889
 20
4.079770833333332
 10
11.163775
 20
4.088048611111109
 10
11.18241388888889
 20
4.094270833333331
 10
11.19898333333333
 20
4.088048611111109
 10
11.21346944444444
 20
4.081840277777776
 10
11.25281666666666
 20
4.06942361111111
 10
11.28388611111111
 20
4.094270833333331
 10
11.31699722222222
 20
4.11703472222222
 10
11.35842777777777
 20
4.139812499999998
 10
11.38533055555555
 20
4.154312499999998
 10
11.41226111111111
 20
4.166729166666665
 10
11.39155277777778
 20
4.17915972222222
 10
11.37084444444444
 20
4.189506944444443
 10
11.33563611111111
 20
4.208145833333332
 10
11.29215
 20
4.235062499999998
 10
11.273525
 20
4.243354166666665
 10
11.25695555555555
 20
4.25578472222222
 10
11.23626111111111
 20
4.243354166666665
 10
11.21555277777777
 20
4.228854166666665
 10
11.19483055555555
 20
4.214354166666665
 10
11.15549722222222
 20
4.177090277777776
 10
11.14308055555555
 20
4.187451388888887
 10
11.12858055555555
 20
4.195715277777776
 10
11.09338611111111
 20
4.220562499999998
 10
11.05817777777778
 20
4.25578472222222
 10
11.03126111111111
 20
4.301326388888887
 10
11.02091388888889
 20
4.332381944444443
 10
11.01469166666666
 20
4.367576388888887
 10
11.01055277777778
 20
4.40692361111111
 10
11.00848333333333
 20
4.431770833333332
 10
11.00848333333333
 20
4.452493055555554
 10
11.00226111111111
 20
4.456618055555554
 10
10.99812222222222
 20
4.462840277777776
 10
10.99191388888889
 20
4.475256944444443
 10
10.987775
 20
4.512534722222221
 10
10.987775
 20
4.527034722222221
 10
10.98985833333333
 20
4.543590277777776
 10
11.00020555555555
 20
4.593284722222221
 10
11.01676111111111
 20
4.64504861111111
 10
11.03126111111111
 20
4.671965277777776
 10
11.04783055555556
 20
4.698895833333332
 10
11.07059444444444
 20
4.729951388888887
 10
11.05817777777778
 20
4.721659722222221
 10
11.0499
 20
4.715451388888888
 10
11.04160833333333
 20
4.711312499999999
 10
11.03126111111111
 20
4.70717361111111
 10
11.02091388888889
 20
4.705104166666665
 10
11.01262222222222
 20
4.711312499999999
 10
11.0499
 20
4.758937499999999
 10
11.08923333333333
 20
4.80242361111111
 10
11.12858055555555
 20
4.845909722222221
 10
11.15963611111111
 20
4.891465277777776
 10
11.18448333333333
 20
4.939090277777776
 10
11.20520555555555
 20
4.990840277777776
 10
11.2259
 20
5.034326388888887
 10
11.25903888888889
 20
5.038479166666665
 10
11.29423333333333
 20
5.04053472222222
 10
11.29837222222222
 20
5.04053472222222
  0
LWPOLYLINE
  5
3D3
330
2
100
AcDbEntity
  8
PDF_Layer 1
 62
     7
420
 16777215
370
    70
100
AcDbPolyline
 90
       38
 70
     0
 43
0.0
 10
11.47230277777778
 20
4.189506944444443
 10
11.47024722222222
 20
4.17915972222222
 10
11.46195555555555
 20
4.166729166666665
 10
11.44124722222222
 20
4.135673611111109
 10
11.4164
 20
4.108756944444443
 10
11.383275
 20
4.063201388888887
 10
11.30873333333333
 20
4.061131944444443
 10
11.25281666666666
 20
4.06942361111111
 10
11.23210833333333
 20
4.050784722222221
 10
11.21555277777777
 20
4.028006944444443
 10
11.19898333333333
 20
4.009368055555555
 10
11.19070555555555
 20
4.003159722222221
 10
11.18862222222222
 20
3.996951388888887
 10
11.22383055555555
 20
3.990743055555554
 10
11.26110833333333
 20
3.982451388888888
 10
11.31287222222222
 20
3.974159722222221
 10
11.36256666666666
 20
3.974159722222221
 10
11.36670555555555
 20
4.013506944444443
 10
11.383275
 20
4.063201388888887
 10
11.44331666666666
 20
4.077687499999998
 10
11.47024722222222
 20
4.088048611111109
 10
11.49509444444444
 20
4.098395833333332
 10
11.51994166666666
 20
4.106687499999998
 10
11.51578888888889
 20
4.13153472222222
 10
11.51578888888889
 20
4.146020833333332
 10
11.51371944444444
 20
4.156381944444443
 10
11.51371944444444
 20
4.166729166666665
 10
11.50335833333333
 20
4.164659722222221
 10
11.49509444444444
 20
4.164659722222221
 10
11.48473333333333
 20
4.164659722222221
 10
11.46195555555555
 20
4.166729166666665
 10
11.435025
 20
4.166729166666665
 10
11.42260833333333
 20
4.166729166666665
 10
11.41226111111111
 20
4.166729166666665
 10
11.41846944444444
 20
4.175020833333332
 10
11.42260833333333
 20
4.183298611111109
 10
11.42467777777778
 20
4.191576388888887
 10
11.42676111111111
 20
4.195715277777776
  0
LWPOLYLINE
  5
3D9
330
2
100
AcDbEntity
  8
PDF_Layer 1
 62
     7
420
 16777215
370
    70
100
AcDbPolyline
 90
       32
 70
     1
 43
0.0
 10
11.35634444444444
 20
3.804381944444443
 10
11.40605277777777
 20
3.81679861111111
 10
11.435025
 20
3.827145833333332
 10
11.45160833333333
 20
3.833354166666665
 10
11.46816388888889
 20
3.837493055555554
 10
11.47645555555555
 20
3.889270833333332
 10
11.48680277777778
 20
3.936895833333332
 10
11.49923333333333
 20
3.974159722222221
 10
11.51371944444444
 20
4.013506944444443
 10
11.52408055555555
 20
4.046631944444443
 10
11.53649722222222
 20
4.044576388888888
 10
11.54892777777777
 20
4.040423611111109
 10
11.57998333333333
 20
4.030076388888888
 10
11.61517777777778
 20
4.023854166666665
 10
11.65037222222222
 20
4.023854166666665
 10
11.654525
 20
4.046631944444443
 10
11.65659444444444
 20
4.067340277777776
 10
11.66487222222222
 20
4.121173611111109
 10
11.62760833333333
 20
4.112895833333332
 10
11.58619166666666
 20
4.108756944444443
 10
11.55305277777777
 20
4.106687499999998
 10
11.51994166666666
 20
4.106687499999998
 10
11.52408055555555
 20
4.073548611111109
 10
11.52408055555555
 20
4.065270833333332
 10
11.52615
 20
4.056993055555555
 10
11.52408055555555
 20
4.046631944444443
 10
11.49923333333333
 20
4.040423611111109
 10
11.47230277777778
 20
4.030076388888888
 10
11.43296944444444
 20
4.005229166666666
 10
11.39983055555555
 20
3.984520833333332
 10
11.36256666666666
 20
3.974159722222221
 10
11.35842777777777
 20
3.880979166666665
  0
LWPOLYLINE
  5
3E0
330
2
100
AcDbEntity
  8
PDF_Layer 1
 62
     7
420
 16777215
370
    70
100
AcDbPolyline
 90
       34
 70
     0
 43
0.0
 10
11.38741388888889
 20
3.576604166666665
 10
11.39983055555555
 20
3.576604166666665
 10
11.40812222222222
 20
3.576604166666665
 10
11.41226111111111
 20
3.576604166666665
 10
11.41433055555555
 20
3.580743055555554
 10
11.4164
 20
3.586951388888888
 10
11.41846944444444
 20
3.595243055555554
 10
11.43917777777778
 20
3.647006944444443
 10
11.45574722222222
 20
3.700840277777776
 10
11.464025
 20
3.771243055555554
 10
11.46816388888889
 20
3.837493055555554
 10
11.50335833333333
 20
3.831284722222221
 10
11.53858055555555
 20
3.820937499999999
 10
11.57998333333333
 20
3.812645833333332
 10
11.62138611111111
 20
3.810590277777776
 10
11.62138611111111
 20
3.858215277777776
 10
11.62760833333333
 20
3.907909722222221
 10
11.63795555555555
 20
3.967951388888888
 10
11.65037222222222
 20
4.023854166666665
 10
11.70006666666666
 20
4.023854166666665
 10
11.75391388888889
 20
4.025937499999999
 10
11.75805277777778
 20
4.056993055555555
 10
11.76219166666666
 20
4.088048611111109
 10
11.76634444444444
 20
4.112895833333332
 10
11.77048333333333
 20
4.135673611111109
 10
11.77669166666666
 20
4.164659722222221
 10
11.75805277777778
 20
4.154312499999998
 10
11.73941388888889
 20
4.143965277777776
 10
11.71870555555555
 20
4.135673611111109
 10
11.66487222222222
 20
4.121173611111109
 10
11.66487222222222
 20
4.162604166666665
 10
11.66487222222222
 20
4.17915972222222
 10
11.66073333333333
 20
4.197798611111109
 10
11.65866388888889
 20
4.206076388888887
  0
LWPOLYLINE
  5
3E6
330
2
100
AcDbEntity
  8
PDF_Layer 1
 62
     7
420
 16777215
370
    70
100
AcDbPolyline
 90
       15
 70
     0
 43
0.0
 10
11.11615
 20
4.400715277777776
 10
11.11408055555555
 20
4.398645833333332
 10
11.10373333333333
 20
4.388298611111109
 10
11.08923333333333
 20
4.37379861111111
 10
11.06853888888889
 20
4.346881944444443
 10
11.03126111111111
 20
4.301326388888887
 10
10.99812222222222
 20
4.270270833333332
 10
10.98362222222222
 20
4.261993055555554
 10
10.96913611111111
 20
4.253701388888887
 10
10.98156666666666
 20
4.210215277777776
 10
10.99812222222222
 20
4.170868055555554
 10
11.01884444444444
 20
4.135673611111109
 10
11.05610833333333
 20
4.100479166666665
 10
11.07267777777777
 20
4.092187499999998
 10
11.08717777777778
 20
4.088048611111109
  0
LWPOLYLINE
  5
3E8
330
2
100
AcDbEntity
  8
PDF_Layer 1
 62
     7
420
 16777215
370
    70
100
AcDbPolyline
 90
       26
 70
     0
 43
0.0
 10
11.18241388888889
 20
4.094270833333331
 10
11.17413611111111
 20
4.077687499999998
 10
11.16792777777777
 20
4.061131944444443
 10
11.16171944444444
 20
4.044576388888888
 10
11.15549722222222
 20
4.025937499999999
 10
11.14721944444444
 20
4.003159722222221
 10
11.15756666666666
 20
4.003159722222221
 10
11.163775
 20
4.001090277777777
 10
11.17206666666666
 20
3.999006944444443
 10
11.178275
 20
3.996951388888887
 10
11.18862222222222
 20
3.996951388888887
 10
11.192775
 20
3.980368055555554
 10
11.20105277777778
 20
3.963812499999999
 10
11.21346944444444
 20
3.936895833333332
 10
11.23210833333333
 20
3.889270833333332
 10
11.2404
 20
3.841645833333332
 10
11.2404
 20
3.794006944444443
 10
11.23831666666666
 20
3.731909722222221
 10
11.23005277777777
 20
3.669784722222221
 10
11.21555277777777
 20
3.622145833333332
 10
11.19070555555555
 20
3.584881944444443
 10
11.21555277777777
 20
3.582812499999999
 10
11.2404
 20
3.582812499999999
 10
11.30458055555555
 20
3.582812499999999
 10
11.29423333333333
 20
3.576604166666665
 10
11.28801111111111
 20
3.576604166666665
  0
LWPOLYLINE
  5
3EF
330
2
100
AcDbEntity
  8
PDF_Layer 1
 62
     7
420
 16777215
370
    70
100
AcDbPolyline
 90
       76
 70
     0
 43
0.0
 10
10.93187222222222
 20
4.42142361111111
 10
10.92358055555555
 20
4.415215277777776
 10
10.91737222222222
 20
4.404854166666665
 10
10.90909444444444
 20
4.394506944444443
 10
10.90081666666667
 20
4.386215277777776
 10
10.88838611111111
 20
4.37379861111111
 10
10.87803888888889
 20
4.367576388888887
 10
10.86767777777778
 20
4.367576388888887
 10
10.86146944444444
 20
4.348951388888887
 10
10.85733055555555
 20
4.332381944444443
 10
10.85319166666667
 20
4.317895833333332
 10
10.84903888888889
 20
4.301326388888887
 10
10.84076111111111
 20
4.274409722222221
 10
10.83869166666666
 20
4.266131944444443
 10
10.83869166666666
 20
4.259909722222221
 10
10.84283055555555
 20
4.257840277777776
 10
10.85110833333333
 20
4.257840277777776
 10
10.8594
 20
4.259909722222221
 10
10.87388611111111
 20
4.266131944444443
 10
10.88217777777777
 20
4.272340277777776
 10
10.89045555555555
 20
4.274409722222221
 10
10.86767777777778
 20
4.19365972222222
 10
10.85733055555555
 20
4.164659722222221
 10
10.84698333333333
 20
4.135673611111109
 10
10.86353888888889
 20
4.133604166666665
 10
10.87803888888889
 20
4.123256944444443
 10
10.89045555555555
 20
4.112895833333332
 10
10.90494166666666
 20
4.102534722222221
 10
10.91944166666666
 20
4.094270833333331
 10
10.92566388888889
 20
4.104618055555554
 10
10.93601111111111
 20
4.125326388888887
 10
10.95258055555555
 20
4.170868055555554
 10
10.97535833333333
 20
4.135673611111109
 10
11.00226111111111
 20
4.100479166666665
 10
11.03126111111111
 20
4.075631944444443
 10
11.06231666666666
 20
4.059048611111109
 10
11.09959444444444
 20
4.050784722222221
 10
11.10373333333333
 20
4.040423611111109
 10
11.10787222222222
 20
4.032145833333331
 10
11.10994166666666
 20
4.02179861111111
 10
11.112025
 20
4.017645833333332
 10
11.11408055555555
 20
4.013506944444443
 10
11.11408055555555
 20
4.011437499999999
 10
11.12237222222222
 20
4.009368055555555
 10
11.13065
 20
4.00729861111111
 10
11.13892777777778
 20
4.005229166666666
 10
11.14721944444444
 20
4.003159722222221
 10
11.13892777777778
 20
3.963812499999999
 10
11.13478888888889
 20
3.924465277777776
 10
11.13478888888889
 20
3.883062499999999
 10
11.13065
 20
3.835437499999999
 10
11.11823333333333
 20
3.78779861111111
 10
11.14513611111111
 20
3.789881944444443
 10
11.17206666666666
 20
3.794006944444443
 10
11.2404
 20
3.794006944444443
 10
11.29009444444444
 20
3.796090277777776
 10
11.35634444444444
 20
3.804381944444443
 10
11.35013611111111
 20
3.74017361111111
 10
11.33771944444444
 20
3.675993055555554
 10
11.32735833333333
 20
3.640784722222221
 10
11.31699722222222
 20
3.609729166666665
 10
11.30458055555555
 20
3.582812499999999
 10
11.354275
 20
3.584881944444443
 10
11.383275
 20
3.589034722222221
 10
11.39569166666666
 20
3.591090277777777
 10
11.40605277777777
 20
3.595243055555554
 10
11.41846944444444
 20
3.595243055555554
 10
11.45574722222222
 20
3.586951388888888
 10
11.49715
 20
3.582812499999999
 10
11.53858055555555
 20
3.582812499999999
 10
11.59033055555555
 20
3.582812499999999
 10
11.63795555555555
 20
3.582812499999999
 10
11.68765
 20
3.584881944444443
 10
11.67937222222222
 20
3.57867361111111
 10
11.67316388888889
 20
3.576604166666665
 10
11.66695555555555
 20
3.576604166666665
  0
LWPOLYLINE
  5
3F6
330
2
100
AcDbEntity
  8
PDF_Layer 1
 62
     7
420
 16777215
370
    70
100
AcDbPolyline
 90
       71
 70
     0
 43
0.0
 10
11.71044166666666
 20
3.847854166666665
 10
11.71665
 20
3.837493055555554
 10
11.72492777777778
 20
3.823006944444443
 10
11.73528888888889
 20
3.810590277777776
 10
11.75184444444444
 20
3.78779861111111
 10
11.77255277777778
 20
3.769159722222221
 10
11.75805277777778
 20
3.713270833333332
 10
11.73734444444444
 20
3.661493055555554
 10
11.72492777777778
 20
3.634576388888887
 10
11.71044166666666
 20
3.609729166666665
 10
11.68765
 20
3.584881944444443
 10
11.67730277777778
 20
3.613881944444443
 10
11.66695555555555
 20
3.644937499999999
 10
11.654525
 20
3.678062499999998
 10
11.63381666666666
 20
3.742256944444443
 10
11.62138611111111
 20
3.810590277777776
 10
11.66487222222222
 20
3.820937499999999
 10
11.68144166666666
 20
3.829229166666665
 10
11.69801111111111
 20
3.837493055555554
 10
11.71044166666666
 20
3.847854166666665
 10
11.71456666666666
 20
3.870631944444443
 10
11.72078888888889
 20
3.897562499999999
 10
11.72699722222222
 20
3.926534722222221
 10
11.73941388888889
 20
3.976243055555554
 10
11.75391388888889
 20
4.025937499999999
 10
11.78498333333333
 20
4.025937499999999
 10
11.79946944444444
 20
4.017645833333332
 10
11.81188611111111
 20
4.003159722222221
 10
11.82638611111111
 20
3.976243055555554
 10
11.83467777777778
 20
3.95967361111111
 10
11.84088611111111
 20
3.949312499999999
 10
11.845025
 20
3.943104166666665
 10
11.84916388888889
 20
3.955520833333332
 10
11.85537222222222
 20
3.974159722222221
 10
11.859525
 20
3.990743055555554
 10
11.86366388888889
 20
4.00729861111111
 10
11.86780277777778
 20
4.023854166666665
 10
11.87192777777777
 20
4.038354166666665
 10
11.87401111111111
 20
4.056993055555555
 10
11.86987222222222
 20
4.073548611111109
 10
11.86366388888889
 20
4.088048611111109
 10
11.859525
 20
4.098395833333332
 10
11.845025
 20
4.127381944444443
 10
11.859525
 20
4.199868055555554
 10
11.86987222222222
 20
4.293048611111109
 10
11.86366388888889
 20
4.317895833333332
 10
11.859525
 20
4.344812499999998
 10
11.845025
 20
4.290979166666665
 10
11.82431666666666
 20
4.24128472222222
 10
11.81188611111111
 20
4.214354166666665
 10
11.79533055555555
 20
4.191576388888887
 10
11.77669166666666
 20
4.164659722222221
 10
11.79119166666666
 20
4.160520833333332
 10
11.80362222222222
 20
4.158451388888887
 10
11.81396944444444
 20
4.152229166666665
 10
11.845025
 20
4.127381944444443
 10
11.82638611111111
 20
4.056993055555555
 10
11.81809444444444
 20
4.030076388888888
 10
11.81188611111111
 20
4.003159722222221
 10
11.7974
 20
3.938965277777776
 10
11.78703888888889
 20
3.872701388888888
 10
11.78083055555555
 20
3.820937499999999
 10
11.77255277777778
 20
3.769159722222221
 10
11.79324722222222
 20
3.760895833333332
 10
11.81603888888889
 20
3.758812499999999
 10
11.83881666666666
 20
3.756743055555554
 10
11.86158055555555
 20
3.758812499999999
 10
11.84916388888889
 20
3.839576388888887
 10
11.845025
 20
3.874770833333332
 10
11.845025
 20
3.909979166666665
 10
11.845025
 20
3.943104166666665
  0
LWPOLYLINE
  5
3F8
330
2
100
AcDbEntity
  8
PDF_Layer 1
 62
     7
420
 16777215
370
    70
100
AcDbPolyline
 90
       36
 70
     0
 43
0.0
 10
11.05195555555555
 20
4.593284722222221
 10
11.04783055555556
 20
4.591215277777776
 10
11.0354
 20
4.572576388888887
 10
11.01676111111111
 20
4.539451388888887
 10
11.00226111111111
 20
4.510451388888887
 10
10.99191388888889
 20
4.475256944444443
 10
10.98156666666666
 20
4.417270833333332
 10
10.973275
 20
4.357229166666665
 10
10.97121944444444
 20
4.324104166666665
 10
10.96913611111111
 20
4.290979166666665
 10
10.96913611111111
 20
4.253701388888887
 10
10.96501111111111
 20
4.237145833333332
 10
10.96292777777778
 20
4.222645833333332
 10
10.96085833333333
 20
4.206076388888887
 10
10.95258055555555
 20
4.170868055555554
 10
10.93187222222222
 20
4.206076388888887
 10
10.91323333333333
 20
4.235062499999998
 10
10.90494166666666
 20
4.249562499999998
 10
10.89873333333333
 20
4.264048611111109
 10
10.89045555555555
 20
4.274409722222221
 10
10.90909444444444
 20
4.336520833333332
 10
10.91737222222222
 20
4.363437499999998
 10
10.92358055555555
 20
4.39242361111111
 10
10.93187222222222
 20
4.42142361111111
 10
10.92978888888889
 20
4.45454861111111
 10
10.92773333333333
 20
4.48354861111111
 10
10.93187222222222
 20
4.518743055555554
 10
10.94016388888889
 20
4.562229166666665
 10
10.95465
 20
4.609854166666665
 10
10.97741388888889
 20
4.65954861111111
 10
11.01262222222222
 20
4.711312499999999
 10
11.04783055555556
 20
4.746520833333332
 10
11.08095555555555
 20
4.775493055555554
 10
11.11615
 20
4.80242361111111
 10
11.15342777777778
 20
4.827270833333332
 10
11.16171944444444
 20
4.831409722222221
  0
LWPOLYLINE
  5
3FE
330
2
100
AcDbEntity
  8
PDF_Layer 1
 62
     7
420
 16777215
370
    70
100
AcDbPolyline
 90
       28
 70
     0
 43
0.0
 10
11.14721944444444
 20
4.003159722222221
 10
11.11408055555555
 20
3.963812499999999
 10
11.07680277777777
 20
3.932756944444443
 10
11.0354
 20
3.907909722222221
 10
10.98156666666666
 20
3.885131944444443
 10
10.92978888888889
 20
3.868562499999999
 10
10.87388611111111
 20
3.854076388888888
 10
10.82005277777778
 20
3.845784722222221
 10
10.79520555555555
 20
3.839576388888887
 10
10.76828888888889
 20
3.829229166666665
 10
10.74137222222222
 20
3.814729166666665
 10
10.75792777777778
 20
3.84992361111111
 10
10.77449722222222
 20
3.87892361111111
 10
10.79106666666666
 20
3.907909722222221
 10
10.80763611111111
 20
3.949312499999999
 10
10.81798333333333
 20
3.99279861111111
 10
10.82626111111111
 20
4.032145833333331
 10
10.81798333333333
 20
4.030076388888888
 10
10.80763611111111
 20
4.023854166666665
 10
10.79106666666666
 20
4.017645833333332
 10
10.76621944444444
 20
4.015590277777777
 10
10.74758055555555
 20
4.02179861111111
 10
10.73308055555555
 20
4.03628472222222
 10
10.74137222222222
 20
4.050784722222221
 10
10.74965
 20
4.065270833333332
 10
10.75585833333333
 20
4.075631944444443
 10
10.76206666666666
 20
4.085979166666665
 10
10.76621944444444
 20
4.094270833333331
  0
LWPOLYLINE
  5
3FF
330
2
100
AcDbEntity
  8
PDF_Layer 1
 62
     7
420
 16777215
370
    70
100
AcDbPolyline
 90
       29
 70
     0
 43
0.0
 10
11.18241388888889
 20
3.576604166666665
 10
11.18448333333333
 20
3.574534722222221
 10
11.18656666666666
 20
3.576604166666665
 10
11.18656666666666
 20
3.580743055555554
 10
11.19070555555555
 20
3.584881944444443
 10
11.13065
 20
3.580743055555554
 10
11.07059444444444
 20
3.580743055555554
 10
10.97741388888889
 20
3.580743055555554
 10
10.987775
 20
3.595243055555554
 10
11.00226111111111
 20
3.61179861111111
 10
11.02296944444444
 20
3.636645833333332
 10
11.04369166666666
 20
3.663576388888888
 10
11.08509444444444
 20
3.72154861111111
 10
11.11823333333333
 20
3.78779861111111
 10
11.05403888888889
 20
3.775381944444443
 10
10.98985833333333
 20
3.762951388888887
 10
10.94221944444444
 20
3.75467361111111
 10
10.89667777777778
 20
3.750534722222221
 10
10.91323333333333
 20
3.80229861111111
 10
10.92978888888889
 20
3.868562499999999
 10
10.94016388888889
 20
3.91204861111111
 10
10.94428888888889
 20
3.938965277777776
 10
10.94842777777778
 20
3.965881944444443
 10
10.98570555555555
 20
3.970020833333332
 10
11.02296944444444
 20
3.978312499999999
 10
11.04574722222222
 20
3.986590277777776
 10
11.07059444444444
 20
3.994868055555554
 10
11.09338611111111
 20
4.005229166666666
 10
11.11408055555555
 20
4.011437499999999
  0
LWPOLYLINE
  5
403
330
2
100
AcDbEntity
  8
PDF_Layer 1
 62
     7
420
 16777215
370
    70
100
AcDbPolyline
 90
       10
 70
     0
 43
0.0
 10
11.09959444444444
 20
4.050784722222221
 10
11.06645555555555
 20
4.044576388888888
 10
11.03746944444444
 20
4.038354166666665
 10
11.00848333333333
 20
4.028006944444443
 10
10.97535833333333
 20
4.019715277777776
 10
10.94221944444444
 20
4.017645833333332
 10
10.93187222222222
 20
4.052840277777776
 10
10.92773333333333
 20
4.067340277777776
 10
10.92358055555555
 20
4.081840277777776
 10
10.91944166666666
 20
4.094270833333331
  0
LWPOLYLINE
  5
406
330
2
100
AcDbEntity
  8
PDF_Layer 1
 62
     7
420
 16777215
370
    70
100
AcDbPolyline
 90
       16
 70
     1
 43
0.0
 10
10.83660833333333
 20
4.085979166666665
 10
10.84903888888889
 20
4.075631944444443
 10
10.86146944444444
 20
4.061131944444443
 10
10.87388611111111
 20
4.048701388888887
 10
10.90494166666666
 20
4.028006944444443
 10
10.94221944444444
 20
4.017645833333332
 10
10.94842777777778
 20
3.988659722222221
 10
10.94842777777778
 20
3.965881944444443
 10
10.90494166666666
 20
3.967951388888888
 10
10.86560833333333
 20
3.982451388888888
 10
10.84076111111111
 20
4.011437499999999
 10
10.83455277777777
 20
4.023854166666665
 10
10.82626111111111
 20
4.032145833333331
 10
10.82834444444444
 20
4.042493055555554
 10
10.8304
 20
4.050784722222221
 10
10.8304
 20
4.056993055555555
  0
LWPOLYLINE
  5
417
330
2
100
AcDbEntity
  8
PDF_Layer 1
 62
     7
420
 16777215
370
    70
100
AcDbPolyline
 90
       14
 70
     0
 43
0.0
 10
11.05195555555555
 20
4.626409722222221
 10
11.04574722222222
 20
4.620201388888887
 10
11.02505277777777
 20
4.599506944444443
 10
10.98985833333333
 20
4.543590277777776
 10
10.96501111111111
 20
4.491826388888887
 10
10.95465
 20
4.46904861111111
 10
10.94428888888889
 20
4.448340277777776
 10
10.93187222222222
 20
4.42142361111111
 10
10.93601111111111
 20
4.404854166666665
 10
10.93808055555555
 20
4.382076388888887
 10
10.94221944444444
 20
4.361368055555554
 10
10.94637222222222
 20
4.338590277777776
 10
10.95671944444444
 20
4.299256944444443
 10
10.96913611111111
 20
4.253701388888887
  0
LWPOLYLINE
  5
419
330
2
100
AcDbEntity
  8
PDF_Layer 1
 62
     7
420
 16777215
370
    70
100
AcDbPolyline
 90
       46
 70
     0
 43
0.0
 10
10.98570555555555
 20
3.576604166666665
 10
10.98156666666666
 20
3.576604166666665
 10
10.97949722222222
 20
3.576604166666665
 10
10.97741388888889
 20
3.576604166666665
 10
10.97535833333333
 20
3.576604166666665
 10
10.97741388888889
 20
3.580743055555554
 10
10.921525
 20
3.580743055555554
 10
10.86974722222222
 20
3.582812499999999
 10
10.82834444444444
 20
3.582812499999999
 10
10.79313611111111
 20
3.584881944444443
 10
10.80555277777778
 20
3.603520833333332
 10
10.82213611111111
 20
3.62629861111111
 10
10.83869166666666
 20
3.651145833333332
 10
10.86974722222222
 20
3.698770833333332
 10
10.89667777777778
 20
3.750534722222221
 10
10.82419166666666
 20
3.744326388888888
 10
10.79313611111111
 20
3.742256944444443
 10
10.78278888888889
 20
3.74017361111111
 10
10.77449722222222
 20
3.738118055555554
 10
10.77035833333333
 20
3.746395833333332
 10
10.76415
 20
3.758812499999999
 10
10.76001111111111
 20
3.769159722222221
 10
10.75171944444444
 20
3.783659722222221
 10
10.74551111111111
 20
3.798159722222221
 10
10.74137222222222
 20
3.814729166666665
 10
10.72066388888889
 20
3.829229166666665
 10
10.70409444444444
 20
3.841645833333332
 10
10.68960833333333
 20
3.854076388888888
 10
10.66062222222222
 20
3.887187499999999
 10
10.67512222222222
 20
3.922409722222221
 10
10.69167777777777
 20
3.955520833333332
 10
10.71237222222222
 20
3.996951388888887
 10
10.73308055555555
 20
4.03628472222222
 10
10.72687222222222
 20
4.052840277777776
 10
10.72480277777778
 20
4.075631944444443
 10
10.72687222222222
 20
4.098395833333332
 10
10.73101111111111
 20
4.125326388888887
 10
10.75171944444444
 20
4.152229166666665
 10
10.76001111111111
 20
4.162604166666665
 10
10.76828888888889
 20
4.168812499999998
 10
10.77449722222222
 20
4.168812499999998
 10
10.79106666666666
 20
4.191576388888887
 10
10.80555277777778
 20
4.212298611111109
 10
10.81591388888889
 20
4.228854166666665
 10
10.82834444444444
 20
4.245409722222221
 10
10.83869166666666
 20
4.259909722222221
  0
LWPOLYLINE
  5
42B
330
2
100
AcDbEntity
  8
PDF_Layer 1
 62
     7
420
 16777215
370
    70
100
AcDbPolyline
 90
       19
 70
     1
 43
0.0
 10
10.76621944444444
 20
4.094270833333331
 10
10.76621944444444
 20
4.102534722222221
 10
10.76828888888889
 20
4.112895833333332
 10
10.76828888888889
 20
4.123256944444443
 10
10.77035833333333
 20
4.137756944444443
 10
10.77242777777777
 20
4.152229166666665
 10
10.77449722222222
 20
4.168812499999998
 10
10.78278888888889
 20
4.141881944444443
 10
10.79520555555555
 20
4.125326388888887
 10
10.82005277777778
 20
4.125326388888887
 10
10.84698333333333
 20
4.135673611111109
 10
10.8449
 20
4.119118055555554
 10
10.84076111111111
 20
4.106687499999998
 10
10.83660833333333
 20
4.085979166666665
 10
10.82419166666666
 20
4.08390972222222
 10
10.80970555555555
 20
4.079770833333332
 10
10.79106666666666
 20
4.079770833333332
 10
10.78070555555555
 20
4.081840277777776
 10
10.77242777777777
 20
4.088048611111109
  0
LWPOLYLINE
  5
42E
330
2
100
AcDbEntity
  8
PDF_Layer 1
 62
     7
420
 16777215
370
    70
100
AcDbPolyline
 90
       13
 70
     0
 43
0.0
 10
10.79934444444444
 20
3.576604166666665
 10
10.79313611111111
 20
3.576604166666665
 10
10.79106666666666
 20
3.57867361111111
 10
10.79106666666666
 20
3.580743055555554
 10
10.79313611111111
 20
3.584881944444443
 10
10.77242777777777
 20
3.584881944444443
 10
10.75585833333333
 20
3.582812499999999
 10
10.72895555555555
 20
3.582812499999999
 10
10.73101111111111
 20
3.61179861111111
 10
10.74137222222222
 20
3.653215277777776
 10
10.75585833333333
 20
3.692562499999999
 10
10.76415
 20
3.717409722222221
 10
10.77449722222222
 20
3.738118055555554
  0
LWPOLYLINE
  5
436
330
2
100
AcDbEntity
  8
PDF_Layer 1
 62
     7
420
 16777215
370
    70
100
AcDbPolyline
 90
       27
 70
     0
 43
0.0
 10
11.84916388888889
 20
3.576604166666665
 10
11.85330277777778
 20
3.576604166666665
 10
11.86573333333333
 20
3.580743055555554
 10
11.89885833333333
 20
3.582812499999999
 10
11.92163611111111
 20
3.582812499999999
 10
11.92991388888889
 20
3.599381944444443
 10
11.93613611111111
 20
3.622145833333332
 10
11.93820555555555
 20
3.682215277777777
 10
11.93405277777777
 20
3.727756944444443
 10
11.92991388888889
 20
3.773312499999998
 10
11.92370555555555
 20
3.823006944444443
 10
11.91956666666666
 20
3.812645833333332
 10
11.91335833333333
 20
3.804381944444443
 10
11.90715
 20
3.796090277777776
 10
11.89885833333333
 20
3.78779861111111
 10
11.88230277777778
 20
3.773312499999998
 10
11.86158055555555
 20
3.758812499999999
 10
11.87192777777777
 20
3.717409722222221
 10
11.88021944444444
 20
3.671854166666665
 10
11.88230277777778
 20
3.624229166666665
 10
11.87815
 20
3.599381944444443
 10
11.86573333333333
 20
3.580743055555554
 10
11.82638611111111
 20
3.580743055555554
 10
11.77876111111111
 20
3.580743055555554
 10
11.749775
 20
3.580743055555554
 10
11.72078888888889
 20
3.582812499999999
 10
11.68765
 20
3.584881944444443
  0
LWPOLYLINE
  5
43F
330
2
100
AcDbEntity
  8
PDF_Layer 1
 62
     7
420
 16777215
370
    70
100
AcDbPolyline
 90
       27
 70
     0
 43
0.0
 10
11.89265
 20
4.127381944444443
 10
11.89678888888889
 20
4.110826388888887
 10
11.90092777777778
 20
4.094270833333331
 10
11.90506666666666
 20
4.077687499999998
 10
11.90920555555555
 20
4.052840277777776
 10
11.91335833333333
 20
4.02179861111111
 10
11.91541388888889
 20
3.984520833333332
 10
11.91749722222222
 20
3.949312499999999
 10
11.91956666666666
 20
3.91204861111111
 10
11.92163611111111
 20
3.885131944444443
 10
11.92370555555555
 20
3.856131944444443
 10
11.92370555555555
 20
3.823006944444443
 10
11.91541388888889
 20
3.860284722222221
 10
11.90920555555555
 20
3.893409722222221
 10
11.90092777777778
 20
3.926534722222221
 10
11.89058055555555
 20
3.967951388888888
 10
11.88021944444444
 20
4.011437499999999
 10
11.87401111111111
 20
4.056993055555555
 10
11.87608055555555
 20
4.104618055555554
 10
11.87815
 20
4.148104166666665
 10
11.87815
 20
4.204006944444443
 10
11.87815
 20
4.259909722222221
 10
11.87608055555555
 20
4.264048611111109
 10
11.87401111111111
 20
4.274409722222221
 10
11.86987222222222
 20
4.293048611111109
 10
11.87401111111111
 20
4.380006944444443
 10
11.87401111111111
 20
4.413145833333332
  0
LWPOLYLINE
  5
441
330
2
100
AcDbEntity
  8
PDF_Layer 1
 62
     7
420
 16777215
370
    70
100
AcDbPolyline
 90
       14
 70
     0
 43
0.0
 10
10.73721944444444
 20
3.576604166666665
 10
10.73308055555555
 20
3.576604166666665
 10
10.72895555555555
 20
3.576604166666665
 10
10.72895555555555
 20
3.57867361111111
 10
10.72895555555555
 20
3.582812499999999
 10
10.69373333333333
 20
3.584881944444443
 10
10.66683055555555
 20
3.586951388888888
 10
10.66269166666667
 20
3.618020833333332
 10
10.66683055555555
 20
3.655284722222221
 10
10.67512222222222
 20
3.692562499999999
 10
10.687525
 20
3.725701388888888
 10
10.702025
 20
3.756743055555554
 10
10.72066388888889
 20
3.785743055555554
 10
10.74137222222222
 20
3.814729166666665
  0
LWPOLYLINE
  5
449
330
2
100
AcDbEntity
  8
PDF_Layer 1
 62
     7
420
 16777215
370
    70
100
AcDbPolyline
 90
        2
 70
     0
 43
0.0
 10
10.67096944444444
 20
3.576604166666665
 10
10.68133055555555
 20
3.576604166666665
  0
LWPOLYLINE
  5
44A
330
2
100
AcDbEntity
  8
PDF_Layer 1
 62
     7
420
 16777215
370
    70
100
AcDbPolyline
 90
       34
 70
     0
 43
0.0
 10
10.81798333333333
 20
4.435909722222221
 10
10.81384444444444
 20
4.423493055555554
 10
10.80555277777778
 20
4.398645833333332
 10
10.79313611111111
 20
4.363437499999998
 10
10.78278888888889
 20
4.322034722222221
 10
10.77242777777777
 20
4.282687499999998
 10
10.75792777777778
 20
4.228854166666665
 10
10.74344166666666
 20
4.175020833333332
 10
10.73101111111111
 20
4.125326388888887
 10
10.71031666666667
 20
4.094270833333331
 10
10.687525
 20
4.056993055555555
 10
10.67512222222222
 20
4.03628472222222
 10
10.66269166666667
 20
4.015590277777777
 10
10.64819166666667
 20
3.988659722222221
 10
10.64198333333333
 20
3.963812499999999
 10
10.64198333333333
 20
3.947256944444443
 10
10.64198333333333
 20
3.932756944444443
 10
10.64819166666667
 20
3.907909722222221
 10
10.66062222222222
 20
3.887187499999999
 10
10.64198333333333
 20
3.829229166666665
 10
10.62541388888889
 20
3.773312499999998
 10
10.61091388888889
 20
3.715326388888887
 10
10.60470555555555
 20
3.675993055555554
 10
10.60263611111111
 20
3.638729166666665
 10
10.60678888888889
 20
3.609729166666665
 10
10.61505277777778
 20
3.584881944444443
 10
10.64405277777778
 20
3.584881944444443
 10
10.66683055555555
 20
3.586951388888888
 10
10.6689
 20
3.582812499999999
 10
10.6689
 20
3.57867361111111
 10
10.67096944444444
 20
3.57867361111111
 10
10.67303888888889
 20
3.576604166666665
 10
10.68133055555555
 20
3.574534722222221
 10
10.68338611111111
 20
3.574534722222221
  0
LWPOLYLINE
  5
451
330
2
100
AcDbEntity
  8
PDF_Layer 1
 62
     7
420
 16777215
370
    70
100
AcDbPolyline
 90
        6
 70
     0
 43
0.0
 10
10.77449722222222
 20
4.168812499999998
 10
10.78070555555555
 20
4.208145833333332
 10
10.78899722222222
 20
4.249562499999998
 10
10.79934444444444
 20
4.290979166666665
 10
10.81176111111111
 20
4.340673611111109
 10
10.82213611111111
 20
4.390368055555554
  0
LWPOLYLINE
  5
452
330
2
100
AcDbEntity
  8
PDF_Layer 1
 62
     7
420
 16777215
370
    70
100
AcDbPolyline
 90
       21
 70
     0
 43
0.0
 10
11.87401111111111
 20
4.056993055555555
 10
11.87815
 20
4.06942361111111
 10
11.88230277777778
 20
4.081840277777776
 10
11.88435833333333
 20
4.092187499999998
 10
11.88851111111111
 20
4.108756944444443
 10
11.89058055555555
 20
4.119118055555554
 10
11.89265
 20
4.127381944444443
 10
11.89265
 20
4.13153472222222
 10
11.89265
 20
4.135673611111109
 10
11.89265
 20
4.152229166666665
 10
11.89471944444444
 20
4.191576388888887
 10
11.89471944444444
 20
4.220562499999998
 10
11.89471944444444
 20
4.251631944444443
 10
11.89471944444444
 20
4.284756944444443
 10
11.89058055555555
 20
4.282687499999998
 10
11.88851111111111
 20
4.278548611111109
 10
11.88642777777777
 20
4.270270833333332
 10
11.87815
 20
4.259909722222221
 10
11.87815
 20
4.311687499999998
 10
11.87815
 20
4.363437499999998
 10
11.87608055555555
 20
4.413145833333332
  0
LWPOLYLINE
  5
453
330
2
100
AcDbEntity
  8
PDF_Layer 1
 62
     7
420
 16777215
370
    70
100
AcDbPolyline
 90
       21
 70
     0
 43
0.0
 10
11.25074722222222
 20
5.050909722222221
 10
11.24867777777778
 20
5.050909722222221
 10
11.24246944444444
 20
5.048826388888888
 10
11.23831666666666
 20
5.046756944444442
 10
11.23210833333333
 20
5.042618055555554
 10
11.2259
 20
5.034326388888887
 10
11.18448333333333
 20
5.04053472222222
 10
11.14513611111111
 20
5.042618055555554
 10
11.08923333333333
 20
5.042618055555554
 10
11.07267777777777
 20
5.017770833333332
 10
11.06024722222222
 20
4.984631944444443
 10
11.04783055555556
 20
4.951506944444443
 10
11.01884444444444
 20
4.86867361111111
 10
10.96292777777778
 20
4.72579861111111
 10
10.95671944444444
 20
4.748590277777776
 10
10.95258055555555
 20
4.775493055555554
 10
10.94428888888889
 20
4.841770833333332
 10
10.91944166666666
 20
4.756868055555554
 10
10.89873333333333
 20
4.690604166666665
 10
10.91323333333333
 20
4.773437499999999
 10
10.91531666666666
 20
4.785868055555554
  0
LWPOLYLINE
  5
455
330
2
100
AcDbEntity
  8
PDF_Layer 1
 62
     7
420
 16777215
370
    70
100
AcDbPolyline
 90
       31
 70
     0
 43
0.0
 10
10.86767777777778
 20
4.367576388888887
 10
10.86974722222222
 20
4.417270833333332
 10
10.87388611111111
 20
4.462840277777776
 10
10.87803888888889
 20
4.510451388888887
 10
10.88838611111111
 20
4.601576388888887
 10
10.89873333333333
 20
4.690604166666665
 10
10.88009444444444
 20
4.630562499999999
 10
10.87183055555555
 20
4.607770833333332
 10
10.86560833333333
 20
4.585006944444443
 10
10.87596944444444
 20
4.632618055555554
 10
10.87803888888889
 20
4.634701388888887
 10
10.892525
 20
4.690604166666665
 10
10.89873333333333
 20
4.719590277777776
 10
10.907025
 20
4.750645833333332
 10
10.91531666666666
 20
4.783784722222221
 10
10.92978888888889
 20
4.847979166666665
 10
10.94221944444444
 20
4.895604166666665
 10
10.94428888888889
 20
4.910090277777777
 10
10.94637222222222
 20
4.91629861111111
 10
10.94842777777778
 20
4.93079861111111
 10
10.95465
 20
4.951506944444443
 10
10.95878888888889
 20
4.972215277777777
 10
10.96706666666666
 20
5.005340277777777
 10
10.973275
 20
5.026062499999999
 10
10.98156666666666
 20
5.042618055555554
 10
10.99399722222222
 20
5.048826388888888
 10
11.01055277777778
 20
5.048826388888888
 10
11.02919166666666
 20
5.050909722222221
 10
11.05403888888889
 20
5.050909722222221
 10
11.10994166666666
 20
5.050909722222221
 10
11.112025
 20
5.050909722222221
  0
LWPOLYLINE
  5
457
330
2
100
AcDbEntity
  8
PDF_Layer 1
 62
     7
420
 16777215
370
    70
100
AcDbPolyline
 90
        5
 70
     0
 43
0.0
 10
10.86560833333333
 20
4.585006944444443
 10
10.85319166666667
 20
4.533243055555554
 10
10.84076111111111
 20
4.477340277777776
 10
10.83248333333333
 20
4.433854166666665
 10
10.82213611111111
 20
4.390368055555554
  0
LWPOLYLINE
  5
465
330
2
100
AcDbEntity
  8
PDF_Layer 1
 62
     7
420
 16777215
370
    70
100
AcDbPolyline
 90
       14
 70
     0
 43
0.0
 10
10.64819166666667
 20
4.011437499999999
 10
10.64612222222222
 20
4.00729861111111
 10
10.63163611111111
 20
3.978312499999999
 10
10.58194166666666
 20
3.866493055555554
 10
10.53430277777778
 20
3.752604166666665
 10
10.51774722222222
 20
3.702909722222221
 10
10.50531666666667
 20
3.653215277777776
 10
10.50531666666667
 20
3.618020833333332
 10
10.511525
 20
3.586951388888888
 10
10.53845555555555
 20
3.584881944444443
 10
10.55087222222222
 20
3.582812499999999
 10
10.56535833333333
 20
3.582812499999999
 10
10.57571944444444
 20
3.576604166666665
 10
10.58399722222222
 20
3.574534722222221
  0
LWPOLYLINE
  5
46B
330
2
100
AcDbEntity
  8
PDF_Layer 1
 62
     7
420
 16777215
370
    70
100
AcDbPolyline
 90
       16
 70
     0
 43
0.0
 10
11.10994166666666
 20
5.050909722222221
 10
11.10787222222222
 20
5.050909722222221
 10
11.10166388888889
 20
5.050909722222221
 10
11.097525
 20
5.048826388888888
 10
11.08923333333333
 20
5.042618055555554
 10
11.03126111111111
 20
5.042618055555554
 10
11.01055277777778
 20
5.042618055555554
 10
10.99606666666667
 20
5.04053472222222
 10
10.98570555555555
 20
5.00742361111111
 10
10.97535833333333
 20
4.970145833333332
 10
10.96706666666666
 20
4.93079861111111
 10
10.94428888888889
 20
4.841770833333332
 10
10.94221944444444
 20
4.876965277777776
 10
10.94221944444444
 20
4.891465277777776
 10
10.94428888888889
 20
4.903895833333332
 10
10.94637222222222
 20
4.91629861111111
  0
LWPOLYLINE
  5
46D
330
2
100
AcDbEntity
  8
PDF_Layer 1
 62
     7
420
 16777215
370
    70
100
AcDbPolyline
 90
       16
 70
     0
 43
0.0
 10
10.526025
 20
3.574534722222221
 10
10.52395555555555
 20
3.574534722222221
 10
10.51981666666667
 20
3.576604166666665
 10
10.51774722222222
 20
3.576604166666665
 10
10.51360833333333
 20
3.580743055555554
 10
10.511525
 20
3.586951388888888
 10
10.49496944444444
 20
3.586951388888888
 10
10.48667777777778
 20
3.586951388888888
 10
10.48046944444444
 20
3.586951388888888
 10
10.48046944444444
 20
3.582812499999999
 10
10.48253888888889
 20
3.57867361111111
 10
10.48460833333333
 20
3.576604166666665
 10
10.48876111111111
 20
3.576604166666665
 10
10.49081666666666
 20
3.576604166666665
 10
10.511525
 20
3.574534722222221
 10
10.53223333333333
 20
3.576604166666665
  0
LWPOLYLINE
  5
46F
330
2
100
AcDbEntity
  8
PDF_Layer 1
 62
     7
420
 16777215
370
    70
100
AcDbPolyline
 90
       13
 70
     0
 43
0.0
 10
11.91335833333333
 20
4.017645833333332
 10
11.91335833333333
 20
4.02179861111111
 10
11.911275
 20
4.048701388888887
 10
11.90920555555555
 20
4.077687499999998
 10
11.90715
 20
4.106687499999998
 10
11.90299722222222
 20
4.216437499999998
 10
11.89885833333333
 20
4.251631944444443
 10
11.89885833333333
 20
4.261993055555554
 10
11.89678888888889
 20
4.274409722222221
 10
11.89471944444444
 20
4.284756944444443
 10
11.89058055555555
 20
4.332381944444443
 10
11.88642777777777
 20
4.377937499999998
 10
11.88435833333333
 20
4.415215277777776
  0
LWPOLYLINE
  5
474
330
2
100
AcDbEntity
  8
PDF_Layer 1
 62
     7
420
 16777215
370
    70
100
AcDbPolyline
 90
        9
 70
     0
 43
0.0
 10
11.01055277777778
 20
5.048826388888888
 10
11.00641388888889
 20
5.048826388888888
 10
11.00434444444444
 20
5.048826388888888
 10
11.00020555555555
 20
5.046756944444442
 10
10.99812222222222
 20
5.044687499999999
 10
10.99606666666667
 20
5.04053472222222
 10
10.98985833333333
 20
5.042618055555554
 10
10.98570555555555
 20
5.042618055555554
 10
10.98156666666666
 20
5.042618055555554
  0
LWPOLYLINE
  5
478
330
2
100
AcDbEntity
  8
PDF_Layer 1
 62
     7
420
 16777215
370
    70
100
AcDbPolyline
 90
        2
 70
     0
 43
0.0
 10
11.925775
 20
3.580743055555554
 10
11.925775
 20
3.580743055555554
  0
LWPOLYLINE
  5
479
330
2
100
AcDbEntity
  8
PDF_Layer 1
 62
     7
420
 16777215
370
    70
100
AcDbPolyline
 90
        2
 70
     0
 43
0.0
 10
11.89471944444444
 20
4.404854166666665
 10
11.89471944444444
 20
4.404854166666665
  0
LWPOLYLINE
  5
47D
330
2
100
AcDbEntity
  8
PDF_Layer 1
 62
     7
420
 16777215
370
    70
100
AcDbPolyline
 90
        8
 70
     1
 43
0.0
 10
11.61931666666666
 20
4.665756944444443
 10
11.61310833333333
 20
4.642979166666665
 10
11.61310833333333
 20
4.622270833333332
 10
11.61931666666666
 20
4.599506944444443
 10
11.625525
 20
4.587076388888887
 10
11.62138611111111
 20
4.599506944444443
 10
11.61310833333333
 20
4.622270833333332
 10
11.61310833333333
 20
4.642979166666665
  0
ELLIPSE
  5
47E
330
2
100
AcDbEntity
  8
PDF_Layer 1
 62
     7
420
 16777215
370
    70
100
AcDbEllipse
 10
11.83068148754
 20
4.611168565560205
 30
0.0
 11
-0.2177043142106225
 21
0.0342003644271841
 31
0.0
210
0.0
220
0.0
230
1.0
 40
0.5735620409585857
 41
2.680174574303062
 42
6.115268931572284
  0
ELLIPSE
  5
480
330
2
100
AcDbEntity
  8
PDF_Layer 1
 62
     7
420
 16777215
370
    70
100
AcDbEllipse
 10
11.82915914384137
 20
4.609579193670891
 30
0.0
 11
-0.217183004676346
 21
0.033281166909009
 31
0.0
210
0.0
220
0.0
230
1.0
 40
0.5845898237555107
 41
2.697231133063723
 42
6.09725580514241
  0
LWPOLYLINE
  5
485
330
2
100
AcDbEntity
  8
PDF_Layer 1
 62
     7
420
 16777215
370
    70
100
AcDbPolyline
 90
        9
 70
     0
 43
0.0
 10
12.25501111111111
 20
5.597548611111109
 10
12.25501111111111
 20
5.591340277777776
 10
12.24465
 20
5.556145833333332
 10
12.23015
 20
5.525076388888887
 10
12.20945555555555
 20
5.496076388888887
 10
12.18253888888889
 20
5.471243055555554
 10
12.15146944444444
 20
5.45053472222222
 10
12.11420555555555
 20
5.433979166666665
 10
12.08521944444444
 20
5.425687499999998
  0
LWPOLYLINE
  5
486
330
2
100
AcDbEntity
  8
PDF_Layer 1
 62
     7
420
 16777215
370
    70
100
AcDbPolyline
 90
       13
 70
     0
 43
0.0
 10
11.845025
 20
5.469173611111109
 10
11.82846944444444
 20
5.479520833333332
 10
11.79324722222222
 20
5.506437499999998
 10
11.76219166666666
 20
5.537506944444443
 10
11.73734444444444
 20
5.570618055555554
 10
11.71665
 20
5.605840277777776
 10
11.70421944444444
 20
5.643104166666665
 10
11.69594166666666
 20
5.680381944444443
 10
11.69594166666666
 20
5.717645833333332
 10
11.70006666666666
 20
5.752854166666665
 10
11.71249722222222
 20
5.785965277777776
 10
11.73113611111111
 20
5.817034722222221
 10
11.74355277777777
 20
5.831534722222221
  0
LWPOLYLINE
  5
48B
330
2
100
AcDbEntity
  8
PDF_Layer 1
 62
     7
420
 16777215
370
    70
100
AcDbPolyline
 90
       26
 70
     0
 43
0.0
 10
15.22844166666667
 20
7.572937499999998
 10
15.22638611111111
 20
7.572937499999998
 10
15.216025
 20
7.570868055555554
 10
15.20153888888889
 20
7.568798611111109
 10
15.17874722222222
 20
7.562590277777776
 10
15.15184444444444
 20
7.556381944444442
 10
15.11870555555555
 20
7.548090277777776
 10
15.08142777777778
 20
7.537743055555553
 10
15.040025
 20
7.525312499999999
 10
14.99653888888889
 20
7.514965277777776
 10
14.94891388888889
 20
7.500465277777776
 10
14.89921944444444
 20
7.488048611111109
 10
14.849525
 20
7.473548611111109
 10
14.79776111111111
 20
7.459062499999999
 10
14.74806666666666
 20
7.444562499999999
 10
14.69835833333333
 20
7.430062499999999
 10
14.65074722222222
 20
7.417645833333332
 10
14.60726111111111
 20
7.405215277777775
 10
14.56584444444444
 20
7.39279861111111
 10
14.52858055555555
 20
7.382437499999999
 10
14.49751111111111
 20
7.372090277777776
 10
14.46853888888889
 20
7.363798611111109
 10
14.44781666666666
 20
7.355520833333331
 10
14.43126111111111
 20
7.351381944444442
 10
14.42296944444444
 20
7.347243055555554
 10
14.4209
 20
7.347243055555554
  0
LWPOLYLINE
  5
48C
330
2
100
AcDbEntity
  8
PDF_Layer 1
 62
     7
420
 16777215
370
    70
100
AcDbPolyline
 90
       25
 70
     0
 43
0.0
 10
14.44160833333333
 20
7.394868055555554
 10
14.44367777777778
 20
7.396937499999998
 10
14.4499
 20
7.399006944444442
 10
14.46231666666666
 20
7.403145833333331
 10
14.48095555555555
 20
7.409368055555554
 10
14.50580277777778
 20
7.417645833333332
 10
14.53684444444444
 20
7.42592361111111
 10
14.57206666666666
 20
7.436284722222221
 10
14.61346944444444
 20
7.448701388888887
 10
14.65695555555555
 20
7.461131944444443
 10
14.70251111111111
 20
7.473548611111109
 10
14.75013611111111
 20
7.488048611111109
 10
14.79983055555555
 20
7.50253472222222
 10
14.849525
 20
7.51703472222222
 10
14.89921944444444
 20
7.529465277777775
 10
14.94684444444444
 20
7.541881944444442
 10
14.9924
 20
7.554312499999999
 10
15.03381666666667
 20
7.566729166666665
 10
15.07108055555555
 20
7.577076388888887
 10
15.10420555555555
 20
7.585368055555553
 10
15.13320555555555
 20
7.591576388888887
 10
15.15598333333333
 20
7.59779861111111
 10
15.17253888888889
 20
7.60192361111111
 10
15.18083055555555
 20
7.604006944444443
 10
15.18496944444444
 20
7.604006944444443
  0
LWPOLYLINE
  5
48F
330
2
100
AcDbEntity
  8
PDF_Layer 1
 62
     7
420
 16777215
370
    70
100
AcDbPolyline
 90
       12
 70
     0
 43
0.0
 10
14.84537222222222
 20
8.473673611111109
 42
0.0286393524135271
 10
14.56170555555555
 20
8.399131944444443
 10
14.51821944444444
 20
8.388770833333332
 10
14.47680277777777
 20
8.376354166666665
 10
14.43746944444444
 20
8.363923611111109
 10
14.40020555555555
 20
8.353576388888887
 10
14.36706666666666
 20
8.343215277777776
 10
14.33808055555555
 20
8.334937499999998
 10
14.31323333333333
 20
8.328729166666665
 10
14.29666388888889
 20
8.322520833333332
 10
14.28423333333333
 20
8.318368055555554
 10
14.28009444444444
 20
8.316298611111108
  0
LWPOLYLINE
  5
494
330
2
100
AcDbEntity
  8
PDF_Layer 1
 62
     7
420
 16777215
370
    70
100
AcDbPolyline
 90
       16
 70
     0
 43
0.0
 10
11.70628888888889
 20
4.899743055555554
 10
11.70421944444444
 20
4.899743055555554
 10
11.66073333333333
 20
4.914243055555554
 10
11.61726111111111
 20
4.932881944444443
 10
11.57791388888889
 20
4.957729166666665
 10
11.54063611111111
 20
4.984631944444443
 10
11.50958055555555
 20
5.017770833333332
 10
11.48266388888889
 20
5.050909722222221
 10
11.45987222222222
 20
5.08817361111111
 10
11.44331666666666
 20
5.127506944444442
 10
11.435025
 20
5.16478472222222
 10
11.4309
 20
5.204131944444442
 10
11.43296944444444
 20
5.243465277777776
 10
11.44331666666666
 20
5.278673611111109
 10
11.45781666666666
 20
5.313868055555554
 10
11.45987222222222
 20
5.315951388888888
  0
LWPOLYLINE
  5
495
330
2
100
AcDbEntity
  8
PDF_Layer 1
 62
     7
420
 16777215
370
    70
100
AcDbPolyline
 90
       21
 70
     0
 43
0.0
 10
11.71044166666666
 20
5.421548611111109
 10
11.70628888888889
 20
5.421548611111109
 10
11.66695555555555
 20
5.417395833333332
 10
11.62760833333333
 20
5.409131944444443
 10
11.59033055555555
 20
5.394631944444443
 10
11.559275
 20
5.37390972222222
 10
11.53235833333333
 20
5.349062499999998
 10
11.50958055555555
 20
5.320076388888887
 10
11.49509444444444
 20
5.289020833333331
 10
11.48680277777778
 20
5.253826388888888
 10
11.48266388888889
 20
5.218618055555554
 10
11.48887222222222
 20
5.181354166666665
 10
11.49923333333333
 20
5.144090277777777
 10
11.51578888888889
 20
5.108868055555554
 10
11.53858055555555
 20
5.073673611111109
 10
11.56755277777778
 20
5.042618055555554
 10
11.60069166666666
 20
5.013631944444443
 10
11.63795555555555
 20
4.990840277777776
 10
11.67730277777778
 20
4.972215277777777
 10
11.71870555555555
 20
4.957729166666665
 10
11.72492777777778
 20
4.957729166666665
  0
LWPOLYLINE
  5
496
330
2
100
AcDbEntity
  8
PDF_Layer 1
 62
     7
420
 16777215
370
    70
100
AcDbPolyline
 90
       30
 70
     0
 43
0.0
 10
11.18241388888889
 20
4.839701388888888
 10
11.16792777777777
 20
4.827270833333332
 10
11.13687222222222
 20
4.796215277777776
 10
11.112025
 20
4.763076388888888
 10
11.09130277777778
 20
4.72579861111111
 10
11.07888611111111
 20
4.684395833333332
 10
11.07267777777777
 20
4.642979166666665
 10
11.07059444444444
 20
4.59742361111111
 10
11.07680277777777
 20
4.553937499999999
 10
11.09130277777778
 20
4.510451388888887
 10
11.10994166666666
 20
4.466979166666665
 10
11.13478888888889
 20
4.423493055555554
 10
11.163775
 20
4.384159722222221
 10
11.20105277777778
 20
4.346881944444443
 10
11.2404
 20
4.313743055555554
 10
11.28388611111111
 20
4.284756944444443
 10
11.32942777777778
 20
4.259909722222221
 10
11.37912222222222
 20
4.24128472222222
 10
11.42881666666666
 20
4.226784722222221
 10
11.48059444444444
 20
4.218506944444443
 10
11.53235833333333
 20
4.214354166666665
 10
11.58203888888889
 20
4.216437499999998
 10
11.62967777777778
 20
4.224715277777776
 10
11.67521944444444
 20
4.239201388888887
 10
11.71665
 20
4.257840277777776
 10
11.75598333333333
 20
4.280631944444443
 10
11.78912222222222
 20
4.309618055555554
 10
11.81603888888889
 20
4.342729166666665
 10
11.83881666666666
 20
4.377937499999998
 10
11.85123333333333
 20
4.40692361111111
  0
LWPOLYLINE
  5
498
330
2
100
AcDbEntity
  8
PDF_Layer 1
 62
     7
420
 16777215
370
    70
100
AcDbPolyline
 90
        5
 70
     0
 43
0.0
 10
11.18448333333333
 20
4.322034722222221
 10
11.21346944444444
 20
4.290979166666665
 10
11.25695555555555
 20
4.25578472222222
 10
11.25903888888889
 20
4.257840277777776
 10
11.26316388888889
 20
4.261993055555554
  0
LWPOLYLINE
  5
49D
330
2
100
AcDbEntity
  8
PDF_Layer 1
 62
     7
420
 16777215
370
    70
100
AcDbPolyline
 90
        5
 70
     0
 43
0.0
 10
11.52408055555555
 20
4.185368055555554
 10
11.51994166666666
 20
4.17915972222222
 10
11.51371944444444
 20
4.166729166666665
 10
11.54478888888889
 20
4.17915972222222
 10
11.56963611111111
 20
4.187451388888887
  0
LWPOLYLINE
  5
4A0
330
2
100
AcDbEntity
  8
PDF_Layer 1
 62
     7
420
 16777215
370
    70
100
AcDbPolyline
 90
        6
 70
     0
 43
0.0
 10
11.05403888888889
 20
4.553937499999999
 10
11.05195555555555
 20
4.54979861111111
 10
11.03953888888889
 20
4.524951388888887
 10
11.02919166666666
 20
4.502187499999998
 10
11.01676111111111
 20
4.473187499999998
 10
11.00848333333333
 20
4.452493055555554
  0
LWPOLYLINE
  5
4A1
330
2
100
AcDbEntity
  8
PDF_Layer 1
 62
     7
420
 16777215
370
    70
100
AcDbPolyline
 90
        6
 70
     0
 43
0.0
 10
11.77669166666666
 20
4.272340277777776
 10
11.77876111111111
 20
4.259909722222221
 10
11.78083055555555
 20
4.224715277777776
 10
11.77876111111111
 20
4.204006944444443
 10
11.77669166666666
 20
4.185368055555554
 10
11.77669166666666
 20
4.164659722222221
  0
LWPOLYLINE
  5
4A3
330
2
100
AcDbEntity
  8
PDF_Layer 1
 62
     7
420
 16777215
370
    70
100
AcDbPolyline
 90
        4
 70
     0
 43
0.0
 10
11.86780277777778
 20
4.411062499999998
 10
11.859525
 20
4.344812499999998
 10
11.85537222222222
 20
4.365520833333332
 10
11.85330277777778
 20
4.380006944444443
  0
LWPOLYLINE
  5
4A5
330
2
100
AcDbEntity
  8
PDF_Layer 1
 62
     7
420
 16777215
370
    70
100
AcDbPolyline
 90
        6
 70
     0
 43
0.0
 10
11.07474722222222
 20
4.717534722222221
 10
11.07059444444444
 20
4.717534722222221
 10
11.06438611111111
 20
4.717534722222221
 10
11.07059444444444
 20
4.729951388888887
 10
11.083025
 20
4.742381944444443
 10
11.09130277777778
 20
4.750645833333332
  0
LWPOLYLINE
  5
4AD
330
2
100
AcDbEntity
  8
PDF_Layer 1
 62
     7
420
 16777215
370
    70
100
AcDbPolyline
 90
        3
 70
     0
 43
0.0
 10
11.07059444444444
 20
4.729951388888887
 10
11.09544166666666
 20
4.758937499999999
 10
11.097525
 20
4.761020833333332
  0
LWPOLYLINE
  5
4BA
330
2
100
AcDbEntity
  8
PDF_Layer 1
 62
     7
420
 16777215
370
    70
100
AcDbPolyline
 90
        7
 70
     0
 43
0.0
 10
11.89265
 20
4.419354166666665
 10
11.89265
 20
4.417270833333332
 10
11.89265
 20
4.394506944444443
 10
11.89471944444444
 20
4.357229166666665
 10
11.89471944444444
 20
4.332381944444443
 10
11.89471944444444
 20
4.309618055555554
 10
11.89471944444444
 20
4.284756944444443
  0
LWPOLYLINE
  5
4BE
330
2
100
AcDbEntity
  8
PDF_Layer 1
 62
     7
420
 16777215
370
    70
100
AcDbPolyline
 90
        3
 70
     0
 43
0.0
 10
11.89471944444444
 20
4.404854166666665
 10
11.89471944444444
 20
4.411062499999998
 10
11.89471944444444
 20
4.419354166666665
  0
LWPOLYLINE
  5
4BF
330
2
100
AcDbEntity
  8
PDF_Layer 1
 62
     7
420
 16777215
370
    70
100
AcDbPolyline
 90
        5
 70
     0
 43
0.0
 10
10.73308055555555
 20
4.204006944444443
 10
10.72273333333333
 20
4.177090277777776
 10
10.69788611111111
 20
4.11703472222222
 10
10.67303888888889
 20
4.054923611111109
 10
10.64819166666667
 20
3.988659722222221
  0
LWPOLYLINE
  5
4C0
330
2
100
AcDbEntity
  8
PDF_Layer 1
 62
     7
420
 16777215
370
    70
100
AcDbPolyline
 90
        5
 70
     0
 43
0.0
 10
10.50324722222222
 20
3.68842361111111
 10
10.48667777777778
 20
3.640784722222221
 10
10.48046944444444
 20
3.61179861111111
 10
10.48046944444444
 20
3.586951388888888
 10
10.4784
 20
3.584881944444443
  0
LWPOLYLINE
  5
4C3
330
2
100
AcDbEntity
  8
PDF_Layer 1
 62
     7
420
 16777215
370
    70
100
AcDbPolyline
 90
        4
 70
     0
 43
0.0
 10
10.86560833333333
 20
4.585006944444443
 10
10.85733055555555
 20
4.56429861111111
 10
10.85110833333333
 20
4.543590277777776
 10
10.84903888888889
 20
4.539451388888887
  0
LWPOLYLINE
  5
4C7
330
2
100
AcDbEntity
  8
PDF_Layer 1
 62
     7
420
 16777215
370
    70
100
AcDbPolyline
 90
        4
 70
     0
 43
0.0
 10
11.93613611111111
 20
3.785743055555554
 10
11.93405277777777
 20
3.794006944444443
 10
11.92991388888889
 20
3.808506944444443
 10
11.92370555555555
 20
3.823006944444443
  0
LWPOLYLINE
  5
4CB
330
2
100
AcDbEntity
  8
PDF_Layer 1
 62
     7
420
 16777215
370
    70
100
AcDbPolyline
 90
        4
 70
     0
 43
0.0
 10
10.50324722222222
 20
3.576604166666665
 10
10.50738611111111
 20
3.574534722222221
 10
10.50945555555555
 20
3.574534722222221
 10
10.51774722222222
 20
3.574534722222221
  0
LWPOLYLINE
  5
4CE
330
2
100
AcDbEntity
  8
PDF_Layer 1
 62
     7
420
 16777215
370
    70
100
AcDbPolyline
 90
        2
 70
     0
 43
0.0
 10
10.71031666666667
 20
3.576604166666665
 10
10.70823333333333
 20
3.576604166666665
  0
LWPOLYLINE
  5
4CF
330
2
100
AcDbEntity
  8
PDF_Layer 1
 62
     7
420
 16777215
370
    25
100
AcDbPolyline
 90
        2
 70
     0
 43
0.0
 10
11.41018333333333
 20
6.936218055555555
 10
11.41018333333333
 20
6.211495833333333
  0
LWPOLYLINE
  5
4D0
330
2
100
AcDbEntity
  8
PDF_Layer 1
 62
     7
420
 16777215
370
    25
100
AcDbPolyline
 90
       10
 70
     0
 43
0.0
 10
16.08633055555555
 20
7.374159722222221
 10
16.08633055555555
 20
7.377673611111109
 10
16.08430277777778
 20
7.424256944444443
 10
16.08026111111111
 20
7.468826388888888
 10
16.07620555555556
 20
7.513381944444443
 10
16.07012222222222
 20
7.559979166666665
 10
16.062025
 20
7.60453472222222
 10
16.05391388888889
 20
7.649104166666665
 10
16.04378888888889
 20
7.69365972222222
 10
16.04071944444444
 20
7.704951388888887
  0
LWPOLYLINE
  5
4D1
330
2
100
AcDbEntity
  8
PDF_Layer 1
 62
     7
420
 16777215
370
    25
100
AcDbPolyline
 90
        2
 70
     0
 43
0.0
 10
14.85987638888889
 20
7.379787499999999
 10
16.11776527777777
 20
7.726162499999999
  0
LWPOLYLINE
  5
4D2
330
2
100
AcDbEntity
  8
PDF_Layer 1
 62
     7
420
 16777215
370
    25
100
AcDbPolyline
 90
        8
 70
     0
 43
0.0
 10
16.02288194444444
 20
7.764519444444443
 10
16.01438194444444
 20
7.790019444444443
 10
15.9981875
 20
7.83256111111111
 10
15.98197916666666
 20
7.875088888888888
 10
15.96374305555555
 20
7.917630555555555
 10
15.94552083333333
 20
7.958144444444443
 10
15.92525694444444
 20
7.998658333333333
 10
15.90296527777777
 20
8.039172222222221
  0
LWPOLYLINE
  5
4D3
330
2
100
AcDbEntity
  8
PDF_Layer 1
 62
     7
420
 16777215
370
    25
100
AcDbPolyline
 90
        8
 70
     0
 43
0.0
 10
16.04225
 20
7.019233333333333
 10
16.052375
 20
7.063788888888888
 10
16.06047222222222
 20
7.108358333333333
 10
16.06858333333333
 20
7.152913888888888
 10
16.07466666666666
 20
7.197483333333333
 10
16.07870833333333
 20
7.244066666666666
 10
16.08276388888889
 20
7.28863611111111
 10
16.08408333333333
 20
7.317608333333333
  0
LWPOLYLINE
  5
4D4
330
2
100
AcDbEntity
  8
PDF_Layer 1
 62
     7
420
 16777215
370
    25
100
AcDbPolyline
 90
        3
 70
     0
 43
0.0
 10
14.85923611111111
 20
6.548770833333332
 10
14.84952777777778
 20
7.374159722222221
 10
16.15852777777778
 20
7.374159722222221
  0
LWPOLYLINE
  5
4D5
330
2
100
AcDbEntity
  8
PDF_Layer 1
 62
     7
420
 16777215
370
    25
100
AcDbPolyline
 90
        2
 70
     0
 43
0.0
 10
13.07497777777778
 20
9.865138888888889
 10
9.896547222222221
 20
9.858930555555556
  0
LWPOLYLINE
  5
4D6
330
2
100
AcDbEntity
  8
PDF_Layer 1
 62
     7
420
 16777215
370
    25
100
AcDbPolyline
 90
        2
 70
     0
 43
0.0
 10
10.01250555555555
 20
3.644993055555554
 10
10.01250555555555
 20
9.796743055555554
  0
LWPOLYLINE
  5
4D7
330
2
100
AcDbEntity
  8
PDF_Layer 1
 62
     7
420
 16777215
370
    25
100
AcDbPolyline
 90
        2
 70
     0
 43
0.0
 10
11.10786944444444
 20
7.3265375
 10
11.69385555555555
 20
7.334815277777778
  0
LWPOLYLINE
  5
4DA
330
2
100
AcDbEntity
  8
PDF_Layer 1
 62
     7
420
 16777215
370
    25
100
AcDbPolyline
 90
        2
 70
     0
 43
0.0
 10
7.941861111111109
 20
4.444199999999999
 10
8.590277777777776
 20
4.879505555555555
  0
LWPOLYLINE
  5
4DB
330
2
100
AcDbEntity
  8
PDF_Layer 1
 62
     7
420
 16777215
370
    25
100
AcDbPolyline
 90
        2
 70
     0
 43
0.0
 10
1.382066666666666
 20
5.897786111111111
 10
0.1210527777777777
 20
4.094258333333333
  0
LWPOLYLINE
  5
4DC
330
2
100
AcDbEntity
  8
PDF_Layer 1
 62
     7
420
 16777215
370
    25
100
AcDbPolyline
 90
        2
 70
     0
 43
0.0
 10
3.483770833333333
 20
4.429701388888887
 10
2.2248125
 20
2.624104166666666
  0
MTEXT
  5
4DD
330
2
100
AcDbEntity
  8
PDF_Text
 62
     7
420
 16777215
100
AcDbMText
 10
16.10993849861111
 20
7.81763122222222
 30
0.0
 40
0.2982578355428976
 41
0.0
 46
0.0
 71
     7
 72
     5
  1
15°
  7
PDF Arial
 11
0.1236002602467999
 21
-0.9923320894070307
 31
0.0
 73
     1
 44
1.0
  0
MTEXT
  5
4DE
330
2
100
AcDbEntity
  8
PDF_Text
 62
     7
420
 16777215
100
AcDbMText
 10
11.78911666666666
 20
7.386947222222219
 30
0.0
 40
0.2982578355428976
 41
0.0
 46
0.0
 71
     7
 72
     5
  1
Ø20
  7
PDF Arial
 73
     1
 44
1.0
  0
MTEXT
  5
4DF
330
2
100
AcDbEntity
  8
PDF_Text
 62
     7
420
 16777215
100
AcDbMText
 10
12.79828333333333
 20
6.62069722222222
 30
0.0
 40
0.2982578355428976
 41
0.0
 46
0.0
 71
     7
 72
     5
  1
118
  7
PDF Arial
 73
     1
 44
1.0
  0
MTEXT
  5
4E0
330
2
100
AcDbEntity
  8
PDF_Text
 62
     7
420
 16777215
100
AcDbMText
 10
9.949294444444442
 20
6.360476388888888
 30
0.0
 40
0.2982578355428976
 41
0.0
 46
0.0
 71
     7
 72
     5
  1
214
  7
PDF Arial
 11
0.0000000000000001
 21
1.0
 31
0.0
 73
     1
 44
1.0
  0
MTEXT
  5
4E1
330
2
100
AcDbEntity
  8
PDF_Text
 62
     7
420
 16777215
100
AcDbMText
 10
15.75346111111111
 20
5.189643055555555
 30
0.0
 40
0.2982578355428976
 41
0.0
 46
0.0
 71
     7
 72
     5
  1
130
  7
PDF Arial
 11
0.0000000000000001
 21
1.0
 31
0.0
 73
     1
 44
1.0
  0
MTEXT
  5
4E2
330
2
100
AcDbEntity
  8
PDF_Text
 62
     7
420
 16777215
100
AcDbMText
 10
8.017755018055556
 20
5.737654391666665
 30
0.0
 40
0.2982578355428976
 41
0.0
 46
0.0
 71
     7
 72
     5
  1
55
  7
PDF Arial
 11
0.5473401577160876
 21
-0.8369102411557218
 31
0.0
 73
     1
 44
1.0
  0
MTEXT
  5
4E3
330
2
100
AcDbEntity
  8
PDF_Text
 62
     7
420
 16777215
100
AcDbMText
 10
0.9822792666666666
 20
3.561356605555555
 30
0.0
 40
0.2982578355428976
 41
0.0
 46
0.0
 71
     7
 72
     5
  1
86
  7
PDF Arial
 11
0.8209215072132709
 21
-0.5710410484323273
 31
0.0
 73
     1
 44
1.0
  0
VIEWPORT
  5
4A
330
C
100
AcDbEntity
 67
     1
  8
0
100
AcDbViewport
 10
17.24759499286355
 20
11.49745669559334
 30
0.0
 40
36.33732196730226
 41
27.12504315869042
 68
     1
 69
     1
 12
17.24759499286355
 22
11.49745669559334
 13
0.0
 23
0.0
 14
0.5
 24
0.5
 15
0.5
 25
0.5
 16
0.0
 26
0.0
 36
1.0
 17
0.0
 27
0.0
 37
0.0
 42
50.0
 43
0.0
 44
0.0
 45
27.12504315869042
 50
0.0
 51
0.0
 72
  1000
 90
    32864
  1

281
     0
 71
     1
 74
     0
110
0.0
120
0.0
130
0.0
111
1.0
121
0.0
131
0.0
112
0.0
122
1.0
132
0.0
 79
     0
146
0.0
170
     0
 61
     5
348
88
292
     1
282
     1
141
0.0
142
0.0
 63
   250
421
  3355443
  0
ENDSEC
  0
SECTION
  2
OBJECTS
  0
DICTIONARY
  5
7
330
0
100
AcDbDictionary
281
     1
  3
ACAD_CIP_PREVIOUS_PRODUCT_INFO
350
CD
  3
ACAD_COLOR
350
55
  3
ACAD_DETAILVIEWSTYLE
350
C5
  3
ACAD_GROUP
350
1F
  3
ACAD_LAYOUT
350
B
  3
ACAD_MATERIAL
350
54
  3
ACAD_MLEADERSTYLE
350
C1
  3
ACAD_MLINESTYLE
350
20
  3
ACAD_PLOTSETTINGS
350
21
  3
ACAD_PLOTSTYLENAME
350
6
  3
ACAD_SCALELIST
350
AF
  3
ACAD_SECTIONVIEWSTYLE
350
C3
  3
ACAD_TABLESTYLE
350
93
  3
ACAD_VISUALSTYLE
350
82
  3
ACDB_RECOMPOSE_DATA
350
509
  3
AcDbVariableDictionary
350
9B
  0
DICTIONARY
  5
4E5
330
4
100
AcDbDictionary
280
     1
281
     1
  3
ADSK_XREC_LAYER_RECONCILED
360
4E6
  0
DICTIONARY
  5
4E7
330
25
100
AcDbDictionary
280
     1
281
     1
  3
ADSK_XREC_LAYER_RECONCILED
360
4E8
  0
DICTIONARY
  5
4E9
330
CE
100
AcDbDictionary
280
     1
281
     1
  3
ADSK_XREC_LAYER_RECONCILED
360
4EA
  0
DICTIONARY
  5
4EB
330
DE
100
AcDbDictionary
280
     1
281
     1
  3
ADSK_XREC_LAYER_RECONCILED
360
4EC
  0
XRECORD
  5
CD
102
{ACAD_REACTORS
330
7
102
}
330
7
100
AcDbXrecord
280
     1
300
ACD
300
2017
300
ACD_F_S
  0
DICTIONARY
  5
55
102
{ACAD_REACTORS
330
7
102
}
330
7
100
AcDbDictionary
281
     1
  0
DICTIONARY
  5
C5
102
{ACAD_REACTORS
330
7
102
}
330
7
100
AcDbDictionary
281
     1
  3
Imperial24
350
C6
  0
DICTIONARY
  5
1F
102
{ACAD_REACTORS
330
7
102
}
330
7
100
AcDbDictionary
281
     1
  0
DICTIONARY
  5
B
102
{ACAD_REACTORS
330
7
102
}
330
7
100
AcDbDictionary
281
     1
  3
Generic 24in x 36in Title Block
350
F
  3
Model
350
A
  0
DICTIONARY
  5
54
102
{ACAD_REACTORS
330
7
102
}
330
7
100
AcDbDictionary
281
     1
  3
ByBlock
350
80
  3
ByLayer
350
7F
  3
Global
350
81
  0
DICTIONARY
  5
C1
102
{ACAD_REACTORS
330
7
102
}
330
7
100
AcDbDictionary
281
     1
  3
Standard
350
C2
  0
DICTIONARY
  5
20
102
{ACAD_REACTORS
330
7
102
}
330
7
100
AcDbDictionary
281
     1
  3
Standard
350
22
  0
DICTIONARY
  5
21
102
{ACAD_REACTORS
330
7
102
}
330
7
100
AcDbDictionary
281
     1
  0
ACDBDICTIONARYWDFLT
  5
6
102
{ACAD_REACTORS
330
7
102
}
330
7
100
AcDbDictionary
281
     1
  3
Normal
350
5
100
AcDbDictionaryWithDefault
340
5
  0
DICTIONARY
  5
AF
102
{ACAD_REACTORS
330
7
102
}
330
7
100
AcDbDictionary
281
     1
  3
A0
350
B0
  3
A1
350
B1
  3
A2
350
B2
  3
A3
350
B3
  3
A4
350
B4
  3
A5
350
B5
  3
A6
350
B6
  3
A7
350
B7
  3
A8
350
B8
  3
A9
350
B9
  3
B0
350
BA
  3
B1
350
BB
  3
B2
350
BC
  3
B3
350
BD
  3
B4
350
BE
  3
B5
350
BF
  3
B6
350
C0
  0
DICTIONARY
  5
C3
102
{ACAD_REACTORS
330
7
102
}
330
7
100
AcDbDictionary
281
     1
  3
Imperial24
350
C4
  0
DICTIONARY
  5
93
102
{ACAD_REACTORS
330
7
102
}
330
7
100
AcDbDictionary
281
     1
  3
Standard
350
94
  0
DICTIONARY
  5
82
102
{ACAD_REACTORS
330
7
102
}
330
7
100
AcDbDictionary
281
     1
  3
2dWireframe
350
88
  3
3D Hidden
350
8A
  3
3dWireframe
350
89
  3
Basic
350
87
  3
Brighten
350
8E
  3
ColorChange
350
92
  3
Conceptual
350
8B
  3
Dim
350
8D
  3
EdgeColorOff
350
AE
  3
Facepattern
350
91
  3
Flat
350
83
  3
FlatWithEdges
350
84
  3
Gouraud
350
85
  3
GouraudWithEdges
350
86
  3
Hidden
350
A6
  3
JitterOff
350
AC
  3
Linepattern
350
90
  3
OverhangOff
350
AD
  3
Realistic
350
8C
  3
Shaded
350
AB
  3
Shaded with edges
350
AA
  3
Shades of Gray
350
A7
  3
Sketchy
350
A8
  3
Thicken
350
8F
  3
Wireframe
350
A5
  3
X-Ray
350
A9
  0
XRECORD
  5
509
102
{ACAD_REACTORS
330
7
102
}
330
7
100
AcDbXrecord
280
     1
 90
        1
330
94
330
C4
330
C6
  0
DICTIONARY
  5
9B
102
{ACAD_REACTORS
330
7
102
}
330
7
100
AcDbDictionary
281
     1
  3
CANNOSCALE
350
4FF
  3
CMLEADERSTYLE
350
4FB
  3
CTABLESTYLE
350
9C
  3
CVIEWDETAILSTYLE
350
4FC
  3
CVIEWSECTIONSTYLE
350
4FD
  3
LAYEREVAL
350
501
  3
LAYERNOTIFY
350
502
  3
LIGHTINGUNITS
350
500
  3
MSLTSCALE
350
4FE
  0
XRECORD
  5
4E6
102
{ACAD_REACTORS
330
4E5
102
}
330
4E5
100
AcDbXrecord
280
     1
290
     1
  0
XRECORD
  5
4E8
102
{ACAD_REACTORS
330
4E7
102
}
330
4E7
100
AcDbXrecord
280
     1
290
     1
  0
XRECORD
  5
4EA
102
{ACAD_REACTORS
330
4E9
102
}
330
4E9
100
AcDbXrecord
280
     1
290
     1
  0
XRECORD
  5
4EC
102
{ACAD_REACTORS
330
4EB
102
}
330
4EB
100
AcDbXrecord
280
     1
290
     1
  0
ACDBDETAILVIEWSTYLE
  5
C6
102
{ACAD_XDICTIONARY
360
507
102
}
102
{ACAD_REACTORS
330
C5
102
}
330
C5
100
AcDbModelDocViewStyle
 70
     0
  3
Imperial24
290
     0
100
AcDbDetailViewStyle
 70
     0
 71
     0
 90
        3
 71
     1
340
12
 62
   256
 40
0.24
340
0
 62
   256
 40
0.24
300

 40
0.36
280
     3
 71
     2
340
8
 90
       25
 62
   256
 71
     3
340
12
 62
   256
 40
0.24
 90
        1
 40
0.75
 90
        1
300
%<\AcVar ViewType \f "%tc1">% %<\AcVar ViewDetailId>%\PSCALE %<\AcVar ViewScale \f "%sn">%
 71
     4
340
8
 90
       25
 62
   256
340
8
 90
       25
 62
   256
280
     0
  0
LAYOUT
  5
F
102
{ACAD_REACTORS
330
B
102
}
330
B
100
AcDbPlotSettings
  1

  2
none_device
  4
ARCH_D_(24.00_x_36.00_Inches)
  6

 40
6.4
 41
19.1
 42
6.4
 43
19.1
 44
609.5999755859375
 45
914.4000244140626
 46
6.095999999999999
 47
-0.254
 48
0.0
 49
0.0
140
0.0
141
0.0
142
1.0
143
1.0
 70
   692
 72
     0
 73
     1
 74
     1
  7

 75
    16
147
1.0
 76
     0
 77
     2
 78
   300
148
0.2650993882970653
149
0.268587724897764
100
AcDbLayout
  1
Generic 24in x 36in Title Block
 70
     1
 71
     1
 10
-0.7524054877282309
 20
-0.5025428238148726
 11
35.24759547345533
 21
23.49745621500156
 12
0.0
 22
0.0
 32
0.0
 14
1.000000000000000E+20
 24
1.000000000000000E+20
 34
1.000000000000000E+20
 15
-1.000000000000000E+20
 25
-1.000000000000000E+20
 35
-1.000000000000000E+20
146
0.0
 13
0.0
 23
0.0
 33
0.0
 16
1.0
 26
0.0
 36
0.0
 17
0.0
 27
1.0
 37
0.0
 76
     0
330
C
331
4A
  0
LAYOUT
  5
A
102
{ACAD_REACTORS
330
B
102
}
330
B
100
AcDbPlotSettings
  1

  2
none_device
  4
Letter_(8.50_x_11.00_Inches)
  6

 40
6.349999904632568
 41
6.349999904632568
 42
6.350006103515625
 43
6.350006103515625
 44
215.8999938964844
 45
279.3999938964844
 46
20.37045378159827
 47
10.87052656611426
 48
0.0
 49
0.0
140
0.0
141
0.0
142
1.0
143
3.59932905303845
 70
 11956
 72
     0
 73
     1
 74
     1
  7

 75
     0
147
0.2778295580271631
 76
     0
 77
     2
 78
   300
148
5.106903281790129
149
0.2718425107115592
100
AcDbLayout
  1
Model
 70
     1
 71
     0
 10
0.0
 20
0.0
 11
12.0
 21
9.0
 12
0.0
 22
0.0
 32
0.0
 14
0.0
 24
0.0
 34
0.0
 15
0.0
 25
0.0
 35
0.0
146
0.0
 13
0.0
 23
0.0
 33
0.0
 16
1.0
 26
0.0
 36
0.0
 17
0.0
 27
1.0
 37
0.0
 76
     0
330
2
331
7D
  0
MATERIAL
  5
80
102
{ACAD_REACTORS
330
54
102
}
330
54
100
AcDbMaterial
  1
ByBlock
 73
     1
 78
     1
172
     1
176
     1
270
     1
274
     1
 94
       63
  0
MATERIAL
  5
7F
102
{ACAD_REACTORS
330
54
102
}
330
54
100
AcDbMaterial
  1
ByLayer
 73
     1
 78
     1
172
     1
176
     1
270
     1
274
     1
 94
       63
  0
MATERIAL
  5
81
102
{ACAD_REACTORS
330
54
102
}
330
54
100
AcDbMaterial
  1
Global
 73
     1
 78
     1
172
     1
176
     1
270
     1
274
     1
 94
       63
  0
MLEADERSTYLE
  5
C2
102
{ACAD_REACTORS
330
C1
102
}
330
C1
100
AcDbMLeaderStyle
179
     2
170
     2
171
     1
172
     0
 90
        2
 40
0.0
 41
0.0
173
     1
 91
-1056964608
340
15
 92
       -2
290
     1
 42
0.09
291
     1
 43
0.36
  3
Standard
 44
0.18
300

342
12
174
     1
178
     6
175
     1
176
     0
 93
-1056964608
 45
0.18
292
     0
297
     0
 46
0.18
 94
-1056964608
 47
1.0
 49
1.0
140
1.0
293
     1
141
0.0
294
     1
177
     0
142
1.0
295
     1
296
     0
143
0.125
271
     0
272
     9
273
     9
298
     1
  0
MLINESTYLE
  5
22
102
{ACAD_REACTORS
330
20
102
}
330
20
100
AcDbMlineStyle
  2
STANDARD
 70
     0
  3

 62
   256
 51
90.0
 52
90.0
 71
     2
 49
0.5
 62
   256
  6
BYLAYER
 49
-0.5
 62
   256
  6
BYLAYER
  0
ACDBPLACEHOLDER
  5
5
102
{ACAD_REACTORS
330
6
102
}
330
6
  0
SCALE
  5
B0
102
{ACAD_REACTORS
330
AF
102
}
330
AF
100
AcDbScale
 70
     0
300
1:1
140
1.0
141
1.0
290
     1
  0
SCALE
  5
B1
102
{ACAD_REACTORS
330
AF
102
}
330
AF
100
AcDbScale
 70
     0
300
1/128" = 1'-0"
140
0.0078125
141
12.0
290
     0
  0
SCALE
  5
B2
102
{ACAD_REACTORS
330
AF
102
}
330
AF
100
AcDbScale
 70
     0
300
1/64" = 1'-0"
140
0.015625
141
12.0
290
     0
  0
SCALE
  5
B3
102
{ACAD_REACTORS
330
AF
102
}
330
AF
100
AcDbScale
 70
     0
300
1/32" = 1'-0"
140
0.03125
141
12.0
290
     0
  0
SCALE
  5
B4
102
{ACAD_REACTORS
330
AF
102
}
330
AF
100
AcDbScale
 70
     0
300
1/16" = 1'-0"
140
0.0625
141
12.0
290
     0
  0
SCALE
  5
B5
102
{ACAD_REACTORS
330
AF
102
}
330
AF
100
AcDbScale
 70
     0
300
3/32" = 1'-0"
140
0.09375
141
12.0
290
     0
  0
SCALE
  5
B6
102
{ACAD_REACTORS
330
AF
102
}
330
AF
100
AcDbScale
 70
     0
300
1/8" = 1'-0"
140
0.125
141
12.0
290
     0
  0
SCALE
  5
B7
102
{ACAD_REACTORS
330
AF
102
}
330
AF
100
AcDbScale
 70
     0
300
3/16" = 1'-0"
140
0.1875
141
12.0
290
     0
  0
SCALE
  5
B8
102
{ACAD_REACTORS
330
AF
102
}
330
AF
100
AcDbScale
 70
     0
300
1/4" = 1'-0"
140
0.25
141
12.0
290
     0
  0
SCALE
  5
B9
102
{ACAD_REACTORS
330
AF
102
}
330
AF
100
AcDbScale
 70
     0
300
3/8" = 1'-0"
140
0.375
141
12.0
290
     0
  0
SCALE
  5
BA
102
{ACAD_REACTORS
330
AF
102
}
330
AF
100
AcDbScale
 70
     0
300
1/2" = 1'-0"
140
0.5
141
12.0
290
     0
  0
SCALE
  5
BB
102
{ACAD_REACTORS
330
AF
102
}
330
AF
100
AcDbScale
 70
     0
300
3/4" = 1'-0"
140
0.75
141
12.0
290
     0
  0
SCALE
  5
BC
102
{ACAD_REACTORS
330
AF
102
}
330
AF
100
AcDbScale
 70
     0
300
1" = 1'-0"
140
1.0
141
12.0
290
     0
  0
SCALE
  5
BD
102
{ACAD_REACTORS
330
AF
102
}
330
AF
100
AcDbScale
 70
     0
300
1-1/2" = 1'-0"
140
1.5
141
12.0
290
     0
  0
SCALE
  5
BE
102
{ACAD_REACTORS
330
AF
102
}
330
AF
100
AcDbScale
 70
     0
300
3" = 1'-0"
140
3.0
141
12.0
290
     0
  0
SCALE
  5
BF
102
{ACAD_REACTORS
330
AF
102
}
330
AF
100
AcDbScale
 70
     0
300
6" = 1'-0"
140
6.0
141
12.0
290
     0
  0
SCALE
  5
C0
102
{ACAD_REACTORS
330
AF
102
}
330
AF
100
AcDbScale
 70
     0
300
1'-0" = 1'-0"
140
12.0
141
12.0
290
     0
  0
ACDBSECTIONVIEWSTYLE
  5
C4
102
{ACAD_XDICTIONARY
360
505
102
}
102
{ACAD_REACTORS
330
C3
102
}
330
C3
100
AcDbModelDocViewStyle
 70
     0
  3
Imperial24
290
     0
100
AcDbSectionViewStyle
 70
     0
 71
     0
 90
       78
 71
     1
340
12
 62
   256
 40
0.24
340
0
340
0
 62
   256
 40
0.24
300
I, O, Q, S, X, Z
 40
0.48
 90
        3
 40
0.18
 90
        1
 71
     2
340
8
 90
       25
 62
   256
340
8
 90
       50
 62
   256
 40
0.24
 40
0.0
 40
0.24
 71
     3
340
12
 62
   256
 40
0.24
 90
        1
 40
0.75
 90
        1
300
%<\AcVar ViewType \f "%tc1">% %<\AcVar ViewSectionStartId>%-%<\AcVar ViewSectionEndId>%\PSCALE %<\AcVar ViewScale \f "%sn">%
 71
     4
 62
   256
 62
   257
300
ANSI31
 40
1.0
 90
        0
290
     0
290
     0
 90
        6
 40
0.0
 40
1.570796326794896
 40
0.2617993877991494
 40
1.308996938995747
 40
-0.2617993877991494
 40
1.832595714594046
  0
TABLESTYLE
  5
94
102
{ACAD_XDICTIONARY
360
503
102
}
102
{ACAD_REACTORS
330
93
102
}
330
93
100
AcDbTableStyle
280
     0
  3
Standard
 70
     0
 71
     0
 40
0.06
 41
0.06
280
     0
281
     0
  7
Standard
140
0.18
170
     2
 62
     0
 63
     7
283
     0
 90
      512
 91
        0
  1

274
    -2
284
     1
 64
     0
275
    -2
285
     1
 65
     0
276
    -2
286
     1
 66
     0
277
    -2
287
     1
 67
     0
278
    -2
288
     1
 68
     0
279
    -2
289
     1
 69
     0
  7
Standard
140
0.25
170
     5
 62
     0
 63
     7
283
     0
 90
      512
 91
        0
  1

274
    -2
284
     1
 64
     0
275
    -2
285
     1
 65
     0
276
    -2
286
     1
 66
     0
277
    -2
287
     1
 67
     0
278
    -2
288
     1
 68
     0
279
    -2
289
     1
 69
     0
  7
Standard
140
0.18
170
     5
 62
     0
 63
     7
283
     0
 90
      512
 91
        0
  1

274
    -2
284
     1
 64
     0
275
    -2
285
     1
 65
     0
276
    -2
286
     1
 66
     0
277
    -2
287
     1
 67
     0
278
    -2
288
     1
 68
     0
279
    -2
289
     1
 69
     0
  0
VISUALSTYLE
  5
88
102
{ACAD_REACTORS
330
82
102
}
330
82
100
AcDbVisualStyle
  2
2dWireframe
 70
     4
177
     3
291
     0
 70
    58
 90
        0
176
     1
 90
        2
176
     1
 90
        1
176
     1
 90
        0
176
     1
 40
0.6
176
     1
 40
30.0
176
     1
 62
     7
420
 16777215
176
     1
 90
        1
176
     1
 90
        4
176
     1
 62
     7
176
     1
 62
   257
176
     1
 90
        1
176
     1
 90
        1
176
     1
 40
1.0
176
     1
 90
        0
176
     1
 62
   257
176
     1
 40
1.0
176
     1
 90
        1
176
     1
 90
        6
176
     1
 90
        2
176
     1
 62
     7
176
     1
 90
        5
176
     1
 90
        0
176
     1
 90
        0
176
     1
290
     0
176
     1
 90
        1
176
     1
 40
0.0
176
     1
 90
        0
176
     1
290
     1
176
     1
290
     1
176
     1
290
     0
176
     1
290
     0
176
     1
290
     0
176
     1
290
     0
176
     1
290
     0
176
     1
290
     0
176
     1
290
     0
176
     1
 90
       50
176
     1
 40
0.0
176
     1
 40
1.0
176
     1
 90
        0
176
     1
 62
    18
420
        0
176
     1
 90
       50
176
     1
 90
        3
176
     1
 62
     5
420
      255
176
     1
290
     0
176
     1
 90
       50
176
     1
 90
       50
176
     1
 90
       50
176
     1
290
     0
176
     1
 90
       50
176
     1
 62
   256
176
     0
 40
1.0
176
     0
 90
        2
176
     1
  1
strokes_ogs.tif
176
     1
290
     0
176
     1
 40
1.0
176
     1
 40
1.0
176
     1
  0
VISUALSTYLE
  5
8A
102
{ACAD_REACTORS
330
82
102
}
330
82
100
AcDbVisualStyle
  2
3D Hidden
 70
     6
177
     3
291
     0
 70
    58
 90
        1
176
     1
 90
        2
176
     1
 90
        2
176
     1
 90
        0
176
     1
 40
0.6
176
     1
 40
30.0
176
     1
 62
     7
420
 16777215
176
     1
 90
        2
176
     1
 90
       10
176
     1
 62
     7
176
     1
 62
   257
176
     1
 90
        2
176
     1
 90
        2
176
     1
 40
40.0
176
     1
 90
        0
176
     1
 62
   257
176
     1
 40
1.0
176
     1
 90
        1
176
     1
 90
        6
176
     1
 90
        2
176
     1
 62
     7
176
     1
 90
        3
176
     1
 90
        0
176
     1
 90
        0
176
     1
290
     0
176
     1
 90
        1
176
     1
 40
0.0
176
     1
 90
        0
176
     1
290
     0
176
     1
290
     1
176
     1
290
     1
176
     1
290
     0
176
     1
290
     0
176
     1
290
     0
176
     1
290
     0
176
     1
290
     0
176
     1
290
     0
176
     1
 90
       50
176
     1
 40
0.0
176
     1
 40
1.0
176
     1
 90
        0
176
     1
 62
    18
420
        0
176
     1
 90
       50
176
     1
 90
        3
176
     1
 62
     5
420
      255
176
     1
290
     0
176
     1
 90
       50
176
     1
 90
       50
176
     1
 90
       50
176
     1
290
     0
176
     1
 90
       50
176
     1
 62
   256
176
     0
 40
1.0
176
     0
 90
        2
176
     1
  1
strokes_ogs.tif
176
     1
290
     0
176
     1
 40
1.0
176
     1
 40
1.0
176
     1
  0
VISUALSTYLE
  5
89
102
{ACAD_REACTORS
330
82
102
}
330
82
100
AcDbVisualStyle
  2
3dWireframe
 70
     5
177
     3
291
     0
 70
    58
 90
        0
176
     1
 90
        2
176
     1
 90
        1
176
     1
 90
        0
176
     1
 40
0.6
176
     1
 40
30.0
176
     1
 62
     7
420
 16777215
176
     1
 90
        1
176
     1
 90
        4
176
     1
 62
     7
176
     1
 62
   257
176
     1
 90
        1
176
     1
 90
        1
176
     1
 40
1.0
176
     1
 90
        0
176
     1
 62
   257
176
     1
 40
1.0
176
     1
 90
        1
176
     1
 90
        6
176
     1
 90
        2
176
     1
 62
     7
176
     1
 90
        5
176
     1
 90
        0
176
     1
 90
        0
176
     1
290
     0
176
     1
 90
        1
176
     1
 40
0.0
176
     1
 90
        0
176
     1
290
     0
176
     1
290
     1
176
     1
290
     1
176
     1
290
     0
176
     1
290
     0
176
     1
290
     0
176
     1
290
     0
176
     1
290
     0
176
     1
290
     0
176
     1
 90
       50
176
     1
 40
0.0
176
     1
 40
1.0
176
     1
 90
        0
176
     1
 62
    18
420
        0
176
     1
 90
       50
176
     1
 90
        3
176
     1
 62
     5
420
      255
176
     1
290
     0
176
     1
 90
       50
176
     1
 90
       50
176
     1
 90
       50
176
     1
290
     0
176
     1
 90
       50
176
     1
 62
   256
176
     0
 40
1.0
176
     0
 90
        2
176
     1
  1
strokes_ogs.tif
176
     1
290
     0
176
     1
 40
1.0
176
     1
 40
1.0
176
     1
  0
VISUALSTYLE
  5
87
102
{ACAD_REACTORS
330
82
102
}
330
82
100
AcDbVisualStyle
  2
Basic
 70
     7
177
     3
291
     1
 70
    58
 90
        1
176
     1
 90
        0
176
     1
 90
        1
176
     1
 90
        0
176
     1
 40
0.6
176
     1
 40
30.0
176
     1
 62
     7
420
 16777215
176
     1
 90
        0
176
     1
 90
        4
176
     1
 62
     7
176
     1
 62
   257
176
     1
 90
        1
176
     1
 90
        1
176
     1
 40
1.0
176
     1
 90
        8
176
     1
 62
     7
176
     1
 40
1.0
176
     1
 90
        1
176
     1
 90
        6
176
     1
 90
        2
176
     1
 62
     7
176
     1
 90
        5
176
     1
 90
        0
176
     1
 90
        0
176
     1
290
     0
176
     1
 90
        1
176
     1
 40
0.0
176
     1
 90
        0
176
     1
290
     0
176
     1
290
     1
176
     1
290
     1
176
     1
290
     0
176
     1
290
     0
176
     1
290
     0
176
     1
290
     0
176
     1
290
     0
176
     1
290
     0
176
     1
 90
       50
176
     1
 40
0.0
176
     1
 40
1.0
176
     1
 90
        0
176
     1
 62
    18
420
        0
176
     1
 90
       50
176
     1
 90
        3
176
     1
 62
     5
420
      255
176
     1
290
     0
176
     1
 90
       50
176
     1
 90
       50
176
     1
 90
       50
176
     1
290
     0
176
     1
 90
       50
176
     1
 62
   256
176
     0
 40
1.0
176
     0
 90
        2
176
     1
  1
strokes_ogs.tif
176
     1
290
     0
176
     1
 40
1.0
176
     1
 40
1.0
176
     1
  0
VISUALSTYLE
  5
8E
102
{ACAD_REACTORS
330
82
102
}
330
82
100
AcDbVisualStyle
  2
Brighten
 70
    12
177
     3
291
     1
 70
    58
 90
        2
176
     1
 90
        2
176
     1
 90
        1
176
     1
 90
        0
176
     1
 40
0.6
176
     1
 40
30.0
176
     1
 62
     7
420
 16777215
176
     1
 90
        1
176
     1
 90
        4
176
     1
 62
     7
176
     1
 62
   257
176
     1
 90
        1
176
     1
 90
        1
176
     1
 40
1.0
176
     1
 90
        8
176
     1
 62
     7
176
     1
 40
1.0
176
     1
 90
        1
176
     1
 90
        6
176
     1
 90
        2
176
     1
 62
     7
176
     1
 90
        5
176
     1
 90
        0
176
     1
 90
        0
176
     1
290
     0
176
     1
 90
        1
176
     1
 40
50.0
176
     1
 90
        0
176
     1
290
     0
176
     1
290
     1
176
     1
290
     1
176
     1
290
     0
176
     1
290
     0
176
     1
290
     0
176
     1
290
     0
176
     1
290
     0
176
     1
290
     0
176
     1
 90
       50
176
     1
 40
0.0
176
     1
 40
1.0
176
     1
 90
        0
176
     1
 62
    18
420
        0
176
     1
 90
       50
176
     1
 90
        3
176
     1
 62
     5
420
      255
176
     1
290
     0
176
     1
 90
       50
176
     1
 90
       50
176
     1
 90
       50
176
     1
290
     0
176
     1
 90
       50
176
     1
 62
   256
176
     0
 40
1.0
176
     0
 90
        2
176
     1
  1
strokes_ogs.tif
176
     1
290
     0
176
     1
 40
1.0
176
     1
 40
1.0
176
     1
  0
VISUALSTYLE
  5
92
102
{ACAD_REACTORS
330
82
102
}
330
82
100
AcDbVisualStyle
  2
ColorChange
 70
    16
177
     3
291
     1
 70
    58
 90
        2
176
     1
 90
        2
176
     1
 90
        3
176
     1
 90
        0
176
     1
 40
0.6
176
     1
 40
30.0
176
     1
 62
     8
420
  8421504
176
     1
 90
        1
176
     1
 90
        4
176
     1
 62
     7
176
     1
 62
   257
176
     1
 90
        1
176
     1
 90
        1
176
     1
 40
1.0
176
     1
 90
        8
176
     1
 62
     8
420
  8421504
176
     1
 40
1.0
176
     1
 90
        1
176
     1
 90
        6
176
     1
 90
        2
176
     1
 62
     7
176
     1
 90
        5
176
     1
 90
        0
176
     1
 90
        0
176
     1
290
     0
176
     1
 90
        1
176
     1
 40
0.0
176
     1
 90
        0
176
     1
290
     0
176
     1
290
     1
176
     1
290
     1
176
     1
290
     0
176
     1
290
     0
176
     1
290
     0
176
     1
290
     0
176
     1
290
     0
176
     1
290
     0
176
     1
 90
       50
176
     1
 40
0.0
176
     1
 40
1.0
176
     1
 90
        0
176
     1
 62
    18
420
        0
176
     1
 90
       50
176
     1
 90
        3
176
     1
 62
     5
420
      255
176
     1
290
     0
176
     1
 90
       50
176
     1
 90
       50
176
     1
 90
       50
176
     1
290
     0
176
     1
 90
       50
176
     1
 62
   256
176
     0
 40
1.0
176
     0
 90
        2
176
     1
  1
strokes_ogs.tif
176
     1
290
     0
176
     1
 40
1.0
176
     1
 40
1.0
176
     1
  0
VISUALSTYLE
  5
8B
102
{ACAD_REACTORS
330
82
102
}
330
82
100
AcDbVisualStyle
  2
Conceptual
 70
     9
177
     3
291
     0
 70
    58
 90
        3
176
     1
 90
        2
176
     1
 90
        1
176
     1
 90
        0
176
     1
 40
0.6
176
     1
 40
30.0
176
     1
 62
     7
420
 16777215
176
     1
 90
        2
176
     1
 90
        2
176
     1
 62
     7
176
     1
 62
   257
176
     1
 90
        1
176
     1
 90
        1
176
     1
 40
40.0
176
     1
 90
        8
176
     1
 62
     7
176
     1
 40
1.0
176
     1
 90
        1
176
     1
 90
        6
176
     1
 90
        2
176
     1
 62
     7
176
     1
 90
        5
176
     1
 90
        0
176
     1
 90
        0
176
     1
290
     0
176
     1
 90
        1
176
     1
 40
0.0
176
     1
 90
        0
176
     1
290
     0
176
     1
290
     1
176
     1
290
     1
176
     1
290
     0
176
     1
290
     0
176
     1
290
     0
176
     1
290
     0
176
     1
290
     0
176
     1
290
     0
176
     1
 90
       50
176
     1
 40
0.0
176
     1
 40
1.0
176
     1
 90
        0
176
     1
 62
    18
420
        0
176
     1
 90
       50
176
     1
 90
        3
176
     1
 62
     5
420
      255
176
     1
290
     0
176
     1
 90
       50
176
     1
 90
       50
176
     1
 90
       50
176
     1
290
     0
176
     1
 90
       50
176
     1
 62
   256
176
     0
 40
1.0
176
     0
 90
        2
176
     1
  1
strokes_ogs.tif
176
     1
290
     0
176
     1
 40
1.0
176
     1
 40
1.0
176
     1
  0
VISUALSTYLE
  5
8D
102
{ACAD_REACTORS
330
82
102
}
330
82
100
AcDbVisualStyle
  2
Dim
 70
    11
177
     3
291
     1
 70
    58
 90
        2
176
     1
 90
        2
176
     1
 90
        1
176
     1
 90
        0
176
     1
 40
0.6
176
     1
 40
30.0
176
     1
 62
     7
420
 16777215
176
     1
 90
        1
176
     1
 90
        4
176
     1
 62
     7
176
     1
 62
   257
176
     1
 90
        1
176
     1
 90
        1
176
     1
 40
1.0
176
     1
 90
        8
176
     1
 62
     7
176
     1
 40
1.0
176
     1
 90
        1
176
     1
 90
        6
176
     1
 90
        2
176
     1
 62
     7
176
     1
 90
        5
176
     1
 90
        0
176
     1
 90
        0
176
     1
290
     0
176
     1
 90
        1
176
     1
 40
-50.0
176
     1
 90
        0
176
     1
290
     0
176
     1
290
     1
176
     1
290
     1
176
     1
290
     0
176
     1
290
     0
176
     1
290
     0
176
     1
290
     0
176
     1
290
     0
176
     1
290
     0
176
     1
 90
       50
176
     1
 40
0.0
176
     1
 40
1.0
176
     1
 90
        0
176
     1
 62
    18
420
        0
176
     1
 90
       50
176
     1
 90
        3
176
     1
 62
     5
420
      255
176
     1
290
     0
176
     1
 90
       50
176
     1
 90
       50
176
     1
 90
       50
176
     1
290
     0
176
     1
 90
       50
176
     1
 62
   256
176
     0
 40
1.0
176
     0
 90
        2
176
     1
  1
strokes_ogs.tif
176
     1
290
     0
176
     1
 40
1.0
176
     1
 40
1.0
176
     1
  0
VISUALSTYLE
  5
AE
102
{ACAD_REACTORS
330
82
102
}
330
82
100
AcDbVisualStyle
  2
EdgeColorOff
 70
    22
177
     3
291
     1
 70
    58
 90
        2
176
     0
 90
        2
176
     0
 90
        0
176
     0
 90
        0
176
     0
 40
0.6
176
     0
 40
30.0
176
     0
 62
     7
420
 16777215
176
     0
 90
        1
176
     0
 90
        4
176
     0
 62
     7
176
     0
 62
   257
176
     0
 90
        1
176
     0
 90
        1
176
     0
 40
1.0
176
     0
 90
        8
176
     2
 62
     7
176
     0
 40
1.0
176
     0
 90
        1
176
     0
 90
        6
176
     0
 90
        2
176
     0
 62
     7
176
     0
 90
        5
176
     0
 90
        0
176
     0
 90
        0
176
     0
290
     0
176
     0
 90
        1
176
     0
 40
0.0
176
     0
 90
        0
176
     0
290
     0
176
     0
290
     1
176
     0
290
     1
176
     0
290
     0
176
     0
290
     0
176
     0
290
     0
176
     0
290
     0
176
     0
290
     0
176
     0
290
     0
176
     0
 90
       50
176
     0
 40
0.0
176
     0
 40
1.0
176
     0
 90
        0
176
     0
 62
    18
420
        0
176
     0
 90
       50
176
     0
 90
        3
176
     0
 62
     5
420
      255
176
     0
290
     0
176
     0
 90
       50
176
     0
 90
       50
176
     0
 90
       50
176
     0
290
     0
176
     0
 90
       50
176
     0
 62
   256
176
     0
 40
1.0
176
     0
 90
        2
176
     0
  1
strokes_ogs.tif
176
     0
290
     0
176
     0
 40
1.0
176
     0
 40
1.0
176
     0
  0
VISUALSTYLE
  5
91
102
{ACAD_REACTORS
330
82
102
}
330
82
100
AcDbVisualStyle
  2
Facepattern
 70
    15
177
     3
291
     1
 70
    58
 90
        2
176
     1
 90
        2
176
     1
 90
        1
176
     1
 90
        0
176
     1
 40
0.6
176
     1
 40
30.0
176
     1
 62
     7
420
 16777215
176
     1
 90
        1
176
     1
 90
        4
176
     1
 62
     7
176
     1
 62
   257
176
     1
 90
        1
176
     1
 90
        1
176
     1
 40
1.0
176
     1
 90
        8
176
     1
 62
     7
176
     1
 40
1.0
176
     1
 90
        1
176
     1
 90
        6
176
     1
 90
        2
176
     1
 62
     7
176
     1
 90
        5
176
     1
 90
        0
176
     1
 90
        0
176
     1
290
     0
176
     1
 90
        1
176
     1
 40
0.0
176
     1
 90
        0
176
     1
290
     0
176
     1
290
     1
176
     1
290
     1
176
     1
290
     0
176
     1
290
     0
176
     1
290
     0
176
     1
290
     0
176
     1
290
     0
176
     1
290
     0
176
     1
 90
       50
176
     1
 40
0.0
176
     1
 40
1.0
176
     1
 90
        0
176
     1
 62
    18
420
        0
176
     1
 90
       50
176
     1
 90
        3
176
     1
 62
     5
420
      255
176
     1
290
     0
176
     1
 90
       50
176
     1
 90
       50
176
     1
 90
       50
176
     1
290
     0
176
     1
 90
       50
176
     1
 62
   256
176
     0
 40
1.0
176
     0
 90
        2
176
     1
  1
strokes_ogs.tif
176
     1
290
     0
176
     1
 40
1.0
176
     1
 40
1.0
176
     1
  0
VISUALSTYLE
  5
83
102
{ACAD_REACTORS
330
82
102
}
330
82
100
AcDbVisualStyle
  2
Flat
 70
     0
177
     3
291
     1
 70
    58
 90
        2
176
     1
 90
        1
176
     1
 90
        1
176
     1
 90
        2
176
     1
 40
0.6
176
     1
 40
30.0
176
     1
 62
     7
420
 16777215
176
     1
 90
        0
176
     1
 90
        4
176
     1
 62
     7
176
     1
 62
   257
176
     1
 90
        1
176
     1
 90
        1
176
     1
 40
1.0
176
     1
 90
        8
176
     1
 62
     7
176
     1
 40
1.0
176
     1
 90
        1
176
     1
 90
        6
176
     1
 90
        2
176
     1
 62
     7
176
     1
 90
        5
176
     1
 90
        0
176
     1
 90
        0
176
     1
290
     0
176
     1
 90
        1
176
     1
 40
0.0
176
     1
 90
        0
176
     1
290
     0
176
     1
290
     1
176
     1
290
     1
176
     1
290
     0
176
     1
290
     0
176
     1
290
     0
176
     1
290
     0
176
     1
290
     0
176
     1
290
     0
176
     1
 90
       50
176
     1
 40
0.0
176
     1
 40
1.0
176
     1
 90
        0
176
     1
 62
    18
420
        0
176
     1
 90
       50
176
     1
 90
        3
176
     1
 62
     5
420
      255
176
     1
290
     0
176
     1
 90
       50
176
     1
 90
       50
176
     1
 90
       50
176
     1
290
     0
176
     1
 90
       50
176
     1
 62
   256
176
     0
 40
1.0
176
     0
 90
        2
176
     1
  1
strokes_ogs.tif
176
     1
290
     0
176
     1
 40
1.0
176
     1
 40
1.0
176
     1
  0
VISUALSTYLE
  5
84
102
{ACAD_REACTORS
330
82
102
}
330
82
100
AcDbVisualStyle
  2
FlatWithEdges
 70
     1
177
     3
291
     1
 70
    58
 90
        2
176
     1
 90
        1
176
     1
 90
        1
176
     1
 90
        2
176
     1
 40
0.6
176
     1
 40
30.0
176
     1
 62
     7
420
 16777215
176
     1
 90
        1
176
     1
 90
        4
176
     1
 62
     7
176
     1
 62
   257
176
     1
 90
        1
176
     1
 90
        1
176
     1
 40
1.0
176
     1
 90
        0
176
     1
 62
   257
176
     1
 40
1.0
176
     1
 90
        1
176
     1
 90
        6
176
     1
 90
        2
176
     1
 62
     7
176
     1
 90
        5
176
     1
 90
        0
176
     1
 90
        0
176
     1
290
     0
176
     1
 90
        1
176
     1
 40
0.0
176
     1
 90
        0
176
     1
290
     0
176
     1
290
     1
176
     1
290
     1
176
     1
290
     0
176
     1
290
     0
176
     1
290
     0
176
     1
290
     0
176
     1
290
     0
176
     1
290
     0
176
     1
 90
       50
176
     1
 40
0.0
176
     1
 40
1.0
176
     1
 90
        0
176
     1
 62
    18
420
        0
176
     1
 90
       50
176
     1
 90
        3
176
     1
 62
     5
420
      255
176
     1
290
     0
176
     1
 90
       50
176
     1
 90
       50
176
     1
 90
       50
176
     1
290
     0
176
     1
 90
       50
176
     1
 62
   256
176
     0
 40
1.0
176
     0
 90
        2
176
     1
  1
strokes_ogs.tif
176
     1
290
     0
176
     1
 40
1.0
176
     1
 40
1.0
176
     1
  0
VISUALSTYLE
  5
85
102
{ACAD_REACTORS
330
82
102
}
330
82
100
AcDbVisualStyle
  2
Gouraud
 70
     2
177
     3
291
     1
 70
    58
 90
        2
176
     1
 90
        2
176
     1
 90
        1
176
     1
 90
        2
176
     1
 40
0.6
176
     1
 40
30.0
176
     1
 62
     7
420
 16777215
176
     1
 90
        0
176
     1
 90
        4
176
     1
 62
     7
176
     1
 62
   257
176
     1
 90
        1
176
     1
 90
        1
176
     1
 40
1.0
176
     1
 90
        0
176
     1
 62
     7
176
     1
 40
1.0
176
     1
 90
        1
176
     1
 90
        6
176
     1
 90
        2
176
     1
 62
     7
176
     1
 90
        5
176
     1
 90
        0
176
     1
 90
        0
176
     1
290
     0
176
     1
 90
        1
176
     1
 40
0.0
176
     1
 90
        0
176
     1
290
     0
176
     1
290
     1
176
     1
290
     1
176
     1
290
     0
176
     1
290
     0
176
     1
290
     0
176
     1
290
     0
176
     1
290
     0
176
     1
290
     0
176
     1
 90
       50
176
     1
 40
0.0
176
     1
 40
1.0
176
     1
 90
        0
176
     1
 62
    18
420
        0
176
     1
 90
       50
176
     1
 90
        3
176
     1
 62
     5
420
      255
176
     1
290
     0
176
     1
 90
       50
176
     1
 90
       50
176
     1
 90
       50
176
     1
290
     0
176
     1
 90
       50
176
     1
 62
   256
176
     0
 40
1.0
176
     0
 90
        2
176
     1
  1
strokes_ogs.tif
176
     1
290
     0
176
     1
 40
1.0
176
     1
 40
1.0
176
     1
  0
VISUALSTYLE
  5
86
102
{ACAD_REACTORS
330
82
102
}
330
82
100
AcDbVisualStyle
  2
GouraudWithEdges
 70
     3
177
     3
291
     1
 70
    58
 90
        2
176
     1
 90
        2
176
     1
 90
        1
176
     1
 90
        2
176
     1
 40
0.6
176
     1
 40
30.0
176
     1
 62
     7
420
 16777215
176
     1
 90
        1
176
     1
 90
        4
176
     1
 62
     7
176
     1
 62
   257
176
     1
 90
        1
176
     1
 90
        1
176
     1
 40
1.0
176
     1
 90
        0
176
     1
 62
   257
176
     1
 40
1.0
176
     1
 90
        1
176
     1
 90
        6
176
     1
 90
        2
176
     1
 62
     7
176
     1
 90
        5
176
     1
 90
        0
176
     1
 90
        0
176
     1
290
     0
176
     1
 90
        1
176
     1
 40
0.0
176
     1
 90
        0
176
     1
290
     0
176
     1
290
     1
176
     1
290
     1
176
     1
290
     0
176
     1
290
     0
176
     1
290
     0
176
     1
290
     0
176
     1
290
     0
176
     1
290
     0
176
     1
 90
       50
176
     1
 40
0.0
176
     1
 40
1.0
176
     1
 90
        0
176
     1
 62
    18
420
        0
176
     1
 90
       50
176
     1
 90
        3
176
     1
 62
     5
420
      255
176
     1
290
     0
176
     1
 90
       50
176
     1
 90
       50
176
     1
 90
       50
176
     1
290
     0
176
     1
 90
       50
176
     1
 62
   256
176
     0
 40
1.0
176
     0
 90
        2
176
     1
  1
strokes_ogs.tif
176
     1
290
     0
176
     1
 40
1.0
176
     1
 40
1.0
176
     1
  0
VISUALSTYLE
  5
A6
102
{ACAD_REACTORS
330
82
102
}
330
82
100
AcDbVisualStyle
  2
Hidden
 70
     6
177
     3
291
     0
 70
    58
 90
        1
176
     1
 90
        2
176
     1
 90
        2
176
     1
 90
        0
176
     1
 40
0.6
176
     1
 40
30.0
176
     1
 62
     7
420
 16777215
176
     1
 90
        2
176
     1
 90
        2
176
     1
 62
     7
176
     1
 62
   257
176
     1
 90
        2
176
     1
 90
        1
176
     1
 40
40.0
176
     1
 90
        0
176
     1
 62
   257
176
     1
 40
1.0
176
     1
 90
        1
176
     1
 90
        6
176
     1
 90
        2
176
     1
 62
     7
176
     1
 90
        3
176
     1
 90
        0
176
     1
 90
        0
176
     1
290
     0
176
     1
 90
        1
176
     1
 40
0.0
176
     1
 90
        0
176
     1
290
     0
176
     1
290
     1
176
     1
290
     1
176
     1
290
     0
176
     1
290
     0
176
     1
290
     0
176
     1
290
     0
176
     1
290
     0
176
     1
290
     0
176
     1
 90
       50
176
     1
 40
0.0
176
     1
 40
1.0
176
     1
 90
        0
176
     1
 62
    18
420
        0
176
     1
 90
       50
176
     1
 90
        3
176
     1
 62
     5
420
      255
176
     1
290
     0
176
     1
 90
       50
176
     1
 90
       50
176
     1
 90
       50
176
     1
290
     0
176
     1
 90
       50
176
     1
 62
   256
176
     0
 40
1.0
176
     0
 90
        2
176
     1
  1
strokes_ogs.tif
176
     1
290
     0
176
     1
 40
1.0
176
     1
 40
1.0
176
     1
  0
VISUALSTYLE
  5
AC
102
{ACAD_REACTORS
330
82
102
}
330
82
100
AcDbVisualStyle
  2
JitterOff
 70
    20
177
     3
291
     1
 70
    58
 90
        2
176
     0
 90
        2
176
     0
 90
        0
176
     0
 90
        0
176
     0
 40
0.6
176
     0
 40
30.0
176
     0
 62
     7
420
 16777215
176
     0
 90
        1
176
     0
 90
        4
176
     0
 62
     7
176
     0
 62
   257
176
     0
 90
        1
176
     0
 90
        1
176
     0
 40
1.0
176
     0
 90
       10
176
     2
 62
     7
176
     0
 40
1.0
176
     0
 90
        1
176
     0
 90
        6
176
     0
 90
        2
176
     0
 62
     7
176
     0
 90
        5
176
     0
 90
        0
176
     0
 90
        0
176
     0
290
     0
176
     0
 90
        1
176
     0
 40
0.0
176
     0
 90
        0
176
     0
290
     0
176
     0
290
     1
176
     0
290
     1
176
     0
290
     0
176
     0
290
     0
176
     0
290
     0
176
     0
290
     0
176
     0
290
     0
176
     0
290
     0
176
     0
 90
       50
176
     0
 40
0.0
176
     0
 40
1.0
176
     0
 90
        0
176
     0
 62
    18
420
        0
176
     0
 90
       50
176
     0
 90
        3
176
     0
 62
     5
420
      255
176
     0
290
     0
176
     0
 90
       50
176
     0
 90
       50
176
     0
 90
       50
176
     0
290
     0
176
     0
 90
       50
176
     0
 62
   256
176
     0
 40
1.0
176
     0
 90
        2
176
     0
  1
strokes_ogs.tif
176
     0
290
     0
176
     0
 40
1.0
176
     0
 40
1.0
176
     0
  0
VISUALSTYLE
  5
90
102
{ACAD_REACTORS
330
82
102
}
330
82
100
AcDbVisualStyle
  2
Linepattern
 70
    14
177
     3
291
     1
 70
    58
 90
        2
176
     1
 90
        2
176
     1
 90
        1
176
     1
 90
        0
176
     1
 40
0.6
176
     1
 40
30.0
176
     1
 62
     7
420
 16777215
176
     1
 90
        1
176
     1
 90
        4
176
     1
 62
     7
176
     1
 62
   257
176
     1
 90
        7
176
     1
 90
        7
176
     1
 40
1.0
176
     1
 90
        8
176
     1
 62
     7
176
     1
 40
1.0
176
     1
 90
        1
176
     1
 90
        6
176
     1
 90
        2
176
     1
 62
     7
176
     1
 90
        5
176
     1
 90
        0
176
     1
 90
        0
176
     1
290
     0
176
     1
 90
        1
176
     1
 40
0.0
176
     1
 90
        0
176
     1
290
     0
176
     1
290
     1
176
     1
290
     1
176
     1
290
     0
176
     1
290
     0
176
     1
290
     0
176
     1
290
     0
176
     1
290
     0
176
     1
290
     0
176
     1
 90
       50
176
     1
 40
0.0
176
     1
 40
1.0
176
     1
 90
        0
176
     1
 62
    18
420
        0
176
     1
 90
       50
176
     1
 90
        3
176
     1
 62
     5
420
      255
176
     1
290
     0
176
     1
 90
       50
176
     1
 90
       50
176
     1
 90
       50
176
     1
290
     0
176
     1
 90
       50
176
     1
 62
   256
176
     0
 40
1.0
176
     0
 90
        2
176
     1
  1
strokes_ogs.tif
176
     1
290
     0
176
     1
 40
1.0
176
     1
 40
1.0
176
     1
  0
VISUALSTYLE
  5
AD
102
{ACAD_REACTORS
330
82
102
}
330
82
100
AcDbVisualStyle
  2
OverhangOff
 70
    21
177
     3
291
     1
 70
    58
 90
        2
176
     0
 90
        2
176
     0
 90
        0
176
     0
 90
        0
176
     0
 40
0.6
176
     0
 40
30.0
176
     0
 62
     7
420
 16777215
176
     0
 90
        1
176
     0
 90
        4
176
     0
 62
     7
176
     0
 62
   257
176
     0
 90
        1
176
     0
 90
        1
176
     0
 40
1.0
176
     0
 90
        9
176
     2
 62
     7
176
     0
 40
1.0
176
     0
 90
        1
176
     0
 90
        6
176
     0
 90
        2
176
     0
 62
     7
176
     0
 90
        5
176
     0
 90
        0
176
     0
 90
        0
176
     0
290
     0
176
     0
 90
        1
176
     0
 40
0.0
176
     0
 90
        0
176
     0
290
     0
176
     0
290
     1
176
     0
290
     1
176
     0
290
     0
176
     0
290
     0
176
     0
290
     0
176
     0
290
     0
176
     0
290
     0
176
     0
290
     0
176
     0
 90
       50
176
     0
 40
0.0
176
     0
 40
1.0
176
     0
 90
        0
176
     0
 62
    18
420
        0
176
     0
 90
       50
176
     0
 90
        3
176
     0
 62
     5
420
      255
176
     0
290
     0
176
     0
 90
       50
176
     0
 90
       50
176
     0
 90
       50
176
     0
290
     0
176
     0
 90
       50
176
     0
 62
   256
176
     0
 40
1.0
176
     0
 90
        2
176
     0
  1
strokes_ogs.tif
176
     0
290
     0
176
     0
 40
1.0
176
     0
 40
1.0
176
     0
  0
VISUALSTYLE
  5
8C
102
{ACAD_REACTORS
330
82
102
}
330
82
100
AcDbVisualStyle
  2
Realistic
 70
     8
177
     3
291
     0
 70
    58
 90
        2
176
     1
 90
        2
176
     1
 90
        1
176
     1
 90
        0
176
     1
 40
0.6
176
     1
 40
30.0
176
     1
 62
     7
420
 16777215
176
     1
 90
        1
176
     1
 90
        0
176
     1
 62
     7
176
     1
 62
   257
176
     1
 90
        1
176
     1
 90
        1
176
     1
 40
1.0
176
     1
 90
        8
176
     1
 62
     7
176
     1
 40
1.0
176
     1
 90
        1
176
     1
 90
        6
176
     1
 90
        2
176
     1
 62
     7
176
     1
 90
        5
176
     1
 90
        0
176
     1
 90
        0
176
     1
290
     0
176
     1
 90
       13
176
     1
 40
0.0
176
     1
 90
        0
176
     1
290
     0
176
     1
290
     1
176
     1
290
     1
176
     1
290
     0
176
     1
290
     0
176
     1
290
     0
176
     1
290
     0
176
     1
290
     0
176
     1
290
     0
176
     1
 90
       50
176
     1
 40
0.0
176
     1
 40
1.0
176
     1
 90
        0
176
     1
 62
    18
420
        0
176
     1
 90
       50
176
     1
 90
        3
176
     1
 62
     5
420
      255
176
     1
290
     0
176
     1
 90
       50
176
     1
 90
       50
176
     1
 90
       50
176
     1
290
     0
176
     1
 90
       50
176
     1
 62
   256
176
     0
 40
1.0
176
     0
 90
        2
176
     1
  1
strokes_ogs.tif
176
     1
290
     0
176
     1
 40
1.0
176
     1
 40
1.0
176
     1
  0
VISUALSTYLE
  5
AB
102
{ACAD_REACTORS
330
82
102
}
330
82
100
AcDbVisualStyle
  2
Shaded
 70
    27
177
     3
291
     0
 70
    58
 90
        2
176
     1
 90
        2
176
     1
 90
        1
176
     1
 90
        2
176
     1
 40
0.6
176
     1
 40
30.0
176
     1
 62
     7
420
 16777215
176
     1
 90
        0
176
     1
 90
        4
176
     1
 62
     7
176
     1
 62
   257
176
     1
 90
        1
176
     1
 90
        1
176
     1
 40
1.0
176
     1
 90
        8
176
     1
 62
   257
176
     1
 40
1.0
176
     1
 90
        1
176
     1
 90
        6
176
     1
 90
        2
176
     1
 62
     8
420
  7895160
176
     1
 90
        3
176
     1
 90
        0
176
     1
 90
        0
176
     1
290
     0
176
     1
 90
        5
176
     1
 40
0.0
176
     1
 90
        0
176
     1
290
     0
176
     1
290
     1
176
     1
290
     1
176
     1
290
     0
176
     1
290
     0
176
     1
290
     0
176
     1
290
     0
176
     1
290
     0
176
     1
290
     0
176
     1
 90
       50
176
     1
 40
0.0
176
     1
 40
1.0
176
     1
 90
        0
176
     1
 62
    18
420
        0
176
     1
 90
       50
176
     1
 90
        3
176
     1
 62
     5
420
      255
176
     1
290
     0
176
     1
 90
       50
176
     1
 90
       50
176
     1
 90
       50
176
     1
290
     0
176
     1
 90
       50
176
     1
 62
   256
176
     0
 40
1.0
176
     0
 90
        2
176
     1
  1
strokes_ogs.tif
176
     1
290
     0
176
     1
 40
1.0
176
     1
 40
1.0
176
     1
  0
VISUALSTYLE
  5
AA
102
{ACAD_REACTORS
330
82
102
}
330
82
100
AcDbVisualStyle
  2
Shaded with edges
 70
    26
177
     3
291
     0
 70
    58
 90
        2
176
     1
 90
        2
176
     1
 90
        1
176
     1
 90
        2
176
     1
 40
0.6
176
     1
 40
30.0
176
     1
 62
     7
420
 16777215
176
     1
 90
        1
176
     1
 90
        2
176
     1
 62
     7
176
     1
 62
   257
176
     1
 90
        2
176
     1
 90
        1
176
     1
 40
1.0
176
     1
 90
        8
176
     1
 62
   257
176
     1
 40
1.0
176
     1
 90
        1
176
     1
 90
        6
176
     1
 90
        2
176
     1
 62
     7
176
     1
 90
        3
176
     1
 90
        0
176
     1
 90
        0
176
     1
290
     0
176
     1
 90
        5
176
     1
 40
0.0
176
     1
 90
        0
176
     1
290
     0
176
     1
290
     1
176
     1
290
     1
176
     1
290
     0
176
     1
290
     0
176
     1
290
     0
176
     1
290
     0
176
     1
290
     0
176
     1
290
     0
176
     1
 90
       50
176
     1
 40
0.0
176
     1
 40
1.0
176
     1
 90
        0
176
     1
 62
    18
420
        0
176
     1
 90
       50
176
     1
 90
        3
176
     1
 62
     5
420
      255
176
     1
290
     0
176
     1
 90
       50
176
     1
 90
       50
176
     1
 90
       50
176
     1
290
     0
176
     1
 90
       50
176
     1
 62
   256
176
     0
 40
1.0
176
     0
 90
        2
176
     1
  1
strokes_ogs.tif
176
     1
290
     0
176
     1
 40
1.0
176
     1
 40
1.0
176
     1
  0
VISUALSTYLE
  5
A7
102
{ACAD_REACTORS
330
82
102
}
330
82
100
AcDbVisualStyle
  2
Shades of Gray
 70
    23
177
     3
291
     0
 70
    58
 90
        2
176
     1
 90
        2
176
     1
 90
        3
176
     1
 90
        0
176
     1
 40
0.6
176
     1
 40
30.0
176
     1
 62
     7
420
 16777215
176
     1
 90
        2
176
     1
 90
        2
176
     1
 62
     7
176
     1
 62
     7
176
     1
 90
        1
176
     1
 90
        1
176
     1
 40
40.0
176
     1
 90
        8
176
     1
 62
     7
176
     1
 40
1.0
176
     1
 90
        1
176
     1
 90
        6
176
     1
 90
        2
176
     1
 62
     7
176
     1
 90
        3
176
     1
 90
        0
176
     1
 90
        0
176
     1
290
     0
176
     1
 90
        1
176
     1
 40
0.0
176
     1
 90
        0
176
     1
290
     0
176
     1
290
     1
176
     1
290
     1
176
     1
290
     0
176
     1
290
     0
176
     1
290
     0
176
     1
290
     0
176
     1
290
     0
176
     1
290
     0
176
     1
 90
       50
176
     1
 40
0.0
176
     1
 40
1.0
176
     1
 90
        0
176
     1
 62
    18
420
        0
176
     1
 90
       50
176
     1
 90
        3
176
     1
 62
     5
420
      255
176
     1
290
     0
176
     1
 90
       50
176
     1
 90
       50
176
     1
 90
       50
176
     1
290
     0
176
     1
 90
       50
176
     1
 62
   256
176
     0
 40
1.0
176
     0
 90
        2
176
     1
  1
strokes_ogs.tif
176
     1
290
     0
176
     1
 40
1.0
176
     1
 40
1.0
176
     1
  0
VISUALSTYLE
  5
A8
102
{ACAD_REACTORS
330
82
102
}
330
82
100
AcDbVisualStyle
  2
Sketchy
 70
    24
177
     3
291
     0
 70
    58
 90
        1
176
     1
 90
        2
176
     1
 90
        2
176
     1
 90
        0
176
     1
 40
0.6
176
     1
 40
30.0
176
     1
 62
     7
420
 16777215
176
     1
 90
        2
176
     1
 90
        2
176
     1
 62
     7
176
     1
 62
     7
176
     1
 90
        1
176
     1
 90
        1
176
     1
 40
40.0
176
     1
 90
       11
176
     1
 62
     7
176
     1
 40
1.0
176
     1
 90
        1
176
     1
 90
        6
176
     1
 90
        2
176
     1
 62
     7
176
     1
 90
        6
176
     1
 90
        0
176
     1
 90
        0
176
     1
290
     0
176
     1
 90
        1
176
     1
 40
0.0
176
     1
 90
        0
176
     1
290
     0
176
     1
290
     1
176
     1
290
     1
176
     1
290
     0
176
     1
290
     0
176
     1
290
     0
176
     1
290
     0
176
     1
290
     0
176
     1
290
     0
176
     1
 90
       50
176
     1
 40
0.0
176
     1
 40
1.0
176
     1
 90
        0
176
     1
 62
    18
420
        0
176
     1
 90
       50
176
     1
 90
        3
176
     1
 62
     5
420
      255
176
     1
290
     0
176
     1
 90
       50
176
     1
 90
       50
176
     1
 90
       50
176
     1
290
     0
176
     1
 90
       50
176
     1
 62
   256
176
     0
 40
1.0
176
     0
 90
        2
176
     1
  1
strokes_ogs.tif
176
     1
290
     0
176
     1
 40
1.0
176
     1
 40
1.0
176
     1
  0
VISUALSTYLE
  5
8F
102
{ACAD_REACTORS
330
82
102
}
330
82
100
AcDbVisualStyle
  2
Thicken
 70
    13
177
     3
291
     1
 70
    58
 90
        2
176
     1
 90
        2
176
     1
 90
        1
176
     1
 90
        0
176
     1
 40
0.6
176
     1
 40
30.0
176
     1
 62
     7
420
 16777215
176
     1
 90
        1
176
     1
 90
        4
176
     1
 62
     7
176
     1
 62
   257
176
     1
 90
        1
176
     1
 90
        1
176
     1
 40
1.0
176
     1
 90
       12
176
     1
 62
     7
176
     1
 40
1.0
176
     1
 90
        1
176
     1
 90
        6
176
     1
 90
        2
176
     1
 62
     7
176
     1
 90
        5
176
     1
 90
        0
176
     1
 90
        0
176
     1
290
     0
176
     1
 90
        1
176
     1
 40
0.0
176
     1
 90
        0
176
     1
290
     0
176
     1
290
     1
176
     1
290
     1
176
     1
290
     0
176
     1
290
     0
176
     1
290
     0
176
     1
290
     0
176
     1
290
     0
176
     1
290
     0
176
     1
 90
       50
176
     1
 40
0.0
176
     1
 40
1.0
176
     1
 90
        0
176
     1
 62
    18
420
        0
176
     1
 90
       50
176
     1
 90
        3
176
     1
 62
     5
420
      255
176
     1
290
     0
176
     1
 90
       50
176
     1
 90
       50
176
     1
 90
       50
176
     1
290
     0
176
     1
 90
       50
176
     1
 62
   256
176
     0
 40
1.0
176
     0
 90
        2
176
     1
  1
strokes_ogs.tif
176
     1
290
     0
176
     1
 40
1.0
176
     1
 40
1.0
176
     1
  0
VISUALSTYLE
  5
A5
102
{ACAD_REACTORS
330
82
102
}
330
82
100
AcDbVisualStyle
  2
Wireframe
 70
     5
177
     3
291
     0
 70
    58
 90
        0
176
     1
 90
        2
176
     1
 90
        0
176
     1
 90
        0
176
     1
 40
0.6
176
     1
 40
30.0
176
     1
 62
     7
420
 16777215
176
     1
 90
        1
176
     1
 90
        4
176
     1
 62
     7
176
     1
 62
   257
176
     1
 90
        1
176
     1
 90
        1
176
     1
 40
1.0
176
     1
 90
        0
176
     1
 62
   257
176
     1
 40
1.0
176
     1
 90
        1
176
     1
 90
        6
176
     1
 90
        2
176
     1
 62
     7
176
     1
 90
        3
176
     1
 90
        0
176
     1
 90
        0
176
     1
290
     0
176
     1
 90
        1
176
     1
 40
0.0
176
     1
 90
        0
176
     1
290
     0
176
     1
290
     1
176
     1
290
     1
176
     1
290
     0
176
     1
290
     0
176
     1
290
     0
176
     1
290
     0
176
     1
290
     0
176
     1
290
     0
176
     1
 90
       50
176
     1
 40
0.0
176
     1
 40
1.0
176
     1
 90
        0
176
     1
 62
    18
420
        0
176
     1
 90
       50
176
     1
 90
        3
176
     1
 62
     5
420
      255
176
     1
290
     0
176
     1
 90
       50
176
     1
 90
       50
176
     1
 90
       50
176
     1
290
     0
176
     1
 90
       50
176
     1
 62
   256
176
     0
 40
1.0
176
     0
 90
        2
176
     1
  1
strokes_ogs.tif
176
     1
290
     0
176
     1
 40
1.0
176
     1
 40
1.0
176
     1
  0
VISUALSTYLE
  5
A9
102
{ACAD_REACTORS
330
82
102
}
330
82
100
AcDbVisualStyle
  2
X-Ray
 70
    25
177
     3
291
     0
 70
    58
 90
        2
176
     1
 90
        2
176
     1
 90
        1
176
     1
 90
        1
176
     1
 40
0.5
176
     1
 40
30.0
176
     1
 62
     7
420
 16777215
176
     1
 90
        1
176
     1
 90
        0
176
     1
 62
     7
176
     1
 62
   257
176
     1
 90
        1
176
     1
 90
        1
176
     1
 40
1.0
176
     1
 90
        8
176
     1
 62
     7
176
     1
 40
1.0
176
     1
 90
        1
176
     1
 90
        6
176
     1
 90
        2
176
     1
 62
     7
176
     1
 90
        3
176
     1
 90
        0
176
     1
 90
        0
176
     1
290
     0
176
     1
 90
       13
176
     1
 40
0.0
176
     1
 90
        0
176
     1
290
     0
176
     1
290
     1
176
     1
290
     1
176
     1
290
     0
176
     1
290
     0
176
     1
290
     0
176
     1
290
     0
176
     1
290
     0
176
     1
290
     0
176
     1
 90
       50
176
     1
 40
0.0
176
     1
 40
1.0
176
     1
 90
        0
176
     1
 62
    18
420
        0
176
     1
 90
       50
176
     1
 90
        3
176
     1
 62
     5
420
      255
176
     1
290
     0
176
     1
 90
       50
176
     1
 90
       50
176
     1
 90
       50
176
     1
290
     0
176
     1
 90
       50
176
     1
 62
   256
176
     0
 40
1.0
176
     0
 90
        2
176
     1
  1
strokes_ogs.tif
176
     1
290
     0
176
     1
 40
1.0
176
     1
 40
1.0
176
     1
  0
DICTIONARYVAR
  5
4FF
102
{ACAD_REACTORS
330
9B
102
}
330
9B
100
DictionaryVariables
280
     0
  1
1:1
  0
DICTIONARYVAR
  5
4FB
102
{ACAD_REACTORS
330
9B
102
}
330
9B
100
DictionaryVariables
280
     0
  1
STANDARD
  0
DICTIONARYVAR
  5
9C
102
{ACAD_REACTORS
330
9B
102
}
330
9B
100
DictionaryVariables
280
     0
  1
STANDARD
  0
DICTIONARYVAR
  5
4FC
102
{ACAD_REACTORS
330
9B
102
}
330
9B
100
DictionaryVariables
280
     0
  1
Imperial24
  0
DICTIONARYVAR
  5
4FD
102
{ACAD_REACTORS
330
9B
102
}
330
9B
100
DictionaryVariables
280
     0
  1
Imperial24
  0
DICTIONARYVAR
  5
501
102
{ACAD_REACTORS
330
9B
102
}
330
9B
100
DictionaryVariables
280
     0
  1
1
  0
DICTIONARYVAR
  5
502
102
{ACAD_REACTORS
330
9B
102
}
330
9B
100
DictionaryVariables
280
     0
  1
15
  0
DICTIONARYVAR
  5
500
102
{ACAD_REACTORS
330
9B
102
}
330
9B
100
DictionaryVariables
280
     0
  1
0
  0
DICTIONARYVAR
  5
4FE
102
{ACAD_REACTORS
330
9B
102
}
330
9B
100
DictionaryVariables
280
     0
  1
0
  0
DICTIONARY
  5
507
330
C6
100
AcDbDictionary
280
     1
281
     1
  3
ACAD_XREC_ROUNDTRIP
360
508
  0
DICTIONARY
  5
505
330
C4
100
AcDbDictionary
280
     1
281
     1
  3
ACAD_XREC_ROUNDTRIP
360
506
  0
DICTIONARY
  5
503
330
94
100
AcDbDictionary
280
     1
281
     1
  3
ACAD_ROUNDTRIP_2008_TABLESTYLE_CELLSTYLEMAP
360
504
  0
XRECORD
  5
508
102
{ACAD_REACTORS
330
507
102
}
330
507
100
AcDbXrecord
280
     1
102
DISPLAYNAME
  1
Imperial24
102
FLAGS
 90
        0
  0
XRECORD
  5
506
102
{ACAD_REACTORS
330
505
102
}
330
505
100
AcDbXrecord
280
     1
102
DISPLAYNAME
  1
Imperial24
102
FLAGS
 90
        0
  0
CELLSTYLEMAP
  5
504
102
{ACAD_REACTORS
330
503
102
}
330
503
100
AcDbCellStyleMap
 90
        3
300
CELLSTYLE
  1
TABLEFORMAT_BEGIN
 90
        5
170
     1
 91
        0
 92
    32768
 62
   257
 93
        1
300
CONTENTFORMAT
  1
CONTENTFORMAT_BEGIN
 90
        0
 91
        0
 92
      512
 93
        0
300

 40
0.0
140
1.0
 94
        5
 62
     0
340
12
144
0.25
309
CONTENTFORMAT_END
171
     0
 94
        6
 95
        1
302
GRIDFORMAT
  1
GRIDFORMAT_BEGIN
 90
        0
 91
        1
 62
     0
 92
       -2
340
0
 93
        0
 40
0.045
309
GRIDFORMAT_END
 95
        2
302
GRIDFORMAT
  1
GRIDFORMAT_BEGIN
 90
        0
 91
        1
 62
     0
 92
       -2
340
0
 93
        0
 40
0.045
309
GRIDFORMAT_END
 95
        4
302
GRIDFORMAT
  1
GRIDFORMAT_BEGIN
 90
        0
 91
        1
 62
     0
 92
       -2
340
0
 93
        0
 40
0.045
309
GRIDFORMAT_END
 95
        8
302
GRIDFORMAT
  1
GRIDFORMAT_BEGIN
 90
        0
 91
        1
 62
     0
 92
       -2
340
0
 93
        0
 40
0.045
309
GRIDFORMAT_END
 95
       16
302
GRIDFORMAT
  1
GRIDFORMAT_BEGIN
 90
        0
 91
        1
 62
     0
 92
       -2
340
0
 93
        0
 40
0.045
309
GRIDFORMAT_END
 95
       32
302
GRIDFORMAT
  1
GRIDFORMAT_BEGIN
 90
        0
 91
        1
 62
     0
 92
       -2
340
0
 93
        0
 40
0.045
309
GRIDFORMAT_END
309
TABLEFORMAT_END
  1
CELLSTYLE_BEGIN
 90
        1
 91
        1
300
_TITLE
309
CELLSTYLE_END
300
CELLSTYLE
  1
TABLEFORMAT_BEGIN
 90
        5
170
     1
 91
        0
 92
        0
 62
   257
 93
        1
300
CONTENTFORMAT
  1
CONTENTFORMAT_BEGIN
 90
        0
 91
        0
 92
      512
 93
        0
300

 40
0.0
140
1.0
 94
        5
 62
     0
340
12
144
0.18
309
CONTENTFORMAT_END
171
     0
 94
        6
 95
        1
302
GRIDFORMAT
  1
GRIDFORMAT_BEGIN
 90
        0
 91
        1
 62
     0
 92
       -2
340
0
 93
        0
 40
0.045
309
GRIDFORMAT_END
 95
        2
302
GRIDFORMAT
  1
GRIDFORMAT_BEGIN
 90
        0
 91
        1
 62
     0
 92
       -2
340
0
 93
        0
 40
0.045
309
GRIDFORMAT_END
 95
        4
302
GRIDFORMAT
  1
GRIDFORMAT_BEGIN
 90
        0
 91
        1
 62
     0
 92
       -2
340
0
 93
        0
 40
0.045
309
GRIDFORMAT_END
 95
        8
302
GRIDFORMAT
  1
GRIDFORMAT_BEGIN
 90
        0
 91
        1
 62
     0
 92
       -2
340
0
 93
        0
 40
0.045
309
GRIDFORMAT_END
 95
       16
302
GRIDFORMAT
  1
GRIDFORMAT_BEGIN
 90
        0
 91
        1
 62
     0
 92
       -2
340
0
 93
        0
 40
0.045
309
GRIDFORMAT_END
 95
       32
302
GRIDFORMAT
  1
GRIDFORMAT_BEGIN
 90
        0
 91
        1
 62
     0
 92
       -2
340
0
 93
        0
 40
0.045
309
GRIDFORMAT_END
309
TABLEFORMAT_END
  1
CELLSTYLE_BEGIN
 90
        2
 91
        1
300
_HEADER
309
CELLSTYLE_END
300
CELLSTYLE
  1
TABLEFORMAT_BEGIN
 90
        5
170
     1
 91
        0
 92
        0
 62
   257
 93
        1
300
CONTENTFORMAT
  1
CONTENTFORMAT_BEGIN
 90
        0
 91
        0
 92
      512
 93
        0
300

 40
0.0
140
1.0
 94
        2
 62
     0
340
12
144
0.18
309
CONTENTFORMAT_END
171
     0
 94
        6
 95
        1
302
GRIDFORMAT
  1
GRIDFORMAT_BEGIN
 90
        0
 91
        1
 62
     0
 92
       -2
340
0
 93
        0
 40
0.045
309
GRIDFORMAT_END
 95
        2
302
GRIDFORMAT
  1
GRIDFORMAT_BEGIN
 90
        0
 91
        1
 62
     0
 92
       -2
340
0
 93
        0
 40
0.045
309
GRIDFORMAT_END
 95
        4
302
GRIDFORMAT
  1
GRIDFORMAT_BEGIN
 90
        0
 91
        1
 62
     0
 92
       -2
340
0
 93
        0
 40
0.045
309
GRIDFORMAT_END
 95
        8
302
GRIDFORMAT
  1
GRIDFORMAT_BEGIN
 90
        0
 91
        1
 62
     0
 92
       -2
340
0
 93
        0
 40
0.045
309
GRIDFORMAT_END
 95
       16
302
GRIDFORMAT
  1
GRIDFORMAT_BEGIN
 90
        0
 91
        1
 62
     0
 92
       -2
340
0
 93
        0
 40
0.045
309
GRIDFORMAT_END
 95
       32
302
GRIDFORMAT
  1
GRIDFORMAT_BEGIN
 90
        0
 91
        1
 62
     0
 92
       -2
340
0
 93
        0
 40
0.045
309
GRIDFORMAT_END
309
TABLEFORMAT_END
  1
CELLSTYLE_BEGIN
 90
        3
 91
        2
300
_DATA
309
CELLSTYLE_END
  0
ENDSEC
  0
EOF
