999
Erzeugt mit innoplus bad 
0
SECTION
2
HEADER
9
$ACADVER
1
AC1009
9
$DWGCODEPAGE
3
ISO8859-1
0
ENDSEC
0
SECTION
2
TABLES
0
TABLE
2
LAYER
70
1
0
LAYER
2
0
70
0
62
7
6
CONTINUOUS
0
ENDTAB
0
ENDSEC
0
SECTION
2
ENTITIES
0
LINE
8
0
6
CONTINUOUS
10
-24.000000
20
20.000000
30
0.0
11
-37.500000
21
20.000000
31
0.0
0
LINE
8
0
6
CONTINUOUS
10
-23.500000
20
-19.500000
30
0.0
11
-23.500000
21
-18.792893
31
0.0
0
LINE
8
0
6
CONTINUOUS
10
-24.000000
20
-20.000000
30
0.0
11
-23.500000
21
-19.500000
31
0.0
0
LINE
8
0
6
CONTINUOUS
10
-23.500000
20
-18.792893
30
0.0
11
-23.500000
21
18.792893
31
0.0
0
LINE
8
0
6
CONTINUOUS
10
-23.500000
20
19.500000
30
0.0
11
-24.000000
21
20.000000
31
0.0
0
LINE
8
0
6
CONTINUOUS
10
-23.500000
20
18.792893
30
0.0
11
-23.500000
21
19.500000
31
0.0
0
LINE
8
0
6
CONTINUOUS
10
-24.000000
20
-20.000000
30
0.0
11
-24.000000
21
-19.000000
31
0.0
0
LINE
8
0
6
CONTINUOUS
10
-37.500000
20
-20.000000
30
0.0
11
-24.000000
21
-20.000000
31
0.0
0
LINE
8
0
6
CONTINUOUS
10
-37.500000
20
-19.000000
30
0.0
11
-37.500000
21
-20.000000
31
0.0
0
LINE
8
0
6
CONTINUOUS
10
-24.000000
20
-19.000000
30
0.0
11
-24.000000
21
19.000000
31
0.0
0
LINE
8
0
6
CONTINUOUS
10
-37.500000
20
-19.000000
30
0.0
11
-24.000000
21
-19.000000
31
0.0
0
LINE
8
0
6
CONTINUOUS
10
-37.500000
20
19.000000
30
0.0
11
-37.500000
21
-19.000000
31
0.0
0
LINE
8
0
6
CONTINUOUS
10
-24.000000
20
20.000000
30
0.0
11
-37.500000
21
20.000000
31
0.0
0
LINE
8
0
6
CONTINUOUS
10
-24.000000
20
19.000000
30
0.0
11
-24.000000
21
20.000000
31
0.0
0
LINE
8
0
6
CONTINUOUS
10
-37.500000
20
19.000000
30
0.0
11
-24.000000
21
19.000000
31
0.0
0
LINE
8
0
6
CONTINUOUS
10
-37.500000
20
20.000000
30
0.0
11
-37.500000
21
19.000000
31
0.0
0
LINE
8
0
6
CONTINUOUS
10
-23.000000
20
20.000000
30
0.0
11
-23.500000
21
19.500000
31
0.0
0
LINE
8
0
6
CONTINUOUS
10
-23.000000
20
-19.000000
30
0.0
11
-23.000000
21
19.000000
31
0.0
0
LINE
8
0
6
CONTINUOUS
10
-23.500000
20
-19.500000
30
0.0
11
-23.000000
21
-20.000000
31
0.0
0
LINE
8
0
6
CONTINUOUS
10
-23.500000
20
19.500000
30
0.0
11
-23.500000
21
18.792893
31
0.0
0
LINE
8
0
6
CONTINUOUS
10
-23.000000
20
20.000000
30
0.0
11
-23.500000
21
19.500000
31
0.0
0
LINE
8
0
6
CONTINUOUS
10
-23.500000
20
18.792893
30
0.0
11
-23.500000
21
-18.792893
31
0.0
0
LINE
8
0
6
CONTINUOUS
10
-23.000000
20
-19.000000
30
0.0
11
-23.000000
21
19.000000
31
0.0
0
LINE
8
0
6
CONTINUOUS
10
-23.500000
20
-19.500000
30
0.0
11
-23.000000
21
-20.000000
31
0.0
0
LINE
8
0
6
CONTINUOUS
10
-23.500000
20
-18.792893
30
0.0
11
-23.500000
21
-19.500000
31
0.0
0
LINE
8
0
6
CONTINUOUS
10
19.844595
20
20.000000
30
0.0
11
-23.000000
21
20.000000
31
0.0
0
LINE
8
0
6
CONTINUOUS
10
-23.000000
20
19.000000
30
0.0
11
18.500000
21
19.000000
31
0.0
0
LINE
8
0
6
CONTINUOUS
10
-23.000000
20
20.000000
30
0.0
11
-23.000000
21
19.000000
31
0.0
0
LINE
8
0
6
CONTINUOUS
10
23.261282
20
20.000000
30
0.0
11
19.844595
21
20.000000
31
0.0
0
LINE
8
0
6
CONTINUOUS
10
18.500000
20
19.000000
30
0.0
11
22.035534
21
19.000000
31
0.0
0
LINE
8
0
6
CONTINUOUS
10
24.676521
20
20.000000
30
0.0
11
23.261282
21
20.000000
31
0.0
0
LINE
8
0
6
CONTINUOUS
10
23.500000
20
19.000000
30
0.0
11
24.676521
21
20.000000
31
0.0
0
LINE
8
0
6
CONTINUOUS
10
22.035534
20
19.000000
30
0.0
11
23.500000
21
19.000000
31
0.0
0
LINE
8
0
6
CONTINUOUS
10
18.500000
20
-19.000000
30
0.0
11
-23.000000
21
-19.000000
31
0.0
0
LINE
8
0
6
CONTINUOUS
10
-23.000000
20
-20.000000
30
0.0
11
19.844595
21
-20.000000
31
0.0
0
LINE
8
0
6
CONTINUOUS
10
-23.000000
20
-19.000000
30
0.0
11
-23.000000
21
-20.000000
31
0.0
0
LINE
8
0
6
CONTINUOUS
10
22.035534
20
-19.000000
30
0.0
11
18.500000
21
-19.000000
31
0.0
0
LINE
8
0
6
CONTINUOUS
10
19.844595
20
-20.000000
30
0.0
11
23.261282
21
-20.000000
31
0.0
0
LINE
8
0
6
CONTINUOUS
10
23.500000
20
-19.000000
30
0.0
11
22.035534
21
-19.000000
31
0.0
0
LINE
8
0
6
CONTINUOUS
10
24.676521
20
-20.000000
30
0.0
11
23.500000
21
-19.000000
31
0.0
0
LINE
8
0
6
CONTINUOUS
10
23.261282
20
-20.000000
30
0.0
11
24.676521
21
-20.000000
31
0.0
0
LINE
8
0
6
CONTINUOUS
10
35.395572
20
-20.000000
30
0.0
11
36.323479
21
-20.000000
31
0.0
0
LINE
8
0
6
CONTINUOUS
10
37.500000
20
-19.000000
30
0.0
11
36.621320
21
-19.000000
31
0.0
0
LINE
8
0
6
CONTINUOUS
10
36.323479
20
-20.000000
30
0.0
11
37.500000
21
-19.000000
31
0.0
0
LINE
8
0
6
CONTINUOUS
10
33.155405
20
-20.000000
30
0.0
11
35.395572
21
-20.000000
31
0.0
0
LINE
8
0
6
CONTINUOUS
10
36.621320
20
-19.000000
30
0.0
11
34.500000
21
-19.000000
31
0.0
0
LINE
8
0
6
CONTINUOUS
10
-23.000000
20
-20.000000
30
0.0
11
33.155405
21
-20.000000
31
0.0
0
LINE
8
0
6
CONTINUOUS
10
-23.000000
20
-19.000000
30
0.0
11
-23.000000
21
-20.000000
31
0.0
0
LINE
8
0
6
CONTINUOUS
10
34.500000
20
-19.000000
30
0.0
11
-23.000000
21
-19.000000
31
0.0
0
LINE
8
0
6
CONTINUOUS
10
36.621320
20
19.000000
30
0.0
11
37.500000
21
19.000000
31
0.0
0
LINE
8
0
6
CONTINUOUS
10
36.323479
20
20.000000
30
0.0
11
35.395572
21
20.000000
31
0.0
0
LINE
8
0
6
CONTINUOUS
10
37.500000
20
19.000000
30
0.0
11
36.323479
21
20.000000
31
0.0
0
LINE
8
0
6
CONTINUOUS
10
34.500000
20
19.000000
30
0.0
11
36.621320
21
19.000000
31
0.0
0
LINE
8
0
6
CONTINUOUS
10
35.395572
20
20.000000
30
0.0
11
33.155405
21
20.000000
31
0.0
0
LINE
8
0
6
CONTINUOUS
10
-23.000000
20
19.000000
30
0.0
11
34.500000
21
19.000000
31
0.0
0
LINE
8
0
6
CONTINUOUS
10
-23.000000
20
20.000000
30
0.0
11
-23.000000
21
19.000000
31
0.0
0
LINE
8
0
6
CONTINUOUS
10
33.155405
20
20.000000
30
0.0
11
-23.000000
21
20.000000
31
0.0
0
LINE
8
0
6
CONTINUOUS
10
18.500000
20
19.000000
30
0.0
11
-23.000000
21
19.000000
31
0.0
0
LINE
8
0
6
CONTINUOUS
10
-23.000000
20
-19.000000
30
0.0
11
18.500000
21
-19.000000
31
0.0
0
LINE
8
0
6
CONTINUOUS
10
-23.000000
20
19.000000
30
0.0
11
-23.000000
21
-19.000000
31
0.0
0
LINE
8
0
6
CONTINUOUS
10
22.035534
20
19.000000
30
0.0
11
18.500000
21
19.000000
31
0.0
0
LINE
8
0
6
CONTINUOUS
10
18.500000
20
-19.000000
30
0.0
11
22.035534
21
-19.000000
31
0.0
0
LINE
8
0
6
CONTINUOUS
10
23.500000
20
19.000000
30
0.0
11
22.035534
21
19.000000
31
0.0
0
LINE
8
0
6
CONTINUOUS
10
23.500000
20
-19.000000
30
0.0
11
23.500000
21
19.000000
31
0.0
0
LINE
8
0
6
CONTINUOUS
10
22.035534
20
-19.000000
30
0.0
11
23.500000
21
-19.000000
31
0.0
0
LINE
8
0
6
CONTINUOUS
10
22.035534
20
19.000000
30
0.0
11
22.035534
21
-19.000000
31
0.0
0
LINE
8
0
6
CONTINUOUS
10
36.621320
20
-19.000000
30
0.0
11
37.500000
21
-19.000000
31
0.0
0
LINE
8
0
6
CONTINUOUS
10
37.500000
20
19.000000
30
0.0
11
36.621320
21
19.000000
31
0.0
0
LINE
8
0
6
CONTINUOUS
10
37.500000
20
-19.000000
30
0.0
11
37.500000
21
19.000000
31
0.0
0
LINE
8
0
6
CONTINUOUS
10
34.500000
20
-19.000000
30
0.0
11
36.621320
21
-19.000000
31
0.0
0
LINE
8
0
6
CONTINUOUS
10
36.621320
20
19.000000
30
0.0
11
34.500000
21
19.000000
31
0.0
0
LINE
8
0
6
CONTINUOUS
10
36.621320
20
-19.000000
30
0.0
11
36.621320
21
19.000000
31
0.0
0
LINE
8
0
6
CONTINUOUS
10
-23.000000
20
-19.000000
30
0.0
11
34.500000
21
-19.000000
31
0.0
0
LINE
8
0
6
CONTINUOUS
10
-23.000000
20
19.000000
30
0.0
11
-23.000000
21
-19.000000
31
0.0
0
LINE
8
0
6
CONTINUOUS
10
34.500000
20
19.000000
30
0.0
11
-23.000000
21
19.000000
31
0.0
0
ENDSEC
0
EOF
