  0
SECTION
  2
HEADER
  9
$ACADVER
  1
AC1021
  9
$ACADMAINTVER
 70
    25
  9
$DWGCODEPAGE
  3
ANSI_932
  9
$LASTSAVEDBY
  1
bliu
  9
$INSBASE
 10
0.0
 20
0.0
 30
0.0
  9
$EXTMIN
 10
19.722857
 20
89.786768
 30
0.0
  9
$EXTMAX
 10
270.681497
 20
203.809954
 30
0.0
  9
$LIMMIN
 10
19.22036
 20
89.786768
  9
$LIMMAX
 10
270.769691
 20
203.898149
  9
$ORTHOMODE
 70
     0
  9
$REGENMODE
 70
     1
  9
$FILLMODE
 70
     1
  9
$QTEXTMODE
 70
     0
  9
$MIRRTEXT
 70
     1
  9
$LTSCALE
 40
1.0
  9
$ATTMODE
 70
     1
  9
$TEXTSIZE
 40
0.2
  9
$TRACEWID
 40
0.05
  9
$TEXTSTYLE
  7
Standard
  9
$CLAYER
  8
0
  9
$CELTYPE
  6
Continuous
  9
$CECOLOR
 62
   256
  9
$CELTSCALE
 40
1.0
  9
$DISPSILH
 70
     0
  9
$DIMSCALE
 40
1.0
  9
$DIMASZ
 40
0.18
  9
$DIMEXO
 40
0.0625
  9
$DIMDLI
 40
0.38
  9
$DIMRND
 40
0.0
  9
$DIMDLE
 40
0.0
  9
$DIMEXE
 40
0.18
  9
$DIMTP
 40
0.0
  9
$DIMTM
 40
0.0
  9
$DIMTXT
 40
0.18
  9
$DIMCEN
 40
0.09
  9
$DIMTSZ
 40
0.0
  9
$DIMTOL
 70
     0
  9
$DIMLIM
 70
     0
  9
$DIMTIH
 70
     1
  9
$DIMTOH
 70
     1
  9
$DIMSE1
 70
     0
  9
$DIMSE2
 70
     0
  9
$DIMTAD
 70
     0
  9
$DIMZIN
 70
     0
  9
$DIMBLK
  1

  9
$DIMASO
 70
     1
  9
$DIMSHO
 70
     1
  9
$DIMPOST
  1

  9
$DIMAPOST
  1

  9
$DIMALT
 70
     0
  9
$DIMALTD
 70
     2
  9
$DIMALTF
 40
25.4
  9
$DIMLFAC
 40
1.0
  9
$DIMTOFL
 70
     0
  9
$DIMTVP
 40
0.0
  9
$DIMTIX
 70
     0
  9
$DIMSOXD
 70
     0
  9
$DIMSAH
 70
     0
  9
$DIMBLK1
  1

  9
$DIMBLK2
  1

  9
$DIMSTYLE
  2
Standard
  9
$DIMCLRD
 70
     0
  9
$DIMCLRE
 70
     0
  9
$DIMCLRT
 70
     0
  9
$DIMTFAC
 40
1.0
  9
$DIMGAP
 40
0.09
  9
$DIMJUST
 70
     0
  9
$DIMSD1
 70
     0
  9
$DIMSD2
 70
     0
  9
$DIMTOLJ
 70
     1
  9
$DIMTZIN
 70
     0
  9
$DIMALTZ
 70
     0
  9
$DIMALTTZ
 70
     0
  9
$DIMUPT
 70
     0
  9
$DIMDEC
 70
     4
  9
$DIMTDEC
 70
     4
  9
$DIMALTU
 70
     2
  9
$DIMALTTD
 70
     2
  9
$DIMTXSTY
  7
Standard
  9
$DIMAUNIT
 70
     0
  9
$DIMADEC
 70
     0
  9
$DIMALTRND
 40
0.0
  9
$DIMAZIN
 70
     0
  9
$DIMDSEP
 70
     0
  9
$DIMATFIT
 70
     3
  9
$DIMFRAC
 70
     0
  9
$DIMLDRBLK
  1

  9
$DIMLUNIT
 70
     2
  9
$DIMLWD
 70
     0
  9
$DIMLWE
 70
     0
  9
$DIMTMOVE
 70
     0
  9
$DIMFXL
 40
1.0
  9
$DIMFXLON
 70
     0
  9
$DIMJOGANG
 40
0.7853981633974483
  9
$DIMTFILL
 70
     0
  9
$DIMTFILLCLR
 70
     0
  9
$DIMARCSYM
 70
     0
  9
$DIMLTYPE
  6

  9
$DIMLTEX1
  6

  9
$DIMLTEX2
  6

  9
$LUNITS
 70
     2
  9
$LUPREC
 70
     4
  9
$SKETCHINC
 40
0.1
  9
$FILLETRAD
 40
0.0
  9
$AUNITS
 70
     0
  9
$AUPREC
 70
     0
  9
$MENU
  1
.
  9
$ELEVATION
 40
0.0
  9
$PELEVATION
 40
0.0
  9
$THICKNESS
 40
0.0
  9
$LIMCHECK
 70
     0
  9
$CHAMFERA
 40
0.0
  9
$CHAMFERB
 40
0.0
  9
$CHAMFERC
 40
0.0
  9
$CHAMFERD
 40
0.0
  9
$SKPOLY
 70
     0
  9
$TDCREATE
 40
2453354.133792488
  9
$TDUCREATE
 40
2453353.717125822
  9
$TDUPDATE
 40
2447893.459039364
  9
$TDUUPDATE
 40
2447893.042372697
  9
$TDINDWG
 40
0.0425231597
  9
$TDUSRTIMER
 40
0.0425231597
  9
$USRTIMER
 70
     1
  9
$ANGBASE
 50
0.0
  9
$ANGDIR
 70
     0
  9
$PDMODE
 70
     0
  9
$PDSIZE
 40
0.0
  9
$PLINEWID
 40
0.0
  9
$SPLFRAME
 70
     0
  9
$SPLINETYPE
 70
     6
  9
$SPLINESEGS
 70
     8
  9
$HANDSEED
  5
295
  9
$SURFTAB1
 70
     6
  9
$SURFTAB2
 70
     6
  9
$SURFTYPE
 70
     6
  9
$SURFU
 70
     6
  9
$SURFV
 70
     6
  9
$UCSBASE
  2

  9
$UCSNAME
  2

  9
$UCSORG
 10
0.0
 20
0.0
 30
0.0
  9
$UCSXDIR
 10
1.0
 20
0.0
 30
0.0
  9
$UCSYDIR
 10
0.0
 20
1.0
 30
0.0
  9
$UCSORTHOREF
  2

  9
$UCSORTHOVIEW
 70
     0
  9
$UCSORGTOP
 10
0.0
 20
0.0
 30
0.0
  9
$UCSORGBOTTOM
 10
0.0
 20
0.0
 30
0.0
  9
$UCSORGLEFT
 10
0.0
 20
0.0
 30
0.0
  9
$UCSORGRIGHT
 10
0.0
 20
0.0
 30
0.0
  9
$UCSORGFRONT
 10
0.0
 20
0.0
 30
0.0
  9
$UCSORGBACK
 10
0.0
 20
0.0
 30
0.0
  9
$PUCSBASE
  2

  9
$PUCSNAME
  2

  9
$PUCSORG
 10
0.0
 20
0.0
 30
0.0
  9
$PUCSXDIR
 10
1.0
 20
0.0
 30
0.0
  9
$PUCSYDIR
 10
0.0
 20
1.0
 30
0.0
  9
$PUCSORTHOREF
  2

  9
$PUCSORTHOVIEW
 70
     0
  9
$PUCSORGTOP
 10
0.0
 20
0.0
 30
0.0
  9
$PUCSORGBOTTOM
 10
0.0
 20
0.0
 30
0.0
  9
$PUCSORGLEFT
 10
0.0
 20
0.0
 30
0.0
  9
$PUCSORGRIGHT
 10
0.0
 20
0.0
 30
0.0
  9
$PUCSORGFRONT
 10
0.0
 20
0.0
 30
0.0
  9
$PUCSORGBACK
 10
0.0
 20
0.0
 30
0.0
  9
$USERI1
 70
     0
  9
$USERI2
 70
     0
  9
$USERI3
 70
     0
  9
$USERI4
 70
     0
  9
$USERI5
 70
     0
  9
$USERR1
 40
0.0
  9
$USERR2
 40
0.0
  9
$USERR3
 40
0.0
  9
$USERR4
 40
0.0
  9
$USERR5
 40
0.0
  9
$WORLDVIEW
 70
     1
  9
$SHADEDGE
 70
     3
  9
$SHADEDIF
 70
    70
  9
$TILEMODE
 70
     1
  9
$MAXACTVP
 70
    16
  9
$PINSBASE
 10
0.0
 20
0.0
 30
0.0
  9
$PLIMCHECK
 70
     0
  9
$PEXTMIN
 10
0.0
 20
0.0
 30
0.0
  9
$PEXTMAX
 10
0.0
 20
0.0
 30
0.0
  9
$PLIMMIN
 10
0.0
 20
0.0
  9
$PLIMMAX
 10
0.0
 20
0.0
  9
$UNITMODE
 70
     0
  9
$VISRETAIN
 70
     0
  9
$PLINEGEN
 70
     1
  9
$PSLTSCALE
 70
     0
  9
$TREEDEPTH
 70
  3020
  9
$CMLSTYLE
  2
Standard
  9
$CMLJUST
 70
     0
  9
$CMLSCALE
 40
1.0
  9
$PROXYGRAPHICS
 70
     0
  9
$MEASUREMENT
 70
     1
  9
$CELWEIGHT
370
     0
  9
$ENDCAPS
280
     0
  9
$JOINSTYLE
280
     0
  9
$LWDISPLAY
290
     0
  9
$INSUNITS
 70
     0
  9
$HYPERLINKBASE
  1

  9
$STYLESHEET
  1

  9
$XEDIT
290
     0
  9
$CEPSNTYPE
380
     0
  9
$PSTYLEMODE
290
     1
  9
$FINGERPRINTGUID
  2

  9
$VERSIONGUID
  2

  9
$EXTNAMES
290
     1
  9
$PSVPSCALE
 40
0.0
  9
$OLESTARTUP
290
     0
  9
$SORTENTS
280
   127
  9
$INDEXCTL
280
     0
  9
$HIDETEXT
280
     1
  9
$XCLIPFRAME
290
     0
  9
$HALOGAP
280
     0
  9
$OBSCOLOR
 70
   257
  9
$OBSLTYPE
280
     0
  9
$INTERSECTIONDISPLAY
280
     0
  9
$INTERSECTIONCOLOR
 70
   257
  9
$DIMASSOC
280
     2
  9
$PROJECTNAME
  1

  9
$CAMERADISPLAY
290
     0
  9
$LENSLENGTH
 40
50.0
  9
$CAMERAHEIGHT
 40
0.0
  9
$STEPSPERSEC
 40
2.0
  9
$STEPSIZE
 40
6.0
  9
$3DDWFPREC
 40
2.0
  9
$PSOLWIDTH
 40
0.25
  9
$PSOLHEIGHT
 40
4.0
  9
$LOFTANG1
 40
1.570796326794897
  9
$LOFTANG2
 40
1.570796326794897
  9
$LOFTMAG1
 40
0.0
  9
$LOFTMAG2
 40
0.0
  9
$LOFTPARAM
 70
     7
  9
$LOFTNORMALS
280
     1
  9
$LATITUDE
 40
37.795
  9
$LONGITUDE
 40
-122.394
  9
$NORTHDIRECTION
 40
0.0
  9
$TIMEZONE
 70
 -8000
  9
$LIGHTGLYPHDISPLAY
280
     1
  9
$TILEMODELIGHTSYNCH
280
     1
  9
$SOLIDHIST
280
     1
  9
$SHOWHIST
280
     1
  9
$DWFFRAME
280
     2
  9
$DGNFRAME
280
     2
  9
$REALWORLDSCALE
290
     1
  9
$INTERFERECOLOR
 62
   256
  9
$CSHADOW
280
     0
  9
$SHADOWPLANELOCATION
 40
0.0
  0
ENDSEC
  0
SECTION
  2
CLASSES
  0
CLASS
  1
ACDBDICTIONARYWDFLT
  2
AcDbDictionaryWithDefault
  3
ObjectDBX Classes
 90
        0
 91
        4
280
     0
281
     0
  0
CLASS
  1
ACDBPLACEHOLDER
  2
AcDbPlaceHolder
  3
ObjectDBX Classes
 90
        0
 91
        1
280
     0
281
     0
  0
CLASS
  1
LAYOUT
  2
AcDbLayout
  3
ObjectDBX Classes
 90
        0
 91
        1
280
     0
281
     0
  0
CLASS
  1
DICTIONARYVAR
  2
AcDbDictionaryVar
  3
ObjectDBX Classes
 90
        0
 91
        4
280
     0
281
     0
  0
CLASS
  1
TABLESTYLE
  2
AcDbTableStyle
  3
ObjectDBX Classes
 90
     4095
 91
        4
280
     0
281
     0
  0
CLASS
  1
SCALE
  2
AcDbScale
  3
ObjectDBX Classes
 90
     1153
 91
        4
280
     0
281
     0
  0
CLASS
  1
WIPEOUTVARIABLES
  2
AcDbWipeoutVariables
  3
WipeOut|AutoCAD Express Tool|expresstools@autodesk.com
 90
        0
 91
        4
280
     0
281
     0
  0
ENDSEC
  0
SECTION
  2
TABLES
  0
TABLE
  2
VPORT
  5
8
330
0
100
AcDbSymbolTable
 70
     2
  0
VPORT
  5
97
330
8
100
AcDbSymbolTableRecord
100
AcDbViewportTableRecord
  2
*ACTIVE
 70
     0
 10
0.0
 20
0.0
 11
1.0
 21
1.0
 12
144.9950255
 22
146.8424585
 13
0.0
 23
0.0
 14
1.0
 24
1.0
 15
0.0
 25
0.0
 16
0.0
 26
0.0
 36
1.0
 17
0.0
 27
0.0
 37
0.0
 40
125.0285446029661
 41
0.688564
 42
50.0
 43
0.0
 44
0.0
 50
0.0
 51
0.0
 71
    16
 72
   100
 73
     1
 74
     1
 75
     0
 76
     0
 77
     0
 78
     0
281
     0
 65
     0
110
0.0
120
0.0
130
0.0
111
1.0
121
0.0
131
0.0
112
0.0
122
1.0
132
0.0
 79
     0
146
0.0
 60
     3
 61
     5
292
     1
282
     1
141
0.0
142
0.0
 63
   256
  0
ENDTAB
  0
TABLE
  2
LTYPE
  5
5
330
0
100
AcDbSymbolTable
 70
     1
  0
LTYPE
  5
14
330
5
100
AcDbSymbolTableRecord
100
AcDbLinetypeTableRecord
  2
ByBlock
 70
     0
  3

 72
    65
 73
     0
 40
0.0
  0
LTYPE
  5
15
330
5
100
AcDbSymbolTableRecord
100
AcDbLinetypeTableRecord
  2
ByLayer
 70
     0
  3

 72
    65
 73
     0
 40
0.0
  0
LTYPE
  5
16
330
5
100
AcDbSymbolTableRecord
100
AcDbLinetypeTableRecord
  2
Continuous
 70
     0
  3
Solid line
 72
    65
 73
     0
 40
0.0
  0
ENDTAB
  0
TABLE
  2
LAYER
  5
2
330
0
100
AcDbSymbolTable
 70
     2
  0
LAYER
  5
10
330
2
100
AcDbSymbolTableRecord
100
AcDbLayerTableRecord
  2
0
 70
     0
 62
     7
  6
Continuous
370
    -3
390
F
347
0
  0
LAYER
  5
28
330
2
100
AcDbSymbolTableRecord
100
AcDbLayerTableRecord
  2
LAYER_1
 70
     0
 62
   160
  6
Continuous
370
    -3
390
F
347
0
  0
ENDTAB
  0
TABLE
  2
STYLE
  5
3
330
0
100
AcDbSymbolTable
 70
     5
  0
STYLE
  5
11
330
3
100
AcDbSymbolTableRecord
100
AcDbTextStyleTableRecord
  2
Standard
 70
     0
 40
0.0
 41
1.0
 50
0.0
 71
     0
 42
0.2
  3
txt
  4

  0
STYLE
  5
24
330
3
100
AcDbSymbolTableRecord
100
AcDbTextStyleTableRecord
  2
STD
 70
     0
 40
0.0
 41
1.0
 50
0.0
 71
     0
 42
0.2
  3
txt
  4

  0
STYLE
  5
25
330
3
100
AcDbSymbolTableRecord
100
AcDbTextStyleTableRecord
  2
TATESTD
 70
     4
 40
0.0
 41
1.0
 50
0.0
 71
     0
 42
0.2
  3
txt
  4

  0
STYLE
  5
26
330
3
100
AcDbSymbolTableRecord
100
AcDbTextStyleTableRecord
  2
KANJISTD
 70
     0
 40
0.0
 41
1.0
 50
0.0
 71
     0
 42
0.2
  3
txt
  4
extfont
  0
STYLE
  5
272
330
3
100
AcDbSymbolTableRecord
100
AcDbTextStyleTableRecord
  2
KANJITATE
 70
     4
 40
0.0
 41
1.0
 50
0.0
 71
     0
 42
0.2
  3
txt
  4
extfont
  0
ENDTAB
  0
TABLE
  2
VIEW
  5
6
330
0
100
AcDbSymbolTable
 70
     0
  0
ENDTAB
  0
TABLE
  2
UCS
  5
7
330
0
100
AcDbSymbolTable
 70
     0
  0
ENDTAB
  0
TABLE
  2
APPID
  5
9
330
0
100
AcDbSymbolTable
 70
     1
  0
APPID
  5
12
330
9
100
AcDbSymbolTableRecord
100
AcDbRegAppTableRecord
  2
ACAD
 70
     0
  0
ENDTAB
  0
TABLE
  2
DIMSTYLE
  5
A
330
0
100
AcDbSymbolTable
 70
     1
100
AcDbDimStyleTable
  0
DIMSTYLE
105
27
330
A
100
AcDbSymbolTableRecord
100
AcDbDimStyleTableRecord
  2
Standard
 70
     0
340
11
  0
ENDTAB
  0
TABLE
  2
BLOCK_RECORD
  5
1
330
0
100
AcDbSymbolTable
 70
     2
  0
BLOCK_RECORD
  5
1F
102
{ACAD_XDICTIONARY
360
292
102
}
330
1
100
AcDbSymbolTableRecord
100
AcDbBlockTableRecord
  2
*Model_Space
340
22
 70
     0
280
     1
281
     0
  0
BLOCK_RECORD
  5
73
330
1
100
AcDbSymbolTableRecord
100
AcDbBlockTableRecord
  2
*Paper_Space
340
74
 70
     0
280
     1
281
     0
  0
BLOCK_RECORD
  5
233
330
1
100
AcDbSymbolTableRecord
100
AcDbBlockTableRecord
  2
AI9-BLK1
340
0
102
{BLKREFS
331
234
102
}
 70
     0
280
     1
281
     0
  0
BLOCK_RECORD
  5
23C
330
1
100
AcDbSymbolTableRecord
100
AcDbBlockTableRecord
  2
AI9-BLK2
340
0
102
{BLKREFS
331
23D
102
}
 70
     0
280
     1
281
     0
  0
ENDTAB
  0
ENDSEC
  0
SECTION
  2
BLOCKS
  0
BLOCK
  5
20
330
1F
100
AcDbEntity
  8
0
100
AcDbBlockBegin
  2
*Model_Space
 70
     0
 10
0.0
 20
0.0
 30
0.0
  3
*Model_Space
  1

  0
ENDBLK
  5
21
330
1F
100
AcDbEntity
  8
0
100
AcDbBlockEnd
  0
BLOCK
  5
75
330
73
100
AcDbEntity
 67
     1
  8
0
100
AcDbBlockBegin
  2
*Paper_Space
 70
     0
 10
0.0
 20
0.0
 30
0.0
  3
*Paper_Space
  1

  0
ENDBLK
  5
76
330
73
100
AcDbEntity
 67
     1
  8
0
100
AcDbBlockEnd
  0
BLOCK
  5
274
330
233
100
AcDbEntity
  8
LAYER_1
100
AcDbBlockBegin
  2
AI9-BLK1
 70
     0
 10
0.0
 20
0.0
 30
0.0
  3
AI9-BLK1
  1

  0
MTEXT
  5
237
330
233
100
AcDbEntity
  8
LAYER_1
 62
     7
100
AcDbMText
 10
-2.087699
 20
-0.000258
 30
0.0
 40
3.253692
 41
0.0
 46
0.0
 71
     1
 72
     2
  1
\fArial|b0|i0;\H3.2537;\C7;8
  7
STD
 11
0.0
 21
1.0
 31
0.0
 73
     1
 44
1.0
  0
MTEXT
  5
236
330
233
100
AcDbEntity
  8
LAYER_1
 62
     7
100
AcDbMText
 10
-2.087699
 20
-2.431807
 30
0.0
 40
3.253692
 41
0.0
 46
0.0
 71
     1
 72
     2
  1
\fArial|b0|i0;\H3.2537;\C7;3
  7
STD
 11
0.0
 21
1.0
 31
0.0
 73
     1
 44
1.0
  0
ENDBLK
  5
275
330
233
100
AcDbEntity
  8
LAYER_1
100
AcDbBlockEnd
  0
BLOCK
  5
276
330
23C
100
AcDbEntity
  8
LAYER_1
100
AcDbBlockBegin
  2
AI9-BLK2
 70
     0
 10
0.0
 20
0.0
 30
0.0
  3
AI9-BLK2
  1

  0
MTEXT
  5
240
330
23C
100
AcDbEntity
  8
LAYER_1
 62
     7
100
AcDbMText
 10
-2.105354
 20
-0.000258
 30
0.0
 40
3.281252
 41
0.0
 46
0.0
 71
     1
 72
     2
  1
\fArial|b0|i0;\H3.2813;\W0.75;\C7;4
  7
STD
 11
0.0
 21
1.0
 31
0.0
 73
     1
 44
1.0
  0
MTEXT
  5
23F
330
23C
100
AcDbEntity
  8
LAYER_1
 62
     7
100
AcDbMText
 10
-2.105354
 20
-1.83925
 30
0.0
 40
3.281252
 41
0.0
 46
0.0
 71
     1
 72
     2
  1
\fArial|b0|i0;\H3.2813;\W0.75;\C7;5
  7
STD
 11
0.0
 21
1.0
 31
0.0
 73
     1
 44
1.0
  0
ENDBLK
  5
277
330
23C
100
AcDbEntity
  8
LAYER_1
100
AcDbBlockEnd
  0
ENDSEC
  0
SECTION
  2
ENTITIES
  0
LINE
  5
24A
330
1F
100
AcDbEntity
  8
LAYER_1
 62
     7
100
AcDbLine
 10
23.433195
 20
124.979624
 30
0.0
 11
23.988889
 21
128.31327
 31
0.0
  0
LINE
  5
249
330
1F
100
AcDbEntity
  8
LAYER_1
 62
     7
100
AcDbLine
 10
23.988889
 20
128.31327
 30
0.0
 11
24.544583
 21
124.979451
 31
0.0
  0
LINE
  5
248
330
1F
100
AcDbEntity
  8
LAYER_1
 62
     7
100
AcDbLine
 10
23.433195
 20
124.979624
 30
0.0
 11
24.544411
 21
124.979624
 31
0.0
  0
LINE
  5
247
330
1F
100
AcDbEntity
  8
LAYER_1
 62
     7
100
AcDbLine
 10
23.988889
 20
128.31327
 30
0.0
 11
23.988889
 21
124.979451
 31
0.0
  0
LINE
  5
246
330
1F
100
AcDbEntity
  8
LAYER_1
 62
     7
100
AcDbLine
 10
24.544583
 20
105.160334
 30
0.0
 11
23.988889
 21
101.826687
 31
0.0
  0
LINE
  5
245
330
1F
100
AcDbEntity
  8
LAYER_1
 62
     7
100
AcDbLine
 10
23.988889
 20
101.826687
 30
0.0
 11
23.433195
 21
105.160506
 31
0.0
  0
LINE
  5
244
330
1F
100
AcDbEntity
  8
LAYER_1
 62
     7
100
AcDbLine
 10
24.544583
 20
105.160334
 30
0.0
 11
23.433367
 21
105.160334
 31
0.0
  0
LINE
  5
243
330
1F
100
AcDbEntity
  8
LAYER_1
 62
     7
100
AcDbLine
 10
23.988889
 20
101.826687
 30
0.0
 11
23.988889
 21
105.160506
 31
0.0
  0
LINE
  5
242
330
1F
100
AcDbEntity
  8
LAYER_1
 62
     7
100
AcDbLine
 10
23.988889
 20
128.31327
 30
0.0
 11
23.988889
 21
101.826687
 31
0.0
  0
INSERT
  5
23D
330
1F
100
AcDbEntity
  8
LAYER_1
 62
     7
100
AcDbBlockReference
  2
AI9-BLK2
 10
21.828211
 20
114.977047
 30
0.0
  0
LINE
  5
23B
330
1F
100
AcDbEntity
  8
LAYER_1
 62
     7
100
AcDbLine
 10
44.781246
 20
128.898075
 30
0.0
 11
44.781246
 21
153.068004
 31
0.0
  0
SPLINE
  5
23A
330
1F
100
AcDbEntity
  8
LAYER_1
 62
     7
100
AcDbSpline
210
0.0
220
0.0
230
1.0
 70
     8
 71
     3
 72
     8
 73
     4
 74
     0
 42
0.00000001
 43
0.00000001
 40
0.0
 40
0.0
 40
0.0
 40
0.0
 40
1.0
 40
1.0
 40
1.0
 40
1.0
 10
44.78124593098958
 20
125.9523464626736
 30
0.0
 10
44.69098442925347
 20
125.8641520182291
 30
0.0
 10
44.64016927083333
 20
125.7432291666667
 30
0.0
 10
44.64016927083333
 20
125.6167941623264
 30
0.0
  0
LINE
  5
239
330
1F
100
AcDbEntity
  8
LAYER_1
 62
     7
100
AcDbLine
 10
44.781246
 20
102.179465
 30
0.0
 11
44.781246
 21
127.960493
 31
0.0
  0
INSERT
  5
234
330
1F
100
AcDbEntity
  8
LAYER_1
 62
     7
100
AcDbBlockReference
  2
AI9-BLK1
 10
31.521418
 20
186.763019
 30
0.0
  0
LINE
  5
232
330
1F
100
AcDbEntity
  8
LAYER_1
 62
     7
100
AcDbLine
 10
34.172247
 20
196.088289
 30
0.0
 11
34.172247
 21
176.911338
 31
0.0
  0
LINE
  5
231
330
1F
100
AcDbEntity
  8
LAYER_1
 62
     7
100
AcDbLine
 10
33.026408
 20
176.82745
 30
0.0
 11
44.097911
 21
176.82745
 31
0.0
  0
LINE
  5
230
330
1F
100
AcDbEntity
  8
LAYER_1
 62
     7
100
AcDbLine
 10
33.379186
 20
196.077954
 30
0.0
 11
43.928585
 21
196.077954
 31
0.0
  0
LINE
  5
22F
330
1F
100
AcDbEntity
  8
LAYER_1
 62
     7
100
AcDbLine
 10
34.172247
 20
176.82745
 30
0.0
 11
34.172247
 21
180.160235
 31
0.0
  0
LINE
  5
22E
330
1F
100
AcDbEntity
  8
LAYER_1
 62
     7
100
AcDbLine
 10
34.728285
 20
180.160235
 30
0.0
 11
33.617069
 21
180.160235
 31
0.0
  0
LINE
  5
22D
330
1F
100
AcDbEntity
  8
LAYER_1
 62
     7
100
AcDbLine
 10
34.172247
 20
176.82745
 30
0.0
 11
33.616897
 21
180.160235
 31
0.0
  0
LINE
  5
22C
330
1F
100
AcDbEntity
  8
LAYER_1
 62
     7
100
AcDbLine
 10
34.728285
 20
180.160235
 30
0.0
 11
34.172247
 21
176.82745
 31
0.0
  0
LINE
  5
22B
330
1F
100
AcDbEntity
  8
LAYER_1
 62
     7
100
AcDbLine
 10
34.172247
 20
196.077954
 30
0.0
 11
34.172247
 21
192.745858
 31
0.0
  0
LINE
  5
22A
330
1F
100
AcDbEntity
  8
LAYER_1
 62
     7
100
AcDbLine
 10
33.616897
 20
192.745858
 30
0.0
 11
34.728113
 21
192.745858
 31
0.0
  0
LINE
  5
229
330
1F
100
AcDbEntity
  8
LAYER_1
 62
     7
100
AcDbLine
 10
34.172247
 20
196.077954
 30
0.0
 11
34.728285
 21
192.745858
 31
0.0
  0
LINE
  5
228
330
1F
100
AcDbEntity
  8
LAYER_1
 62
     7
100
AcDbLine
 10
33.616897
 20
192.745858
 30
0.0
 11
34.172247
 21
196.077782
 31
0.0
  0
LINE
  5
227
330
1F
100
AcDbEntity
  8
LAYER_1
 62
     7
100
AcDbLine
 10
44.807601
 20
101.741938
 30
0.0
 11
44.807601
 21
128.460548
 31
0.0
  0
LINE
  5
226
330
1F
100
AcDbEntity
  8
LAYER_1
 62
     7
100
AcDbLine
 10
79.207224
 20
150.269381
 30
0.0
 11
82.541043
 21
149.713687
 31
0.0
  0
LINE
  5
225
330
1F
100
AcDbEntity
  8
LAYER_1
 62
     7
100
AcDbLine
 10
82.541043
 20
149.713859
 30
0.0
 11
79.207224
 21
149.158165
 31
0.0
  0
LINE
  5
224
330
1F
100
AcDbEntity
  8
LAYER_1
 62
     7
100
AcDbLine
 10
79.207224
 20
150.269381
 30
0.0
 11
79.207224
 21
149.158165
 31
0.0
  0
LINE
  5
223
330
1F
100
AcDbEntity
  8
LAYER_1
 62
     7
100
AcDbLine
 10
82.541043
 20
149.713859
 30
0.0
 11
79.207224
 21
149.713859
 31
0.0
  0
LINE
  5
222
330
1F
100
AcDbEntity
  8
LAYER_1
 62
     7
100
AcDbLine
 10
48.14142
 20
149.158165
 30
0.0
 11
44.807601
 21
149.713859
 31
0.0
  0
LINE
  5
221
330
1F
100
AcDbEntity
  8
LAYER_1
 62
     7
100
AcDbLine
 10
44.807601
 20
149.713859
 30
0.0
 11
48.14142
 21
150.269553
 31
0.0
  0
LINE
  5
220
330
1F
100
AcDbEntity
  8
LAYER_1
 62
     7
100
AcDbLine
 10
48.14142
 20
149.158165
 30
0.0
 11
48.14142
 21
150.269381
 31
0.0
  0
LINE
  5
21F
330
1F
100
AcDbEntity
  8
LAYER_1
 62
     7
100
AcDbLine
 10
44.807601
 20
149.713859
 30
0.0
 11
48.14142
 21
149.713859
 31
0.0
  0
LINE
  5
21E
330
1F
100
AcDbEntity
  8
LAYER_1
 62
     7
100
AcDbLine
 10
82.541043
 20
132.55625
 30
0.0
 11
82.541043
 21
150.65127
 31
0.0
  0
LINE
  5
21D
330
1F
100
AcDbEntity
  8
LAYER_1
 62
     7
100
AcDbLine
 10
82.541043
 20
149.713859
 30
0.0
 11
44.807601
 21
149.713859
 31
0.0
  0
MTEXT
  5
21C
330
1F
100
AcDbEntity
  8
LAYER_1
 62
     7
100
AcDbMText
 10
61.328212
 20
153.978514
 30
0.0
 40
3.253692
 41
0.0
 46
0.0
 71
     1
 72
     2
  1
\fArial|b0|i0;\H3.2537;\C7;77
  7
STD
 73
     1
 44
1.0
  0
LINE
  5
21B
330
1F
100
AcDbEntity
  8
LAYER_1
 62
     7
100
AcDbLine
 10
109.781241
 20
161.087842
 30
0.0
 11
113.115059
 21
160.532148
 31
0.0
  0
LINE
  5
21A
330
1F
100
AcDbEntity
  8
LAYER_1
 62
     7
100
AcDbLine
 10
113.115059
 20
160.53232
 30
0.0
 11
109.781241
 21
159.976626
 31
0.0
  0
LINE
  5
219
330
1F
100
AcDbEntity
  8
LAYER_1
 62
     7
100
AcDbLine
 10
109.781241
 20
161.087842
 30
0.0
 11
109.781241
 21
159.976626
 31
0.0
  0
LINE
  5
218
330
1F
100
AcDbEntity
  8
LAYER_1
 62
     7
100
AcDbLine
 10
113.115059
 20
160.53232
 30
0.0
 11
109.781241
 21
160.53232
 31
0.0
  0
LINE
  5
217
330
1F
100
AcDbEntity
  8
LAYER_1
 62
     7
100
AcDbLine
 10
48.14142
 20
159.976626
 30
0.0
 11
44.807601
 21
160.53232
 31
0.0
  0
LINE
  5
216
330
1F
100
AcDbEntity
  8
LAYER_1
 62
     7
100
AcDbLine
 10
44.807601
 20
160.53232
 30
0.0
 11
48.14142
 21
161.087842
 31
0.0
  0
LINE
  5
215
330
1F
100
AcDbEntity
  8
LAYER_1
 62
     7
100
AcDbLine
 10
48.14142
 20
159.976626
 30
0.0
 11
48.14142
 21
161.087842
 31
0.0
  0
LINE
  5
214
330
1F
100
AcDbEntity
  8
LAYER_1
 62
     7
100
AcDbLine
 10
44.807601
 20
160.53232
 30
0.0
 11
48.14142
 21
160.53232
 31
0.0
  0
LINE
  5
213
330
1F
100
AcDbEntity
  8
LAYER_1
 62
     7
100
AcDbLine
 10
113.115059
 20
158.191378
 30
0.0
 11
113.115059
 21
180.954329
 31
0.0
  0
LINE
  5
212
330
1F
100
AcDbEntity
  8
LAYER_1
 62
     7
100
AcDbLine
 10
113.115059
 20
160.53232
 30
0.0
 11
44.807773
 21
160.53232
 31
0.0
  0
MTEXT
  5
211
330
1F
100
AcDbEntity
  8
LAYER_1
 62
     7
100
AcDbMText
 10
77.32069
 20
165.032275
 30
0.0
 40
3.253692
 41
0.0
 46
0.0
 71
     1
 72
     2
  1
\fArial|b0|i0;\H3.2537;\C7;136
  7
STD
 73
     1
 44
1.0
  0
SPLINE
  5
210
330
1F
100
AcDbEntity
  8
LAYER_1
 62
     7
100
AcDbSpline
210
0.0
220
0.0
230
1.0
 70
     8
 71
     3
 72
     8
 73
     4
 74
     0
 42
0.00000001
 43
0.00000001
 40
0.0
 40
0.0
 40
0.0
 40
0.0
 40
1.0
 40
1.0
 40
1.0
 40
1.0
 10
253.5445583767361
 20
114.4796617296007
 30
0.0
 10
253.2710177951389
 20
114.1749430338542
 30
0.0
 10
253.6355088975694
 20
114.581292046441
 30
0.0
 10
253.3619683159722
 20
114.2764010959201
 30
0.0
  0
SPLINE
  5
20F
330
1F
100
AcDbEntity
  8
LAYER_1
 62
     7
100
AcDbSpline
210
0.0
220
0.0
230
1.0
 70
     8
 71
     3
 72
     8
 73
     4
 74
     0
 42
0.00000001
 43
0.00000001
 40
0.0
 40
0.0
 40
0.0
 40
0.0
 40
1.0
 40
1.0
 40
1.0
 40
1.0
 10
253.324072265625
 20
114.6470933702257
 30
0.0
 10
253.6554904513889
 20
114.3959459092882
 30
0.0
 10
253.2131401909722
 20
114.7306369357639
 30
0.0
 10
253.5445583767361
 20
114.4794894748264
 30
0.0
  0
SPLINE
  5
20E
330
1F
100
AcDbEntity
  8
LAYER_1
 62
     7
100
AcDbSpline
210
0.0
220
0.0
230
1.0
 70
     8
 71
     3
 72
     8
 73
     4
 74
     0
 42
0.00000001
 43
0.00000001
 40
0.0
 40
0.0
 40
0.0
 40
0.0
 40
1.0
 40
1.0
 40
1.0
 40
1.0
 10
253.1573296440972
 20
114.4808675130208
 30
0.0
 10
253.4067545572916
 20
114.7299479166667
 30
0.0
 10
253.0746473524305
 20
114.3980129665799
 30
0.0
 10
253.324072265625
 20
114.6470933702257
 30
0.0
  0
SPLINE
  5
20D
330
1F
100
AcDbEntity
  8
LAYER_1
 62
     7
100
AcDbSpline
210
0.0
220
0.0
230
1.0
 70
     8
 71
     3
 72
     8
 73
     4
 74
     0
 42
0.00000001
 43
0.00000001
 40
0.0
 40
0.0
 40
0.0
 40
0.0
 40
1.0
 40
1.0
 40
1.0
 40
1.0
 10
253.324072265625
 20
116.0893825954861
 30
0.0
 10
253.1518174913194
 20
116.2755900065104
 30
0.0
 10
253.3805718315972
 20
116.0273708767361
 30
0.0
 10
253.2090060763889
 20
116.2135782877604
 30
0.0
  0
SPLINE
  5
20C
330
1F
100
AcDbEntity
  8
LAYER_1
 62
     7
100
AcDbSpline
210
0.0
220
0.0
230
1.0
 70
     8
 71
     3
 72
     8
 73
     4
 74
     0
 42
0.00000001
 43
0.00000001
 40
0.0
 40
0.0
 40
0.0
 40
0.0
 40
1.0
 40
1.0
 40
1.0
 40
1.0
 10
253.5445583767361
 20
116.2583645290799
 30
0.0
 10
253.2131401909722
 20
116.0048055013021
 30
0.0
 10
253.6554904513889
 20
116.3427693684896
 30
0.0
 10
253.324072265625
 20
116.0893825954861
 30
0.0
  0
SPLINE
  5
20B
330
1F
100
AcDbEntity
  8
LAYER_1
 62
     7
100
AcDbSpline
210
0.0
220
0.0
230
1.0
 70
     8
 71
     3
 72
     8
 73
     4
 74
     0
 42
0.00000001
 43
0.00000001
 40
0.0
 40
0.0
 40
0.0
 40
0.0
 40
1.0
 40
1.0
 40
1.0
 40
1.0
 10
253.4115776909722
 20
116.4159776475694
 30
0.0
 10
253.6113932291667
 20
116.1796440972222
 30
0.0
 10
253.3454318576389
 20
116.4946980794271
 30
0.0
 10
253.5445583767361
 20
116.2581922743055
 30
0.0
  0
SPLINE
  5
20A
330
1F
100
AcDbEntity
  8
LAYER_1
 62
     7
100
AcDbSpline
210
0.0
220
0.0
230
1.0
 70
     8
 71
     3
 72
    14
 73
    10
 74
     0
 42
0.00000001
 43
0.00000001
 40
0.0
 40
0.0
 40
0.0
 40
0.0
 40
1.0
 40
1.0
 40
1.0
 40
2.0
 40
2.0
 40
2.0
 40
3.0
 40
3.0
 40
3.0
 40
3.0
 10
252.3208604600694
 20
113.8896891276042
 30
0.0
 10
251.8330349392361
 20
113.9224175347222
 30
0.0
 10
252.4827799479166
 20
113.8688462999132
 30
0.0
 10
251.9956434461805
 20
113.9165608723958
 30
0.0
 10
251.2570149739583
 20
114.1341186523437
 30
0.0
 10
252.2230197482639
 20
113.7920206705729
 30
0.0
 10
251.513330078125
 20
114.0876098632812
 30
0.0
 10
251.1385036892361
 20
114.3549492730035
 30
0.0
 10
251.6318413628472
 20
113.9887356228299
 30
0.0
 10
251.2666612413194
 20
114.2710611979167
 30
0.0
  0
SPLINE
  5
209
330
1F
100
AcDbEntity
  8
LAYER_1
 62
     7
100
AcDbSpline
210
0.0
220
0.0
230
1.0
 70
     8
 71
     3
 72
    14
 73
    10
 74
     0
 42
0.00000001
 43
0.00000001
 40
0.0
 40
0.0
 40
0.0
 40
0.0
 40
1.0
 40
1.0
 40
1.0
 40
2.0
 40
2.0
 40
2.0
 40
3.0
 40
3.0
 40
3.0
 40
3.0
 10
253.3619683159722
 20
114.2765733506944
 30
0.0
 10
253.0836046006944
 20
114.0540201822917
 30
0.0
 10
253.4591200086805
 20
114.345647515191
 30
0.0
 10
253.1745551215278
 20
114.1305013020833
 30
0.0
 10
252.4862250434028
 20
113.7939154730903
 30
0.0
 10
253.4260470920139
 20
114.1921685112847
 30
0.0
 10
252.7046440972222
 20
113.9315470377604
 30
0.0
 10
252.1300021701389
 20
113.8571329752604
 30
0.0
 10
252.8989474826389
 20
113.9406765407986
 30
0.0
 10
252.3208604600694
 20
113.8895168728298
 30
0.0
  0
SPLINE
  5
208
330
1F
100
AcDbEntity
  8
LAYER_1
 62
     7
100
AcDbSpline
210
0.0
220
0.0
230
1.0
 70
     8
 71
     3
 72
    14
 73
    10
 74
     0
 42
0.00000001
 43
0.00000001
 40
0.0
 40
0.0
 40
0.0
 40
0.0
 40
1.0
 40
1.0
 40
1.0
 40
2.0
 40
2.0
 40
2.0
 40
3.0
 40
3.0
 40
3.0
 40
3.0
 10
250.8043294270833
 20
115.3845160590278
 30
0.0
 10
250.9076822916666
 20
116.1574232313368
 30
0.0
 10
250.7368055555555
 20
115.1354356553819
 30
0.0
 10
250.8897677951389
 20
115.8957682291667
 30
0.0
 10
251.2542588975694
 20
116.5896104600694
 30
0.0
 10
250.7168240017361
 20
115.6935411241319
 30
0.0
 10
251.1584852430555
 20
116.3436306423611
 30
0.0
 10
251.2577039930555
 20
116.449567328559
 30
0.0
 10
251.1247233072916
 20
116.3091796875
 30
0.0
 10
251.2246310763889
 20
116.4139105902778
 30
0.0
  0
SPLINE
  5
207
330
1F
100
AcDbEntity
  8
LAYER_1
 62
     7
100
AcDbSpline
210
0.0
220
0.0
230
1.0
 70
     8
 71
     3
 72
    14
 73
    10
 74
     0
 42
0.00000001
 43
0.00000001
 40
0.0
 40
0.0
 40
0.0
 40
0.0
 40
1.0
 40
1.0
 40
1.0
 40
2.0
 40
2.0
 40
2.0
 40
3.0
 40
3.0
 40
3.0
 40
3.0
 10
251.1605523003472
 20
114.3816487630208
 30
0.0
 10
250.918017578125
 20
114.7118611653646
 30
0.0
 10
251.2349663628472
 20
114.2665825737847
 30
0.0
 10
251.0027669270833
 20
114.6042019314236
 30
0.0
 10
250.7182020399305
 20
115.2618706597222
 30
0.0
 10
251.0523763020833
 20
114.3675238715278
 30
0.0
 10
250.8360243055555
 20
115.0512030707465
 30
0.0
 10
250.7802137586805
 20
115.550397406684
 30
0.0
 10
250.8429144965278
 20
114.8832546657986
 30
0.0
 10
250.8043294270833
 20
115.3845160590278
 30
0.0
  0
SPLINE
  5
206
330
1F
100
AcDbEntity
  8
LAYER_1
 62
     7
100
AcDbSpline
210
0.0
220
0.0
230
1.0
 70
     8
 71
     3
 72
     8
 73
     4
 74
     0
 42
0.00000001
 43
0.00000001
 40
0.0
 40
0.0
 40
0.0
 40
0.0
 40
1.0
 40
1.0
 40
1.0
 40
1.0
 10
251.2666612413194
 20
114.2708889431424
 30
0.0
 10
251.1081868489583
 20
114.4371148003472
 30
0.0
 10
251.3197157118055
 20
114.215422905816
 30
0.0
 10
251.1605523003472
 20
114.3816487630208
 30
0.0
  0
SPLINE
  5
205
330
1F
100
AcDbEntity
  8
LAYER_1
 62
     7
100
AcDbSpline
210
0.0
220
0.0
230
1.0
 70
     8
 71
     3
 72
    14
 73
    10
 74
     0
 42
0.00000001
 43
0.00000001
 40
0.0
 40
0.0
 40
0.0
 40
0.0
 40
1.0
 40
1.0
 40
1.0
 40
2.0
 40
2.0
 40
2.0
 40
3.0
 40
3.0
 40
3.0
 40
3.0
 10
252.3174153645833
 20
116.846442328559
 30
0.0
 10
253.1573296440972
 20
116.7363715277778
 30
0.0
 10
252.0459418402777
 20
116.9184448242187
 30
0.0
 10
252.8727647569444
 20
116.7554918077257
 30
0.0
 10
253.5197536892361
 20
116.4404378255208
 30
0.0
 10
252.6812174479167
 20
116.9043199327257
 30
0.0
 10
253.2923773871528
 20
116.5236368815104
 30
0.0
 10
253.472900390625
 20
116.3634399414062
 30
0.0
 10
253.2338107638889
 20
116.5791029188368
 30
0.0
 10
253.4115776909722
 20
116.4159776475694
 30
0.0
  0
SPLINE
  5
204
330
1F
100
AcDbEntity
  8
LAYER_1
 62
     7
100
AcDbSpline
210
0.0
220
0.0
230
1.0
 70
     8
 71
     3
 72
    14
 73
    10
 74
     0
 42
0.00000001
 43
0.00000001
 40
0.0
 40
0.0
 40
0.0
 40
0.0
 40
1.0
 40
1.0
 40
1.0
 40
2.0
 40
2.0
 40
2.0
 40
3.0
 40
3.0
 40
3.0
 40
3.0
 10
251.2246310763889
 20
116.4139105902778
 30
0.0
 10
251.6545789930555
 20
116.7646213107639
 30
0.0
 10
251.0723578559028
 20
116.3102132161458
 30
0.0
 10
251.5160861545139
 20
116.6411146375868
 30
0.0
 10
252.2057942708333
 20
116.9413547092014
 30
0.0
 10
251.2673502604166
 20
116.5906439887153
 30
0.0
 10
251.9853081597222
 20
116.8164699978299
 30
0.0
 10
252.4827799479166
 20
116.8696967230903
 30
0.0
 10
251.8185655381944
 20
116.8094075520833
 30
0.0
 10
252.3174153645833
 20
116.846442328559
 30
0.0
  0
SPLINE
  5
203
330
1F
100
AcDbEntity
  8
LAYER_1
 62
     7
100
AcDbSpline
210
0.0
220
0.0
230
1.0
 70
     8
 71
     3
 72
    14
 73
    10
 74
     0
 42
0.00000001
 43
0.00000001
 40
0.0
 40
0.0
 40
0.0
 40
0.0
 40
1.0
 40
1.0
 40
1.0
 40
2.0
 40
2.0
 40
2.0
 40
3.0
 40
3.0
 40
3.0
 40
3.0
 10
251.0565104166666
 20
115.3653957790798
 30
0.0
 10
251.1405707465277
 20
114.7385606553819
 30
0.0
 10
251.0013888888889
 20
115.5671061197917
 30
0.0
 10
251.1261013454861
 20
114.9509507921007
 30
0.0
 10
251.4230685763889
 20
114.3888834635417
 30
0.0
 10
250.9841634114583
 20
115.1135592990451
 30
0.0
 10
251.3458984375
 20
114.5885267469618
 30
0.0
 10
251.525732421875
 20
114.4104153103299
 30
0.0
 10
251.2831976996528
 20
114.645026312934
 30
0.0
 10
251.4671657986111
 20
114.471393500434
 30
0.0
  0
SPLINE
  5
202
330
1F
100
AcDbEntity
  8
LAYER_1
 62
     7
100
AcDbSpline
210
0.0
220
0.0
230
1.0
 70
     8
 71
     3
 72
    14
 73
    10
 74
     0
 42
0.00000001
 43
0.00000001
 40
0.0
 40
0.0
 40
0.0
 40
0.0
 40
1.0
 40
1.0
 40
1.0
 40
2.0
 40
2.0
 40
2.0
 40
3.0
 40
3.0
 40
3.0
 40
3.0
 10
251.4189344618055
 20
116.2197794596354
 30
0.0
 10
251.0613335503472
 20
115.7841471354167
 30
0.0
 10
251.51953125
 20
116.3770480685764
 30
0.0
 10
251.1901801215278
 20
115.9231567382812
 30
0.0
 10
250.9827853732639
 20
115.3872721354167
 30
0.0
 10
251.2211859809028
 20
116.1153930664062
 30
0.0
 10
251.0709798177083
 20
115.5590101453993
 30
0.0
 10
251.0461751302083
 20
115.2687608506944
 30
0.0
 10
251.0744249131944
 20
115.6559895833333
 30
0.0
 10
251.0565104166666
 20
115.3653957790798
 30
0.0
  0
SPLINE
  5
201
330
1F
100
AcDbEntity
  8
LAYER_1
 62
     7
100
AcDbSpline
210
0.0
220
0.0
230
1.0
 70
     8
 71
     3
 72
    14
 73
    10
 74
     0
 42
0.00000001
 43
0.00000001
 40
0.0
 40
0.0
 40
0.0
 40
0.0
 40
1.0
 40
1.0
 40
1.0
 40
2.0
 40
2.0
 40
2.0
 40
3.0
 40
3.0
 40
3.0
 40
3.0
 10
253.2090060763889
 20
116.2134060329861
 30
0.0
 10
252.89619140625
 20
116.4614529079861
 30
0.0
 10
253.3192491319444
 20
116.1386474609375
 30
0.0
 10
252.9974772135417
 20
116.3749810112847
 30
0.0
 10
252.4007866753472
 20
116.6402533637153
 30
0.0
 10
253.2131401909722
 20
116.3298502604167
 30
0.0
 10
252.5909559461805
 20
116.530182562934
 30
0.0
 10
252.1575629340278
 20
116.5792751736111
 30
0.0
 10
252.7370279947916
 20
116.5238091362847
 30
0.0
 10
252.3015679253472
 20
116.5580878363715
 30
0.0
  0
SPLINE
  5
200
330
1F
100
AcDbEntity
  8
LAYER_1
 62
     7
100
AcDbSpline
210
0.0
220
0.0
230
1.0
 70
     8
 71
     3
 72
    14
 73
    10
 74
     0
 42
0.00000001
 43
0.00000001
 40
0.0
 40
0.0
 40
0.0
 40
0.0
 40
1.0
 40
1.0
 40
1.0
 40
2.0
 40
2.0
 40
2.0
 40
3.0
 40
3.0
 40
3.0
 40
3.0
 10
252.3015679253472
 20
116.5580878363715
 30
0.0
 10
251.6235731336805
 20
116.4645534939236
 30
0.0
 10
252.5206759982639
 20
116.6166544596354
 30
0.0
 10
251.8530164930555
 20
116.4822957356771
 30
0.0
 10
251.2411675347222
 20
116.1729261610243
 30
0.0
 10
252.0328504774305
 20
116.6283677842882
 30
0.0
 10
251.45751953125
 20
116.2544026692708
 30
0.0
 10
251.3996419270833
 20
116.2032430013021
 30
0.0
 10
251.4768120659722
 20
116.2712836371528
 30
0.0
 10
251.4189344618055
 20
116.2197794596354
 30
0.0
  0
SPLINE
  5
1FF
330
1F
100
AcDbEntity
  8
LAYER_1
 62
     7
100
AcDbSpline
210
0.0
220
0.0
230
1.0
 70
     8
 71
     3
 72
    14
 73
    10
 74
     0
 42
0.00000001
 43
0.00000001
 40
0.0
 40
0.0
 40
0.0
 40
0.0
 40
1.0
 40
1.0
 40
1.0
 40
2.0
 40
2.0
 40
2.0
 40
3.0
 40
3.0
 40
3.0
 40
3.0
 10
252.319482421875
 20
114.1783881293403
 30
0.0
 10
252.7501193576389
 20
114.2137003580729
 30
0.0
 10
252.17685546875
 20
114.1558227539062
 30
0.0
 10
252.6054253472222
 20
114.2073269314236
 30
0.0
 10
253.1959147135416
 20
114.4066257052951
 30
0.0
 10
252.42490234375
 20
114.1008734809028
 30
0.0
 10
252.9912760416667
 20
114.3604614257812
 30
0.0
 10
253.24345703125
 20
114.5382283528646
 30
0.0
 10
252.9106608072916
 20
114.2965549045139
 30
0.0
 10
253.1573296440972
 20
114.4806952582465
 30
0.0
  0
SPLINE
  5
1FE
330
1F
100
AcDbEntity
  8
LAYER_1
 62
     7
100
AcDbSpline
210
0.0
220
0.0
230
1.0
 70
     8
 71
     3
 72
    14
 73
    10
 74
     0
 42
0.00000001
 43
0.00000001
 40
0.0
 40
0.0
 40
0.0
 40
0.0
 40
1.0
 40
1.0
 40
1.0
 40
2.0
 40
2.0
 40
2.0
 40
3.0
 40
3.0
 40
3.0
 40
3.0
 10
251.4671657986111
 20
114.471393500434
 30
0.0
 10
251.6848958333333
 20
114.3087849934896
 30
0.0
 10
251.3920627170139
 20
114.5222086588542
 30
0.0
 10
251.6132378472222
 20
114.3644232855903
 30
0.0
 10
252.1734103732639
 20
114.1065578884548
 30
0.0
 10
251.4106662326389
 20
114.4114488389757
 30
0.0
 10
251.9942654079861
 20
114.2121500651042
 30
0.0
 10
252.4800238715277
 20
114.1516886393229
 30
0.0
 10
251.8309678819444
 20
114.2192125108507
 30
0.0
 10
252.319482421875
 20
114.178215874566
 30
0.0
  0
LINE
  5
1FD
330
1F
100
AcDbEntity
  8
LAYER_1
 62
     7
100
AcDbLine
 10
173.714806
 20
114.241089
 30
0.0
 11
173.714806
 21
113.831467
 31
0.0
  0
LINE
  5
1FC
330
1F
100
AcDbEntity
  8
LAYER_1
 62
     7
100
AcDbLine
 10
173.714806
 20
113.831639
 30
0.0
 11
174.111681
 21
113.831639
 31
0.0
  0
LINE
  5
1FB
330
1F
100
AcDbEntity
  8
LAYER_1
 62
     7
100
AcDbLine
 10
174.111681
 20
113.831639
 30
0.0
 11
174.111681
 21
114.637792
 31
0.0
  0
LINE
  5
1FA
330
1F
100
AcDbEntity
  8
LAYER_1
 62
     7
100
AcDbLine
 10
174.639469
 20
115.16558
 30
0.0
 11
174.950906
 21
115.16558
 31
0.0
  0
LINE
  5
1F9
330
1F
100
AcDbEntity
  8
LAYER_1
 62
     7
100
AcDbLine
 10
175.481451
 20
114.634863
 30
0.0
 11
175.481451
 21
113.831639
 31
0.0
  0
LINE
  5
1F8
330
1F
100
AcDbEntity
  8
LAYER_1
 62
     7
100
AcDbLine
 10
175.481451
 20
113.831639
 30
0.0
 11
175.878326
 21
113.831639
 31
0.0
  0
LINE
  5
1F7
330
1F
100
AcDbEntity
  8
LAYER_1
 62
     7
100
AcDbLine
 10
175.878326
 20
113.831639
 30
0.0
 11
175.878326
 21
114.238333
 31
0.0
  0
LINE
  5
1F6
330
1F
100
AcDbEntity
  8
LAYER_1
 62
     7
100
AcDbLine
 10
175.878326
 20
116.404609
 30
0.0
 11
175.878326
 21
116.644043
 31
0.0
  0
LINE
  5
1F5
330
1F
100
AcDbEntity
  8
LAYER_1
 62
     7
100
AcDbLine
 10
175.878326
 20
116.644043
 30
0.0
 11
175.481451
 21
116.644043
 31
0.0
  0
LINE
  5
1F4
330
1F
100
AcDbEntity
  8
LAYER_1
 62
     7
100
AcDbLine
 10
175.481451
 20
116.644043
 30
0.0
 11
175.481451
 21
116.008251
 31
0.0
  0
LINE
  5
1F3
330
1F
100
AcDbEntity
  8
LAYER_1
 62
     7
100
AcDbLine
 10
174.963997
 20
115.490108
 30
0.0
 11
174.626378
 21
115.490108
 31
0.0
  0
LINE
  5
1F2
330
1F
100
AcDbEntity
  8
LAYER_1
 62
     7
100
AcDbLine
 10
174.111681
 20
116.00515
 30
0.0
 11
174.111681
 21
116.644043
 31
0.0
  0
LINE
  5
1F1
330
1F
100
AcDbEntity
  8
LAYER_1
 62
     7
100
AcDbLine
 10
174.111681
 20
116.644043
 30
0.0
 11
173.714806
 21
116.644043
 31
0.0
  0
LINE
  5
1F0
330
1F
100
AcDbEntity
  8
LAYER_1
 62
     7
100
AcDbLine
 10
173.714806
 20
116.644043
 30
0.0
 11
173.714806
 21
116.401681
 31
0.0
  0
LINE
  5
1EF
330
1F
100
AcDbEntity
  8
LAYER_1
 62
     7
100
AcDbLine
 10
173.714806
 20
116.401681
 30
0.0
 11
173.714806
 21
114.240917
 31
0.0
  0
LINE
  5
1EE
330
1F
100
AcDbEntity
  8
LAYER_1
 62
     7
100
AcDbLine
 10
175.878326
 20
114.238333
 30
0.0
 11
175.878326
 21
116.404781
 31
0.0
  0
LINE
  5
1ED
330
1F
100
AcDbEntity
  8
LAYER_1
 62
     7
100
AcDbLine
 10
174.950906
 20
115.16558
 30
0.0
 11
175.481451
 21
115.16558
 31
0.0
  0
LINE
  5
1EC
330
1F
100
AcDbEntity
  8
LAYER_1
 62
     7
100
AcDbLine
 10
175.481451
 20
115.16558
 30
0.0
 11
175.481451
 21
114.635036
 31
0.0
  0
LINE
  5
1EB
330
1F
100
AcDbEntity
  8
LAYER_1
 62
     7
100
AcDbLine
 10
175.481451
 20
115.490108
 30
0.0
 11
174.963997
 21
115.490108
 31
0.0
  0
LINE
  5
1EA
330
1F
100
AcDbEntity
  8
LAYER_1
 62
     7
100
AcDbLine
 10
175.481451
 20
116.008251
 30
0.0
 11
175.481451
 21
115.489936
 31
0.0
  0
LINE
  5
1E9
330
1F
100
AcDbEntity
  8
LAYER_1
 62
     7
100
AcDbLine
 10
174.111681
 20
115.16558
 30
0.0
 11
174.639469
 21
115.16558
 31
0.0
  0
LINE
  5
1E8
330
1F
100
AcDbEntity
  8
LAYER_1
 62
     7
100
AcDbLine
 10
174.111681
 20
114.637792
 30
0.0
 11
174.111681
 21
115.16558
 31
0.0
  0
LINE
  5
1E7
330
1F
100
AcDbEntity
  8
LAYER_1
 62
     7
100
AcDbLine
 10
174.626378
 20
115.490108
 30
0.0
 11
174.111681
 21
115.490108
 31
0.0
  0
LINE
  5
1E6
330
1F
100
AcDbEntity
  8
LAYER_1
 62
     7
100
AcDbLine
 10
174.111681
 20
115.490108
 30
0.0
 11
174.111681
 21
116.00515
 31
0.0
  0
LINE
  5
1E5
330
1F
100
AcDbEntity
  8
LAYER_1
 62
     7
100
AcDbLine
 10
174.795188
 20
115.321471
 30
0.0
 11
174.795188
 21
116.49332
 31
0.0
  0
LINE
  5
1E4
330
1F
100
AcDbEntity
  8
LAYER_1
 62
     7
100
AcDbLine
 10
174.795188
 20
115.321471
 30
0.0
 11
173.623166
 21
115.321471
 31
0.0
  0
LINE
  5
1E3
330
1F
100
AcDbEntity
  8
LAYER_1
 62
     7
100
AcDbLine
 10
174.795188
 20
115.321471
 30
0.0
 11
174.795188
 21
114.149449
 31
0.0
  0
LINE
  5
1E2
330
1F
100
AcDbEntity
  8
LAYER_1
 62
     7
100
AcDbLine
 10
174.795188
 20
115.321471
 30
0.0
 11
175.96652
 21
115.321471
 31
0.0
  0
LINE
  5
1E1
330
1F
100
AcDbEntity
  8
LAYER_1
 62
     7
100
AcDbLine
 10
174.795188
 20
117.665169
 30
0.0
 11
174.795188
 21
134.196288
 31
0.0
  0
LINE
  5
1E0
330
1F
100
AcDbEntity
  8
LAYER_1
 62
     7
100
AcDbLine
 10
172.451145
 20
115.321471
 30
0.0
 11
156.456944
 21
115.321471
 31
0.0
  0
LINE
  5
1DF
330
1F
100
AcDbEntity
  8
LAYER_1
 62
     7
100
AcDbLine
 10
174.795188
 20
112.977945
 30
0.0
 11
174.795188
 21
97.331182
 31
0.0
  0
LINE
  5
1DE
330
1F
100
AcDbEntity
  8
LAYER_1
 62
     7
100
AcDbLine
 10
177.138542
 20
115.321471
 30
0.0
 11
193.145833
 21
115.322849
 31
0.0
  0
LINE
  5
1DD
330
1F
100
AcDbEntity
  8
LAYER_1
 62
     7
100
AcDbLine
 10
215.055952
 20
184.935137
 30
0.0
 11
215.055952
 21
186.107159
 31
0.0
  0
LINE
  5
1DC
330
1F
100
AcDbEntity
  8
LAYER_1
 62
     7
100
AcDbLine
 10
215.055952
 20
184.935137
 30
0.0
 11
213.88393
 21
184.935137
 31
0.0
  0
LINE
  5
1DB
330
1F
100
AcDbEntity
  8
LAYER_1
 62
     7
100
AcDbLine
 10
215.055952
 20
184.935137
 30
0.0
 11
215.055952
 21
183.763116
 31
0.0
  0
LINE
  5
1DA
330
1F
100
AcDbEntity
  8
LAYER_1
 62
     7
100
AcDbLine
 10
215.055952
 20
184.935137
 30
0.0
 11
216.227284
 21
184.935137
 31
0.0
  0
LINE
  5
1D9
330
1F
100
AcDbEntity
  8
LAYER_1
 62
     7
100
AcDbLine
 10
215.055952
 20
187.278836
 30
0.0
 11
215.055952
 21
203.809954
 31
0.0
  0
LINE
  5
1D8
330
1F
100
AcDbEntity
  8
LAYER_1
 62
     7
100
AcDbLine
 10
212.711909
 20
184.935137
 30
0.0
 11
196.717708
 21
184.935137
 31
0.0
  0
LINE
  5
1D7
330
1F
100
AcDbEntity
  8
LAYER_1
 62
     7
100
AcDbLine
 10
215.055952
 20
182.591611
 30
0.0
 11
215.055952
 21
166.944849
 31
0.0
  0
LINE
  5
1D6
330
1F
100
AcDbEntity
  8
LAYER_1
 62
     7
100
AcDbLine
 10
217.399306
 20
184.935137
 30
0.0
 11
233.406597
 21
184.936515
 31
0.0
  0
LINE
  5
1D5
330
1F
100
AcDbEntity
  8
LAYER_1
 62
     7
100
AcDbLine
 10
43.843835
 20
128.31327
 30
0.0
 11
22.74452
 21
128.31327
 31
0.0
  0
LINE
  5
1D4
330
1F
100
AcDbEntity
  8
LAYER_1
 62
     7
100
AcDbLine
 10
43.843835
 20
101.826687
 30
0.0
 11
22.49165
 21
101.826687
 31
0.0
  0
LINE
  5
1D3
330
1F
100
AcDbEntity
  8
LAYER_1
 62
     7
100
AcDbLine
 10
44.735943
 20
128.145494
 30
0.0
 11
44.735943
 21
102.513984
 31
0.0
  0
SPLINE
  5
1D2
330
1F
100
AcDbEntity
  8
LAYER_1
 62
     7
100
AcDbSpline
210
0.0
220
0.0
230
1.0
 70
     8
 71
     3
 72
     8
 73
     4
 74
     0
 42
0.00000001
 43
0.00000001
 40
0.0
 40
0.0
 40
0.0
 40
0.0
 40
1.0
 40
1.0
 40
1.0
 40
1.0
 10
172.3812093098958
 20
128.3027628580729
 30
0.0
 10
166.9610405815972
 20
127.2955891927083
 30
0.0
 10
162.6953233506944
 20
123.0026557074653
 30
0.0
 10
161.7289740668403
 20
117.5683620876736
 30
0.0
  0
SPLINE
  5
1D1
330
1F
100
AcDbEntity
  8
LAYER_1
 62
     7
100
AcDbSpline
210
0.0
220
0.0
230
1.0
 70
     8
 71
     3
 72
     8
 73
     4
 74
     0
 42
0.00000001
 43
0.00000001
 40
0.0
 40
0.0
 40
0.0
 40
0.0
 40
1.0
 40
1.0
 40
1.0
 40
1.0
 10
187.8989529079861
 20
117.6966918945312
 30
0.0
 10
186.872314453125
 20
123.156995985243
 30
0.0
 10
182.5101345486111
 20
127.4404554578993
 30
0.0
 10
177.0090060763889
 20
128.3484103732639
 30
0.0
  0
SPLINE
  5
1D0
330
1F
100
AcDbEntity
  8
LAYER_1
 62
     7
100
AcDbSpline
210
0.0
220
0.0
230
1.0
 70
     8
 71
     3
 72
     8
 73
     4
 74
     0
 42
0.00000001
 43
0.00000001
 40
0.0
 40
0.0
 40
0.0
 40
0.0
 40
1.0
 40
1.0
 40
1.0
 40
1.0
 10
177.2267361111111
 20
102.1377794053819
 30
0.0
 10
182.7444010416667
 20
103.1437472873264
 30
0.0
 10
187.0748860677083
 20
107.5532972547743
 30
0.0
 10
187.9616536458333
 20
113.1119588216146
 30
0.0
  0
SPLINE
  5
1CF
330
1F
100
AcDbEntity
  8
LAYER_1
 62
     7
100
AcDbSpline
210
0.0
220
0.0
230
1.0
 70
     8
 71
     3
 72
     8
 73
     4
 74
     0
 42
0.00000001
 43
0.00000001
 40
0.0
 40
0.0
 40
0.0
 40
0.0
 40
1.0
 40
1.0
 40
1.0
 40
1.0
 10
161.7238064236111
 20
112.9085259331597
 30
0.0
 10
162.6932562934028
 20
107.3882771809896
 30
0.0
 10
167.065771484375
 20
103.0397054036458
 30
0.0
 10
172.598939344618
 20
102.1071180555555
 30
0.0
  0
LINE
  5
1CE
330
1F
100
AcDbEntity
  8
LAYER_1
 62
     7
100
AcDbLine
 10
252.301568
 20
115.321471
 30
0.0
 11
252.301568
 21
116.49332
 31
0.0
  0
LINE
  5
1CD
330
1F
100
AcDbEntity
  8
LAYER_1
 62
     7
100
AcDbLine
 10
252.301568
 20
115.321471
 30
0.0
 11
253.473589
 21
115.321471
 31
0.0
  0
LINE
  5
1CC
330
1F
100
AcDbEntity
  8
LAYER_1
 62
     7
100
AcDbLine
 10
252.301568
 20
115.321471
 30
0.0
 11
252.301568
 21
114.149449
 31
0.0
  0
LINE
  5
1CB
330
1F
100
AcDbEntity
  8
LAYER_1
 62
     7
100
AcDbLine
 10
252.301568
 20
115.321471
 30
0.0
 11
251.130235
 21
115.321471
 31
0.0
  0
LINE
  5
1CA
330
1F
100
AcDbEntity
  8
LAYER_1
 62
     7
100
AcDbLine
 10
48.729325
 20
102.149837
 30
0.0
 11
49.257803
 21
106.934903
 31
0.0
  0
LINE
  5
1C9
330
1F
100
AcDbEntity
  8
LAYER_1
 62
     7
100
AcDbLine
 10
49.257803
 20
106.934903
 30
0.0
 11
49.257803
 21
106.934903
 31
0.0
  0
LINE
  5
1C8
330
1F
100
AcDbEntity
  8
LAYER_1
 62
     7
100
AcDbLine
 10
49.257803
 20
106.934903
 30
0.0
 11
49.257803
 21
106.934903
 31
0.0
  0
LINE
  5
1C7
330
1F
100
AcDbEntity
  8
LAYER_1
 62
     7
100
AcDbLine
 10
49.257803
 20
106.934903
 30
0.0
 11
63.530145
 21
108.529465
 31
0.0
  0
LINE
  5
1C6
330
1F
100
AcDbEntity
  8
LAYER_1
 62
     7
100
AcDbLine
 10
50.314758
 20
111.719451
 30
0.0
 11
50.314758
 21
111.719451
 31
0.0
  0
LINE
  5
1C5
330
1F
100
AcDbEntity
  8
LAYER_1
 62
     7
100
AcDbLine
 10
50.314758
 20
111.719451
 30
0.0
 11
50.314758
 21
111.719451
 31
0.0
  0
LINE
  5
1C4
330
1F
100
AcDbEntity
  8
LAYER_1
 62
     7
100
AcDbLine
 10
64.058622
 20
115.440843
 30
0.0
 11
64.058622
 21
108.529293
 31
0.0
  0
LINE
  5
1C3
330
1F
100
AcDbEntity
  8
LAYER_1
 62
     7
100
AcDbLine
 10
65.116267
 20
110.124372
 30
0.0
 11
65.116267
 21
110.124372
 31
0.0
  0
LINE
  5
1C2
330
1F
100
AcDbEntity
  8
LAYER_1
 62
     7
100
AcDbLine
 10
65.116267
 20
110.124372
 30
0.0
 11
65.116267
 21
110.124372
 31
0.0
  0
LINE
  5
1C1
330
1F
100
AcDbEntity
  8
LAYER_1
 62
     7
100
AcDbLine
 10
65.116267
 20
120.757315
 30
0.0
 11
65.116267
 21
120.757315
 31
0.0
  0
LINE
  5
1C0
330
1F
100
AcDbEntity
  8
LAYER_1
 62
     7
100
AcDbLine
 10
65.116267
 20
120.757315
 30
0.0
 11
65.116267
 21
120.757315
 31
0.0
  0
LINE
  5
1BF
330
1F
100
AcDbEntity
  8
LAYER_1
 62
     7
100
AcDbLine
 10
64.058622
 20
122.351705
 30
0.0
 11
63.530145
 21
122.351705
 31
0.0
  0
LINE
  5
1BE
330
1F
100
AcDbEntity
  8
LAYER_1
 62
     7
100
AcDbLine
 10
63.530145
 20
122.351705
 30
0.0
 11
63.530145
 21
122.351705
 31
0.0
  0
LINE
  5
1BD
330
1F
100
AcDbEntity
  8
LAYER_1
 62
     7
100
AcDbLine
 10
49.257803
 20
123.41555
 30
0.0
 11
63.530145
 21
122.351533
 31
0.0
  0
LINE
  5
1BC
330
1F
100
AcDbEntity
  8
LAYER_1
 62
     7
100
AcDbLine
 10
64.058622
 20
115.440843
 30
0.0
 11
64.058622
 21
122.351705
 31
0.0
  0
LINE
  5
1BB
330
1F
100
AcDbEntity
  8
LAYER_1
 62
     7
100
AcDbLine
 10
63.530145
 20
108.529293
 30
0.0
 11
63.530145
 21
108.529293
 31
0.0
  0
LWPOLYLINE
  5
1B6
330
1F
100
AcDbEntity
  8
LAYER_1
 62
     7
100
AcDbPolyline
 90
        3
 70
     0
 43
0.0
 10
63.530145
 20
108.529293
 10
63.530145
 20
108.529293
 10
64.058622
 20
108.529293
  0
LWPOLYLINE
  5
1B1
330
1F
100
AcDbEntity
  8
LAYER_1
 62
     7
100
AcDbPolyline
 90
        3
 70
     0
 43
0.0
 10
63.530145
 20
108.529293
 10
63.530145
 20
108.529293
 10
64.058622
 20
108.529293
  0
LINE
  5
1B0
330
1F
100
AcDbEntity
  8
LAYER_1
 62
     7
100
AcDbLine
 10
65.116267
 20
110.656295
 30
0.0
 11
65.116267
 21
110.124372
 31
0.0
  0
LINE
  5
1AF
330
1F
100
AcDbEntity
  8
LAYER_1
 62
     7
100
AcDbLine
 10
65.116267
 20
110.124372
 30
0.0
 11
64.058622
 21
110.124372
 31
0.0
  0
LINE
  5
1AE
330
1F
100
AcDbEntity
  8
LAYER_1
 62
     7
100
AcDbLine
 10
64.058622
 20
110.124372
 30
0.0
 11
64.058622
 21
110.124372
 31
0.0
  0
LINE
  5
1AD
330
1F
100
AcDbEntity
  8
LAYER_1
 62
     7
100
AcDbLine
 10
64.058622
 20
110.124372
 30
0.0
 11
64.058622
 21
109.592449
 31
0.0
  0
LINE
  5
1AC
330
1F
100
AcDbEntity
  8
LAYER_1
 62
     7
100
AcDbLine
 10
49.257803
 20
123.946784
 30
0.0
 11
49.257803
 21
123.946784
 31
0.0
  0
LINE
  5
1AB
330
1F
100
AcDbEntity
  8
LAYER_1
 62
     7
100
AcDbLine
 10
49.257803
 20
123.946784
 30
0.0
 11
49.257803
 21
123.41555
 31
0.0
  0
LINE
  5
1AA
330
1F
100
AcDbEntity
  8
LAYER_1
 62
     7
100
AcDbLine
 10
49.257803
 20
123.946784
 30
0.0
 11
49.257803
 21
106.93473
 31
0.0
  0
LINE
  5
1A9
330
1F
100
AcDbEntity
  8
LAYER_1
 62
     7
100
AcDbLine
 10
65.116267
 20
110.656295
 30
0.0
 11
65.116267
 21
120.757315
 31
0.0
  0
LINE
  5
1A8
330
1F
100
AcDbEntity
  8
LAYER_1
 62
     7
100
AcDbLine
 10
48.729325
 20
128.19941
 30
0.0
 11
49.257803
 21
123.946612
 31
0.0
  0
LINE
  5
1A7
330
1F
100
AcDbEntity
  8
LAYER_1
 62
     7
100
AcDbLine
 10
48.729325
 20
128.19941
 30
0.0
 11
48.729325
 21
128.19941
 31
0.0
  0
LINE
  5
1A6
330
1F
100
AcDbEntity
  8
LAYER_1
 62
     7
100
AcDbLine
 10
48.729325
 20
128.19941
 30
0.0
 11
48.729325
 21
128.19941
 31
0.0
  0
LINE
  5
1A5
330
1F
100
AcDbEntity
  8
LAYER_1
 62
     7
100
AcDbLine
 10
45.028604
 20
128.731333
 30
0.0
 11
48.729153
 21
128.19941
 31
0.0
  0
LINE
  5
1A4
330
1F
100
AcDbEntity
  8
LAYER_1
 62
     7
100
AcDbLine
 10
65.116267
 20
120.757315
 30
0.0
 11
64.058622
 21
120.757315
 31
0.0
  0
LINE
  5
1A3
330
1F
100
AcDbEntity
  8
LAYER_1
 62
     7
100
AcDbLine
 10
64.058622
 20
120.757315
 30
0.0
 11
64.058622
 21
120.757315
 31
0.0
  0
LINE
  5
1A2
330
1F
100
AcDbEntity
  8
LAYER_1
 62
     7
100
AcDbLine
 10
64.058622
 20
120.757315
 30
0.0
 11
64.058622
 21
120.757315
 31
0.0
  0
LINE
  5
1A1
330
1F
100
AcDbEntity
  8
LAYER_1
 62
     7
100
AcDbLine
 10
49.257114
 20
107.329711
 30
0.0
 11
49.257114
 21
107.329711
 31
0.0
  0
LINE
  5
1A0
330
1F
100
AcDbEntity
  8
LAYER_1
 62
     7
100
AcDbLine
 10
49.257114
 20
123.810358
 30
0.0
 11
49.257114
 21
123.810358
 31
0.0
  0
LINE
  5
19F
330
1F
100
AcDbEntity
  8
LAYER_1
 62
     7
100
AcDbLine
 10
48.728636
 20
128.594907
 30
0.0
 11
48.728636
 21
128.594907
 31
0.0
  0
LINE
  5
19E
330
1F
100
AcDbEntity
  8
LAYER_1
 62
     7
100
AcDbLine
 10
48.728636
 20
128.594907
 30
0.0
 11
48.728636
 21
128.594907
 31
0.0
  0
LINE
  5
19D
330
1F
100
AcDbEntity
  8
LAYER_1
 62
     7
100
AcDbLine
 10
58.772468
 20
108.392867
 30
0.0
 11
58.772468
 21
108.392867
 31
0.0
  0
LINE
  5
19C
330
1F
100
AcDbEntity
  8
LAYER_1
 62
     7
100
AcDbLine
 10
58.772468
 20
108.392867
 30
0.0
 11
58.772468
 21
108.392867
 31
0.0
  0
LINE
  5
19B
330
1F
100
AcDbEntity
  8
LAYER_1
 62
     7
100
AcDbLine
 10
58.772468
 20
108.392867
 30
0.0
 11
58.772468
 21
108.392867
 31
0.0
  0
LINE
  5
19A
330
1F
100
AcDbEntity
  8
LAYER_1
 62
     7
100
AcDbLine
 10
58.772468
 20
108.392867
 30
0.0
 11
58.772468
 21
108.392867
 31
0.0
  0
LINE
  5
199
330
1F
100
AcDbEntity
  8
LAYER_1
 62
     7
100
AcDbLine
 10
58.772468
 20
108.392867
 30
0.0
 11
58.772468
 21
108.392867
 31
0.0
  0
LINE
  5
198
330
1F
100
AcDbEntity
  8
LAYER_1
 62
     7
100
AcDbLine
 10
58.772468
 20
108.392867
 30
0.0
 11
58.772468
 21
108.392867
 31
0.0
  0
LINE
  5
197
330
1F
100
AcDbEntity
  8
LAYER_1
 62
     7
100
AcDbLine
 10
58.772468
 20
108.392867
 30
0.0
 11
58.772468
 21
108.392867
 31
0.0
  0
LINE
  5
196
330
1F
100
AcDbEntity
  8
LAYER_1
 62
     7
100
AcDbLine
 10
58.772468
 20
108.392867
 30
0.0
 11
58.772468
 21
108.392867
 31
0.0
  0
LINE
  5
195
330
1F
100
AcDbEntity
  8
LAYER_1
 62
     7
100
AcDbLine
 10
58.772468
 20
108.392867
 30
0.0
 11
58.772468
 21
108.392867
 31
0.0
  0
LINE
  5
194
330
1F
100
AcDbEntity
  8
LAYER_1
 62
     7
100
AcDbLine
 10
58.772468
 20
108.392867
 30
0.0
 11
58.772468
 21
108.392867
 31
0.0
  0
LINE
  5
193
330
1F
100
AcDbEntity
  8
LAYER_1
 62
     7
100
AcDbLine
 10
58.772468
 20
108.392867
 30
0.0
 11
58.772468
 21
108.392867
 31
0.0
  0
LINE
  5
192
330
1F
100
AcDbEntity
  8
LAYER_1
 62
     7
100
AcDbLine
 10
58.772468
 20
108.392867
 30
0.0
 11
58.772468
 21
108.392867
 31
0.0
  0
LINE
  5
191
330
1F
100
AcDbEntity
  8
LAYER_1
 62
     7
100
AcDbLine
 10
60.35859
 20
109.987946
 30
0.0
 11
60.35859
 21
109.987946
 31
0.0
  0
LINE
  5
190
330
1F
100
AcDbEntity
  8
LAYER_1
 62
     7
100
AcDbLine
 10
63.001667
 20
113.177416
 30
0.0
 11
63.001667
 21
113.177416
 31
0.0
  0
LINE
  5
18F
330
1F
100
AcDbEntity
  8
LAYER_1
 62
     7
100
AcDbLine
 10
63.001667
 20
113.177416
 30
0.0
 11
63.001667
 21
113.177416
 31
0.0
  0
LINE
  5
18E
330
1F
100
AcDbEntity
  8
LAYER_1
 62
     7
100
AcDbLine
 10
63.001667
 20
113.709338
 30
0.0
 11
63.001667
 21
113.709338
 31
0.0
  0
LINE
  5
18D
330
1F
100
AcDbEntity
  8
LAYER_1
 62
     7
100
AcDbLine
 10
63.001667
 20
113.709338
 30
0.0
 11
63.001667
 21
113.709338
 31
0.0
  0
LINE
  5
18C
330
1F
100
AcDbEntity
  8
LAYER_1
 62
     7
100
AcDbLine
 10
63.001667
 20
113.709338
 30
0.0
 11
63.001667
 21
113.709338
 31
0.0
  0
LINE
  5
18B
330
1F
100
AcDbEntity
  8
LAYER_1
 62
     7
100
AcDbLine
 10
63.001667
 20
113.709338
 30
0.0
 11
63.001667
 21
113.709338
 31
0.0
  0
LINE
  5
18A
330
1F
100
AcDbEntity
  8
LAYER_1
 62
     7
100
AcDbLine
 10
63.001667
 20
113.709338
 30
0.0
 11
63.001667
 21
113.709338
 31
0.0
  0
LINE
  5
189
330
1F
100
AcDbEntity
  8
LAYER_1
 62
     7
100
AcDbLine
 10
63.001667
 20
114.241261
 30
0.0
 11
63.001667
 21
114.241261
 31
0.0
  0
LINE
  5
188
330
1F
100
AcDbEntity
  8
LAYER_1
 62
     7
100
AcDbLine
 10
63.529456
 20
114.241261
 30
0.0
 11
63.529456
 21
114.241261
 31
0.0
  0
LINE
  5
187
330
1F
100
AcDbEntity
  8
LAYER_1
 62
     7
100
AcDbLine
 10
63.529456
 20
114.241261
 30
0.0
 11
63.529456
 21
114.241261
 31
0.0
  0
LINE
  5
186
330
1F
100
AcDbEntity
  8
LAYER_1
 62
     7
100
AcDbLine
 10
63.529456
 20
114.241261
 30
0.0
 11
63.529456
 21
114.241261
 31
0.0
  0
LINE
  5
185
330
1F
100
AcDbEntity
  8
LAYER_1
 62
     7
100
AcDbLine
 10
63.529456
 20
114.241261
 30
0.0
 11
63.529456
 21
114.241261
 31
0.0
  0
LINE
  5
184
330
1F
100
AcDbEntity
  8
LAYER_1
 62
     7
100
AcDbLine
 10
63.529456
 20
114.772495
 30
0.0
 11
63.529456
 21
114.772495
 31
0.0
  0
LINE
  5
183
330
1F
100
AcDbEntity
  8
LAYER_1
 62
     7
100
AcDbLine
 10
63.529456
 20
114.772495
 30
0.0
 11
63.529456
 21
114.772495
 31
0.0
  0
LINE
  5
182
330
1F
100
AcDbEntity
  8
LAYER_1
 62
     7
100
AcDbLine
 10
63.529456
 20
114.772495
 30
0.0
 11
63.529456
 21
114.772495
 31
0.0
  0
LINE
  5
181
330
1F
100
AcDbEntity
  8
LAYER_1
 62
     7
100
AcDbLine
 10
63.529456
 20
114.772495
 30
0.0
 11
63.529456
 21
114.772495
 31
0.0
  0
LINE
  5
180
330
1F
100
AcDbEntity
  8
LAYER_1
 62
     7
100
AcDbLine
 10
63.529456
 20
114.772495
 30
0.0
 11
63.529456
 21
114.772495
 31
0.0
  0
LINE
  5
17F
330
1F
100
AcDbEntity
  8
LAYER_1
 62
     7
100
AcDbLine
 10
63.529456
 20
115.304418
 30
0.0
 11
63.529456
 21
115.304418
 31
0.0
  0
LINE
  5
17E
330
1F
100
AcDbEntity
  8
LAYER_1
 62
     7
100
AcDbLine
 10
63.529456
 20
115.304418
 30
0.0
 11
63.529456
 21
115.304418
 31
0.0
  0
LINE
  5
17D
330
1F
100
AcDbEntity
  8
LAYER_1
 62
     7
100
AcDbLine
 10
63.529456
 20
115.304418
 30
0.0
 11
63.529456
 21
115.304418
 31
0.0
  0
LINE
  5
17C
330
1F
100
AcDbEntity
  8
LAYER_1
 62
     7
100
AcDbLine
 10
63.529456
 20
115.304418
 30
0.0
 11
63.529456
 21
115.304418
 31
0.0
  0
LINE
  5
17B
330
1F
100
AcDbEntity
  8
LAYER_1
 62
     7
100
AcDbLine
 10
63.529456
 20
115.304418
 30
0.0
 11
63.529456
 21
115.304418
 31
0.0
  0
LINE
  5
17A
330
1F
100
AcDbEntity
  8
LAYER_1
 62
     7
100
AcDbLine
 10
63.529456
 20
115.304418
 30
0.0
 11
63.529456
 21
115.304418
 31
0.0
  0
LINE
  5
179
330
1F
100
AcDbEntity
  8
LAYER_1
 62
     7
100
AcDbLine
 10
63.529456
 20
115.304418
 30
0.0
 11
63.529456
 21
115.304418
 31
0.0
  0
LINE
  5
178
330
1F
100
AcDbEntity
  8
LAYER_1
 62
     7
100
AcDbLine
 10
63.529456
 20
115.304418
 30
0.0
 11
63.529456
 21
115.304418
 31
0.0
  0
LINE
  5
177
330
1F
100
AcDbEntity
  8
LAYER_1
 62
     7
100
AcDbLine
 10
48.728636
 20
89.786768
 30
0.0
 11
48.728636
 21
89.786768
 31
0.0
  0
LINE
  5
176
330
1F
100
AcDbEntity
  8
LAYER_1
 62
     7
100
AcDbLine
 10
48.728636
 20
89.786768
 30
0.0
 11
48.728636
 21
89.786768
 31
0.0
  0
LINE
  5
175
330
1F
100
AcDbEntity
  8
LAYER_1
 62
     7
100
AcDbLine
 10
63.529456
 20
115.304418
 30
0.0
 11
63.529456
 21
115.304418
 31
0.0
  0
LINE
  5
174
330
1F
100
AcDbEntity
  8
LAYER_1
 62
     7
100
AcDbLine
 10
63.529456
 20
116.366885
 30
0.0
 11
63.529456
 21
116.366885
 31
0.0
  0
LINE
  5
173
330
1F
100
AcDbEntity
  8
LAYER_1
 62
     7
100
AcDbLine
 10
63.529456
 20
116.366885
 30
0.0
 11
63.529456
 21
116.366885
 31
0.0
  0
LINE
  5
172
330
1F
100
AcDbEntity
  8
LAYER_1
 62
     7
100
AcDbLine
 10
63.529456
 20
116.366885
 30
0.0
 11
63.529456
 21
116.366885
 31
0.0
  0
LINE
  5
171
330
1F
100
AcDbEntity
  8
LAYER_1
 62
     7
100
AcDbLine
 10
63.529456
 20
116.366885
 30
0.0
 11
63.529456
 21
116.366885
 31
0.0
  0
LINE
  5
170
330
1F
100
AcDbEntity
  8
LAYER_1
 62
     7
100
AcDbLine
 10
63.529456
 20
116.366885
 30
0.0
 11
63.529456
 21
116.366885
 31
0.0
  0
LINE
  5
16F
330
1F
100
AcDbEntity
  8
LAYER_1
 62
     7
100
AcDbLine
 10
63.529456
 20
116.898808
 30
0.0
 11
63.529456
 21
116.898808
 31
0.0
  0
LINE
  5
16E
330
1F
100
AcDbEntity
  8
LAYER_1
 62
     7
100
AcDbLine
 10
63.529456
 20
116.898808
 30
0.0
 11
63.529456
 21
116.898808
 31
0.0
  0
LINE
  5
16D
330
1F
100
AcDbEntity
  8
LAYER_1
 62
     7
100
AcDbLine
 10
63.001667
 20
117.430731
 30
0.0
 11
63.001667
 21
117.430731
 31
0.0
  0
LINE
  5
16C
330
1F
100
AcDbEntity
  8
LAYER_1
 62
     7
100
AcDbLine
 10
63.001667
 20
117.430731
 30
0.0
 11
63.001667
 21
117.430731
 31
0.0
  0
LINE
  5
16B
330
1F
100
AcDbEntity
  8
LAYER_1
 62
     7
100
AcDbLine
 10
63.001667
 20
117.430731
 30
0.0
 11
63.001667
 21
117.430731
 31
0.0
  0
LINE
  5
16A
330
1F
100
AcDbEntity
  8
LAYER_1
 62
     7
100
AcDbLine
 10
63.001667
 20
117.430731
 30
0.0
 11
63.001667
 21
117.430731
 31
0.0
  0
LINE
  5
169
330
1F
100
AcDbEntity
  8
LAYER_1
 62
     7
100
AcDbLine
 10
63.001667
 20
117.430731
 30
0.0
 11
63.001667
 21
117.430731
 31
0.0
  0
LINE
  5
168
330
1F
100
AcDbEntity
  8
LAYER_1
 62
     7
100
AcDbLine
 10
63.001667
 20
117.430731
 30
0.0
 11
63.001667
 21
117.430731
 31
0.0
  0
LINE
  5
167
330
1F
100
AcDbEntity
  8
LAYER_1
 62
     7
100
AcDbLine
 10
58.772468
 20
122.215279
 30
0.0
 11
58.772468
 21
122.215279
 31
0.0
  0
LINE
  5
166
330
1F
100
AcDbEntity
  8
LAYER_1
 62
     7
100
AcDbLine
 10
58.772468
 20
122.215279
 30
0.0
 11
58.772468
 21
122.215279
 31
0.0
  0
LINE
  5
165
330
1F
100
AcDbEntity
  8
LAYER_1
 62
     7
100
AcDbLine
 10
58.772468
 20
122.215279
 30
0.0
 11
58.772468
 21
122.215279
 31
0.0
  0
LINE
  5
164
330
1F
100
AcDbEntity
  8
LAYER_1
 62
     7
100
AcDbLine
 10
58.772468
 20
122.215279
 30
0.0
 11
58.772468
 21
122.215279
 31
0.0
  0
LINE
  5
163
330
1F
100
AcDbEntity
  8
LAYER_1
 62
     7
100
AcDbLine
 10
58.772468
 20
122.215279
 30
0.0
 11
58.772468
 21
122.215279
 31
0.0
  0
LINE
  5
162
330
1F
100
AcDbEntity
  8
LAYER_1
 62
     7
100
AcDbLine
 10
58.772468
 20
122.215279
 30
0.0
 11
58.772468
 21
122.215279
 31
0.0
  0
LINE
  5
161
330
1F
100
AcDbEntity
  8
LAYER_1
 62
     7
100
AcDbLine
 10
58.772468
 20
122.215279
 30
0.0
 11
58.772468
 21
122.215279
 31
0.0
  0
LINE
  5
160
330
1F
100
AcDbEntity
  8
LAYER_1
 62
     7
100
AcDbLine
 10
58.772468
 20
122.215279
 30
0.0
 11
58.772468
 21
122.215279
 31
0.0
  0
LINE
  5
15F
330
1F
100
AcDbEntity
  8
LAYER_1
 62
     7
100
AcDbLine
 10
58.772468
 20
122.215279
 30
0.0
 11
58.772468
 21
122.215279
 31
0.0
  0
LINE
  5
15E
330
1F
100
AcDbEntity
  8
LAYER_1
 62
     7
100
AcDbLine
 10
58.772468
 20
122.215279
 30
0.0
 11
58.772468
 21
122.215279
 31
0.0
  0
LINE
  5
15D
330
1F
100
AcDbEntity
  8
LAYER_1
 62
     7
100
AcDbLine
 10
58.772468
 20
122.215279
 30
0.0
 11
58.772468
 21
122.215279
 31
0.0
  0
LINE
  5
15C
330
1F
100
AcDbEntity
  8
LAYER_1
 62
     7
100
AcDbLine
 10
58.772468
 20
122.215279
 30
0.0
 11
58.772468
 21
122.215279
 31
0.0
  0
LINE
  5
15B
330
1F
100
AcDbEntity
  8
LAYER_1
 62
     7
100
AcDbLine
 10
58.772468
 20
122.215279
 30
0.0
 11
58.772468
 21
122.215279
 31
0.0
  0
LINE
  5
15A
330
1F
100
AcDbEntity
  8
LAYER_1
 62
     7
100
AcDbLine
 10
58.772468
 20
122.215279
 30
0.0
 11
58.772468
 21
122.215279
 31
0.0
  0
LINE
  5
159
330
1F
100
AcDbEntity
  8
LAYER_1
 62
     7
100
AcDbLine
 10
58.772468
 20
122.215279
 30
0.0
 11
58.772468
 21
122.215279
 31
0.0
  0
LINE
  5
158
330
1F
100
AcDbEntity
  8
LAYER_1
 62
     7
100
AcDbLine
 10
58.772468
 20
122.215279
 30
0.0
 11
58.772468
 21
122.215279
 31
0.0
  0
LINE
  5
157
330
1F
100
AcDbEntity
  8
LAYER_1
 62
     7
100
AcDbLine
 10
58.772468
 20
122.215279
 30
0.0
 11
58.772468
 21
122.215279
 31
0.0
  0
LINE
  5
156
330
1F
100
AcDbEntity
  8
LAYER_1
 62
     7
100
AcDbLine
 10
58.772468
 20
122.215279
 30
0.0
 11
58.772468
 21
122.215279
 31
0.0
  0
LINE
  5
155
330
1F
100
AcDbEntity
  8
LAYER_1
 62
     7
100
AcDbLine
 10
58.772468
 20
122.215279
 30
0.0
 11
58.772468
 21
122.215279
 31
0.0
  0
LINE
  5
154
330
1F
100
AcDbEntity
  8
LAYER_1
 62
     7
100
AcDbLine
 10
58.772468
 20
122.747202
 30
0.0
 11
58.772468
 21
122.747202
 31
0.0
  0
LINE
  5
153
330
1F
100
AcDbEntity
  8
LAYER_1
 62
     7
100
AcDbLine
 10
58.772468
 20
122.747202
 30
0.0
 11
58.772468
 21
122.747202
 31
0.0
  0
LINE
  5
152
330
1F
100
AcDbEntity
  8
LAYER_1
 62
     7
100
AcDbLine
 10
58.772468
 20
122.747202
 30
0.0
 11
58.772468
 21
122.747202
 31
0.0
  0
LINE
  5
151
330
1F
100
AcDbEntity
  8
LAYER_1
 62
     7
100
AcDbLine
 10
58.772468
 20
122.747202
 30
0.0
 11
58.772468
 21
122.747202
 31
0.0
  0
LINE
  5
150
330
1F
100
AcDbEntity
  8
LAYER_1
 62
     7
100
AcDbLine
 10
58.24399
 20
122.747202
 30
0.0
 11
58.24399
 21
122.747202
 31
0.0
  0
LINE
  5
14F
330
1F
100
AcDbEntity
  8
LAYER_1
 62
     7
100
AcDbLine
 10
58.24399
 20
122.747202
 30
0.0
 11
58.24399
 21
122.747202
 31
0.0
  0
LINE
  5
14E
330
1F
100
AcDbEntity
  8
LAYER_1
 62
     7
100
AcDbLine
 10
58.24399
 20
122.747202
 30
0.0
 11
58.24399
 21
122.747202
 31
0.0
  0
LINE
  5
14D
330
1F
100
AcDbEntity
  8
LAYER_1
 62
     7
100
AcDbLine
 10
58.24399
 20
122.747202
 30
0.0
 11
58.24399
 21
122.747202
 31
0.0
  0
LINE
  5
14C
330
1F
100
AcDbEntity
  8
LAYER_1
 62
     7
100
AcDbLine
 10
58.24399
 20
122.747202
 30
0.0
 11
58.24399
 21
122.747202
 31
0.0
  0
LINE
  5
14B
330
1F
100
AcDbEntity
  8
LAYER_1
 62
     7
100
AcDbLine
 10
74.670894
 20
112.976222
 30
0.0
 11
74.670894
 21
110.333145
 31
0.0
  0
LINE
  5
14A
330
1F
100
AcDbEntity
  8
LAYER_1
 62
     7
100
AcDbLine
 10
77.861053
 20
100.289486
 30
0.0
 11
77.861053
 21
100.289486
 31
0.0
  0
LINE
  5
149
330
1F
100
AcDbEntity
  8
LAYER_1
 62
     7
100
AcDbLine
 10
82.645601
 20
100.289486
 30
0.0
 11
82.645601
 21
100.289486
 31
0.0
  0
LINE
  5
148
330
1F
100
AcDbEntity
  8
LAYER_1
 62
     7
100
AcDbLine
 10
79.987366
 20
100.289486
 30
0.0
 11
77.861225
 21
100.289486
 31
0.0
  0
LINE
  5
147
330
1F
100
AcDbEntity
  8
LAYER_1
 62
     7
100
AcDbLine
 10
65.101797
 20
112.976222
 30
0.0
 11
74.670894
 21
112.976222
 31
0.0
  0
LINE
  5
146
330
1F
100
AcDbEntity
  8
LAYER_1
 62
     7
100
AcDbLine
 10
74.670894
 20
117.733899
 30
0.0
 11
74.670894
 21
112.976394
 31
0.0
  0
LINE
  5
145
330
1F
100
AcDbEntity
  8
LAYER_1
 62
     7
100
AcDbLine
 10
75.73474
 20
110.333145
 30
0.0
 11
78.392976
 21
110.333145
 31
0.0
  0
LINE
  5
144
330
1F
100
AcDbEntity
  8
LAYER_1
 62
     7
100
AcDbLine
 10
78.392976
 20
110.333145
 30
0.0
 11
77.861053
 21
100.289486
 31
0.0
  0
LINE
  5
143
330
1F
100
AcDbEntity
  8
LAYER_1
 62
     7
100
AcDbLine
 10
82.645601
 20
100.289486
 30
0.0
 11
82.114368
 21
110.333145
 31
0.0
  0
LINE
  5
142
330
1F
100
AcDbEntity
  8
LAYER_1
 62
     7
100
AcDbLine
 10
74.670894
 20
117.733899
 30
0.0
 11
74.670894
 21
119.848499
 31
0.0
  0
LINE
  5
141
330
1F
100
AcDbEntity
  8
LAYER_1
 62
     7
100
AcDbLine
 10
82.114368
 20
120.376976
 30
0.0
 11
82.645601
 21
120.376976
 31
0.0
  0
LINE
  5
140
330
1F
100
AcDbEntity
  8
LAYER_1
 62
     7
100
AcDbLine
 10
75.73474
 20
120.376976
 30
0.0
 11
78.392976
 21
120.376976
 31
0.0
  0
LWPOLYLINE
  5
13B
330
1F
100
AcDbEntity
  8
LAYER_1
 62
     7
100
AcDbPolyline
 90
        3
 70
     0
 43
0.0
 10
82.114368
 20
110.333145
 10
81.051039
 20
110.862311
 10
79.987538
 20
110.862311
  0
LWPOLYLINE
  5
136
330
1F
100
AcDbEntity
  8
LAYER_1
 62
     7
100
AcDbPolyline
 90
        3
 70
     0
 43
0.0
 10
82.114368
 20
110.333145
 10
81.051039
 20
110.862311
 10
79.987538
 20
110.862311
  0
LWPOLYLINE
  5
131
330
1F
100
AcDbEntity
  8
LAYER_1
 62
     7
100
AcDbPolyline
 90
        3
 70
     0
 43
0.0
 10
79.987366
 20
110.862311
 10
78.924037
 20
110.862311
 10
78.392803
 20
110.333145
  0
LWPOLYLINE
  5
12C
330
1F
100
AcDbEntity
  8
LAYER_1
 62
     7
100
AcDbPolyline
 90
        3
 70
     0
 43
0.0
 10
79.987366
 20
110.862311
 10
78.924037
 20
110.862311
 10
78.392803
 20
110.333145
  0
LINE
  5
12B
330
1F
100
AcDbEntity
  8
LAYER_1
 62
     7
100
AcDbLine
 10
83.177524
 20
110.862311
 30
0.0
 11
83.177524
 21
119.848671
 31
0.0
  0
LINE
  5
12A
330
1F
100
AcDbEntity
  8
LAYER_1
 62
     7
100
AcDbLine
 10
75.202817
 20
120.376976
 30
0.0
 11
74.670894
 21
119.848499
 31
0.0
  0
LINE
  5
129
330
1F
100
AcDbEntity
  8
LAYER_1
 62
     7
100
AcDbLine
 10
82.645601
 20
129.89233
 30
0.0
 11
82.114368
 21
120.376804
 31
0.0
  0
LINE
  5
128
330
1F
100
AcDbEntity
  8
LAYER_1
 62
     7
100
AcDbLine
 10
78.392976
 20
120.376976
 30
0.0
 11
77.861053
 21
129.892502
 31
0.0
  0
LINE
  5
127
330
1F
100
AcDbEntity
  8
LAYER_1
 62
     7
100
AcDbLine
 10
82.645601
 20
130.420808
 30
0.0
 11
82.645601
 21
129.89233
 31
0.0
  0
LINE
  5
126
330
1F
100
AcDbEntity
  8
LAYER_1
 62
     7
100
AcDbLine
 10
77.861053
 20
130.420808
 30
0.0
 11
77.861053
 21
129.89233
 31
0.0
  0
LINE
  5
125
330
1F
100
AcDbEntity
  8
LAYER_1
 62
     7
100
AcDbLine
 10
79.987366
 20
130.420808
 30
0.0
 11
82.645601
 21
130.420808
 31
0.0
  0
LINE
  5
124
330
1F
100
AcDbEntity
  8
LAYER_1
 62
     7
100
AcDbLine
 10
48.621838
 20
102.404774
 30
0.0
 11
48.621838
 21
102.404774
 31
0.0
  0
LINE
  5
123
330
1F
100
AcDbEntity
  8
LAYER_1
 62
     7
100
AcDbLine
 10
82.645601
 20
110.333145
 30
0.0
 11
83.177524
 21
110.862311
 31
0.0
  0
LINE
  5
122
330
1F
100
AcDbEntity
  8
LAYER_1
 62
     7
100
AcDbLine
 10
65.101797
 20
120.376976
 30
0.0
 11
65.101797
 21
120.376976
 31
0.0
  0
LINE
  5
121
330
1F
100
AcDbEntity
  8
LAYER_1
 62
     7
100
AcDbLine
 10
65.101797
 20
120.376976
 30
0.0
 11
65.101797
 21
120.376976
 31
0.0
  0
LINE
  5
120
330
1F
100
AcDbEntity
  8
LAYER_1
 62
     7
100
AcDbLine
 10
79.987366
 20
100.289486
 30
0.0
 11
82.645601
 21
100.289486
 31
0.0
  0
LINE
  5
11F
330
1F
100
AcDbEntity
  8
LAYER_1
 62
     7
100
AcDbLine
 10
75.202817
 20
120.376976
 30
0.0
 11
75.73474
 21
120.376976
 31
0.0
  0
LWPOLYLINE
  5
11A
330
1F
100
AcDbEntity
  8
LAYER_1
 62
     7
100
AcDbPolyline
 90
        3
 70
     0
 43
0.0
 10
82.114368
 20
120.376976
 10
81.051039
 20
119.848499
 10
79.987538
 20
119.320021
  0
LWPOLYLINE
  5
115
330
1F
100
AcDbEntity
  8
LAYER_1
 62
     7
100
AcDbPolyline
 90
        3
 70
     0
 43
0.0
 10
82.114368
 20
120.376976
 10
81.051039
 20
119.848499
 10
79.987538
 20
119.320021
  0
LWPOLYLINE
  5
110
330
1F
100
AcDbEntity
  8
LAYER_1
 62
     7
100
AcDbPolyline
 90
        3
 70
     0
 43
0.0
 10
79.987366
 20
119.320021
 10
78.924037
 20
119.848499
 10
78.392803
 20
120.376976
  0
LWPOLYLINE
  5
10B
330
1F
100
AcDbEntity
  8
LAYER_1
 62
     7
100
AcDbPolyline
 90
        3
 70
     0
 43
0.0
 10
79.987366
 20
119.320021
 10
78.924037
 20
119.848499
 10
78.392803
 20
120.376976
  0
LINE
  5
10A
330
1F
100
AcDbEntity
  8
LAYER_1
 62
     7
100
AcDbLine
 10
82.114368
 20
110.333145
 30
0.0
 11
82.645601
 21
110.333145
 31
0.0
  0
LINE
  5
109
330
1F
100
AcDbEntity
  8
LAYER_1
 62
     7
100
AcDbLine
 10
75.202817
 20
110.333145
 30
0.0
 11
74.670894
 21
110.333145
 31
0.0
  0
LWPOLYLINE
  5
103
330
1F
100
AcDbEntity
  8
LAYER_1
 62
     7
100
AcDbPolyline
 90
        4
 70
     0
 43
0.0
 10
48.621838
 20
128.306208
 10
48.621838
 20
128.306208
 10
48.729498
 20
102.149837
 10
45.028432
 20
101.618604
  0
LWPOLYLINE
  5
FD
330
1F
100
AcDbEntity
  8
LAYER_1
 62
     7
100
AcDbPolyline
 90
        4
 70
     0
 43
0.0
 10
48.621838
 20
128.306208
 10
48.621838
 20
128.306208
 10
48.729498
 20
102.149837
 10
45.028432
 20
101.618604
  0
LINE
  5
FC
330
1F
100
AcDbEntity
  8
LAYER_1
 62
     7
100
AcDbLine
 10
48.621838
 20
123.54922
 30
0.0
 11
48.621838
 21
123.54922
 31
0.0
  0
LINE
  5
FB
330
1F
100
AcDbEntity
  8
LAYER_1
 62
     7
100
AcDbLine
 10
79.987366
 20
130.420808
 30
0.0
 11
77.861225
 21
130.420808
 31
0.0
  0
LINE
  5
FA
330
1F
100
AcDbEntity
  8
LAYER_1
 62
     7
100
AcDbLine
 10
177.096167
 20
129.89233
 30
0.0
 11
176.555976
 21
120.063645
 31
0.0
  0
LINE
  5
F9
330
1F
100
AcDbEntity
  8
LAYER_1
 62
     7
100
AcDbLine
 10
172.857666
 20
119.994915
 30
0.0
 11
172.311618
 21
129.892502
 31
0.0
  0
LINE
  5
F8
330
1F
100
AcDbEntity
  8
LAYER_1
 62
     7
100
AcDbLine
 10
177.096167
 20
130.420808
 30
0.0
 11
177.096167
 21
129.89233
 31
0.0
  0
LINE
  5
F7
330
1F
100
AcDbEntity
  8
LAYER_1
 62
     7
100
AcDbLine
 10
172.311618
 20
130.420808
 30
0.0
 11
172.311618
 21
129.89233
 31
0.0
  0
LINE
  5
F6
330
1F
100
AcDbEntity
  8
LAYER_1
 62
     7
100
AcDbLine
 10
174.437931
 20
130.420808
 30
0.0
 11
177.096167
 21
130.420808
 31
0.0
  0
LINE
  5
F5
330
1F
100
AcDbEntity
  8
LAYER_1
 62
     7
100
AcDbLine
 10
174.437931
 20
130.420808
 30
0.0
 11
172.311618
 21
130.420808
 31
0.0
  0
LINE
  5
F4
330
1F
100
AcDbEntity
  8
LAYER_1
 62
     7
100
AcDbLine
 10
160.224501
 20
117.62245
 30
0.0
 11
170.010295
 21
117.087944
 31
0.0
  0
LINE
  5
F3
330
1F
100
AcDbEntity
  8
LAYER_1
 62
     7
100
AcDbLine
 10
170.078852
 20
113.398591
 30
0.0
 11
160.224501
 21
112.838074
 31
0.0
  0
LINE
  5
F2
330
1F
100
AcDbEntity
  8
LAYER_1
 62
     7
100
AcDbLine
 10
159.696023
 20
117.62245
 30
0.0
 11
160.224501
 21
117.62245
 31
0.0
  0
LINE
  5
F1
330
1F
100
AcDbEntity
  8
LAYER_1
 62
     7
100
AcDbLine
 10
159.696023
 20
112.837901
 30
0.0
 11
160.224501
 21
112.837901
 31
0.0
  0
LINE
  5
F0
330
1F
100
AcDbEntity
  8
LAYER_1
 62
     7
100
AcDbLine
 10
159.696023
 20
114.964214
 30
0.0
 11
159.696023
 21
117.62245
 31
0.0
  0
LINE
  5
EF
330
1F
100
AcDbEntity
  8
LAYER_1
 62
     7
100
AcDbLine
 10
159.696023
 20
114.964214
 30
0.0
 11
159.696023
 21
112.838074
 31
0.0
  0
LINE
  5
EE
330
1F
100
AcDbEntity
  8
LAYER_1
 62
     7
100
AcDbLine
 10
172.494208
 20
100.750784
 30
0.0
 11
173.046457
 21
110.551736
 31
0.0
  0
LINE
  5
ED
330
1F
100
AcDbEntity
  8
LAYER_1
 62
     7
100
AcDbLine
 10
176.73581
 20
110.603413
 30
0.0
 11
177.278757
 21
100.750784
 31
0.0
  0
LINE
  5
EC
330
1F
100
AcDbEntity
  8
LAYER_1
 62
     7
100
AcDbLine
 10
172.494208
 20
100.222306
 30
0.0
 11
172.494208
 21
100.750784
 31
0.0
  0
LINE
  5
EB
330
1F
100
AcDbEntity
  8
LAYER_1
 62
     7
100
AcDbLine
 10
177.278757
 20
100.222306
 30
0.0
 11
177.278757
 21
100.750784
 31
0.0
  0
LINE
  5
EA
330
1F
100
AcDbEntity
  8
LAYER_1
 62
     7
100
AcDbLine
 10
175.152444
 20
100.222306
 30
0.0
 11
172.494208
 21
100.222306
 31
0.0
  0
LINE
  5
E9
330
1F
100
AcDbEntity
  8
LAYER_1
 62
     7
100
AcDbLine
 10
175.152444
 20
100.222306
 30
0.0
 11
177.278757
 21
100.222306
 31
0.0
  0
LINE
  5
E8
330
1F
100
AcDbEntity
  8
LAYER_1
 62
     7
100
AcDbLine
 10
189.365875
 20
113.020492
 30
0.0
 11
179.54184
 21
113.578942
 31
0.0
  0
LINE
  5
E7
330
1F
100
AcDbEntity
  8
LAYER_1
 62
     7
100
AcDbLine
 10
179.525648
 20
117.255375
 30
0.0
 11
189.365875
 21
117.80504
 31
0.0
  0
LINE
  5
E6
330
1F
100
AcDbEntity
  8
LAYER_1
 62
     7
100
AcDbLine
 10
189.894352
 20
113.020492
 30
0.0
 11
189.365875
 21
113.020492
 31
0.0
  0
LINE
  5
E5
330
1F
100
AcDbEntity
  8
LAYER_1
 62
     7
100
AcDbLine
 10
189.894352
 20
117.80504
 30
0.0
 11
189.365875
 21
117.80504
 31
0.0
  0
LINE
  5
E4
330
1F
100
AcDbEntity
  8
LAYER_1
 62
     7
100
AcDbLine
 10
189.894352
 20
115.678727
 30
0.0
 11
189.894352
 21
113.020492
 31
0.0
  0
LINE
  5
E3
330
1F
100
AcDbEntity
  8
LAYER_1
 62
     7
100
AcDbLine
 10
189.894352
 20
115.678727
 30
0.0
 11
189.894352
 21
117.804868
 31
0.0
  0
LINE
  5
E2
330
1F
100
AcDbEntity
  8
LAYER_1
 62
     7
100
AcDbLine
 10
65.101797
 20
109.804667
 30
0.0
 11
65.101797
 21
109.804667
 31
0.0
  0
LINE
  5
E1
330
1F
100
AcDbEntity
  8
LAYER_1
 62
     7
100
AcDbLine
 10
65.101797
 20
109.804667
 30
0.0
 11
65.101797
 21
109.804667
 31
0.0
  0
LINE
  5
E0
330
1F
100
AcDbEntity
  8
LAYER_1
 62
     7
100
AcDbLine
 10
63.507407
 20
108.219234
 30
0.0
 11
63.507407
 21
108.219234
 31
0.0
  0
LINE
  5
DF
330
1F
100
AcDbEntity
  8
LAYER_1
 62
     7
100
AcDbLine
 10
63.507407
 20
108.219234
 30
0.0
 11
63.507407
 21
108.219234
 31
0.0
  0
LINE
  5
DE
330
1F
100
AcDbEntity
  8
LAYER_1
 62
     7
100
AcDbLine
 10
63.507407
 20
121.963098
 30
0.0
 11
63.507407
 21
121.963098
 31
0.0
  0
LINE
  5
DD
330
1F
100
AcDbEntity
  8
LAYER_1
 62
     7
100
AcDbLine
 10
63.507407
 20
121.963098
 30
0.0
 11
63.507407
 21
121.963098
 31
0.0
  0
SPLINE
  5
DC
330
1F
100
AcDbEntity
  8
LAYER_1
 62
     7
100
AcDbSpline
210
0.0
220
0.0
230
1.0
 70
    11
 71
     3
 72
    17
 73
    13
 74
     0
 42
0.00000001
 43
0.00000001
 40
0.0
 40
0.0
 40
0.0
 40
0.0
 40
1.0
 40
1.0
 40
1.0
 40
2.0
 40
2.0
 40
2.0
 40
3.0
 40
3.0
 40
3.0
 40
4.0
 40
4.0
 40
4.0
 40
4.0
 10
82.64560139973958
 20
115.0908216688368
 30
0.0
 10
82.64560139973958
 20
114.0338663736979
 30
0.0
 10
81.93797878689236
 20
112.8005221896701
 30
0.0
 10
80.55477294921874
 20
112.8005221896701
 30
0.0
 10
79.28077663845485
 20
112.8005221896701
 30
0.0
 10
78.39280327690972
 20
114.0338663736979
 30
0.0
 10
78.39280327690972
 20
115.0908216688368
 30
0.0
 10
78.39280327690972
 20
116.6769436306424
 30
0.0
 10
79.43597819010417
 20
117.5034220377604
 30
0.0
 10
80.49930691189235
 20
117.5034220377604
 30
0.0
 10
81.7717529296875
 20
117.5034220377604
 30
0.0
 10
82.64560139973958
 20
116.6769436306424
 30
0.0
 10
82.64560139973958
 20
115.0908216688368
 30
0.0
  0
LINE
  5
DB
330
1F
100
AcDbEntity
  8
LAYER_1
 62
     7
100
AcDbLine
 10
65.101797
 20
117.733899
 30
0.0
 11
74.670894
 21
117.733899
 31
0.0
  0
LINE
  5
DA
330
1F
100
AcDbEntity
  8
LAYER_1
 62
     7
100
AcDbLine
 10
82.645601
 20
120.376976
 30
0.0
 11
83.177524
 21
119.848499
 31
0.0
  0
LINE
  5
D9
330
1F
100
AcDbEntity
  8
LAYER_1
 62
     7
100
AcDbLine
 10
75.202817
 20
110.333145
 30
0.0
 11
75.73474
 21
110.333145
 31
0.0
  0
CIRCLE
  5
D8
330
1F
100
AcDbEntity
  8
LAYER_1
 62
     7
100
AcDbCircle
 10
174.795188
 20
115.321471
 30
0.0
 40
5.040175
  0
SPLINE
  5
D7
330
1F
100
AcDbEntity
  8
LAYER_1
 62
     7
100
AcDbSpline
210
0.0
220
0.0
230
1.0
 70
     8
 71
     3
 72
     8
 73
     4
 74
     0
 42
0.00000001
 43
0.00000001
 40
0.0
 40
0.0
 40
0.0
 40
0.0
 40
1.0
 40
1.0
 40
1.0
 40
1.0
 10
168.0593370225694
 20
117.2910319010417
 30
0.0
 10
168.7194173177083
 20
119.5517035590278
 30
0.0
 10
170.4870958116319
 20
121.3402248806424
 30
0.0
 10
172.7350206163194
 20
122.0299329969618
 30
0.0
  0
SPLINE
  5
D6
330
1F
100
AcDbEntity
  8
LAYER_1
 62
     7
100
AcDbSpline
210
0.0
220
0.0
230
1.0
 70
     8
 71
     3
 72
     8
 73
     4
 74
     0
 42
0.00000001
 43
0.00000001
 40
0.0
 40
0.0
 40
0.0
 40
0.0
 40
1.0
 40
1.0
 40
1.0
 40
1.0
 10
172.8900499131944
 20
108.5673611111111
 30
0.0
 10
170.5870035807291
 20
109.2157280815972
 30
0.0
 10
168.7638590494792
 20
111.0102783203125
 30
0.0
 10
168.0758734809028
 20
113.2967881944444
 30
0.0
  0
SPLINE
  5
D5
330
1F
100
AcDbEntity
  8
LAYER_1
 62
     7
100
AcDbSpline
210
0.0
220
0.0
230
1.0
 70
     8
 71
     3
 72
     8
 73
     4
 74
     0
 42
0.00000001
 43
0.00000001
 40
0.0
 40
0.0
 40
0.0
 40
0.0
 40
1.0
 40
1.0
 40
1.0
 40
1.0
 10
181.5637668185764
 20
113.4685262044271
 30
0.0
 10
180.931591796875
 20
111.1542833116319
 30
0.0
 10
179.1446207682291
 20
109.3170138888889
 30
0.0
 10
176.8601779513889
 20
108.6147311740451
 30
0.0
  0
SPLINE
  5
D4
330
1F
100
AcDbEntity
  8
LAYER_1
 62
     7
100
AcDbSpline
210
0.0
220
0.0
230
1.0
 70
     8
 71
     3
 72
     8
 73
     4
 74
     0
 42
0.00000001
 43
0.00000001
 40
0.0
 40
0.0
 40
0.0
 40
0.0
 40
1.0
 40
1.0
 40
1.0
 40
1.0
 10
176.6689751519097
 20
122.0845377604167
 30
0.0
 10
178.9510064019097
 20
121.4533962673611
 30
0.0
 10
180.7662272135416
 20
119.6982923719618
 30
0.0
 10
181.4817735460069
 20
117.4529513888889
 30
0.0
  0
SPLINE
  5
D3
330
1F
100
AcDbEntity
  8
LAYER_1
 62
     7
100
AcDbSpline
210
0.0
220
0.0
230
1.0
 70
     8
 71
     3
 72
     8
 73
     4
 74
     0
 42
0.00000001
 43
0.00000001
 40
0.0
 40
0.0
 40
0.0
 40
0.0
 40
1.0
 40
1.0
 40
1.0
 40
1.0
 10
182.2545084635416
 20
117.4591525607639
 30
0.0
 10
181.4993435329861
 20
120.0993014865451
 30
0.0
 10
179.3799207899305
 20
122.1637749565972
 30
0.0
 10
176.7079047309028
 20
122.8414252387153
 30
0.0
  0
SPLINE
  5
D2
330
1F
100
AcDbEntity
  8
LAYER_1
 62
     7
100
AcDbSpline
210
0.0
220
0.0
230
1.0
 70
     8
 71
     3
 72
     8
 73
     4
 74
     0
 42
0.00000001
 43
0.00000001
 40
0.0
 40
0.0
 40
0.0
 40
0.0
 40
1.0
 40
1.0
 40
1.0
 40
1.0
 10
176.9607747395833
 20
107.8704182942708
 30
0.0
 10
179.6093641493055
 20
108.6386745876736
 30
0.0
 10
181.6736653645833
 20
110.7808349609375
 30
0.0
 10
182.3313340928819
 20
113.4745551215278
 30
0.0
  0
SPLINE
  5
D1
330
1F
100
AcDbEntity
  8
LAYER_1
 62
     7
100
AcDbSpline
210
0.0
220
0.0
230
1.0
 70
     8
 71
     3
 72
     8
 73
     4
 74
     0
 42
0.00000001
 43
0.00000001
 40
0.0
 40
0.0
 40
0.0
 40
0.0
 40
1.0
 40
1.0
 40
1.0
 40
1.0
 10
167.315540907118
 20
113.2554470486111
 30
0.0
 10
168.0541693793403
 20
110.5765407986111
 30
0.0
 10
170.1935736762153
 20
108.4781331380208
 30
0.0
 10
172.8959065755208
 20
107.7984157986111
 30
0.0
  0
SPLINE
  5
D0
330
1F
100
AcDbEntity
  8
LAYER_1
 62
     7
100
AcDbSpline
210
0.0
220
0.0
230
1.0
 70
     8
 71
     3
 72
     8
 73
     4
 74
     0
 42
0.00000001
 43
0.00000001
 40
0.0
 40
0.0
 40
0.0
 40
0.0
 40
1.0
 40
1.0
 40
1.0
 40
1.0
 10
172.6971245659722
 20
122.7918158637153
 30
0.0
 10
170.0592149522569
 20
122.0526706271701
 30
0.0
 10
167.98974609375
 20
119.9540907118055
 30
0.0
 10
167.2921142578125
 20
117.299127875434
 30
0.0
  0
LINE
  5
CF
330
1F
100
AcDbEntity
  8
LAYER_1
 62
     7
100
AcDbLine
 10
252.343254
 20
117.665169
 30
0.0
 11
252.343254
 21
134.196288
 31
0.0
  0
LINE
  5
CE
330
1F
100
AcDbEntity
  8
LAYER_1
 62
     7
100
AcDbLine
 10
254.687297
 20
115.321471
 30
0.0
 11
270.681497
 21
115.321471
 31
0.0
  0
LINE
  5
CD
330
1F
100
AcDbEntity
  8
LAYER_1
 62
     7
100
AcDbLine
 10
252.343254
 20
112.977945
 30
0.0
 11
252.343254
 21
97.331182
 31
0.0
  0
LINE
  5
CC
330
1F
100
AcDbEntity
  8
LAYER_1
 62
     7
100
AcDbLine
 10
249.9999
 20
115.321471
 30
0.0
 11
233.992608
 21
115.322849
 31
0.0
  0
SPLINE
  5
CB
330
1F
100
AcDbEntity
  8
LAYER_1
 62
     7
100
AcDbSpline
210
0.0
220
0.0
230
1.0
 70
     8
 71
     3
 72
     8
 73
     4
 74
     0
 42
0.00000001
 43
0.00000001
 40
0.0
 40
0.0
 40
0.0
 40
0.0
 40
1.0
 40
1.0
 40
1.0
 40
1.0
 10
254.7572319878472
 20
128.3027628580729
 30
0.0
 10
260.1774007161458
 20
127.2955891927083
 30
0.0
 10
264.4431179470486
 20
123.0026557074653
 30
0.0
 10
265.4094672309027
 20
117.5683620876736
 30
0.0
  0
SPLINE
  5
CA
330
1F
100
AcDbEntity
  8
LAYER_1
 62
     7
100
AcDbSpline
210
0.0
220
0.0
230
1.0
 70
     8
 71
     3
 72
     8
 73
     4
 74
     0
 42
0.00000001
 43
0.00000001
 40
0.0
 40
0.0
 40
0.0
 40
0.0
 40
1.0
 40
1.0
 40
1.0
 40
1.0
 10
239.2394883897569
 20
117.6966918945312
 30
0.0
 10
240.266126844618
 20
123.156995985243
 30
0.0
 10
244.6283067491319
 20
127.4404554578993
 30
0.0
 10
250.1294352213542
 20
128.3484103732639
 30
0.0
  0
SPLINE
  5
C9
330
1F
100
AcDbEntity
  8
LAYER_1
 62
     7
100
AcDbSpline
210
0.0
220
0.0
230
1.0
 70
     8
 71
     3
 72
     8
 73
     4
 74
     0
 42
0.00000001
 43
0.00000001
 40
0.0
 40
0.0
 40
0.0
 40
0.0
 40
1.0
 40
1.0
 40
1.0
 40
1.0
 10
249.9117051866319
 20
102.1377794053819
 30
0.0
 10
244.3940402560764
 20
103.1437472873264
 30
0.0
 10
240.0635552300347
 20
107.5532972547743
 30
0.0
 10
239.1767876519097
 20
113.1119588216146
 30
0.0
  0
SPLINE
  5
C8
330
1F
100
AcDbEntity
  8
LAYER_1
 62
     7
100
AcDbSpline
210
0.0
220
0.0
230
1.0
 70
     8
 71
     3
 72
     8
 73
     4
 74
     0
 42
0.00000001
 43
0.00000001
 40
0.0
 40
0.0
 40
0.0
 40
0.0
 40
1.0
 40
1.0
 40
1.0
 40
1.0
 10
265.4146348741319
 20
112.9085259331597
 30
0.0
 10
264.4451850043403
 20
107.3882771809896
 30
0.0
 10
260.0723253038194
 20
103.0397054036458
 30
0.0
 10
254.539501953125
 20
102.1071180555555
 30
0.0
  0
LINE
  5
C7
330
1F
100
AcDbEntity
  8
LAYER_1
 62
     7
100
AcDbLine
 10
250.042274
 20
129.89233
 30
0.0
 11
250.582465
 21
120.063645
 31
0.0
  0
LINE
  5
C6
330
1F
100
AcDbEntity
  8
LAYER_1
 62
     7
100
AcDbLine
 10
254.280775
 20
119.994915
 30
0.0
 11
254.826823
 21
129.892502
 31
0.0
  0
LINE
  5
C5
330
1F
100
AcDbEntity
  8
LAYER_1
 62
     7
100
AcDbLine
 10
250.042274
 20
130.420808
 30
0.0
 11
250.042274
 21
129.89233
 31
0.0
  0
LINE
  5
C4
330
1F
100
AcDbEntity
  8
LAYER_1
 62
     7
100
AcDbLine
 10
254.826823
 20
130.420808
 30
0.0
 11
254.826823
 21
129.89233
 31
0.0
  0
LINE
  5
C3
330
1F
100
AcDbEntity
  8
LAYER_1
 62
     7
100
AcDbLine
 10
252.70051
 20
130.420808
 30
0.0
 11
250.042274
 21
130.420808
 31
0.0
  0
LINE
  5
C2
330
1F
100
AcDbEntity
  8
LAYER_1
 62
     7
100
AcDbLine
 10
252.70051
 20
130.420808
 30
0.0
 11
254.826823
 21
130.420808
 31
0.0
  0
LINE
  5
C1
330
1F
100
AcDbEntity
  8
LAYER_1
 62
     7
100
AcDbLine
 10
266.91394
 20
117.62245
 30
0.0
 11
257.128147
 21
117.087944
 31
0.0
  0
LINE
  5
C0
330
1F
100
AcDbEntity
  8
LAYER_1
 62
     7
100
AcDbLine
 10
257.059589
 20
113.398591
 30
0.0
 11
266.91394
 21
112.838074
 31
0.0
  0
LINE
  5
BF
330
1F
100
AcDbEntity
  8
LAYER_1
 62
     7
100
AcDbLine
 10
267.442418
 20
117.62245
 30
0.0
 11
266.91394
 21
117.62245
 31
0.0
  0
LINE
  5
BE
330
1F
100
AcDbEntity
  8
LAYER_1
 62
     7
100
AcDbLine
 10
267.442418
 20
112.837901
 30
0.0
 11
266.91394
 21
112.837901
 31
0.0
  0
LINE
  5
BD
330
1F
100
AcDbEntity
  8
LAYER_1
 62
     7
100
AcDbLine
 10
267.442418
 20
114.964214
 30
0.0
 11
267.442418
 21
117.62245
 31
0.0
  0
LINE
  5
BC
330
1F
100
AcDbEntity
  8
LAYER_1
 62
     7
100
AcDbLine
 10
267.442418
 20
114.964214
 30
0.0
 11
267.442418
 21
112.838074
 31
0.0
  0
LINE
  5
BB
330
1F
100
AcDbEntity
  8
LAYER_1
 62
     7
100
AcDbLine
 10
254.644233
 20
100.750784
 30
0.0
 11
254.091984
 21
110.551736
 31
0.0
  0
LINE
  5
278
330
1F
100
AcDbEntity
  8
LAYER_1
 62
     7
100
AcDbLine
 10
250.402631
 20
110.603413
 30
0.0
 11
249.859684
 21
100.750784
 31
0.0
  0
LINE
  5
279
330
1F
100
AcDbEntity
  8
LAYER_1
 62
     7
100
AcDbLine
 10
254.644233
 20
100.222306
 30
0.0
 11
254.644233
 21
100.750784
 31
0.0
  0
LINE
  5
27A
330
1F
100
AcDbEntity
  8
LAYER_1
 62
     7
100
AcDbLine
 10
249.859684
 20
100.222306
 30
0.0
 11
249.859684
 21
100.750784
 31
0.0
  0
LINE
  5
27B
330
1F
100
AcDbEntity
  8
LAYER_1
 62
     7
100
AcDbLine
 10
251.985997
 20
100.222306
 30
0.0
 11
254.644233
 21
100.222306
 31
0.0
  0
LINE
  5
27C
330
1F
100
AcDbEntity
  8
LAYER_1
 62
     7
100
AcDbLine
 10
251.985997
 20
100.222306
 30
0.0
 11
249.859684
 21
100.222306
 31
0.0
  0
LINE
  5
27D
330
1F
100
AcDbEntity
  8
LAYER_1
 62
     7
100
AcDbLine
 10
237.772567
 20
113.020492
 30
0.0
 11
247.596601
 21
113.578942
 31
0.0
  0
LINE
  5
27E
330
1F
100
AcDbEntity
  8
LAYER_1
 62
     7
100
AcDbLine
 10
247.612793
 20
117.255375
 30
0.0
 11
237.772222
 21
117.80504
 31
0.0
  0
LINE
  5
27F
330
1F
100
AcDbEntity
  8
LAYER_1
 62
     7
100
AcDbLine
 10
237.244089
 20
113.020492
 30
0.0
 11
237.772567
 21
113.020492
 31
0.0
  0
LINE
  5
280
330
1F
100
AcDbEntity
  8
LAYER_1
 62
     7
100
AcDbLine
 10
237.244089
 20
117.80504
 30
0.0
 11
237.772567
 21
117.80504
 31
0.0
  0
LINE
  5
281
330
1F
100
AcDbEntity
  8
LAYER_1
 62
     7
100
AcDbLine
 10
237.244089
 20
115.678727
 30
0.0
 11
237.244089
 21
113.020492
 31
0.0
  0
LINE
  5
282
330
1F
100
AcDbEntity
  8
LAYER_1
 62
     7
100
AcDbLine
 10
237.244089
 20
115.678727
 30
0.0
 11
237.244089
 21
117.804868
 31
0.0
  0
CIRCLE
  5
283
330
1F
100
AcDbEntity
  8
LAYER_1
 62
     7
100
AcDbCircle
 10
252.343254
 20
115.321471
 30
0.0
 40
5.040175
  0
SPLINE
  5
284
330
1F
100
AcDbEntity
  8
LAYER_1
 62
     7
100
AcDbSpline
210
0.0
220
0.0
230
1.0
 70
     8
 71
     3
 72
     8
 73
     4
 74
     0
 42
0.00000001
 43
0.00000001
 40
0.0
 40
0.0
 40
0.0
 40
0.0
 40
1.0
 40
1.0
 40
1.0
 40
1.0
 10
259.0791042751736
 20
117.2910319010417
 30
0.0
 10
258.4190239800347
 20
119.5517035590278
 30
0.0
 10
256.6513454861111
 20
121.3402248806424
 30
0.0
 10
254.4034206814236
 20
122.0299329969618
 30
0.0
  0
SPLINE
  5
285
330
1F
100
AcDbEntity
  8
LAYER_1
 62
     7
100
AcDbSpline
210
0.0
220
0.0
230
1.0
 70
     8
 71
     3
 72
     8
 73
     4
 74
     0
 42
0.00000001
 43
0.00000001
 40
0.0
 40
0.0
 40
0.0
 40
0.0
 40
1.0
 40
1.0
 40
1.0
 40
1.0
 10
254.2483913845486
 20
108.5673611111111
 30
0.0
 10
256.5514377170139
 20
109.2157280815972
 30
0.0
 10
258.3745822482639
 20
111.0102783203125
 30
0.0
 10
259.0622233072916
 20
113.2967881944444
 30
0.0
  0
SPLINE
  5
286
330
1F
100
AcDbEntity
  8
LAYER_1
 62
     7
100
AcDbSpline
210
0.0
220
0.0
230
1.0
 70
     8
 71
     3
 72
     8
 73
     4
 74
     0
 42
0.00000001
 43
0.00000001
 40
0.0
 40
0.0
 40
0.0
 40
0.0
 40
1.0
 40
1.0
 40
1.0
 40
1.0
 10
245.5746744791666
 20
113.4685262044271
 30
0.0
 10
246.206849500868
 20
111.1542833116319
 30
0.0
 10
247.9938205295139
 20
109.3170138888889
 30
0.0
 10
250.2782633463542
 20
108.6147311740451
 30
0.0
  0
SPLINE
  5
287
330
1F
100
AcDbEntity
  8
LAYER_1
 62
     7
100
AcDbSpline
210
0.0
220
0.0
230
1.0
 70
     8
 71
     3
 72
     8
 73
     4
 74
     0
 42
0.00000001
 43
0.00000001
 40
0.0
 40
0.0
 40
0.0
 40
0.0
 40
1.0
 40
1.0
 40
1.0
 40
1.0
 10
250.4694661458333
 20
122.0845377604167
 30
0.0
 10
248.1874348958333
 20
121.4533962673611
 30
0.0
 10
246.3722140842014
 20
119.6982923719618
 30
0.0
 10
245.6566677517361
 20
117.4529513888889
 30
0.0
  0
SPLINE
  5
288
330
1F
100
AcDbEntity
  8
LAYER_1
 62
     7
100
AcDbSpline
210
0.0
220
0.0
230
1.0
 70
     8
 71
     3
 72
     8
 73
     4
 74
     0
 42
0.00000001
 43
0.00000001
 40
0.0
 40
0.0
 40
0.0
 40
0.0
 40
1.0
 40
1.0
 40
1.0
 40
1.0
 10
244.8839328342014
 20
117.4591525607639
 30
0.0
 10
245.6390977647569
 20
120.0993014865451
 30
0.0
 10
247.7585205078125
 20
122.1637749565972
 30
0.0
 10
250.4305365668403
 20
122.8414252387153
 30
0.0
  0
SPLINE
  5
289
330
1F
100
AcDbEntity
  8
LAYER_1
 62
     7
100
AcDbSpline
210
0.0
220
0.0
230
1.0
 70
     8
 71
     3
 72
     8
 73
     4
 74
     0
 42
0.00000001
 43
0.00000001
 40
0.0
 40
0.0
 40
0.0
 40
0.0
 40
1.0
 40
1.0
 40
1.0
 40
1.0
 10
250.1776665581597
 20
107.8704182942708
 30
0.0
 10
247.5290771484375
 20
108.6386745876736
 30
0.0
 10
245.4647759331597
 20
110.7808349609375
 30
0.0
 10
244.8071072048611
 20
113.4745551215278
 30
0.0
  0
SPLINE
  5
28A
330
1F
100
AcDbEntity
  8
LAYER_1
 62
     7
100
AcDbSpline
210
0.0
220
0.0
230
1.0
 70
     8
 71
     3
 72
     8
 73
     4
 74
     0
 42
0.00000001
 43
0.00000001
 40
0.0
 40
0.0
 40
0.0
 40
0.0
 40
1.0
 40
1.0
 40
1.0
 40
1.0
 10
259.822900390625
 20
113.2554470486111
 30
0.0
 10
259.0842719184027
 20
110.5765407986111
 30
0.0
 10
256.9448676215277
 20
108.4781331380208
 30
0.0
 10
254.2425347222222
 20
107.7984157986111
 30
0.0
  0
SPLINE
  5
28B
330
1F
100
AcDbEntity
  8
LAYER_1
 62
     7
100
AcDbSpline
210
0.0
220
0.0
230
1.0
 70
     8
 71
     3
 72
     8
 73
     4
 74
     0
 42
0.00000001
 43
0.00000001
 40
0.0
 40
0.0
 40
0.0
 40
0.0
 40
1.0
 40
1.0
 40
1.0
 40
1.0
 10
254.4413167317708
 20
122.7918158637153
 30
0.0
 10
257.0795708550347
 20
122.0526706271701
 30
0.0
 10
259.148695203993
 20
119.9540907118055
 30
0.0
 10
259.8463270399305
 20
117.299127875434
 30
0.0
  0
LINE
  5
28C
330
1F
100
AcDbEntity
  8
LAYER_1
 62
     7
100
AcDbLine
 10
108.074023
 20
181.168614
 30
0.0
 11
108.602501
 21
180.637381
 31
0.0
  0
LINE
  5
28D
330
1F
100
AcDbEntity
  8
LAYER_1
 62
     7
100
AcDbLine
 10
99.087147
 20
196.054527
 30
0.0
 11
99.087147
 21
176.915988
 31
0.0
  0
LWPOLYLINE
  5
28E
330
1F
100
AcDbEntity
  8
LAYER_1
 62
     7
100
AcDbPolyline
 90
        3
 70
     0
 43
0.0
 10
114.417133
 20
187.017008
 10
114.417133
 20
185.422102
 10
113.360178
 20
183.827539
  0
LWPOLYLINE
  5
28F
330
1F
100
AcDbEntity
  8
LAYER_1
 62
     7
100
AcDbPolyline
 90
        3
 70
     0
 43
0.0
 10
114.417133
 20
187.017008
 10
114.417133
 20
185.422102
 10
113.360178
 20
183.827539
  0
LWPOLYLINE
  5
96
330
1F
100
AcDbEntity
  8
LAYER_1
 62
     7
100
AcDbPolyline
 90
        3
 70
     0
 43
0.0
 10
113.360178
 20
183.827539
 10
112.302534
 20
183.295616
 10
110.717101
 20
182.763866
  0
LWPOLYLINE
  5
91
330
1F
100
AcDbEntity
  8
LAYER_1
 62
     7
100
AcDbPolyline
 90
        3
 70
     0
 43
0.0
 10
113.360178
 20
183.827539
 10
112.302534
 20
183.295616
 10
110.717101
 20
182.763866
  0
LINE
  5
90
330
1F
100
AcDbEntity
  8
LAYER_1
 62
     7
100
AcDbLine
 10
101.201747
 20
176.915988
 30
0.0
 11
120.231593
 21
196.054527
 31
0.0
  0
LINE
  5
8F
330
1F
100
AcDbEntity
  8
LAYER_1
 62
     7
100
AcDbLine
 10
120.231765
 20
196.054527
 30
0.0
 11
99.086975
 21
196.054527
 31
0.0
  0
LINE
  5
8E
330
1F
100
AcDbEntity
  8
LAYER_1
 62
     7
100
AcDbLine
 10
106.487901
 20
180.637381
 30
0.0
 11
107.016379
 21
180.106147
 31
0.0
  0
LINE
  5
8D
330
1F
100
AcDbEntity
  8
LAYER_1
 62
     7
100
AcDbLine
 10
105.430946
 20
179.574224
 30
0.0
 11
104.90178
 21
180.637553
 31
0.0
  0
LINE
  5
8C
330
1F
100
AcDbEntity
  8
LAYER_1
 62
     7
100
AcDbLine
 10
117.588688
 20
191.801557
 30
0.0
 11
117.060211
 21
192.86523
 31
0.0
  0
LINE
  5
8B
330
1F
100
AcDbEntity
  8
LAYER_1
 62
     7
100
AcDbLine
 10
116.003255
 20
189.6749
 30
0.0
 11
116.531733
 21
189.143666
 31
0.0
  0
LINE
  5
8A
330
1F
100
AcDbEntity
  8
LAYER_1
 62
     7
100
AcDbLine
 10
116.531733
 20
190.738401
 30
0.0
 11
117.060211
 21
190.206478
 31
0.0
  0
LINE
  5
89
330
1F
100
AcDbEntity
  8
LAYER_1
 62
     7
100
AcDbLine
 10
107.016379
 20
180.106147
 30
0.0
 11
117.060383
 21
190.206478
 31
0.0
  0
LINE
  5
88
330
1F
100
AcDbEntity
  8
LAYER_1
 62
     7
100
AcDbLine
 10
105.430946
 20
179.574224
 30
0.0
 11
117.588688
 21
191.801557
 31
0.0
  0
LINE
  5
87
330
1F
100
AcDbEntity
  8
LAYER_1
 62
     7
100
AcDbLine
 10
108.602501
 20
180.637381
 30
0.0
 11
116.531905
 21
189.143666
 31
0.0
  0
LINE
  5
86
330
1F
100
AcDbEntity
  8
LAYER_1
 62
     7
100
AcDbLine
 10
45.167958
 20
196.054527
 30
0.0
 11
55.211962
 21
196.054527
 31
0.0
  0
LINE
  5
85
330
1F
100
AcDbEntity
  8
LAYER_1
 62
     7
100
AcDbLine
 10
60.497944
 20
196.054527
 30
0.0
 11
60.497944
 21
176.915988
 31
0.0
  0
LWPOLYLINE
  5
80
330
1F
100
AcDbEntity
  8
LAYER_1
 62
     7
100
AcDbPolyline
 90
        3
 70
     0
 43
0.0
 10
57.854867
 20
182.764038
 10
58.911822
 20
181.700365
 10
60.497944
 20
180.637553
  0
LWPOLYLINE
  5
7B
330
1F
100
AcDbEntity
  8
LAYER_1
 62
     7
100
AcDbPolyline
 90
        3
 70
     0
 43
0.0
 10
57.854867
 20
182.764038
 10
58.911822
 20
181.700365
 10
60.497944
 20
180.637553
  0
LWPOLYLINE
  5
290
330
1F
100
AcDbEntity
  8
LAYER_1
 62
     7
100
AcDbPolyline
 90
        3
 70
     0
 43
0.0
 10
60.497944
 20
192.865058
 10
58.911822
 20
191.801385
 10
57.854867
 20
190.206478
  0
LWPOLYLINE
  5
71
330
1F
100
AcDbEntity
  8
LAYER_1
 62
     7
100
AcDbPolyline
 90
        3
 70
     0
 43
0.0
 10
60.497944
 20
192.865058
 10
58.911822
 20
191.801385
 10
57.854867
 20
190.206478
  0
LWPOLYLINE
  5
291
330
1F
100
AcDbEntity
  8
LAYER_1
 62
     7
100
AcDbPolyline
 90
        3
 70
     0
 43
0.0
 10
55.211789
 20
181.700537
 10
55.740956
 20
182.232115
 10
56.268745
 20
182.76421
  0
LWPOLYLINE
  5
67
330
1F
100
AcDbEntity
  8
LAYER_1
 62
     7
100
AcDbPolyline
 90
        3
 70
     0
 43
0.0
 10
55.211789
 20
181.700537
 10
55.740956
 20
182.232115
 10
56.268745
 20
182.76421
  0
LWPOLYLINE
  5
62
330
1F
100
AcDbEntity
  8
LAYER_1
 62
     7
100
AcDbPolyline
 90
        3
 70
     0
 43
0.0
 10
57.854867
 20
182.764038
 10
57.854867
 20
183.295616
 10
57.326389
 20
183.295616
  0
LWPOLYLINE
  5
5D
330
1F
100
AcDbEntity
  8
LAYER_1
 62
     7
100
AcDbPolyline
 90
        3
 70
     0
 43
0.0
 10
57.854867
 20
182.764038
 10
57.854867
 20
183.295616
 10
57.326389
 20
183.295616
  0
LWPOLYLINE
  5
58
330
1F
100
AcDbEntity
  8
LAYER_1
 62
     7
100
AcDbPolyline
 90
        3
 70
     0
 43
0.0
 10
57.326389
 20
183.295616
 10
56.797222
 20
183.295616
 10
56.268745
 20
182.764038
  0
LWPOLYLINE
  5
53
330
1F
100
AcDbEntity
  8
LAYER_1
 62
     7
100
AcDbPolyline
 90
        3
 70
     0
 43
0.0
 10
57.326389
 20
183.295616
 10
56.797222
 20
183.295616
 10
56.268745
 20
182.764038
  0
LINE
  5
52
330
1F
100
AcDbEntity
  8
LAYER_1
 62
     7
100
AcDbLine
 10
45.167958
 20
176.915988
 30
0.0
 11
55.211962
 21
176.915988
 31
0.0
  0
LWPOLYLINE
  5
4D
330
1F
100
AcDbEntity
  8
LAYER_1
 62
     7
100
AcDbPolyline
 90
        3
 70
     0
 43
0.0
 10
57.854867
 20
190.206478
 10
57.854867
 20
190.206478
 10
57.326389
 20
190.206478
  0
LWPOLYLINE
  5
48
330
1F
100
AcDbEntity
  8
LAYER_1
 62
     7
100
AcDbPolyline
 90
        3
 70
     0
 43
0.0
 10
57.854867
 20
190.206478
 10
57.854867
 20
190.206478
 10
57.326389
 20
190.206478
  0
LWPOLYLINE
  5
43
330
1F
100
AcDbEntity
  8
LAYER_1
 62
     7
100
AcDbPolyline
 90
        3
 70
     0
 43
0.0
 10
57.326389
 20
190.206478
 10
56.797222
 20
190.206478
 10
56.268745
 20
190.206478
  0
LWPOLYLINE
  5
3E
330
1F
100
AcDbEntity
  8
LAYER_1
 62
     7
100
AcDbPolyline
 90
        3
 70
     0
 43
0.0
 10
57.326389
 20
190.206478
 10
56.797222
 20
190.206478
 10
56.268745
 20
190.206478
  0
LWPOLYLINE
  5
39
330
1F
100
AcDbEntity
  8
LAYER_1
 62
     7
100
AcDbPolyline
 90
        3
 70
     0
 43
0.0
 10
56.268745
 20
190.206478
 10
55.740956
 20
191.269807
 10
55.211789
 20
191.801385
  0
LWPOLYLINE
  5
34
330
1F
100
AcDbEntity
  8
LAYER_1
 62
     7
100
AcDbPolyline
 90
        3
 70
     0
 43
0.0
 10
56.268745
 20
190.206478
 10
55.740956
 20
191.269807
 10
55.211789
 20
191.801385
  0
LINE
  5
33
330
1F
100
AcDbEntity
  8
LAYER_1
 62
     7
100
AcDbLine
 10
55.211789
 20
196.054527
 30
0.0
 11
55.211789
 21
176.915988
 31
0.0
  0
LINE
  5
32
330
1F
100
AcDbEntity
  8
LAYER_1
 62
     7
100
AcDbLine
 10
45.167958
 20
196.054527
 30
0.0
 11
45.167958
 21
176.915988
 31
0.0
  0
LINE
  5
31
330
1F
100
AcDbEntity
  8
LAYER_1
 62
     7
100
AcDbLine
 10
60.497944
 20
176.915988
 30
0.0
 11
101.201747
 21
176.915988
 31
0.0
  0
LINE
  5
30
330
1F
100
AcDbEntity
  8
LAYER_1
 62
     7
100
AcDbLine
 10
60.497944
 20
196.054527
 30
0.0
 11
120.231765
 21
196.054527
 31
0.0
  0
SPLINE
  5
2F
330
1F
100
AcDbEntity
  8
LAYER_1
 62
     7
100
AcDbSpline
210
0.0
220
0.0
230
1.0
 70
     8
 71
     3
 72
    11
 73
     7
 74
     0
 42
0.00000001
 43
0.00000001
 40
0.0
 40
0.0
 40
0.0
 40
0.0
 40
1.0
 40
1.0
 40
1.0
 40
2.0
 40
2.0
 40
2.0
 40
2.0
 10
206.8803955078125
 20
186.6537231445312
 30
0.0
 10
206.8803955078125
 20
190.0703965928819
 30
0.0
 10
210.5125596788194
 20
192.840081108941
 30
0.0
 10
214.9932508680555
 20
192.840081108941
 30
0.0
 10
219.4739420572917
 20
192.840081108941
 30
0.0
 10
223.1061062282986
 20
190.0703965928819
 30
0.0
 10
223.1061062282986
 20
186.6537231445312
 30
0.0
  0
SPLINE
  5
2E
330
1F
100
AcDbEntity
  8
LAYER_1
 62
     7
100
AcDbSpline
210
0.0
220
0.0
230
1.0
 70
     8
 71
     3
 72
    11
 73
     7
 74
     0
 42
0.00000001
 43
0.00000001
 40
0.0
 40
0.0
 40
0.0
 40
0.0
 40
1.0
 40
1.0
 40
1.0
 40
2.0
 40
2.0
 40
2.0
 40
2.0
 10
222.9986192491319
 20
185.9383490668403
 30
0.0
 10
222.9986192491319
 20
182.5216756184896
 30
0.0
 10
219.366455078125
 20
179.7519911024305
 30
0.0
 10
214.8857638888889
 20
179.7519911024305
 30
0.0
 10
210.4050726996527
 20
179.7519911024305
 30
0.0
 10
206.7729085286458
 20
182.5216756184896
 30
0.0
 10
206.7729085286458
 20
185.9383490668403
 30
0.0
  0
SPLINE
  5
2D
330
1F
100
AcDbEntity
  8
LAYER_1
 62
     7
100
AcDbSpline
210
0.0
220
0.0
230
1.0
 70
     8
 71
     3
 72
    11
 73
     7
 74
     0
 42
0.00000001
 43
0.00000001
 40
0.0
 40
0.0
 40
0.0
 40
0.0
 40
1.0
 40
1.0
 40
1.0
 40
2.0
 40
2.0
 40
2.0
 40
2.0
 10
206.8803955078125
 20
185.9383490668403
 30
0.0
 10
206.8803955078125
 20
189.355022515191
 30
0.0
 10
210.5125596788194
 20
192.12470703125
 30
0.0
 10
214.9932508680555
 20
192.12470703125
 30
0.0
 10
219.4739420572917
 20
192.12470703125
 30
0.0
 10
223.1061062282986
 20
189.355022515191
 30
0.0
 10
223.1061062282986
 20
185.9383490668403
 30
0.0
  0
SPLINE
  5
2C
330
1F
100
AcDbEntity
  8
LAYER_1
 62
     7
100
AcDbSpline
210
0.0
220
0.0
230
1.0
 70
     8
 71
     3
 72
    17
 73
    13
 74
     0
 42
0.00000001
 43
0.00000001
 40
0.0
 40
0.0
 40
0.0
 40
0.0
 40
1.0
 40
1.0
 40
1.0
 40
2.0
 40
2.0
 40
2.0
 40
3.0
 40
3.0
 40
3.0
 40
4.0
 40
4.0
 40
4.0
 40
4.0
 10
208.9105902777778
 20
185.8091579861111
 30
0.0
 10
208.9092122395833
 20
185.8522216796875
 30
0.0
 10
208.9085232204861
 20
185.8952853732639
 30
0.0
 10
208.9085232204861
 20
185.9383490668403
 30
0.0
 10
208.9085232204861
 20
188.5008110894097
 30
0.0
 10
211.6329047309028
 20
190.578375922309
 30
0.0
 10
214.9932508680555
 20
190.578375922309
 30
0.0
 10
218.3535970052083
 20
190.578375922309
 30
0.0
 10
221.077978515625
 20
188.5008110894097
 30
0.0
 10
221.077978515625
 20
185.9383490668403
 30
0.0
 10
221.077978515625
 20
185.8785766601562
 30
0.0
 10
221.0766004774305
 20
185.8189765082465
 30
0.0
 10
221.0738444010416
 20
185.7597208658854
 30
0.0
  0
ELLIPSE
  5
2B
330
1F
100
AcDbEntity
  8
LAYER_1
 62
     7
100
AcDbEllipse
 10
214.993251
 20
185.232794
 30
0.0
 11
6.084727647569444
 21
0.0
 31
0.0
210
0.0
220
0.0
230
1.0
 40
0.762513
 41
0.0
 42
6.283185307179586
  0
ELLIPSE
  5
2A
330
1F
100
AcDbEntity
  8
LAYER_1
 62
     7
100
AcDbEllipse
 10
215.029424
 20
186.598946
 30
0.0
 11
11.64166666666667
 21
0.0
 31
0.0
210
0.0
220
0.0
230
1.0
 40
0.828273
 41
0.0
 42
6.283185307179586
  0
ELLIPSE
  5
29
330
1F
100
AcDbEntity
  8
LAYER_1
 62
     7
100
AcDbEllipse
 10
215.055435
 20
184.861412
 30
0.0
 11
1.835374620225694
 21
0.0
 31
0.0
210
0.0
220
0.0
230
1.0
 40
0.698827
 41
0.0
 42
6.283185307179586
  0
ENDSEC
  0
SECTION
  2
OBJECTS
  0
DICTIONARY
  5
C
330
0
100
AcDbDictionary
281
     1
  3
ACAD_COLOR
350
6C
  3
ACAD_GROUP
350
D
  3
ACAD_LAYOUT
350
1A
  3
ACAD_MATERIAL
350
6B
  3
ACAD_MLEADERSTYLE
350
293
  3
ACAD_MLINESTYLE
350
17
  3
ACAD_PLOTSETTINGS
350
19
  3
ACAD_PLOTSTYLENAME
350
E
  3
ACAD_SCALELIST
350
99
  3
ACAD_TABLESTYLE
350
92
  3
ACAD_WIPEOUT_VARS
350
273
  3
AcDbVariableDictionary
350
59
  0
DICTIONARY
  5
292
330
1F
100
AcDbDictionary
280
     1
281
     1
  0
DICTIONARY
  5
6C
102
{ACAD_REACTORS
330
C
102
}
330
C
100
AcDbDictionary
281
     1
  0
DICTIONARY
  5
D
102
{ACAD_REACTORS
330
C
102
}
330
C
100
AcDbDictionary
281
     1
  0
DICTIONARY
  5
1A
102
{ACAD_REACTORS
330
C
102
}
330
C
100
AcDbDictionary
281
     1
  3
Layout1
350
74
  3
Model
350
22
  0
DICTIONARY
  5
6B
102
{ACAD_REACTORS
330
C
102
}
330
C
100
AcDbDictionary
281
     1
  0
DICTIONARY
  5
293
102
{ACAD_REACTORS
330
C
102
}
330
C
100
AcDbDictionary
281
     1
  0
DICTIONARY
  5
17
102
{ACAD_REACTORS
330
C
102
}
330
C
100
AcDbDictionary
281
     1
  3
Standard
350
18
  0
DICTIONARY
  5
19
102
{ACAD_REACTORS
330
C
102
}
330
C
100
AcDbDictionary
281
     1
  0
ACDBDICTIONARYWDFLT
  5
E
102
{ACAD_REACTORS
330
C
102
}
330
C
100
AcDbDictionary
281
     1
  3
Normal
350
F
100
AcDbDictionaryWithDefault
340
F
  0
DICTIONARY
  5
99
102
{ACAD_REACTORS
330
C
102
}
330
C
100
AcDbDictionary
281
     1
  3
A0
350
9A
  3
A1
350
9B
  3
A2
350
9C
  3
A3
350
9D
  3
A4
350
9E
  3
A5
350
9F
  3
A6
350
A0
  3
A7
350
A1
  3
A8
350
A2
  3
A9
350
A3
  3
B0
350
A4
  3
B1
350
A5
  3
B2
350
A6
  3
B3
350
A7
  3
B4
350
A8
  3
B5
350
A9
  3
B6
350
AA
  3
B7
350
AB
  3
B8
350
AC
  3
B9
350
AD
  3
C0
350
AE
  3
C1
350
AF
  3
C2
350
B0
  3
C3
350
B1
  3
C4
350
B2
  3
C5
350
B3
  3
C6
350
B4
  3
C7
350
B5
  3
C8
350
B6
  3
C9
350
B7
  3
D0
350
B8
  3
D1
350
B9
  3
D2
350
BA
  0
DICTIONARY
  5
92
102
{ACAD_REACTORS
330
C
102
}
330
C
100
AcDbDictionary
281
     1
  3
Standard
350
93
  0
WIPEOUTVARIABLES
  5
273
102
{ACAD_REACTORS
330
C
102
}
330
C
100
AcDbWipeoutVariables
 70
     1
  0
DICTIONARY
  5
59
102
{ACAD_REACTORS
330
C
102
}
330
C
100
AcDbDictionary
281
     1
  3
CANNOSCALE
350
294
  3
CTABLESTYLE
350
98
  3
DIMASSOC
350
26E
  3
HIDETEXT
350
5E
  0
LAYOUT
  5
74
102
{ACAD_REACTORS
330
1A
102
}
330
1A
100
AcDbPlotSettings
  1

  2
none_device
  4
ISO_C5_(229.00_x_162.00_MM)
  6

 40
0.0
 41
0.0
 42
0.0
 43
0.0
 44
229.0
 45
162.0
 46
0.0
 47
0.0
 48
0.0
 49
0.0
140
0.0
141
0.0
142
1.0
143
1.0
 70
   544
 72
     1
 73
     0
 74
     0
  7

 75
    16
 76
     0
 77
     2
 78
   300
147
1.0
148
0.0
149
0.0
100
AcDbLayout
  1
Layout1
 70
     0
 71
     0
 10
0.0
 20
0.0
 11
0.0
 21
0.0
 12
0.0
 22
0.0
 32
0.0
 14
0.0
 24
0.0
 34
0.0
 15
0.0
 25
0.0
 35
0.0
146
0.0
 13
0.0
 23
0.0
 33
0.0
 16
1.0
 26
0.0
 36
0.0
 17
0.0
 27
1.0
 37
0.0
 76
     0
330
73
  0
LAYOUT
  5
22
102
{ACAD_REACTORS
330
1A
102
}
330
1A
100
AcDbPlotSettings
  1

  2
none_device
  4
ISO_C5_(229.00_x_162.00_MM)
  6

 40
0.0
 41
0.0
 42
0.0
 43
0.0
 44
229.0
 45
162.0
 46
0.0
 47
0.0
 48
0.0
 49
0.0
140
0.0
141
0.0
142
1.0
143
1.0
 70
 11936
 72
     1
 73
     0
 74
     0
  7

 75
     0
 76
     0
 77
     2
 78
   300
147
0.9757771746237357
148
0.0
149
0.0
100
AcDbLayout
  1
Model
 70
     1
 71
     0
 10
19.22036
 20
89.786768
 11
270.769691
 21
203.898149
 12
0.0
 22
0.0
 32
0.0
 14
19.722857
 24
89.786768
 34
0.0
 15
270.681497
 25
203.809954
 35
0.0
146
0.0
 13
0.0
 23
0.0
 33
0.0
 16
1.0
 26
0.0
 36
0.0
 17
0.0
 27
1.0
 37
0.0
 76
     0
330
1F
331
97
  0
MLINESTYLE
  5
18
102
{ACAD_REACTORS
330
17
102
}
330
17
100
AcDbMlineStyle
  2
Standard
 70
     0
  3

 62
     0
 51
90.0
 52
90.0
 71
     2
 49
0.5
 62
   256
  6
BYLAYER
 49
-0.5
 62
   256
  6
BYLAYER
  0
ACDBPLACEHOLDER
  5
F
102
{ACAD_REACTORS
330
E
102
}
330
E
  0
SCALE
  5
9A
102
{ACAD_REACTORS
330
99
102
}
330
99
100
AcDbScale
 70
     0
300
1:1
140
1.0
141
1.0
290
     1
  0
SCALE
  5
9B
102
{ACAD_REACTORS
330
99
102
}
330
99
100
AcDbScale
 70
     0
300
1:2
140
1.0
141
2.0
290
     0
  0
SCALE
  5
9C
102
{ACAD_REACTORS
330
99
102
}
330
99
100
AcDbScale
 70
     0
300
1:4
140
1.0
141
4.0
290
     0
  0
SCALE
  5
9D
102
{ACAD_REACTORS
330
99
102
}
330
99
100
AcDbScale
 70
     0
300
1:5
140
1.0
141
5.0
290
     0
  0
SCALE
  5
9E
102
{ACAD_REACTORS
330
99
102
}
330
99
100
AcDbScale
 70
     0
300
1:8
140
1.0
141
8.0
290
     0
  0
SCALE
  5
9F
102
{ACAD_REACTORS
330
99
102
}
330
99
100
AcDbScale
 70
     0
300
1:10
140
1.0
141
10.0
290
     0
  0
SCALE
  5
A0
102
{ACAD_REACTORS
330
99
102
}
330
99
100
AcDbScale
 70
     0
300
1:16
140
1.0
141
16.0
290
     0
  0
SCALE
  5
A1
102
{ACAD_REACTORS
330
99
102
}
330
99
100
AcDbScale
 70
     0
300
1:20
140
1.0
141
20.0
290
     0
  0
SCALE
  5
A2
102
{ACAD_REACTORS
330
99
102
}
330
99
100
AcDbScale
 70
     0
300
1:30
140
1.0
141
30.0
290
     0
  0
SCALE
  5
A3
102
{ACAD_REACTORS
330
99
102
}
330
99
100
AcDbScale
 70
     0
300
1:40
140
1.0
141
40.0
290
     0
  0
SCALE
  5
A4
102
{ACAD_REACTORS
330
99
102
}
330
99
100
AcDbScale
 70
     0
300
1:50
140
1.0
141
50.0
290
     0
  0
SCALE
  5
A5
102
{ACAD_REACTORS
330
99
102
}
330
99
100
AcDbScale
 70
     0
300
1:100
140
1.0
141
100.0
290
     0
  0
SCALE
  5
A6
102
{ACAD_REACTORS
330
99
102
}
330
99
100
AcDbScale
 70
     0
300
2:1
140
2.0
141
1.0
290
     0
  0
SCALE
  5
A7
102
{ACAD_REACTORS
330
99
102
}
330
99
100
AcDbScale
 70
     0
300
4:1
140
4.0
141
1.0
290
     0
  0
SCALE
  5
A8
102
{ACAD_REACTORS
330
99
102
}
330
99
100
AcDbScale
 70
     0
300
8:1
140
8.0
141
1.0
290
     0
  0
SCALE
  5
A9
102
{ACAD_REACTORS
330
99
102
}
330
99
100
AcDbScale
 70
     0
300
10:1
140
10.0
141
1.0
290
     0
  0
SCALE
  5
AA
102
{ACAD_REACTORS
330
99
102
}
330
99
100
AcDbScale
 70
     0
300
100:1
140
100.0
141
1.0
290
     0
  0
SCALE
  5
AB
102
{ACAD_REACTORS
330
99
102
}
330
99
100
AcDbScale
 70
     0
300
1/128" = 1'-0"
140
0.0078125
141
12.0
290
     0
  0
SCALE
  5
AC
102
{ACAD_REACTORS
330
99
102
}
330
99
100
AcDbScale
 70
     0
300
1/64" = 1'-0"
140
0.015625
141
12.0
290
     0
  0
SCALE
  5
AD
102
{ACAD_REACTORS
330
99
102
}
330
99
100
AcDbScale
 70
     0
300
1/32" = 1'-0"
140
0.03125
141
12.0
290
     0
  0
SCALE
  5
AE
102
{ACAD_REACTORS
330
99
102
}
330
99
100
AcDbScale
 70
     0
300
1/16" = 1'-0"
140
0.0625
141
12.0
290
     0
  0
SCALE
  5
AF
102
{ACAD_REACTORS
330
99
102
}
330
99
100
AcDbScale
 70
     0
300
3/32" = 1'-0"
140
0.09375
141
12.0
290
     0
  0
SCALE
  5
B0
102
{ACAD_REACTORS
330
99
102
}
330
99
100
AcDbScale
 70
     0
300
1/8" = 1'-0"
140
0.125
141
12.0
290
     0
  0
SCALE
  5
B1
102
{ACAD_REACTORS
330
99
102
}
330
99
100
AcDbScale
 70
     0
300
3/16" = 1'-0"
140
0.1875
141
12.0
290
     0
  0
SCALE
  5
B2
102
{ACAD_REACTORS
330
99
102
}
330
99
100
AcDbScale
 70
     0
300
1/4" = 1'-0"
140
0.25
141
12.0
290
     0
  0
SCALE
  5
B3
102
{ACAD_REACTORS
330
99
102
}
330
99
100
AcDbScale
 70
     0
300
3/8" = 1'-0"
140
0.375
141
12.0
290
     0
  0
SCALE
  5
B4
102
{ACAD_REACTORS
330
99
102
}
330
99
100
AcDbScale
 70
     0
300
1/2" = 1'-0"
140
0.5
141
12.0
290
     0
  0
SCALE
  5
B5
102
{ACAD_REACTORS
330
99
102
}
330
99
100
AcDbScale
 70
     0
300
3/4" = 1'-0"
140
0.75
141
12.0
290
     0
  0
SCALE
  5
B6
102
{ACAD_REACTORS
330
99
102
}
330
99
100
AcDbScale
 70
     0
300
1" = 1'-0"
140
1.0
141
12.0
290
     0
  0
SCALE
  5
B7
102
{ACAD_REACTORS
330
99
102
}
330
99
100
AcDbScale
 70
     0
300
1-1/2" = 1'-0"
140
1.5
141
12.0
290
     0
  0
SCALE
  5
B8
102
{ACAD_REACTORS
330
99
102
}
330
99
100
AcDbScale
 70
     0
300
3" = 1'-0"
140
3.0
141
12.0
290
     0
  0
SCALE
  5
B9
102
{ACAD_REACTORS
330
99
102
}
330
99
100
AcDbScale
 70
     0
300
6" = 1'-0"
140
6.0
141
12.0
290
     0
  0
SCALE
  5
BA
102
{ACAD_REACTORS
330
99
102
}
330
99
100
AcDbScale
 70
     0
300
1'-0" = 1'-0"
140
12.0
141
12.0
290
     0
  0
TABLESTYLE
  5
93
102
{ACAD_REACTORS
330
92
102
}
330
92
100
AcDbTableStyle
  3
Standard
 70
     0
 71
     0
 40
0.06
 41
0.06
280
     0
281
     0
  7
Standard
140
0.18
170
     2
 62
     0
 63
     7
283
     0
 90
      512
 91
        0
  1

274
    -2
284
     1
 64
     0
275
    -2
285
     1
 65
     0
276
    -2
286
     1
 66
     0
277
    -2
287
     1
 67
     0
278
    -2
288
     1
 68
     0
279
    -2
289
     1
 69
     0
  7
Standard
140
0.25
170
     5
 62
     0
 63
     7
283
     0
 90
      512
 91
        0
  1

274
    -2
284
     1
 64
     0
275
    -2
285
     1
 65
     0
276
    -2
286
     1
 66
     0
277
    -2
287
     1
 67
     0
278
    -2
288
     1
 68
     0
279
    -2
289
     1
 69
     0
  7
Standard
140
0.18
170
     5
 62
     0
 63
     7
283
     0
 90
      512
 91
        0
  1

274
    -2
284
     1
 64
     0
275
    -2
285
     1
 65
     0
276
    -2
286
     1
 66
     0
277
    -2
287
     1
 67
     0
278
    -2
288
     1
 68
     0
279
    -2
289
     1
 69
     0
  0
DICTIONARYVAR
  5
294
102
{ACAD_REACTORS
330
59
102
}
330
59
100
DictionaryVariables
280
     0
  1
1:1
  0
DICTIONARYVAR
  5
98
102
{ACAD_REACTORS
330
59
102
}
330
59
100
DictionaryVariables
280
     0
  1
Standard
  0
DICTIONARYVAR
  5
26E
102
{ACAD_REACTORS
330
59
102
}
330
59
100
DictionaryVariables
280
     0
  1
2
  0
DICTIONARYVAR
  5
5E
102
{ACAD_REACTORS
330
59
102
}
330
59
100
DictionaryVariables
280
     0
  1
1
  0
ENDSEC
  0
EOF
