  0
SECTION
  2
HEADER
  9
$ACADVER
  1
AC1027
  9
$ACADMAINTVER
 70
   125
  9
$DWGCODEPAGE
  3
ANSI_1252
  9
$LASTSAVEDBY
  1
fleminab
  9
$REQUIREDVERSIONS
160
                 0
  9
$INSBASE
 10
0.0
 20
0.0
 30
0.0
  9
$EXTMIN
 10
176.1427383225211
 20
193.2347180271925
 30
-0.0000000349181948
  9
$EXTMAX
 10
290.6977609987111
 20
241.1678383078516
 30
0.0000000814935746
  9
$LIMMIN
 10
0.0
 20
0.0
  9
$LIMMAX
 10
558.8
 20
431.8
  9
$ORTHOMODE
 70
     0
  9
$REGENMODE
 70
     1
  9
$FILLMODE
 70
     1
  9
$QTEXTMODE
 70
     0
  9
$MIRRTEXT
 70
     0
  9
$LTSCALE
 40
30.734
  9
$ATTMODE
 70
     1
  9
$TEXTSIZE
 40
0.2
  9
$TRACEWID
 40
0.05
  9
$TEXTSTYLE
  7
STANDARD
  9
$CLAYER
  8
0
  9
$CELTYPE
  6
BYLAYER
  9
$CECOLOR
 62
   256
  9
$CELTSCALE
 40
1.0
  9
$DISPSILH
 70
     0
  9
$DIMSCALE
 40
1.0
  9
$DIMASZ
 40
3.5
  9
$DIMEXO
 40
3.4925
  9
$DIMDLI
 40
21.2344
  9
$DIMRND
 40
0.0
  9
$DIMDLE
 40
0.0
  9
$DIMEXE
 40
10.0584
  9
$DIMTP
 40
0.01
  9
$DIMTM
 40
0.01
  9
$DIMTXT
 40
3.5
  9
$DIMCEN
 40
5.0292
  9
$DIMTSZ
 40
0.0
  9
$DIMTOL
 70
     1
  9
$DIMLIM
 70
     0
  9
$DIMTIH
 70
     1
  9
$DIMTOH
 70
     1
  9
$DIMSE1
 70
     0
  9
$DIMSE2
 70
     0
  9
$DIMTAD
 70
     0
  9
$DIMZIN
 70
     0
  9
$DIMBLK
  1

  9
$DIMASO
 70
     1
  9
$DIMSHO
 70
     1
  9
$DIMPOST
  1

  9
$DIMAPOST
  1

  9
$DIMALT
 70
     0
  9
$DIMALTD
 70
     2
  9
$DIMALTF
 40
25.4
  9
$DIMLFAC
 40
1.0
  9
$DIMTOFL
 70
     0
  9
$DIMTVP
 40
0.0
  9
$DIMTIX
 70
     0
  9
$DIMSOXD
 70
     0
  9
$DIMSAH
 70
     0
  9
$DIMBLK1
  1

  9
$DIMBLK2
  1

  9
$DIMSTYLE
  2
STANDARD
  9
$DIMCLRD
 70
     0
  9
$DIMCLRE
 70
     0
  9
$DIMCLRT
 70
     0
  9
$DIMTFAC
 40
1.0
  9
$DIMGAP
 40
0.09
  9
$DIMJUST
 70
     0
  9
$DIMSD1
 70
     0
  9
$DIMSD2
 70
     0
  9
$DIMTOLJ
 70
     1
  9
$DIMTZIN
 70
     0
  9
$DIMALTZ
 70
     0
  9
$DIMALTTZ
 70
     0
  9
$DIMUPT
 70
     0
  9
$DIMDEC
 70
     4
  9
$DIMTDEC
 70
     4
  9
$DIMALTU
 70
     2
  9
$DIMALTTD
 70
     2
  9
$DIMTXSTY
  7
STANDARD
  9
$DIMAUNIT
 70
     0
  9
$DIMADEC
 70
     0
  9
$DIMALTRND
 40
0.0
  9
$DIMAZIN
 70
     0
  9
$DIMDSEP
 70
    46
  9
$DIMATFIT
 70
     3
  9
$DIMFRAC
 70
     0
  9
$DIMLDRBLK
  1

  9
$DIMLUNIT
 70
     2
  9
$DIMLWD
 70
    -2
  9
$DIMLWE
 70
    -2
  9
$DIMTMOVE
 70
     0
  9
$DIMFXL
 40
1.0
  9
$DIMFXLON
 70
     0
  9
$DIMJOGANG
 40
0.7853981633974483
  9
$DIMTFILL
 70
     0
  9
$DIMTFILLCLR
 70
     0
  9
$DIMARCSYM
 70
     0
  9
$DIMLTYPE
  6

  9
$DIMLTEX1
  6

  9
$DIMLTEX2
  6

  9
$DIMTXTDIRECTION
 70
     0
  9
$LUNITS
 70
     2
  9
$LUPREC
 70
     4
  9
$SKETCHINC
 40
0.1
  9
$FILLETRAD
 40
0.0
  9
$AUNITS
 70
     0
  9
$AUPREC
 70
     0
  9
$MENU
  1
.
  9
$ELEVATION
 40
0.0
  9
$PELEVATION
 40
0.0
  9
$THICKNESS
 40
0.0
  9
$LIMCHECK
 70
     0
  9
$CHAMFERA
 40
0.0
  9
$CHAMFERB
 40
0.0
  9
$CHAMFERC
 40
0.0
  9
$CHAMFERD
 40
0.0
  9
$SKPOLY
 70
     0
  9
$TDCREATE
 40
2458092.799930556
  9
$TDUCREATE
 40
2458092.341607859
  9
$TDUPDATE
 40
2458094.522546296
  9
$TDUUPDATE
 40
2458094.064212963
  9
$TDINDWG
 40
0.0004286111
  9
$TDUSRTIMER
 40
0.0004286111
  9
$USRTIMER
 70
     1
  9
$ANGBASE
 50
0.0
  9
$ANGDIR
 70
     0
  9
$PDMODE
 70
     3
  9
$PDSIZE
 40
8.0
  9
$PLINEWID
 40
0.0
  9
$SPLFRAME
 70
     0
  9
$SPLINETYPE
 70
     6
  9
$SPLINESEGS
 70
     8
  9
$HANDSEED
  5
447
  9
$SURFTAB1
 70
     6
  9
$SURFTAB2
 70
     6
  9
$SURFTYPE
 70
     6
  9
$SURFU
 70
     6
  9
$SURFV
 70
     6
  9
$UCSBASE
  2

  9
$UCSNAME
  2

  9
$UCSORG
 10
0.0
 20
0.0
 30
0.0
  9
$UCSXDIR
 10
1.0
 20
0.0
 30
0.0
  9
$UCSYDIR
 10
0.0
 20
1.0
 30
0.0
  9
$UCSORTHOREF
  2

  9
$UCSORTHOVIEW
 70
     0
  9
$UCSORGTOP
 10
0.0
 20
0.0
 30
0.0
  9
$UCSORGBOTTOM
 10
0.0
 20
0.0
 30
0.0
  9
$UCSORGLEFT
 10
0.0
 20
0.0
 30
0.0
  9
$UCSORGRIGHT
 10
0.0
 20
0.0
 30
0.0
  9
$UCSORGFRONT
 10
0.0
 20
0.0
 30
0.0
  9
$UCSORGBACK
 10
0.0
 20
0.0
 30
0.0
  9
$PUCSBASE
  2

  9
$PUCSNAME
  2

  9
$PUCSORG
 10
0.0
 20
0.0
 30
0.0
  9
$PUCSXDIR
 10
1.0
 20
0.0
 30
0.0
  9
$PUCSYDIR
 10
0.0
 20
1.0
 30
0.0
  9
$PUCSORTHOREF
  2

  9
$PUCSORTHOVIEW
 70
     0
  9
$PUCSORGTOP
 10
0.0
 20
0.0
 30
0.0
  9
$PUCSORGBOTTOM
 10
0.0
 20
0.0
 30
0.0
  9
$PUCSORGLEFT
 10
0.0
 20
0.0
 30
0.0
  9
$PUCSORGRIGHT
 10
0.0
 20
0.0
 30
0.0
  9
$PUCSORGFRONT
 10
0.0
 20
0.0
 30
0.0
  9
$PUCSORGBACK
 10
0.0
 20
0.0
 30
0.0
  9
$USERI1
 70
     0
  9
$USERI2
 70
     0
  9
$USERI3
 70
     0
  9
$USERI4
 70
     0
  9
$USERI5
 70
     0
  9
$USERR1
 40
0.0
  9
$USERR2
 40
0.0
  9
$USERR3
 40
0.0
  9
$USERR4
 40
0.0
  9
$USERR5
 40
2.5
  9
$WORLDVIEW
 70
     1
  9
$SHADEDGE
 70
     3
  9
$SHADEDIF
 70
    70
  9
$TILEMODE
 70
     1
  9
$MAXACTVP
 70
    64
  9
$PINSBASE
 10
0.0
 20
0.0
 30
0.0
  9
$PLIMCHECK
 70
     0
  9
$PEXTMIN
 10
1.000000000000000E+20
 20
1.000000000000000E+20
 30
1.000000000000000E+20
  9
$PEXTMAX
 10
-1.000000000000000E+20
 20
-1.000000000000000E+20
 30
-1.000000000000000E+20
  9
$PLIMMIN
 10
0.0
 20
0.0
  9
$PLIMMAX
 10
12.0
 20
9.0
  9
$UNITMODE
 70
     0
  9
$VISRETAIN
 70
     1
  9
$PLINEGEN
 70
     0
  9
$PSLTSCALE
 70
     1
  9
$TREEDEPTH
 70
  3020
  9
$CMLSTYLE
  2
Standard
  9
$CMLJUST
 70
     0
  9
$CMLSCALE
 40
1.0
  9
$PROXYGRAPHICS
 70
     1
  9
$MEASUREMENT
 70
     1
  9
$CELWEIGHT
370
    -1
  9
$ENDCAPS
280
     0
  9
$JOINSTYLE
280
     0
  9
$LWDISPLAY
290
     0
  9
$INSUNITS
 70
     4
  9
$HYPERLINKBASE
  1

  9
$STYLESHEET
  1

  9
$XEDIT
290
     1
  9
$CEPSNTYPE
380
     0
  9
$PSTYLEMODE
290
     1
  9
$FINGERPRINTGUID
  2
{55398AA3-8BE3-45CF-A191-F946F8399796}
  9
$VERSIONGUID
  2
{E09D1E1E-5F94-A943-9DB9-584F17BD7D09}
  9
$EXTNAMES
290
     1
  9
$PSVPSCALE
 40
0.0
  9
$OLESTARTUP
290
     0
  9
$SORTENTS
280
   127
  9
$INDEXCTL
280
     0
  9
$HIDETEXT
280
     1
  9
$XCLIPFRAME
280
     0
  9
$HALOGAP
280
     0
  9
$OBSCOLOR
 70
   257
  9
$OBSLTYPE
280
     0
  9
$INTERSECTIONDISPLAY
280
     0
  9
$INTERSECTIONCOLOR
 70
   257
  9
$DIMASSOC
280
     2
  9
$PROJECTNAME
  1

  9
$CAMERADISPLAY
290
     0
  9
$LENSLENGTH
 40
50.0
  9
$CAMERAHEIGHT
 40
0.0
  9
$STEPSPERSEC
 40
2.0
  9
$STEPSIZE
 40
6.0
  9
$3DDWFPREC
 40
2.0
  9
$PSOLWIDTH
 40
0.25
  9
$PSOLHEIGHT
 40
4.0
  9
$LOFTANG1
 40
1.570796326794896
  9
$LOFTANG2
 40
1.570796326794896
  9
$LOFTMAG1
 40
0.0
  9
$LOFTMAG2
 40
0.0
  9
$LOFTPARAM
 70
     7
  9
$LOFTNORMALS
280
     1
  9
$LATITUDE
 40
37.795
  9
$LONGITUDE
 40
-122.394
  9
$NORTHDIRECTION
 40
0.0
  9
$TIMEZONE
 70
 -8000
  9
$LIGHTGLYPHDISPLAY
280
     1
  9
$TILEMODELIGHTSYNCH
280
     1
  9
$CMATERIAL
347
381
  9
$SOLIDHIST
280
     1
  9
$SHOWHIST
280
     1
  9
$DWFFRAME
280
     2
  9
$DGNFRAME
280
     0
  9
$REALWORLDSCALE
290
     1
  9
$INTERFERECOLOR
 62
     1
  9
$INTERFEREOBJVS
345
3A3
  9
$INTERFEREVPVS
346
427
  9
$CSHADOW
280
     0
  9
$SHADOWPLANELOCATION
 40
0.0
  0
ENDSEC
  0
SECTION
  2
CLASSES
  0
CLASS
  1
ACDBDICTIONARYWDFLT
  2
AcDbDictionaryWithDefault
  3
ObjectDBX Classes
 90
        0
 91
        1
280
     0
281
     0
  0
CLASS
  1
MATERIAL
  2
AcDbMaterial
  3
ObjectDBX Classes
 90
     1153
 91
        3
280
     0
281
     0
  0
CLASS
  1
VISUALSTYLE
  2
AcDbVisualStyle
  3
ObjectDBX Classes
 90
     4095
 91
       26
280
     0
281
     0
  0
CLASS
  1
TABLESTYLE
  2
AcDbTableStyle
  3
ObjectDBX Classes
 90
     4095
 91
        1
280
     0
281
     0
  0
CLASS
  1
SCALE
  2
AcDbScale
  3
ObjectDBX Classes
 90
     1153
 91
       33
280
     0
281
     0
  0
CLASS
  1
MLEADERSTYLE
  2
AcDbMLeaderStyle
  3
ACDB_MLEADERSTYLE_CLASS
 90
     4095
 91
        1
280
     0
281
     0
  0
CLASS
  1
CELLSTYLEMAP
  2
AcDbCellStyleMap
  3
ObjectDBX Classes
 90
     1152
 91
        1
280
     0
281
     0
  0
CLASS
  1
DICTIONARYVAR
  2
AcDbDictionaryVar
  3
ObjectDBX Classes
 90
        0
 91
        9
280
     0
281
     0
  0
CLASS
  1
VLO-VL
  2
vlo_VL
  3
VL|AutoLISP based application
 90
      129
 91
        1
280
     0
281
     0
  0
CLASS
  1
ACDBSECTIONVIEWSTYLE
  2
AcDbSectionViewStyle
  3
ObjectDBX Classes
 90
     1025
 91
        1
280
     0
281
     0
  0
CLASS
  1
ACDBDETAILVIEWSTYLE
  2
AcDbDetailViewStyle
  3
ObjectDBX Classes
 90
     1025
 91
        1
280
     0
281
     0
  0
ENDSEC
  0
SECTION
  2
TABLES
  0
TABLE
  2
VPORT
  5
8
330
0
100
AcDbSymbolTable
 70
     1
1001
ACAD
1000
DbSaveVer
1071
        5
  0
VPORT
  5
1F4
330
8
100
AcDbSymbolTableRecord
100
AcDbViewportTableRecord
  2
*ACTIVE
 70
     0
 10
0.0
 20
0.0
 11
1.0
 21
1.0
 12
233.4202496606161
 22
217.2012781675221
 13
0.0
 23
0.0
 14
1.0
 24
1.0
 15
0.0
 25
0.0
 16
0.0
 26
0.0
 36
1.0
 17
0.0
 27
0.0
 37
0.0
 40
48.30089358204521
 41
2.444302176696542
 42
50.0
 43
0.0
 44
0.0
 50
0.0
 51
0.0
 71
     0
 72
   100
 73
     1
 74
     1
 75
     0
 76
     0
 77
     0
 78
     0
281
     0
 65
     1
110
0.0
120
0.0
130
0.0
111
1.0
121
0.0
131
0.0
112
0.0
122
1.0
132
0.0
 79
     0
146
0.0
348
39F
 60
     3
 61
     5
292
     1
282
     1
141
0.0
142
0.0
 63
   250
421
  3355443
1001
ACAD_NAV_VCDISPLAY
1070
     3
  0
ENDTAB
  0
TABLE
  2
LTYPE
  5
5
330
0
100
AcDbSymbolTable
 70
     6
  0
LTYPE
  5
14
330
5
100
AcDbSymbolTableRecord
100
AcDbLinetypeTableRecord
  2
BYBLOCK
 70
     0
  3

 72
    65
 73
     0
 40
0.0
  0
LTYPE
  5
15
330
5
100
AcDbSymbolTableRecord
100
AcDbLinetypeTableRecord
  2
BYLAYER
 70
     0
  3

 72
    65
 73
     0
 40
0.0
  0
LTYPE
  5
16
330
5
100
AcDbSymbolTableRecord
100
AcDbLinetypeTableRecord
  2
CONTINUOUS
 70
     0
  3
Solid line
 72
    65
 73
     0
 40
0.0
  0
LTYPE
  5
1F5
330
5
100
AcDbSymbolTableRecord
100
AcDbLinetypeTableRecord
  2
CENTER
 70
     0
  3
____ _ ____ _ ____ _ ____ _ ____ _ ____ _ ____
 72
    65
 73
     4
 40
0.6
 49
0.375
 74
     0
 49
-0.075
 74
     0
 49
0.075
 74
     0
 49
-0.075
 74
     0
  0
LTYPE
  5
1F6
330
5
100
AcDbSymbolTableRecord
100
AcDbLinetypeTableRecord
  2
HIDDEN
 70
     0
  3
- - - - - - - - - - - - - - - - - - - -
 72
    65
 73
     2
 40
0.2
 49
0.1
 74
     0
 49
-0.1
 74
     0
  0
LTYPE
  5
1F7
330
5
100
AcDbSymbolTableRecord
100
AcDbLinetypeTableRecord
  2
PHANTOM
 70
     0
  3
_____ _ _ _____ _ _ _____ _ _ _____
 72
    65
 73
     6
 40
0.8
 49
0.45
 74
     0
 49
-0.05
 74
     0
 49
0.1
 74
     0
 49
-0.05
 74
     0
 49
0.1
 74
     0
 49
-0.05
 74
     0
  0
LTYPE
  5
1F8
330
5
100
AcDbSymbolTableRecord
100
AcDbLinetypeTableRecord
  2
DOT
 70
     0
  3
. . . . . . . . . . . . . . . . . . . .
 72
    65
 73
     2
 40
0.2
 49
0.1
 74
     0
 49
-0.1
 74
     0
  0
LTYPE
  5
1F9
330
5
100
AcDbSymbolTableRecord
100
AcDbLinetypeTableRecord
  2
DASHED
 70
     0
  3
- - - - - - - - - - - - - - - - - - - -
 72
    65
 73
     2
 40
0.2
 49
0.1
 74
     0
 49
-0.1
 74
     0
  0
ENDTAB
  0
TABLE
  2
LAYER
  5
2
102
{ACAD_XDICTIONARY
360
41C
102
}
330
0
100
AcDbSymbolTable
 70
    27
  0
LAYER
  5
10
102
{ACAD_XDICTIONARY
360
3E3
102
}
330
2
100
AcDbSymbolTableRecord
100
AcDbLayerTableRecord
  2
0
 70
     0
 62
     7
  6
CONTINUOUS
370
    -3
390
F
347
391
348
0
  0
LAYER
  5
1FA
102
{ACAD_XDICTIONARY
360
3E5
102
}
330
2
100
AcDbSymbolTableRecord
100
AcDbLayerTableRecord
  2
DEFAULT_1
 70
     0
 62
     7
  6
CENTER
370
    -3
390
F
347
391
348
0
  0
LAYER
  5
1FB
102
{ACAD_XDICTIONARY
360
3E7
102
}
330
2
100
AcDbSymbolTableRecord
100
AcDbLayerTableRecord
  2
DEFAULT_2
 70
     0
 62
     8
  6
HIDDEN
370
    -3
390
F
347
391
348
0
  0
LAYER
  5
1FC
102
{ACAD_XDICTIONARY
360
3E9
102
}
330
2
100
AcDbSymbolTableRecord
100
AcDbLayerTableRecord
  2
DEFAULT_3
 70
     0
 62
     7
  6
PHANTOM
370
    -3
390
F
347
391
348
0
  0
LAYER
  5
1FD
102
{ACAD_XDICTIONARY
360
3EB
102
}
330
2
100
AcDbSymbolTableRecord
100
AcDbLayerTableRecord
  2
01_ALL_DTM_PLN
 70
     0
 62
     7
  6
CONTINUOUS
370
    -3
390
F
347
391
348
0
  0
LAYER
  5
1FE
102
{ACAD_XDICTIONARY
360
3ED
102
}
330
2
100
AcDbSymbolTableRecord
100
AcDbLayerTableRecord
  2
01__ASM_ALL_DTM_PLN
 70
     0
 62
     7
  6
CONTINUOUS
370
    -3
390
F
347
391
348
0
  0
LAYER
  5
1FF
102
{ACAD_XDICTIONARY
360
3EF
102
}
330
2
100
AcDbSymbolTableRecord
100
AcDbLayerTableRecord
  2
01__ASM_DEF_DTM_PLN
 70
     0
 62
     7
  6
CONTINUOUS
370
    -3
390
F
347
391
348
0
  0
LAYER
  5
200
102
{ACAD_XDICTIONARY
360
3F1
102
}
330
2
100
AcDbSymbolTableRecord
100
AcDbLayerTableRecord
  2
01___PRT_ALL_DTM_PLN
 70
     0
 62
     7
  6
CONTINUOUS
370
    -3
390
F
347
391
348
0
  0
LAYER
  5
201
102
{ACAD_XDICTIONARY
360
3F3
102
}
330
2
100
AcDbSymbolTableRecord
100
AcDbLayerTableRecord
  2
01___PRT_DEF_DTM_PLN
 70
     0
 62
     7
  6
CONTINUOUS
370
    -3
390
F
347
391
348
0
  0
LAYER
  5
202
102
{ACAD_XDICTIONARY
360
3F5
102
}
330
2
100
AcDbSymbolTableRecord
100
AcDbLayerTableRecord
  2
02_ALL_AXES
 70
     0
 62
     7
  6
CONTINUOUS
370
    -3
390
F
347
391
348
0
  0
LAYER
  5
203
102
{ACAD_XDICTIONARY
360
3F7
102
}
330
2
100
AcDbSymbolTableRecord
100
AcDbLayerTableRecord
  2
02__ASM_ALL_AXES
 70
     0
 62
     7
  6
CONTINUOUS
370
    -3
390
F
347
391
348
0
  0
LAYER
  5
204
102
{ACAD_XDICTIONARY
360
3F9
102
}
330
2
100
AcDbSymbolTableRecord
100
AcDbLayerTableRecord
  2
02___PRT_ALL_AXES
 70
     0
 62
     7
  6
CONTINUOUS
370
    -3
390
F
347
391
348
0
  0
LAYER
  5
205
102
{ACAD_XDICTIONARY
360
3FB
102
}
330
2
100
AcDbSymbolTableRecord
100
AcDbLayerTableRecord
  2
03_ALL_CURVES
 70
     0
 62
     7
  6
CONTINUOUS
370
    -3
390
F
347
391
348
0
  0
LAYER
  5
206
102
{ACAD_XDICTIONARY
360
3FD
102
}
330
2
100
AcDbSymbolTableRecord
100
AcDbLayerTableRecord
  2
03__ASM_ALL_CURVES
 70
     0
 62
     7
  6
CONTINUOUS
370
    -3
390
F
347
391
348
0
  0
LAYER
  5
207
102
{ACAD_XDICTIONARY
360
3FF
102
}
330
2
100
AcDbSymbolTableRecord
100
AcDbLayerTableRecord
  2
03___PRT_ALL_CURVES
 70
     0
 62
     7
  6
CONTINUOUS
370
    -3
390
F
347
391
348
0
  0
LAYER
  5
208
102
{ACAD_XDICTIONARY
360
401
102
}
330
2
100
AcDbSymbolTableRecord
100
AcDbLayerTableRecord
  2
04_ALL_DTM_PNT
 70
     0
 62
     7
  6
CONTINUOUS
370
    -3
390
F
347
391
348
0
  0
LAYER
  5
209
102
{ACAD_XDICTIONARY
360
403
102
}
330
2
100
AcDbSymbolTableRecord
100
AcDbLayerTableRecord
  2
04__ASM_ALL_DTM_PNT
 70
     0
 62
     7
  6
CONTINUOUS
370
    -3
390
F
347
391
348
0
  0
LAYER
  5
20A
102
{ACAD_XDICTIONARY
360
405
102
}
330
2
100
AcDbSymbolTableRecord
100
AcDbLayerTableRecord
  2
04___PRT_ALL_DTM_PNT
 70
     0
 62
     7
  6
CONTINUOUS
370
    -3
390
F
347
391
348
0
  0
LAYER
  5
20B
102
{ACAD_XDICTIONARY
360
407
102
}
330
2
100
AcDbSymbolTableRecord
100
AcDbLayerTableRecord
  2
05_ALL_DTM_CSYS
 70
     0
 62
     7
  6
CONTINUOUS
370
    -3
390
F
347
391
348
0
  0
LAYER
  5
20C
102
{ACAD_XDICTIONARY
360
409
102
}
330
2
100
AcDbSymbolTableRecord
100
AcDbLayerTableRecord
  2
05__ASM_ALL_DTM_CSYS
 70
     0
 62
     7
  6
CONTINUOUS
370
    -3
390
F
347
391
348
0
  0
LAYER
  5
20D
102
{ACAD_XDICTIONARY
360
40B
102
}
330
2
100
AcDbSymbolTableRecord
100
AcDbLayerTableRecord
  2
05__ASM_DEF_DTM_CSYS
 70
     0
 62
     7
  6
CONTINUOUS
370
    -3
390
F
347
391
348
0
  0
LAYER
  5
20E
102
{ACAD_XDICTIONARY
360
40D
102
}
330
2
100
AcDbSymbolTableRecord
100
AcDbLayerTableRecord
  2
05___PRT_ALL_DTM_CSYS
 70
     0
 62
     7
  6
CONTINUOUS
370
    -3
390
F
347
391
348
0
  0
LAYER
  5
20F
102
{ACAD_XDICTIONARY
360
40F
102
}
330
2
100
AcDbSymbolTableRecord
100
AcDbLayerTableRecord
  2
05___PRT_DEF_DTM_CSYS
 70
     0
 62
     7
  6
CONTINUOUS
370
    -3
390
F
347
391
348
0
  0
LAYER
  5
210
102
{ACAD_XDICTIONARY
360
411
102
}
330
2
100
AcDbSymbolTableRecord
100
AcDbLayerTableRecord
  2
06_ALL_SURFS
 70
     0
 62
     7
  6
CONTINUOUS
370
    -3
390
F
347
391
348
0
  0
LAYER
  5
211
102
{ACAD_XDICTIONARY
360
413
102
}
330
2
100
AcDbSymbolTableRecord
100
AcDbLayerTableRecord
  2
06__ASM_ALL_SURFS
 70
     0
 62
     7
  6
CONTINUOUS
370
    -3
390
F
347
391
348
0
  0
LAYER
  5
212
102
{ACAD_XDICTIONARY
360
415
102
}
330
2
100
AcDbSymbolTableRecord
100
AcDbLayerTableRecord
  2
06___PRT_ALL_SURFS
 70
     0
 62
     7
  6
CONTINUOUS
370
    -3
390
F
347
391
348
0
  0
LAYER
  5
213
102
{ACAD_XDICTIONARY
360
417
102
}
330
2
100
AcDbSymbolTableRecord
100
AcDbLayerTableRecord
  2
07__ASM_ALL_SKELETONS
 70
     0
 62
     7
  6
CONTINUOUS
370
    -3
390
F
347
391
348
0
  0
ENDTAB
  0
TABLE
  2
STYLE
  5
3
330
0
100
AcDbSymbolTable
 70
     2
  0
STYLE
  5
11
330
3
100
AcDbSymbolTableRecord
100
AcDbTextStyleTableRecord
  2
STANDARD
 70
     0
 40
0.0
 41
0.85
 50
0.0
 71
     0
 42
0.2
  3
txt
  4

  0
STYLE
  5
214
330
3
100
AcDbSymbolTableRecord
100
AcDbTextStyleTableRecord
  2
TEXTSTYLE_1
 70
     0
 40
0.0
 41
0.8
 50
0.0
 71
     0
 42
0.2
  3
gdt
  4

  0
ENDTAB
  0
TABLE
  2
VIEW
  5
6
330
0
100
AcDbSymbolTable
 70
     0
  0
ENDTAB
  0
TABLE
  2
UCS
  5
7
330
0
100
AcDbSymbolTable
 70
     0
  0
ENDTAB
  0
TABLE
  2
APPID
  5
9
330
0
100
AcDbSymbolTable
 70
     3
  0
APPID
  5
215
330
9
100
AcDbSymbolTableRecord
100
AcDbRegAppTableRecord
  2
ACAD
 70
     0
  0
APPID
  5
3D1
330
9
100
AcDbSymbolTableRecord
100
AcDbRegAppTableRecord
  2
ACAD_MLEADERVER
 70
     0
  0
APPID
  5
437
330
9
100
AcDbSymbolTableRecord
100
AcDbRegAppTableRecord
  2
ACAD_NAV_VCDISPLAY
 70
     0
  0
ENDTAB
  0
TABLE
  2
DIMSTYLE
  5
A
330
0
100
AcDbSymbolTable
 70
     1
100
AcDbDimStyleTable
 71
     0
  0
DIMSTYLE
105
218
330
A
100
AcDbSymbolTableRecord
100
AcDbDimStyleTableRecord
  2
STANDARD
 70
     0
 41
3.5
 47
0.01
 48
0.01
 71
     1
 73
     0
 74
     0
 77
     1
 78
     8
140
3.5
271
     2
272
     2
284
     8
340
11
  0
ENDTAB
  0
TABLE
  2
BLOCK_RECORD
  5
1
330
0
100
AcDbSymbolTable
 70
     0
  0
BLOCK_RECORD
  5
216
330
1
100
AcDbSymbolTableRecord
100
AcDbBlockTableRecord
  2
*Model_Space
340
37C
 70
     0
280
     1
281
     0
  0
BLOCK_RECORD
  5
217
330
1
100
AcDbSymbolTableRecord
100
AcDbBlockTableRecord
  2
*Paper_Space
340
37D
 70
     0
280
     1
281
     0
  0
ENDTAB
  0
ENDSEC
  0
SECTION
  2
BLOCKS
  0
BLOCK
  5
20
330
216
100
AcDbEntity
  8
0
100
AcDbBlockBegin
  2
*Model_Space
 70
     0
 10
0.0
 20
0.0
 30
0.0
  3
*Model_Space
  1

  0
ENDBLK
  5
21
330
216
100
AcDbEntity
  8
0
100
AcDbBlockEnd
  0
BLOCK
  5
1C
330
217
100
AcDbEntity
 67
     1
  8
0
100
AcDbBlockBegin
  2
*Paper_Space
 70
     0
 10
0.0
 20
0.0
 30
0.0
  3
*Paper_Space
  1

  0
ENDBLK
  5
1D
330
217
100
AcDbEntity
 67
     1
  8
0
100
AcDbBlockEnd
  0
ENDSEC
  0
SECTION
  2
ENTITIES
  0
LINE
  5
21D
330
216
100
AcDbEntity
  8
0
  6
Continuous
 62
     7
100
AcDbLine
 10
178.6101916701
 20
218.5960506783001
 30
0.0
 11
178.4976377368
 21
214.2171477169
 31
0.0
  0
LINE
  5
21E
330
216
100
AcDbEntity
  8
0
  6
Continuous
 62
     7
100
AcDbLine
 10
178.8257186286
 20
198.5224353207
 30
0.0
 11
178.8878679744
 21
200.9403513037
 31
0.0
  0
LINE
  5
21F
330
216
100
AcDbEntity
  8
0
  6
Continuous
 62
     7
100
AcDbLine
 10
195.6116194968
 20
197.9651638939
 30
0.0
 11
195.8760222732
 21
208.2517355623
 31
0.0
  0
LINE
  5
220
330
216
100
AcDbEntity
  8
0
  6
Continuous
 62
     7
100
AcDbLine
 10
195.6685048002
 20
197.9206832578
 30
0.0
 11
195.9335537952
 21
208.2323960144
 31
0.0
  0
LINE
  5
221
330
216
100
AcDbEntity
  8
0
  6
Continuous
 62
     7
100
AcDbLine
 10
197.4425603716
 20
197.3243243998
 30
0.0
 11
197.7076093667
 21
207.6360371564
 31
0.0
  0
LINE
  5
222
330
216
100
AcDbEntity
  8
0
  6
Continuous
 62
     7
100
AcDbLine
 10
197.725298448
 20
197.3167086064
 30
0.0
 11
197.9881194666
 21
207.5417420929
 31
0.0
  0
LINE
  5
223
330
216
100
AcDbEntity
  8
0
  6
Continuous
 62
     7
100
AcDbLine
 10
199.5420164472
 20
197.8163468873
 30
0.0
 11
199.7765421645
 21
206.9405536438
 31
0.0
  0
LINE
  5
224
330
216
100
AcDbEntity
  8
0
  6
Continuous
 62
     7
100
AcDbLine
 10
199.6022609969
 20
197.8581652385
 30
0.0
 11
199.8352049563
 21
206.9208338131
 31
0.0
  0
LINE
  5
225
330
216
100
AcDbEntity
  8
0
  6
Continuous
 62
     7
100
AcDbLine
 10
178.9050403973
 20
198.3722013834
 30
0.0
 11
193.7121183948
 21
193.3947180023
 31
0.0
  0
LINE
  5
226
330
216
100
AcDbEntity
  8
0
  6
Continuous
 62
     7
100
AcDbLine
 10
178.8257186286
 20
198.5224353207
 30
0.0
 11
193.6327966262
 21
193.5449519396
 31
0.0
  0
LINE
  5
227
330
216
100
AcDbEntity
  8
0
  6
Continuous
 62
     7
100
AcDbLine
 10
178.8878679744
 20
200.9403513037
 30
0.0
 11
193.6949459719
 21
195.9628679226
 31
0.0
  0
LINE
  5
228
330
216
100
AcDbEntity
  8
0
  6
Continuous
 62
     7
100
AcDbLine
 10
176.2558681404
 20
218.327619075
 30
0.0
 11
176.2584515664
 21
218.3255637849
 31
0.0
  0
LINE
  5
229
330
216
100
AcDbEntity
  8
0
  6
Continuous
 62
     7
100
AcDbLine
 10
179.035810285
 20
201.1700799859
 30
0.0
 11
193.8428882825999
 21
196.1925966048
 31
0.0
  0
LINE
  5
22A
330
216
100
AcDbEntity
  8
0
  6
Continuous
 62
     7
100
AcDbLine
 10
180.8525282841
 20
201.6697182668
 30
0.0
 11
195.3245292599
 21
196.80487293
 31
0.0
  0
LINE
  5
22B
330
216
100
AcDbEntity
  8
0
  6
Continuous
 62
     7
100
AcDbLine
 10
180.9113615275
 20
201.6689067157
 30
0.0
 11
195.3318984685
 21
196.8213613065
 31
0.0
  0
LINE
  5
22C
330
216
100
AcDbEntity
  8
0
  6
Continuous
 62
     7
100
AcDbLine
 10
209.2021735707
 20
208.3123821833
 30
0.0
 11
209.0896196375
 21
203.933479222
 31
0.0
  0
LINE
  5
22D
330
216
100
AcDbEntity
  8
0
  6
Continuous
 62
     7
100
AcDbLine
 10
212.6658361712
 20
204.9170191451
 30
0.0
 11
212.7783901044
 21
209.2959221065
 31
0.0
  0
LINE
  5
22E
330
216
100
AcDbEntity
  8
0
  6
Continuous
 62
     7
100
AcDbLine
 10
209.1689414061
 20
203.7832452848
 30
0.0
 11
178.5769595055
 21
214.0669137797
 31
0.0
  0
LINE
  5
22F
330
216
100
AcDbEntity
  8
0
  6
Continuous
 62
     7
100
AcDbLine
 10
209.0896196375
 20
203.933479222
 30
0.0
 11
178.4976377368
 21
214.2171477169
 31
0.0
  0
LINE
  5
230
330
216
100
AcDbEntity
  8
02___PRT_ALL_AXES
  6
Continuous
 62
     7
100
AcDbLine
 10
176.9453779326
 20
218.3566672201
 30
0.0
 11
176.9190604565
 21
218.3651549488
 31
0.0
  0
LINE
  5
231
330
216
100
AcDbEntity
  8
02___PRT_ALL_AXES
  6
Continuous
 62
     7
100
AcDbLine
 10
177.1797217443
 20
218.2778912166
 30
0.0
 11
177.2048455841999
 21
218.2694456951
 31
0.0
  0
LINE
  5
232
330
216
100
AcDbEntity
  8
02___PRT_ALL_AXES
  6
Continuous
 62
     7
100
AcDbLine
 10
176.9453779326
 20
218.3566672201
 30
0.0
 11
176.9533033557
 21
218.3540030441
 31
0.0
  0
LINE
  5
233
330
216
100
AcDbEntity
  8
02___PRT_ALL_AXES
  6
Continuous
 62
     7
100
AcDbLine
 10
177.6826036385
 20
218.1088446112
 30
0.0
 11
177.7075041752
 21
218.1004741543
 31
0.0
  0
LINE
  5
234
330
216
100
AcDbEntity
  8
02___PRT_ALL_AXES
  6
Continuous
 62
     7
100
AcDbLine
 10
177.4311626914
 20
218.1933679139
 30
0.0
 11
177.4546079668
 21
218.1854866514
 31
0.0
  0
LINE
  5
235
330
216
100
AcDbEntity
  8
02___PRT_ALL_AXES
  6
Continuous
 62
     7
100
AcDbLine
 10
178.1854855328
 20
217.9397980058
 30
0.0
 11
178.2092506728
 21
217.931809219
 31
0.0
  0
LINE
  5
236
330
216
100
AcDbEntity
  8
02___PRT_ALL_AXES
  6
Continuous
 62
     7
100
AcDbLine
 10
177.9340445856
 20
218.0243213085
 30
0.0
 11
177.9592459442
 21
218.0158497286
 31
0.0
  0
LINE
  5
237
330
216
100
AcDbEntity
  8
02___PRT_ALL_AXES
  6
Continuous
 62
     7
100
AcDbLine
 10
178.4369264799
 20
217.8552747031
 30
0.0
 11
178.4616823303
 21
217.8469528833
 31
0.0
  0
LINE
  5
238
330
216
100
AcDbEntity
  8
0
  6
Continuous
 62
     7
100
AcDbLine
 10
178.6101916701
 20
218.5960506783001
 30
0.0
 11
209.2021735707
 21
208.3123821833
 31
0.0
  0
LINE
  5
239
330
216
100
AcDbEntity
  8
0
  6
Continuous
 62
     7
100
AcDbLine
 10
195.3553091118
 20
193.3268200421
 30
0.0
 11
197.1720271108999
 21
193.8264583231
 31
0.0
  0
LINE
  5
23A
330
216
100
AcDbEntity
  8
0
  6
Continuous
 62
     7
100
AcDbLine
 10
273.2596100826
 20
214.7522537273
 30
0.0
 11
275.0763280816999
 21
215.2518920083
 31
0.0
  0
LINE
  5
23B
330
216
100
AcDbEntity
  8
0
  6
Continuous
 62
     7
100
AcDbLine
 10
270.8882513275999
 20
215.1705479661
 30
0.0
 11
198.9940659568
 21
195.3980311497
 31
0.0
  0
LINE
  5
23C
330
216
100
AcDbEntity
  8
0
  6
Continuous
 62
     7
100
AcDbLine
 10
209.1690304744
 20
203.7832272383
 30
0.0
 11
209.2277746496
 21
203.7824337337
 31
0.0
  0
LINE
  5
23D
330
216
100
AcDbEntity
  8
0
  6
Continuous
 62
     7
100
AcDbLine
 10
178.7581339807
 20
218.8257793605
 30
0.0
 11
209.3501158813
 21
208.5421108655
 31
0.0
  0
LINE
  5
23E
330
216
100
AcDbEntity
  8
0
  6
Continuous
 62
     7
100
AcDbLine
 10
212.6402350924
 20
209.4469675948
 30
0.0
 11
182.0482531917
 21
219.7306360897
 31
0.0
  0
LINE
  5
23F
330
216
100
AcDbEntity
  8
0
  6
Continuous
 62
     7
100
AcDbLine
 10
212.6990683358
 20
209.4461560437
 30
0.0
 11
182.1070864351
 21
219.7298245386
 31
0.0
  0
LINE
  5
240
330
216
100
AcDbEntity
  8
0
  6
Continuous
 62
     7
100
AcDbLine
 10
270.9749054167
 20
215.3164305462
 30
0.0
 11
199.0785176425
 21
195.5433080194
 31
0.0
  0
LINE
  5
241
330
216
100
AcDbEntity
  8
0
  6
Continuous
 62
     7
100
AcDbLine
 10
271.0272674639
 20
217.3535723586
 30
0.0
 11
199.5887798282
 21
197.7063826613
 31
0.0
  0
LINE
  5
242
330
216
100
AcDbEntity
  8
0
  6
Continuous
 62
     7
100
AcDbLine
 10
193.8428882825999
 20
196.1925966048
 30
0.0
 11
195.1481225427
 21
196.5515653618
 31
0.0
  0
LINE
  5
243
330
216
100
AcDbEntity
  8
0
  6
Continuous
 62
     7
100
AcDbLine
 10
271.7471892533
 20
217.61803029
 30
0.0
 11
273.0524235135
 21
217.976999047
 31
0.0
  0
LINE
  5
244
330
216
100
AcDbEntity
  8
0
  6
Continuous
 62
     7
100
AcDbLine
 10
277.446317418
 20
219.2417805725
 30
0.0
 11
275.6295994188
 21
218.7421422916
 31
0.0
  0
LINE
  5
245
330
216
100
AcDbEntity
  8
0
  6
Continuous
 62
     7
100
AcDbLine
 10
199.5420164472
 20
197.8163468873
 30
0.0
 11
197.725298448
 21
197.3167086064
 31
0.0
  0
LINE
  5
246
330
216
100
AcDbEntity
  8
0
  6
Continuous
 62
     7
100
AcDbLine
 10
270.8924716981
 20
217.5909168343
 30
0.0
 11
199.6055315558
 21
197.9854061037
 31
0.0
  0
LINE
  5
247
330
216
100
AcDbEntity
  8
0
  6
Continuous
 62
     7
100
AcDbLine
 10
269.3977949568
 20
218.0933609114
 30
0.0
 11
199.6291793928
 21
198.9054235646
 31
0.0
  0
LINE
  5
248
330
216
100
AcDbEntity
  8
0
  6
Continuous
 62
     7
100
AcDbLine
 10
195.5954268285
 20
197.7960509499
 30
0.0
 11
193.8557111851
 21
197.3175900474
 31
0.0
  0
LINE
  5
249
330
216
100
AcDbEntity
  8
0
  6
Continuous
 62
     7
100
AcDbLine
 10
269.3398659816
 20
218.0958137966
 30
0.0
 11
199.6296553105
 21
198.923939108
 31
0.0
  0
LINE
  5
24A
330
216
100
AcDbEntity
  8
0
  6
Continuous
 62
     7
100
AcDbLine
 10
195.5972347804
 20
197.8149328326
 30
0.0
 11
193.8256305038
 21
197.3277018393
 31
0.0
  0
LINE
  5
24B
330
216
100
AcDbEntity
  8
0
  6
Continuous
 62
     7
100
AcDbLine
 10
212.6989792676
 20
209.4461740902
 30
0.0
 11
212.6402350924
 21
209.4469675948
 31
0.0
  0
LINE
  5
24C
330
216
100
AcDbEntity
  8
0
  6
Continuous
 62
     7
100
AcDbLine
 10
209.2277746496
 20
203.7824337337
 30
0.0
 11
212.5178938606
 21
204.6872904629
 31
0.0
  0
LINE
  5
24D
330
216
100
AcDbEntity
  8
0
  6
Continuous
 62
     7
100
AcDbLine
 10
287.1320756203
 20
225.2078674189
 30
0.0
 11
290.4221948314
 21
226.1127241481
 31
0.0
  0
LINE
  5
24E
330
216
100
AcDbEntity
  8
0
  6
Continuous
 62
     7
100
AcDbLine
 10
286.2075978466
 20
226.6565216748
 30
0.0
 11
286.1036678684
 21
226.6279385949
 31
0.0
  0
LINE
  5
24F
330
216
100
AcDbEntity
  8
0
  6
Continuous
 62
     7
100
AcDbLine
 10
286.2143380614
 20
226.6674323641
 30
0.0
 11
212.7052595675
 21
206.4507836437
 31
0.0
  0
LINE
  5
250
330
216
100
AcDbEntity
  8
0
  6
Continuous
 62
     7
100
AcDbLine
 10
286.241234566
 20
226.7968802653
 30
0.0
 11
212.7084190562
 21
206.5737033321
 31
0.0
  0
LINE
  5
251
330
216
100
AcDbEntity
  8
0
  6
Continuous
 62
     7
100
AcDbLine
 10
286.3042422786
 20
228.836949875
 30
0.0
 11
212.7607811034
 21
208.6108451446
 31
0.0
  0
LINE
  5
252
330
216
100
AcDbEntity
  8
0
  6
Continuous
 62
     7
100
AcDbLine
 10
286.1694465128
 20
229.0742943507
 30
0.0
 11
212.767884831
 21
208.8872151701
 31
0.0
  0
LINE
  5
253
330
216
100
AcDbEntity
  8
0
  6
Continuous
 62
     7
100
AcDbLine
 10
290.5445360632
 20
230.87240128
 30
0.0
 11
287.2544168521
 21
229.9675445507
 31
0.0
  0
LINE
  5
254
330
216
100
AcDbEntity
  8
0
  6
Continuous
 62
     7
100
AcDbLine
 10
212.6402350924
 20
209.4469675948
 30
0.0
 11
209.3501158813
 21
208.5421108655
 31
0.0
  0
LINE
  5
255
330
216
100
AcDbEntity
  8
0
  6
Continuous
 62
     7
100
AcDbLine
 10
284.6890808859
 20
229.5806743059
 30
0.0
 11
212.1498883387
 21
209.6307660193
 31
0.0
  0
LINE
  5
256
330
216
100
AcDbEntity
  8
0
  6
Continuous
 62
     7
100
AcDbLine
 10
284.6590002046
 20
229.5907860978
 30
0.0
 11
212.1198076574
 21
209.6408778112
 31
0.0
  0
LINE
  5
257
330
216
100
AcDbEntity
  8
0
  6
Continuous
 62
     7
100
AcDbLine
 10
179.035810285
 20
201.1700799859
 30
0.0
 11
180.8525282841
 21
201.6697182668
 31
0.0
  0
LINE
  5
258
330
216
100
AcDbEntity
  8
0
  6
Continuous
 62
     7
100
AcDbLine
 10
256.9401112558
 20
222.5955136711
 30
0.0
 11
258.7568292549
 21
223.095151952
 31
0.0
  0
LINE
  5
259
330
216
100
AcDbEntity
  8
0
  6
Continuous
 62
     7
100
AcDbLine
 10
279.083437678
 20
229.0513485846
 30
0.0
 11
278.9795076997001
 21
229.0227655047
 31
0.0
  0
LINE
  5
25A
330
216
100
AcDbEntity
  8
0
  6
Continuous
 62
     7
100
AcDbLine
 10
279.0901778927
 20
229.0622592739
 30
0.0
 11
210.4786749321
 21
210.1925538994
 31
0.0
  0
LINE
  5
25B
330
216
100
AcDbEntity
  8
0
  6
Continuous
 62
     7
100
AcDbLine
 10
279.1170743974
 20
229.1917071751
 30
0.0
 11
210.2789774187
 21
210.2596833529
 31
0.0
  0
LINE
  5
25C
330
216
100
AcDbEntity
  8
0
  6
Continuous
 62
     7
100
AcDbLine
 10
279.1800821099
 20
231.2317767848
 30
0.0
 11
206.9694005736
 21
211.3722164096
 31
0.0
  0
LINE
  5
25D
330
216
100
AcDbEntity
  8
0
  6
Continuous
 62
     7
100
AcDbLine
 10
279.0452863441
 20
231.4691212604
 30
0.0
 11
206.5204049113
 21
211.523148852
 31
0.0
  0
LINE
  5
25E
330
216
100
AcDbEntity
  8
0
  6
Continuous
 62
     7
100
AcDbLine
 10
277.5649207173
 20
231.9755012157
 30
0.0
 11
205.0257281701
 21
212.0255929291
 31
0.0
  0
LINE
  5
25F
330
216
100
AcDbEntity
  8
0
  6
Continuous
 62
     7
100
AcDbLine
 10
277.534840036
 20
231.9856130076
 30
0.0
 11
204.9956474888
 21
212.035704721
 31
0.0
  0
LINE
  5
260
330
216
100
AcDbEntity
  8
0
  6
Continuous
 62
     7
100
AcDbLine
 10
270.7020727736999
 20
231.8687920078
 30
0.0
 11
270.5981427954
 21
231.8402089279
 31
0.0
  0
LINE
  5
261
330
216
100
AcDbEntity
  8
0
  6
Continuous
 62
     7
100
AcDbLine
 10
270.7088129884
 20
231.8797026971
 30
0.0
 11
202.0973100278
 21
213.0099973226
 31
0.0
  0
LINE
  5
262
330
216
100
AcDbEntity
  8
0
  6
Continuous
 62
     7
100
AcDbLine
 10
270.7357094931
 20
232.0091505984
 30
0.0
 11
201.8976125144
 21
213.0771267762
 31
0.0
  0
LINE
  5
263
330
216
100
AcDbEntity
  8
0
  6
Continuous
 62
     7
100
AcDbLine
 10
182.0482531917
 20
219.7306360897
 30
0.0
 11
182.1069973668999
 21
219.7298425851
 31
0.0
  0
LINE
  5
264
330
216
100
AcDbEntity
  8
0
  6
Continuous
 62
     7
100
AcDbLine
 10
269.3399492906
 20
218.0958268158
 30
0.0
 11
269.3977949568
 21
218.0933609114
 31
0.0
  0
LINE
  5
265
330
216
100
AcDbEntity
  8
0
  6
Continuous
 62
     7
100
AcDbLine
 10
270.7987172056
 20
234.049220208
 30
0.0
 11
198.5880356693
 21
214.1896598328
 31
0.0
  0
LINE
  5
266
330
216
100
AcDbEntity
  8
0
  6
Continuous
 62
     7
100
AcDbLine
 10
270.6639214398
 20
234.2865646837
 30
0.0
 11
198.139040007
 21
214.3405922752
 31
0.0
  0
LINE
  5
267
330
216
100
AcDbEntity
  8
0
  6
Continuous
 62
     7
100
AcDbLine
 10
269.183555813
 20
234.792944639
 30
0.0
 11
196.6443632658
 21
214.8430363524
 31
0.0
  0
LINE
  5
268
330
216
100
AcDbEntity
  8
0
  6
Continuous
 62
     7
100
AcDbLine
 10
269.1534751317
 20
234.8030564309
 30
0.0
 11
196.6142825845
 21
214.8531481443
 31
0.0
  0
LINE
  5
269
330
216
100
AcDbEntity
  8
0
  6
Continuous
 62
     7
100
AcDbLine
 10
287.0733314451
 20
225.2086609235
 30
0.0
 11
287.1320756203
 21
225.2078674189
 31
0.0
  0
LINE
  5
26A
330
216
100
AcDbEntity
  8
0
  6
Continuous
 62
     7
100
AcDbLine
 10
262.3207078694
 20
234.6862354311
 30
0.0
 11
262.2167778911
 21
234.6576523512
 31
0.0
  0
LINE
  5
26B
330
216
100
AcDbEntity
  8
0
  6
Continuous
 62
     7
100
AcDbLine
 10
262.3274480842
 20
234.6971461204
 30
0.0
 11
193.7159451236
 21
215.8274407459
 31
0.0
  0
LINE
  5
26C
330
216
100
AcDbEntity
  8
0
  6
Continuous
 62
     7
100
AcDbLine
 10
262.3543445888
 20
234.8265940217
 30
0.0
 11
193.5162476101
 21
215.8945701994
 31
0.0
  0
LINE
  5
26D
330
216
100
AcDbEntity
  8
0
  6
Continuous
 62
     7
100
AcDbLine
 10
262.4173523013
 20
236.8666636313
 30
0.0
 11
190.206670765
 21
217.0071032561
 31
0.0
  0
LINE
  5
26E
330
216
100
AcDbEntity
  8
0
  6
Continuous
 62
     7
100
AcDbLine
 10
262.2825565355
 20
237.104008107
 30
0.0
 11
189.7576751028
 21
217.1580356985
 31
0.0
  0
LINE
  5
26F
330
216
100
AcDbEntity
  8
0
  6
Continuous
 62
     7
100
AcDbLine
 10
260.8021909087
 20
237.6103880622
 30
0.0
 11
188.2629983615
 21
217.6604797756
 31
0.0
  0
LINE
  5
270
330
216
100
AcDbEntity
  8
0
  6
Continuous
 62
     7
100
AcDbLine
 10
260.7721102274
 20
237.6204998541
 30
0.0
 11
188.2329176802
 21
217.6705915675
 31
0.0
  0
LINE
  5
271
330
216
100
AcDbEntity
  8
0
  6
Continuous
 62
     7
100
AcDbLine
 10
286.1615135346
 20
226.6254726905
 30
0.0
 11
286.1036678684
 21
226.6279385949
 31
0.0
  0
LINE
  5
272
330
216
100
AcDbEntity
  8
0
  6
Continuous
 62
     7
100
AcDbLine
 10
258.8009663439
 20
219.1281390195
 30
0.0
 11
265.2324126422
 21
216.9661718122
 31
0.0
  0
LINE
  5
273
330
216
100
AcDbEntity
  8
0
  6
Continuous
 62
     7
100
AcDbLine
 10
270.7154400855
 20
215.1230209906
 30
0.0
 11
271.6164193656
 21
214.8201516875
 31
0.0
  0
LINE
  5
274
330
216
100
AcDbEntity
  8
0
  6
Continuous
 62
     7
100
AcDbLine
 10
259.0031487565
 20
219.1837437271
 30
0.0
 11
265.4345950548
 21
217.0217765198
 31
0.0
  0
LINE
  5
275
330
216
100
AcDbEntity
  8
0
  6
Continuous
 62
     7
100
AcDbLine
 10
270.9075792953
 20
215.1820017779
 30
0.0
 11
271.537097597
 21
214.9703856248
 31
0.0
  0
LINE
  5
276
330
216
100
AcDbEntity
  8
0
  6
Continuous
 62
     7
100
AcDbLine
 10
269.3977949568
 20
218.0933609114
 30
0.0
 11
270.8924716981
 21
217.5909168343
 31
0.0
  0
LINE
  5
277
330
216
100
AcDbEntity
  8
0
  6
Continuous
 62
     7
100
AcDbLine
 10
256.7921689452
 20
222.3657849889
 30
0.0
 11
257.5104599984
 21
222.124327371
 31
0.0
  0
LINE
  5
278
330
216
100
AcDbEntity
  8
0
  6
Continuous
 62
     7
100
AcDbLine
 10
262.9934874418
 20
220.2811765494
 30
0.0
 11
271.5992469427
 21
217.3883016078
 31
0.0
  0
LINE
  5
279
330
216
100
AcDbEntity
  8
0
  6
Continuous
 62
     7
100
AcDbLine
 10
256.9401112558
 20
222.5955136711
 30
0.0
 11
257.9677085562
 21
222.2500810012
 31
0.0
  0
LINE
  5
27A
330
216
100
AcDbEntity
  8
0
  6
Continuous
 62
     7
100
AcDbLine
 10
263.4507359996
 20
220.4069301796
 30
0.0
 11
271.7471892533
 21
217.61803029
 31
0.0
  0
LINE
  5
27B
330
216
100
AcDbEntity
  8
0
  6
Continuous
 62
     7
100
AcDbLine
 10
259.9525541625
 20
241.1560697749
 30
0.0
 11
256.6624349515
 21
240.2512130457
 31
0.0
  0
LINE
  5
27C
330
216
100
AcDbEntity
  8
0
  6
Continuous
 62
     7
100
AcDbLine
 10
182.0482531917
 20
219.7306360897
 30
0.0
 11
178.7581339807
 21
218.8257793605
 31
0.0
  0
LINE
  5
27D
330
216
100
AcDbEntity
  8
0
  6
Continuous
 62
     7
100
AcDbLine
 10
290.6032802384
 20
230.8716077754
 30
0.0
 11
290.5445360632
 21
230.87240128
 31
0.0
  0
LINE
  5
27E
330
216
100
AcDbEntity
  8
0
  6
Continuous
 62
     7
100
AcDbLine
 10
279.037353366
 20
229.0202996003
 30
0.0
 11
278.9795076997001
 21
229.0227655047
 31
0.0
  0
LINE
  5
27F
330
216
100
AcDbEntity
  8
0
  6
Continuous
 62
     7
100
AcDbLine
 10
284.5863356534
 20
229.5982334545
 30
0.0
 11
284.6441813197
 21
229.5957675502
 31
0.0
  0
LINE
  5
280
330
216
100
AcDbEntity
  8
0
  6
Continuous
 62
     7
100
AcDbLine
 10
270.6559884617
 20
231.8377430236
 30
0.0
 11
270.5981427954
 21
231.8402089279
 31
0.0
  0
LINE
  5
281
330
216
100
AcDbEntity
  8
0
  6
Continuous
 62
     7
100
AcDbLine
 10
277.4621754848
 20
231.9930603643
 30
0.0
 11
277.520021151
 21
231.9905944599
 31
0.0
  0
LINE
  5
282
330
216
100
AcDbEntity
  8
0
  6
Continuous
 62
     7
100
AcDbLine
 10
258.7568292549
 20
223.095151952
 30
0.0
 11
259.7844265554
 21
222.7497192821
 31
0.0
  0
LINE
  5
283
330
216
100
AcDbEntity
  8
0
  6
Continuous
 62
     7
100
AcDbLine
 10
265.2674539987
 20
220.9065684605
 30
0.0
 11
273.2288302307
 21
218.2303066152
 31
0.0
  0
LINE
  5
284
330
216
100
AcDbEntity
  8
0
  6
Continuous
 62
     7
100
AcDbLine
 10
258.8156624983
 20
223.0943404009
 30
0.0
 11
259.8154577329
 21
222.7582535534
 31
0.0
  0
LINE
  5
285
330
216
100
AcDbEntity
  8
0
  6
Continuous
 62
     7
100
AcDbLine
 10
265.2984851763
 20
220.9151027318
 30
0.0
 11
273.2361994393
 21
218.2467949917
 31
0.0
  0
LINE
  5
286
330
216
100
AcDbEntity
  8
0
  6
Continuous
 62
     7
100
AcDbLine
 10
262.2746235574
 20
234.6551864468
 30
0.0
 11
262.2167778911
 21
234.6576523512
 31
0.0
  0
LINE
  5
287
330
216
100
AcDbEntity
  8
0
  6
Continuous
 62
     7
100
AcDbLine
 10
269.0808105805
 20
234.8105037876
 30
0.0
 11
269.1386562468
 21
234.8080378832
 31
0.0
  0
LINE
  5
288
330
216
100
AcDbEntity
  8
0
  6
Continuous
 62
     7
100
AcDbLine
 10
256.5144926409
 20
240.0214843635
 30
0.0
 11
256.4220273669
 21
236.4241292983
 31
0.0
  0
LINE
  5
289
330
216
100
AcDbEntity
  8
0
  6
Continuous
 62
     7
100
AcDbLine
 10
256.780804595
 20
221.9236557359
 30
0.0
 11
256.7921689452
 21
222.3657849889
 31
0.0
  0
LINE
  5
28A
330
216
100
AcDbEntity
  8
0
  6
Continuous
 62
     7
100
AcDbLine
 10
259.9525541625
 20
241.1560697749
 30
0.0
 11
260.0112983377
 21
241.1552762703
 31
0.0
  0
LINE
  5
28B
330
216
100
AcDbEntity
  8
0
  6
Continuous
 62
     7
100
AcDbLine
 10
260.6994456762
 20
237.6279472108
 30
0.0
 11
260.7572913425
 21
237.6254813065
 31
0.0
  0
LINE
  5
28C
330
216
100
AcDbEntity
  8
0
  6
Continuous
 62
     7
100
AcDbLine
 10
287.0732423769
 20
225.20867897
 30
0.0
 11
284.2999570936001
 21
226.1409345718
 31
0.0
  0
LINE
  5
28D
330
216
100
AcDbEntity
  8
0
  6
Continuous
 62
     7
100
AcDbLine
 10
278.8169296502
 20
227.9840853934
 30
0.0
 11
277.1757969249
 21
228.5357614815
 31
0.0
  0
LINE
  5
28E
330
216
100
AcDbEntity
  8
0
  6
Continuous
 62
     7
100
AcDbLine
 10
271.6927694816
 20
230.3789123032
 30
0.0
 11
268.7944320207
 21
231.3532049048
 31
0.0
  0
LINE
  5
28F
330
216
100
AcDbEntity
  8
0
  6
Continuous
 62
     7
100
AcDbLine
 10
263.3114045773
 20
233.1963557264
 30
0.0
 11
260.4130671164
 21
234.1706483281
 31
0.0
  0
LINE
  5
290
330
216
100
AcDbEntity
  8
0
  6
Continuous
 62
     7
100
AcDbLine
 10
286.9939206083
 20
225.3589129072
 30
0.0
 11
284.5021395062
 21
226.1965392793
 31
0.0
  0
LINE
  5
291
330
216
100
AcDbEntity
  8
0
  6
Continuous
 62
     7
100
AcDbLine
 10
279.0191120629
 20
228.039690101
 30
0.0
 11
277.3779793376
 21
228.5913661891
 31
0.0
  0
LINE
  5
292
330
216
100
AcDbEntity
  8
0
  6
Continuous
 62
     7
100
AcDbLine
 10
271.8949518942
 20
230.4345170108
 30
0.0
 11
268.9966144333
 21
231.4088096124
 31
0.0
  0
LINE
  5
293
330
216
100
AcDbEntity
  8
0
  6
Continuous
 62
     7
100
AcDbLine
 10
263.51358699
 20
233.251960434
 30
0.0
 11
260.615249529
 21
234.2262530356
 31
0.0
  0
LINE
  5
294
330
216
100
AcDbEntity
  8
0
  6
Continuous
 62
     7
100
AcDbLine
 10
262.4147017325
 20
236.8763012756
 30
0.0
 11
262.3613609555
 21
234.8010820461
 31
0.0
  0
LINE
  5
295
330
216
100
AcDbEntity
  8
02___PRT_ALL_AXES
  6
Continuous
 62
     7
100
AcDbLine
 10
254.8496789034
 20
239.7821009053
 30
0.0
 11
254.8233614273
 21
239.790588634
 31
0.0
  0
LINE
  5
296
330
216
100
AcDbEntity
  8
0
  6
Continuous
 62
     7
100
AcDbLine
 10
260.7572913425
 20
237.6254813065
 30
0.0
 11
262.2799059667
 21
237.1136457513
 31
0.0
  0
LINE
  5
297
330
216
100
AcDbEntity
  8
0
  6
Continuous
 62
     7
100
AcDbLine
 10
269.1386562468
 20
234.8080378832
 30
0.0
 11
270.661270871
 21
234.296202328
 31
0.0
  0
LINE
  5
298
330
216
100
AcDbEntity
  8
0
  6
Continuous
 62
     7
100
AcDbLine
 10
277.520021151
 20
231.9905944599
 30
0.0
 11
279.0426357753
 21
231.4787589047
 31
0.0
  0
LINE
  5
299
330
216
100
AcDbEntity
  8
0
  6
Continuous
 62
     7
100
AcDbLine
 10
284.6441813197
 20
229.5957675502
 30
0.0
 11
286.166795944
 21
229.0839319949
 31
0.0
  0
LINE
  5
29A
330
216
100
AcDbEntity
  8
02___PRT_ALL_AXES
  6
Continuous
 62
     7
100
AcDbLine
 10
255.084022715
 20
239.7033249018
 30
0.0
 11
255.1091465549
 21
239.6948793803
 31
0.0
  0
LINE
  5
29B
330
216
100
AcDbEntity
  8
02___PRT_ALL_AXES
  6
Continuous
 62
     7
100
AcDbLine
 10
254.8496789034
 20
239.7821009053
 30
0.0
 11
254.8576043264
 21
239.7794367293
 31
0.0
  0
LINE
  5
29C
330
216
100
AcDbEntity
  8
02___PRT_ALL_AXES
  6
Continuous
 62
     7
100
AcDbLine
 10
255.5869046093
 20
239.5342782964
 30
0.0
 11
255.611805146
 21
239.5259078395
 31
0.0
  0
LINE
  5
29D
330
216
100
AcDbEntity
  8
02___PRT_ALL_AXES
  6
Continuous
 62
     7
100
AcDbLine
 10
255.3354636622
 20
239.6188015991
 30
0.0
 11
255.3589089376
 21
239.6109203366
 31
0.0
  0
LINE
  5
29E
330
216
100
AcDbEntity
  8
02___PRT_ALL_AXES
  6
Continuous
 62
     7
100
AcDbLine
 10
256.0897865036
 20
239.365231691
 30
0.0
 11
256.1135516436
 21
239.3572429042
 31
0.0
  0
LINE
  5
29F
330
216
100
AcDbEntity
  8
02___PRT_ALL_AXES
  6
Continuous
 62
     7
100
AcDbLine
 10
255.8383455564
 20
239.4497549937
 30
0.0
 11
255.863546915
 21
239.4412834138
 31
0.0
  0
LINE
  5
2A0
330
216
100
AcDbEntity
  8
02___PRT_ALL_AXES
  6
Continuous
 62
     7
100
AcDbLine
 10
256.3412274507
 20
239.2807083883
 30
0.0
 11
256.3659833011
 21
239.2723865685
 31
0.0
  0
LINE
  5
2A1
330
216
100
AcDbEntity
  8
0
  6
Continuous
 62
     7
100
AcDbLine
 10
256.5144926409
 20
240.0214843635
 30
0.0
 11
287.1064745415
 21
229.7378158685
 31
0.0
  0
LINE
  5
2A2
330
216
100
AcDbEntity
  8
0
  6
Continuous
 62
     7
100
AcDbLine
 10
256.6624349515
 20
240.2512130457
 30
0.0
 11
287.2544168521
 21
229.9675445507
 31
0.0
  0
LINE
  5
2A3
330
216
100
AcDbEntity
  8
0
  6
Continuous
 62
     7
100
AcDbLine
 10
290.5445360632
 20
230.87240128
 30
0.0
 11
259.9525541625
 21
241.1560697749
 31
0.0
  0
LINE
  5
2A4
330
216
100
AcDbEntity
  8
0
  6
Continuous
 62
     7
100
AcDbLine
 10
290.6033693066
 20
230.8715897289
 30
0.0
 11
260.0113874059
 21
241.1552582238
 31
0.0
  0
LINE
  5
2A5
330
216
100
AcDbEntity
  8
0
  6
Continuous
 62
     7
100
AcDbLine
 10
254.1601691112
 20
239.7530527602
 30
0.0
 11
254.1627525372
 21
239.7509974701
 31
0.0
  0
LINE
  5
2A6
330
216
100
AcDbEntity
  8
0
  6
Continuous
 62
     7
100
AcDbLine
 10
270.7960666368
 20
234.0588578523
 30
0.0
 11
270.7427258598
 21
231.9836386228
 31
0.0
  0
LINE
  5
2A7
330
216
100
AcDbEntity
  8
0
  6
Continuous
 62
     7
100
AcDbLine
 10
271.0272674639
 20
217.3535723586
 30
0.0
 11
270.9749054167
 21
215.3164305462
 31
0.0
  0
LINE
  5
2A8
330
216
100
AcDbEntity
  8
0
  6
Continuous
 62
     7
100
AcDbLine
 10
273.5159204676
 20
219.3905975791
 30
0.0
 11
273.6138882011
 21
223.2020254543
 31
0.0
  0
LINE
  5
2A9
330
216
100
AcDbEntity
  8
0
  6
Continuous
 62
     7
100
AcDbLine
 10
273.7006372193
 20
226.576989985
 30
0.0
 11
273.726602191
 21
227.5871554082
 31
0.0
  0
LINE
  5
2AA
330
216
100
AcDbEntity
  8
0
  6
Continuous
 62
     7
100
AcDbLine
 10
273.572805771
 20
219.346116943
 30
0.0
 11
273.6723299508
 21
223.218098249
 31
0.0
  0
LINE
  5
2AB
330
216
100
AcDbEntity
  8
0
  6
Continuous
 62
     7
100
AcDbLine
 10
273.7590789689
 20
226.5930627796
 30
0.0
 11
273.7850439406
 21
227.6032282028
 31
0.0
  0
LINE
  5
2AC
330
216
100
AcDbEntity
  8
0
  6
Continuous
 62
     7
100
AcDbLine
 10
275.3468613424
 20
218.749758085
 30
0.0
 11
275.4744535157
 21
223.7137227325
 31
0.0
  0
LINE
  5
2AD
330
216
100
AcDbEntity
  8
0
  6
Continuous
 62
     7
100
AcDbLine
 10
275.5612025339
 20
227.0886872631
 30
0.0
 11
275.5871675056
 21
228.0988526864
 31
0.0
  0
LINE
  5
2AE
330
216
100
AcDbEntity
  8
0
  6
Continuous
 62
     7
100
AcDbLine
 10
275.6295994188
 20
218.7421422916
 30
0.0
 11
275.7594016704
 21
223.7920898793
 31
0.0
  0
LINE
  5
2AF
330
216
100
AcDbEntity
  8
0
  6
Continuous
 62
     7
100
AcDbLine
 10
275.8461506885
 20
227.16705441
 30
0.0
 11
275.8721156603
 21
228.1772198332
 31
0.0
  0
LINE
  5
2B0
330
216
100
AcDbEntity
  8
0
  6
Continuous
 62
     7
100
AcDbLine
 10
277.446317418
 20
219.2417805725
 30
0.0
 11
277.5761196695
 21
224.2917281602
 31
0.0
  0
LINE
  5
2B1
330
216
100
AcDbEntity
  8
0
  6
Continuous
 62
     7
100
AcDbLine
 10
277.6628686877
 20
227.6666926909
 30
0.0
 11
277.6808431353
 21
228.365987329
 31
0.0
  0
LINE
  5
2B2
330
216
100
AcDbEntity
  8
0
  6
Continuous
 62
     7
100
AcDbLine
 10
277.5065619677
 20
219.2835989237
 30
0.0
 11
277.6357105872
 21
224.3081170019
 31
0.0
  0
LINE
  5
2B3
330
216
100
AcDbEntity
  8
0
  6
Continuous
 62
     7
100
AcDbLine
 10
277.7224596053
 20
227.6830815326
 30
0.0
 11
277.7395059271
 21
228.3462674983
 31
0.0
  0
LINE
  5
2B4
330
216
100
AcDbEntity
  8
0
  6
Continuous
 62
     7
100
AcDbLine
 10
279.1774315411
 20
231.2414144291
 30
0.0
 11
279.1240907641
 21
229.1661951996
 31
0.0
  0
LINE
  5
2B5
330
216
100
AcDbEntity
  8
0
  6
Continuous
 62
     7
100
AcDbLine
 10
286.3015917098
 20
228.8465875193
 30
0.0
 11
286.2482509327
 21
226.7713682898
 31
0.0
  0
LINE
  5
2B6
330
216
100
AcDbEntity
  8
0
  6
Continuous
 62
     7
100
AcDbLine
 10
287.1064745415
 20
229.7378158685
 30
0.0
 11
286.9939206083
 21
225.3589129072
 31
0.0
  0
LINE
  5
2B7
330
216
100
AcDbEntity
  8
0
  6
Continuous
 62
     7
100
AcDbLine
 10
290.570137142
 20
226.3424528303
 30
0.0
 11
290.6826910752
 21
230.7213557917
 31
0.0
  0
ARC
  5
2B8
330
216
100
AcDbEntity
  8
0
  6
Continuous
 62
     7
100
AcDbCircle
 10
270.5710661731
 20
219.4618471774
 30
0.0
 40
6.937785983799999
100
AcDbArc
 50
358.133612952
 51
358.5277728972
  0
ARC
  5
2B9
330
216
100
AcDbEntity
  8
0
  6
Continuous
 62
     7
100
AcDbCircle
 10
192.6667652023
 20
198.0364134922
 30
0.0
 40
6.937785983799999
100
AcDbArc
 50
358.133612952
 51
358.5277728972
  0
ARC
  5
2BA
330
216
100
AcDbEntity
  8
0
  6
Continuous
 62
     7
100
AcDbCircle
 10
274.329143265
 20
217.8069414592
 30
0.0
 40
2.6667636187
100
AcDbArc
 50
301.4877307462
 51
305.3202500870999
  0
ARC
  5
2BB
330
216
100
AcDbEntity
  8
0
  6
Continuous
 62
     7
100
AcDbCircle
 10
196.4248422942
 20
196.381507774
 30
0.0
 40
2.6667636187
100
AcDbArc
 50
301.4877307462
 51
305.320250087
  0
ARC
  5
2BC
330
216
100
AcDbEntity
  8
0
  6
Continuous
 62
     7
100
AcDbCircle
 10
274.3819819682
 20
217.7197929165
 30
0.0
 40
2.564849064799999
100
AcDbArc
 50
294.3067885595
 51
301.4980236843
  0
ARC
  5
2BD
330
216
100
AcDbEntity
  8
0
  6
Continuous
 62
     7
100
AcDbCircle
 10
196.4776809974
 20
196.2943592313
 30
0.0
 40
2.564849064799999
100
AcDbArc
 50
294.3067885595
 51
301.4980236843
  0
ARC
  5
2BE
330
216
100
AcDbEntity
  8
0
  6
Continuous
 62
     7
100
AcDbCircle
 10
274.4182167428
 20
217.6417804919
 30
0.0
 40
2.478837214199999
100
AcDbArc
 50
285.3961332883
 51
294.285730145
  0
ARC
  5
2BF
330
216
100
AcDbEntity
  8
0
  6
Continuous
 62
     7
100
AcDbCircle
 10
196.513915772
 20
196.2163468067
 30
0.0
 40
2.478837214199999
100
AcDbArc
 50
285.3961332883
 51
294.285730145
  0
ARC
  5
2C0
330
216
100
AcDbEntity
  8
02___PRT_ALL_AXES
  6
Continuous
 62
     7
100
AcDbCircle
 10
254.4975309624
 20
238.7553671344
 30
0.0
 40
1.084780425099999
100
AcDbArc
 50
85.17729887239999
 51
85.3747951687
  0
ARC
  5
2C1
330
216
100
AcDbEntity
  8
02___PRT_ALL_AXES
  6
Continuous
 62
     7
100
AcDbCircle
 10
176.5932299926
 20
217.3299334616
 30
0.0
 40
1.0847804127
100
AcDbArc
 50
85.1772988717
 51
85.3747951703
  0
ARC
  5
2C2
330
216
100
AcDbEntity
  8
02___PRT_ALL_AXES
  6
Continuous
 62
     7
100
AcDbCircle
 10
254.4979676727
 20
238.7618177128
 30
0.0
 40
1.078315641099999
100
AcDbArc
 50
85.37028565459999
 51
89.38303585239999
  0
ARC
  5
2C3
330
216
100
AcDbEntity
  8
02___PRT_ALL_AXES
  6
Continuous
 62
     7
100
AcDbCircle
 10
176.5936667019
 20
217.3363840276
 30
0.0
 40
1.078315641099999
100
AcDbArc
 50
85.37028565449999
 51
89.3830358525
  0
ARC
  5
2C4
330
216
100
AcDbEntity
  8
02___PRT_ALL_AXES
  6
Continuous
 62
     7
100
AcDbCircle
 10
254.9350137811
 20
240.1697012081
 30
0.0
 40
0.9869139846999999
100
AcDbArc
 50
222.3525011649
 51
226.6577709476
  0
ARC
  5
2C5
330
216
100
AcDbEntity
  8
02___PRT_ALL_AXES
  6
Continuous
 62
     7
100
AcDbCircle
 10
177.0307128103
 20
218.744267523
 30
0.0
 40
0.9869139846999999
100
AcDbArc
 50
222.352501165
 51
226.6577709475
  0
ARC
  5
2C6
330
216
100
AcDbEntity
  8
0
  6
Continuous
 62
     7
100
AcDbCircle
 10
256.9570091007
 20
238.7590129211
 30
0.0
 40
0.4982563579
100
AcDbArc
 50
192.51556369
 51
195.6099065667
  0
ARC
  5
2C7
330
216
100
AcDbEntity
  8
0
  6
Continuous
 62
     7
100
AcDbCircle
 10
179.05270813
 20
217.3335792359
 30
0.0
 40
0.498256358
100
AcDbArc
 50
192.5155636903
 51
195.6099065663
  0
ARC
  5
2C8
330
216
100
AcDbEntity
  8
0
  6
Continuous
 62
     7
100
AcDbCircle
 10
254.7024571901
 20
239.5266367673
 30
0.0
 40
0.4506530466
100
AcDbArc
 50
189.477285934
 51
192.3380162367
  0
ARC
  5
2C9
330
216
100
AcDbEntity
  8
0
  6
Continuous
 62
     7
100
AcDbCircle
 10
176.7981562194
 20
218.1012030821
 30
0.0
 40
0.4506530467000001
100
AcDbArc
 50
189.4772859343
 51
192.3380162365
  0
ARC
  5
2CA
330
216
100
AcDbEntity
  8
0
  6
Continuous
 62
     7
100
AcDbCircle
 10
176.3774768124
 20
218.2587833404
 30
0.0
 40
0.1397391408
100
AcDbArc
 50
150.4882740409
 51
150.7837367405
  0
ARC
  5
2CB
330
216
100
AcDbEntity
  8
0
  6
Continuous
 62
     7
100
AcDbCircle
 10
254.2817777816
 20
239.6842170264
 30
0.0
 40
0.139739139
100
AcDbArc
 50
150.488274038
 51
150.7837367415
  0
SPLINE
  5
2CC
330
216
100
AcDbEntity
  8
02___PRT_ALL_AXES
  6
Continuous
 62
     7
100
AcDbSpline
210
0.0
220
0.0
230
1.0
 70
  1064
 71
     3
 72
     9
 73
     5
 74
     3
 42
0.000000001
 43
0.0000000001
 44
0.0000000001
 12
0.392097314428367
 22
-0.9199237446756455
 32
0.0
 13
0.5820962661829722
 23
-0.8131198785516453
 33
0.0
 40
0.0
 40
0.0
 40
0.0
 40
0.0
 40
0.0380269349275331
 40
0.1654700950285586
 40
0.1654700950285586
 40
0.1654700950285586
 40
0.1654700950285586
 10
254.055641489
 20
239.732524556
 30
0.0
 10
254.0606115753537
 20
239.7208639292077
 30
0.0
 10
254.0837935553698
 20
239.6707937472515
 30
0.0
 10
254.1127688082516
 20
239.6234701833545
 30
0.0
 10
254.1374968708
 20
239.5889279944
 30
0.0
 11
254.055641489
 21
239.732524556
 31
0.0
 11
254.0715725098
 21
239.6979955775
 31
0.0
 11
254.1374968708
 21
239.5889279944
 31
0.0
  0
SPLINE
  5
2CD
330
216
100
AcDbEntity
  8
0
  6
Continuous
 62
     7
100
AcDbSpline
210
0.0
220
0.0
230
1.0
 70
  1064
 71
     3
 72
    11
 73
     7
 74
     5
 42
0.000000001
 43
0.0000000001
 44
0.0000000001
 12
-0.989994435525916
 22
0.1411064053391015
 32
0.0
 13
0.0501920406248691
 23
0.9987395852062295
 33
0.0
 40
0.0
 40
0.0
 40
0.0
 40
0.0
 40
0.1223160483326644
 40
0.2517794652150744
 40
0.39509826503026
 40
0.5505173441398829
 40
0.5505173441398829
 40
0.5505173441398829
 40
0.5505173441398829
 10
256.4740442085
 20
238.4615429601
 30
0.0
 10
256.4336801394251
 20
238.4672961527318
 30
0.0
 10
256.3522093829494
 20
238.4996666611582
 30
0.0
 10
256.2623424844153
 20
238.6010700907964
 30
0.0
 10
256.2114096860207
 20
238.7369911389809
 30
0.0
 10
256.2042988942891
 20
238.837673169899
 30
0.0
 10
256.2068991612
 20
238.8894142321
 30
0.0
 11
256.4740442085
 21
238.4615429601
 31
0.0
 11
256.3602340745
 21
238.5063589068
 31
0.0
 11
256.2721611369
 21
238.6012479682
 31
0.0
 11
256.2193907086999
 21
238.7344979599
 31
0.0
 11
256.2068991612
 21
238.8894142321
 31
0.0
  0
SPLINE
  5
2CE
330
216
100
AcDbEntity
  8
0
  6
Continuous
 62
     7
100
AcDbSpline
210
0.0
220
0.0
230
1.0
 70
  1064
 71
     3
 72
     9
 73
     5
 74
     3
 42
0.000000001
 43
0.0000000001
 44
0.0000000001
 12
0.3391305582675296
 22
0.9407393180095928
 32
0.0
 13
0.6935169713704541
 23
0.7204402892822922
 33
0.0
 40
0.0
 40
0.0
 40
0.0
 40
0.0
 40
0.0588925975317028
 40
0.2214000823064667
 40
0.2214000823064667
 40
0.2214000823064667
 40
0.2214000823064667
 10
255.490306532
 20
239.3307660083
 30
0.0
 10
255.4969639584929
 20
239.349233535646
 30
0.0
 10
255.5251686456067
 20
239.4173925081306
 30
0.0
 10
255.5661646340113
 20
239.4808725180528
 30
0.0
 10
255.6037318669
 20
239.5198981645
 30
0.0
 11
255.490306532
 21
239.3307660083
 31
0.0
 11
255.5128739635
 21
239.3851631505
 31
0.0
 11
255.6037318669
 21
239.5198981645
 31
0.0
  0
SPLINE
  5
2CF
330
216
100
AcDbEntity
  8
0
  6
Continuous
 62
     7
100
AcDbSpline
210
0.0
220
0.0
230
1.0
 70
  1064
 71
     3
 72
    12
 73
     8
 74
     6
 42
0.000000001
 43
0.0000000001
 44
0.0000000001
 12
0.6935169714171741
 22
0.7204402892373181
 32
0.0
 13
0.3961408805944963
 23
-0.9181897422220622
 33
0.0
 40
0.0
 40
0.0
 40
0.0
 40
0.0
 40
0.1156985401729954
 40
0.2118412720127863
 40
0.2564732739328059
 40
0.3015737026476816
 40
0.4008950186210822
 40
0.4008950186210822
 40
0.4008950186210822
 40
0.4008950186210822
 10
255.6037318669
 20
239.5198981645
 30
0.0
 10
255.6304781672927
 20
239.5476827944155
 30
0.0
 10
255.6869849468289
 20
239.5927295799329
 30
0.0
 10
255.7743592837793
 20
239.6133588746751
 30
0.0
 10
255.8356693460681
 20
239.5990013941931
 30
0.0
 10
255.8905842575491
 20
239.5663693181542
 30
0.0
 10
255.9189843607428
 20
239.5242481357036
 30
0.0
 10
255.9320994386
 20
239.4938495312
 30
0.0
 11
255.6037318669
 21
239.5198981645
 31
0.0
 11
255.6968732075
 21
239.5885337447
 31
0.0
 11
255.7911965996
 21
239.6071488619
 31
0.0
 11
255.834640779
 21
239.5969205252
 31
0.0
 11
255.8735131353
 21
239.5740515815
 31
0.0
 11
255.9320994386
 21
239.4938495312
 31
0.0
  0
SPLINE
  5
2D0
330
216
100
AcDbEntity
  8
0
  6
Continuous
 62
     7
100
AcDbSpline
210
0.0
220
0.0
230
1.0
 70
  1064
 71
     3
 72
    11
 73
     7
 74
     5
 42
0.000000001
 43
0.0000000001
 44
0.0000000001
 12
-0.9849126842976973
 22
-0.17305202775323
 32
0.0
 13
-0.2867092583209078
 23
0.9580176413788397
 33
0.0
 40
0.0
 40
0.0
 40
0.0
 40
0.0
 40
0.1082807066035546
 40
0.2143581002244987
 40
0.3260819607007528
 40
0.4481304051906351
 40
0.4481304051906351
 40
0.4481304051906351
 40
0.4481304051906351
 10
254.8046375639
 20
239.0552096003
 30
0.0
 10
254.7690885501005
 20
239.0489635350185
 30
0.0
 10
254.6954452754756
 20
239.0490584952216
 30
0.0
 10
254.5934278292515
 20
239.0947902068511
 30
0.0
 10
254.5145757928214
 20
239.1796255693981
 30
0.0
 10
254.4824164637663
 20
239.252047154992
 30
0.0
 10
254.4707523241
 20
239.2910220093
 30
0.0
 11
254.8046375639
 21
239.0552096003
 31
0.0
 11
254.6963672012
 21
239.0567062577
 31
0.0
 11
254.5993707601
 21
239.099649288
 31
0.0
 11
254.5220146264
 21
239.1802610091
 31
0.0
 11
254.4707523241
 21
239.2910220093
 31
0.0
  0
SPLINE
  5
2D1
330
216
100
AcDbEntity
  8
0
  6
Continuous
 62
     7
100
AcDbSpline
210
0.0
220
0.0
230
1.0
 70
  1064
 71
     3
 72
    11
 73
     7
 74
     5
 42
0.000000001
 43
0.0000000001
 44
0.0000000001
 12
-0.2867092582913774
 22
0.9580176413876774
 32
0.0
 13
0.9432690091205641
 23
0.3320294812704279
 33
0.0
 40
0.0
 40
0.0
 40
0.0
 40
0.0
 40
0.1935079244863969
 40
0.3925569390613801
 40
0.5748499496914839
 40
0.7228702185057418
 40
0.7228702185057418
 40
0.7228702185057418
 40
0.7228702185057418
 10
254.4707523241
 20
239.2910220093
 30
0.0
 10
254.452258819599
 20
239.3528166777688
 30
0.0
 10
254.4399560234713
 20
239.4862336991667
 30
0.0
 10
254.481909533198
 20
239.6760145674298
 30
0.0
 10
254.5696414146299
 20
239.831895581657
 30
0.0
 10
254.6598888051686
 20
239.9042764568427
 30
0.0
 10
254.7064297826
 20
239.9206588212
 30
0.0
 11
254.4707523241
 21
239.2910220093
 31
0.0
 11
254.450080758
 21
239.4834226413
 31
0.0
 11
254.4927688717
 21
239.6778403235
 31
0.0
 11
254.5861350005
 21
239.8344082248
 31
0.0
 11
254.7064297826
 21
239.9206588212
 31
0.0
  0
SPLINE
  5
2D2
330
216
100
AcDbEntity
  8
02___PRT_ALL_AXES
  6
Continuous
 62
     7
100
AcDbSpline
210
0.0
220
0.0
230
1.0
 70
  1064
 71
     3
 72
     9
 73
     5
 74
     3
 42
0.000000001
 43
0.0000000001
 44
0.0000000001
 12
-0.9882948185436632
 22
-0.1525560606457442
 32
0.0
 13
-0.8681623489078704
 23
-0.4962802997689606
 33
0.0
 40
0.0
 40
0.0
 40
0.0
 40
0.0
 40
0.0823237598016589
 40
0.3025230194221183
 40
0.3025230194221183
 40
0.3025230194221183
 40
0.3025230194221183
 10
254.3416519525
 20
239.8282621937
 30
0.0
 10
254.3145319040817
 20
239.8240758642024
 30
0.0
 10
254.2156289260613
 20
239.804538968309
 30
0.0
 10
254.1193643911533
 20
239.7689514075244
 30
0.0
 10
254.055641489
 20
239.732524556
 30
0.0
 11
254.3416519525
 21
239.8282621937
 31
0.0
 11
254.260899546
 21
239.8122543746
 31
0.0
 11
254.055641489
 21
239.732524556
 31
0.0
  0
SPLINE
  5
2D3
330
216
100
AcDbEntity
  8
0
  6
Continuous
 62
     7
100
AcDbSpline
210
0.0
220
0.0
230
1.0
 70
  1064
 71
     3
 72
     9
 73
     5
 74
     3
 42
0.000000001
 43
0.0000000001
 44
0.0000000001
 12
-0.2169123106873431
 22
0.9761910927027953
 32
0.0
 13
0.2911375345487984
 23
0.9566812091688888
 33
0.0
 40
0.0
 40
0.0
 40
0.0
 40
0.0
 40
0.0764987222403194
 40
0.3130692826846393
 40
0.3130692826846393
 40
0.3130692826846393
 40
0.3130692826846393
 10
256.47059272
 20
238.6510383744
 30
0.0
 10
256.4650615484648
 20
238.6759308314847
 30
0.0
 10
256.4500253536281
 20
238.7794158474859
 30
0.0
 10
256.4628617261952
 20
238.8863577863601
 30
0.0
 10
256.4858199161
 20
238.9617986563
 30
0.0
 11
256.47059272
 21
238.6510383744
 31
0.0
 11
256.4593775325
 21
238.726710523
 31
0.0
 11
256.4858199161
 21
238.9617986563
 31
0.0
  0
SPLINE
  5
2D4
330
216
100
AcDbEntity
  8
0
  6
Continuous
 62
     7
100
AcDbSpline
210
0.0
220
0.0
230
1.0
 70
  1064
 71
     3
 72
     9
 73
     5
 74
     3
 42
0.000000001
 43
0.0000000001
 44
0.0000000001
 12
0.0501920406420078
 22
0.9987395852053683
 32
0.0
 13
0.6937791529855389
 23
0.7201878136171623
 33
0.0
 40
0.0
 40
0.0
 40
0.0
 40
0.0
 40
0.2161760667737357
 40
0.4123324522417199
 40
0.4123324522417199
 40
0.4123324522417199
 40
0.4123324522417199
 10
256.2068991612
 20
238.8894142321
 30
0.0
 10
256.2105159338431
 20
238.961382097187
 30
0.0
 10
256.2404381369689
 20
239.0981215289623
 30
0.0
 10
256.3127930702791
 20
239.2193449564075
 30
0.0
 10
256.3581561406
 20
239.2664347692
 30
0.0
 11
256.2068991612
 21
238.8894142321
 31
0.0
 11
256.2535542206
 21
239.1004957265
 31
0.0
 11
256.3581561406
 21
239.2664347692
 31
0.0
  0
SPLINE
  5
2D5
330
216
100
AcDbEntity
  8
0
  6
Continuous
 62
     7
100
AcDbSpline
210
0.0
220
0.0
230
1.0
 70
  1064
 71
     3
 72
     9
 73
     5
 74
     3
 42
0.000000001
 43
0.0000000001
 44
0.0000000001
 12
0.6937791529198
 22
0.7201878136804906
 32
0.0
 13
0.9792519431015296
 23
0.2026465690108734
 33
0.0
 40
0.0
 40
0.0
 40
0.0
 40
0.0
 40
0.0455242461356654
 40
0.1637755938915707
 40
0.1637755938915707
 40
0.1637755938915707
 40
0.1637755938915707
 10
256.3581561406
 20
239.2664347692
 30
0.0
 10
256.3686840649071
 20
239.2773634382979
 30
0.0
 10
256.4085549331801
 20
239.314444928032
 30
0.0
 10
256.4586784362453
 20
239.3424334531988
 30
0.0
 10
256.4972777236
 20
239.3504211965
 30
0.0
 11
256.3581561406
 21
239.2664347692
 31
0.0
 11
256.3916418313
 21
239.2972757404
 31
0.0
 11
256.4972777236
 21
239.3504211965
 31
0.0
  0
SPLINE
  5
2D6
330
216
100
AcDbEntity
  8
0
  6
Continuous
 62
     7
100
AcDbSpline
210
0.0
220
0.0
230
1.0
 70
  1064
 71
     3
 72
    13
 73
     9
 74
     7
 42
0.000000001
 43
0.0000000001
 44
0.0000000001
 12
-0.9850038283349272
 22
-0.1725324843776886
 32
0.0
 13
0.149447131463254
 23
0.9887697178298925
 33
0.0
 40
0.0
 40
0.0
 40
0.0
 40
0.0
 40
0.0808420911594152
 40
0.1593339410447742
 40
0.2387204382002377
 40
0.321944581775113
 40
0.5043656637751941
 40
0.7050670987109255
 40
0.7050670987109255
 40
0.7050670987109255
 40
0.7050670987109255
 10
256.3126365101
 20
238.5478809238
 30
0.0
 10
256.2860932536724
 20
238.54323162819
 30
0.0
 10
256.2322037215965
 20
238.5408493288036
 30
0.0
 10
256.1540255124949
 20
238.5611375084616
 30
0.0
 10
256.0848545877213
 20
238.6043617958943
 30
0.0
 10
256.0073396470094
 20
238.6911033335018
 30
0.0
 10
255.9515396254842
 20
238.841702014479
 30
0.0
 10
255.9519068765228
 20
238.9717781625368
 30
0.0
 10
255.9619049611
 20
239.0379273296
 30
0.0
 11
256.3126365101
 21
238.5478809238
 31
0.0
 11
256.2318489025
 21
238.5449134061
 31
0.0
 11
256.1559026309
 21
238.5647410214
 31
0.0
 11
256.0883675552
 21
238.6064690633
 31
0.0
 11
256.032363142
 21
238.6680301206
 31
0.0
 11
255.9642031213
 21
238.8372390528
 31
0.0
 11
255.9619049611
 21
239.0379273296
 31
0.0
  0
SPLINE
  5
2D7
330
216
100
AcDbEntity
  8
0
  6
Continuous
 62
     7
100
AcDbSpline
210
0.0
220
0.0
230
1.0
 70
  1064
 71
     3
 72
     9
 73
     5
 74
     3
 42
0.000000001
 43
0.0000000001
 44
0.0000000001
 12
0.1494471315175414
 22
0.9887697178216871
 32
0.0
 13
0.6947974755693548
 23
0.7192054420973553
 33
0.0
 40
0.0
 40
0.0
 40
0.0
 40
0.0
 40
0.183458705787576
 40
0.3493589845315959
 40
0.3493589845315959
 40
0.3493589845315959
 40
0.3493589845315959
 10
255.9619049611
 20
239.0379273296
 30
0.0
 10
255.9710440868773
 20
239.0983934671845
 30
0.0
 10
256.004381475642
 20
239.2116195527465
 30
0.0
 10
256.0686860427442
 20
239.3115957287273
 30
0.0
 10
256.1071084077
 20
239.3513678565
 30
0.0
 11
255.9619049611
 21
239.0379273296
 31
0.0
 11
256.0145965184
 21
239.2136563725
 31
0.0
 11
256.1071084077
 21
239.3513678565
 31
0.0
  0
SPLINE
  5
2D8
330
216
100
AcDbEntity
  8
0
  6
Continuous
 62
     7
100
AcDbSpline
210
0.0
220
0.0
230
1.0
 70
  1064
 71
     3
 72
    12
 73
     8
 74
     6
 42
0.000000001
 43
0.0000000001
 44
0.0000000001
 12
0.6947974754796543
 22
0.7192054421840113
 32
0.0
 13
0.4029620373872034
 23
-0.9152166936986859
 33
0.0
 40
0.0
 40
0.0
 40
0.0
 40
0.0
 40
0.1149643839146206
 40
0.2105962630985734
 40
0.2549781082434548
 40
0.2997791187578495
 40
0.3982606915596189
 40
0.3982606915596189
 40
0.3982606915596189
 40
0.3982606915596189
 10
256.1071084077
 20
239.3513678565
 30
0.0
 10
256.1337340622714
 20
239.3789288600229
 30
0.0
 10
256.1899636063769
 20
239.4236155949507
 30
0.0
 10
256.2767432386516
 20
239.4442251776995
 30
0.0
 10
256.3377573015074
 20
239.4302451453005
 30
0.0
 10
256.3924714257137
 20
239.3982112372128
 30
0.0
 10
256.4209656767596
 20
239.35664956735
 30
0.0
 10
256.4341937885
 20
239.3266055742
 30
0.0
 11
256.1071084077
 21
239.3513678565
 31
0.0
 11
256.1997281535
 21
239.4194735997
 31
0.0
 11
256.2935191695
 21
239.4381471541
 31
0.0
 11
256.3367667434
 21
239.4281774234
 31
0.0
 11
256.3755223413
 21
239.4057022332
 31
0.0
 11
256.4341937885
 21
239.3266055742
 31
0.0
  0
SPLINE
  5
2D9
330
216
100
AcDbEntity
  8
0
  6
Continuous
 62
     7
100
AcDbSpline
210
0.0
220
0.0
230
1.0
 70
  1064
 71
     3
 72
    14
 73
    10
 74
     8
 42
0.000000001
 43
0.0000000001
 44
0.0000000001
 12
-0.9854365243693973
 22
-0.1700436897940136
 32
0.0
 13
0.2453356800930279
 23
0.96943818991893
 33
0.0
 40
0.0
 40
0.0
 40
0.0
 40
0.0
 40
0.0868666828892897
 40
0.1713217131923891
 40
0.2574311746109053
 40
0.3486244226048313
 40
0.4465627764383001
 40
0.5509178470108176
 40
0.7691208515386711
 40
0.7691208515386711
 40
0.7691208515386711
 40
0.7691208515386711
 10
256.0603721793
 20
238.6322609859
 30
0.0
 10
256.0318383119433
 20
238.6273372754738
 30
0.0
 10
255.9737078829014
 20
238.625511863549
 30
0.0
 10
255.8900941685347
 20
238.6506870545729
 30
0.0
 10
255.8178725714108
 20
238.7022057870932
 30
0.0
 10
255.7612831945701
 20
238.7758616737685
 30
0.0
 10
255.7225153202939
 20
238.8666643074482
 30
0.0
 10
255.6957736106725
 20
239.0049782767441
 30
0.0
 10
255.7053274108953
 20
239.1149645990852
 30
0.0
 10
255.7231717384
 20
239.185476041
 30
0.0
 11
256.0603721793
 21
238.6322609859
 31
0.0
 11
255.9735284823
 21
238.6302627648
 31
0.0
 11
255.8926760144
 21
238.65466626
 31
0.0
 11
255.8222156507
 21
238.7041655175
 31
0.0
 11
255.7659020418
 21
238.7758940748
 31
0.0
 11
255.726610852
 21
238.8656054094
 31
0.0
 11
255.7061608751
 21
238.967937121
 31
0.0
 11
255.7231717384
 21
239.185476041
 31
0.0
  0
SPLINE
  5
2DA
330
216
100
AcDbEntity
  8
0
  6
Continuous
 62
     7
100
AcDbSpline
210
0.0
220
0.0
230
1.0
 70
  1064
 71
     3
 72
     9
 73
     5
 74
     3
 42
0.000000001
 43
0.0000000001
 44
0.0000000001
 12
0.2453356801722447
 22
0.9694381898988828
 32
0.0
 13
0.6905455242071732
 23
0.7232889318919796
 33
0.0
 40
0.0
 40
0.0
 40
0.0
 40
0.0
 40
0.075482186285643
 40
0.282602830764061
 40
0.282602830764061
 40
0.282602830764061
 40
0.282602830764061
 10
255.7231717384
 20
239.185476041
 30
0.0
 10
255.7293445629044
 20
239.2098678123474
 30
0.0
 10
255.7576289977506
 20
239.2996410222035
 30
0.0
 10
255.8063108041615
 20
239.3842032092608
 30
0.0
 10
255.8539862155
 20
239.4341392325
 30
0.0
 11
255.7231717384
 21
239.185476041
 31
0.0
 11
255.7459090598
 21
239.25745225
 31
0.0
 11
255.8539862155
 21
239.4341392325
 31
0.0
  0
SPLINE
  5
2DB
330
216
100
AcDbEntity
  8
0
  6
Continuous
 62
     7
100
AcDbSpline
210
0.0
220
0.0
230
1.0
 70
  1064
 71
     3
 72
    12
 73
     8
 74
     6
 42
0.000000001
 43
0.0000000001
 44
0.0000000001
 12
0.6905455242799029
 22
0.7232889318225422
 32
0.0
 13
0.3980359205023587
 23
-0.9173698305426443
 33
0.0
 40
0.0
 40
0.0
 40
0.0
 40
0.0
 40
0.1162192982736009
 40
0.2127296215986101
 40
0.257473449668382
 40
0.3026489692807539
 40
0.4020881450026357
 40
0.4020881450026357
 40
0.4020881450026357
 40
0.4020881450026357
 10
255.8539862155
 20
239.4341392325
 30
0.0
 10
255.8807377875859
 20
239.4621592765352
 30
0.0
 10
255.9372669059414
 20
239.5076438401861
 30
0.0
 10
256.0248620888412
 20
239.5288330399162
 30
0.0
 10
256.0864336997116
 20
239.5147611086272
 30
0.0
 10
256.1415912077822
 20
239.4823216174941
 30
0.0
 10
256.1701456228858
 20
239.4401979142271
 30
0.0
 10
256.1833390775
 20
239.4097904143
 30
0.0
 11
255.8539862155
 21
239.4341392325
 31
0.0
 11
255.9472330964
 21
239.5035074132
 31
0.0
 11
256.0418179381
 21
239.522689442
 31
0.0
 11
256.0854232307
 21
239.5126600548
 31
0.0
 11
256.1244607507
 21
239.4899246286
 31
0.0
 11
256.1833390775
 21
239.4097904143
 31
0.0
  0
SPLINE
  5
2DC
330
216
100
AcDbEntity
  8
0
  6
Continuous
 62
     7
100
AcDbSpline
210
0.0
220
0.0
230
1.0
 70
  1064
 71
     3
 72
    14
 73
    10
 74
     8
 42
0.000000001
 43
0.0000000001
 44
0.0000000001
 12
-0.9837582135716369
 22
-0.1794986830880431
 32
0.0
 13
0.3391305582318573
 23
0.9407393180224525
 33
0.0
 40
0.0
 40
0.0
 40
0.0
 40
0.0
 40
0.0935094425140628
 40
0.1844241371671324
 40
0.2778035570874278
 40
0.3776280692722445
 40
0.485374747779157
 40
0.5999381936408821
 40
0.8351358428473398
 40
0.8351358428473398
 40
0.8351358428473398
 40
0.8351358428473398
 10
255.8119133738
 20
238.7173117665
 30
0.0
 10
255.7812498130935
 20
238.7117168259042
 30
0.0
 10
255.7184847851039
 20
238.7097534361855
 30
0.0
 10
255.6287671230132
 20
238.7394595674941
 30
0.0
 10
255.5531811958711
 20
238.7994384884855
 30
0.0
 10
255.4966260059692
 20
238.8838994960259
 30
0.0
 10
255.4613035936811
 20
238.9864039860414
 30
0.0
 10
255.4436894977805
 20
239.138655423149
 30
0.0
 10
255.4637189619766
 20
239.2570127829284
 30
0.0
 10
255.490306532
 20
239.3307660083
 30
0.0
 11
255.8119133738
 21
238.7173117665
 31
0.0
 11
255.7184255638
 21
238.7153004931
 31
0.0
 11
255.6321158133
 21
238.7438681089
 31
0.0
 11
255.5584213119
 21
238.8012164875
 31
0.0
 11
255.5018723215
 21
238.8834791456
 31
0.0
 11
255.4657666638
 21
238.9849962782
 31
0.0
 11
255.4519275542
 21
239.0987207794
 31
0.0
 11
255.490306532
 21
239.3307660083
 31
0.0
  0
SPLINE
  5
2DD
330
216
100
AcDbEntity
  8
0
  6
Continuous
 62
     7
100
AcDbSpline
210
0.0
220
0.0
230
1.0
 70
  1064
 71
     3
 72
    14
 73
    10
 74
     8
 42
0.000000001
 43
0.0000000001
 44
0.0000000001
 12
-0.9847905919583201
 22
-0.1737454747335359
 32
0.0
 13
0.4320278467914718
 23
0.9018602661148371
 33
0.0
 40
0.0
 40
0.0
 40
0.0
 40
0.0
 40
0.0993217408532535
 40
0.196172524335439
 40
0.2966197192451356
 40
0.404982988633036
 40
0.5222365890507895
 40
0.6462171069202021
 40
0.8948160348979092
 40
0.8948160348979092
 40
0.8948160348979092
 40
0.8948160348979092
 10
255.5586984494
 20
238.8015182427
 30
0.0
 10
255.5260947440769
 20
238.7957660083614
 30
0.0
 10
255.459090611107
 20
238.7947331067551
 30
0.0
 10
255.3644501380766
 20
238.8305591923371
 30
0.0
 10
255.2871506511769
 20
238.9000945975684
 30
0.0
 10
255.2324136852171
 20
238.9957061147907
 30
0.0
 10
255.2022515812645
 20
239.109472021208
 30
0.0
 10
255.1956557440658
 20
239.2733942183412
 30
0.0
 10
255.2269914471104
 20
239.3978169187194
 30
0.0
 10
255.2627920003
 20
239.4725507505
 30
0.0
 11
255.5586984494
 21
238.8015182427
 31
0.0
 11
255.4593777725
 21
238.8010585186
 31
0.0
 11
255.3687435514
 21
238.8351981177
 31
0.0
 11
255.2932607421
 21
238.9014701666
 31
0.0
 11
255.2381528728
 21
238.9947746193
 31
0.0
 11
255.2069816112
 21
239.1078089471
 31
0.0
 11
255.2013591566
 21
239.2316619116
 31
0.0
 11
255.2627920003
 21
239.4725507505
 31
0.0
  0
SPLINE
  5
2DE
330
216
100
AcDbEntity
  8
0
  6
Continuous
 62
     7
100
AcDbSpline
210
0.0
220
0.0
230
1.0
 70
  1064
 71
     3
 72
     9
 73
     5
 74
     3
 42
0.000000001
 43
0.0000000001
 44
0.0000000001
 12
0.4320278469432662
 22
0.9018602660421212
 32
0.0
 13
0.6947676733387647
 23
0.7192342317238799
 33
0.0
 40
0.0
 40
0.0
 40
0.0
 40
0.0
 40
0.0423024810916473
 40
0.1604406651382277
 40
0.1604406651382277
 40
0.1604406651382277
 40
0.1604406651382277
 10
255.2627920003
 20
239.4725507505
 30
0.0
 10
255.2688839502421
 20
239.4852677261172
 30
0.0
 10
255.2936896788736
 20
239.5326360891024
 30
0.0
 10
255.3254195052792
 20
239.57660780422
 30
0.0
 10
255.3527790357
 20
239.6049308129
 30
0.0
 11
255.2627920003
 21
239.4725507505
 31
0.0
 11
255.2824460776
 21
239.5100102907
 31
0.0
 11
255.3527790357
 21
239.6049308129
 31
0.0
  0
SPLINE
  5
2DF
330
216
100
AcDbEntity
  8
0
  6
Continuous
 62
     7
100
AcDbSpline
210
0.0
220
0.0
230
1.0
 70
  1064
 71
     3
 72
    12
 73
     8
 74
     6
 42
0.000000001
 43
0.0000000001
 44
0.0000000001
 12
0.6947676731882268
 22
0.7192342318692969
 32
0.0
 13
0.4019586738225901
 23
-0.9156578097405082
 33
0.0
 40
0.0
 40
0.0
 40
0.0
 40
0.0
 40
0.1150357705202004
 40
0.2107174513087479
 40
0.2551270311898471
 40
0.2999640849924673
 40
0.3985511949451549
 40
0.3985511949451549
 40
0.3985511949451549
 40
0.3985511949451549
 10
255.3527790357
 20
239.6049308129
 30
0.0
 10
255.3794200805726
 20
239.6325100342492
 30
0.0
 10
255.435686106969
 20
239.6772217690482
 30
0.0
 10
255.522533238135
 20
239.6978069313011
 30
0.0
 10
255.5835739952218
 20
239.6837629842366
 30
0.0
 10
255.6383028259892
 20
239.6516398056733
 30
0.0
 10
255.6667770225425
 20
239.6100038928226
 30
0.0
 10
255.6799863372
 20
239.5799132071
 30
0.0
 11
255.3527790357
 21
239.6049308129
 31
0.0
 11
255.4454627732
 21
239.6730700329
 31
0.0
 11
255.5393116089
 21
239.6917081679
 31
0.0
 11
255.5825774769
 21
239.6816944048
 31
0.0
 11
255.6213404665
 21
239.6591601635
 31
0.0
 11
255.6799863372
 21
239.5799132071
 31
0.0
  0
SPLINE
  5
2E0
330
216
100
AcDbEntity
  8
0
  6
Continuous
 62
     7
100
AcDbSpline
210
0.0
220
0.0
230
1.0
 70
  1064
 71
     3
 72
    14
 73
    10
 74
     8
 42
0.000000001
 43
0.0000000001
 44
0.0000000001
 12
-0.9856619801755522
 22
-0.1687319200282187
 32
0.0
 13
0.5250367426959084
 23
0.8510795608045528
 33
0.0
 40
0.0
 40
0.0
 40
0.0
 40
0.0
 40
0.1051348641628458
 40
0.2080168270314238
 40
0.3157952931706473
 40
0.4330060054297215
 40
0.5598769106133436
 40
0.6929409717462008
 40
0.9523719564667139
 40
0.9523719564667139
 40
0.9523719564667139
 40
0.9523719564667139
 10
255.3056422506
 20
238.8857611358
 30
0.0
 10
255.2710997711346
 20
238.8798479333027
 30
0.0
 10
255.1997881435536
 20
238.8798601303254
 30
0.0
 10
255.1004363963235
 20
238.9223293137235
 30
0.0
 10
255.0220327346774
 20
239.0018704475382
 30
0.0
 10
254.9699523439393
 20
239.1087781021844
 30
0.0
 10
254.9459153845395
 20
239.2334993909917
 30
0.0
 10
254.951362573708
 20
239.4072876657374
 30
0.0
 10
254.994593787376
 20
239.536059281855
 30
0.0
 10
255.0399973871
 20
239.6096580847
 30
0.0
 11
255.3056422506
 21
238.8857611358
 31
0.0
 11
255.200514723
 21
238.8870031516
 31
0.0
 11
255.1057693198
 21
238.9271031124
 31
0.0
 11
255.0289925335
 21
239.002743861
 31
0.0
 11
254.9761260013
 21
239.1073549543
 31
0.0
 11
254.9509062278
 21
239.2316939651
 31
0.0
 11
254.9545328715
 21
239.3647085952
 31
0.0
 11
255.0399973871
 21
239.6096580847
 31
0.0
  0
SPLINE
  5
2E1
330
216
100
AcDbEntity
  8
0
  6
Continuous
 62
     7
100
AcDbSpline
210
0.0
220
0.0
230
1.0
 70
  1064
 71
     3
 72
     9
 73
     5
 74
     3
 42
0.000000001
 43
0.0000000001
 44
0.0000000001
 12
0.5250367426936026
 22
0.8510795608059751
 32
0.0
 13
0.6900568952276403
 23
0.7237551252659904
 33
0.0
 40
0.0
 40
0.0
 40
0.0
 40
0.0
 40
0.0254524755225881
 40
0.0980690853995974
 40
0.0980690853995974
 40
0.0980690853995974
 40
0.0980690853995974
 10
255.0399973871
 20
239.6096580847
 30
0.0
 10
255.0444518820473
 20
239.6168787785964
 30
0.0
 10
255.06227513768
 20
239.6442819939741
 30
0.0
 10
255.0827704893488
 20
239.6699917627074
 30
0.0
 10
255.0994736868
 20
239.6875106439
 30
0.0
 11
255.0399973871
 21
239.6096580847
 31
0.0
 11
255.0538834311
 21
239.6309889612
 31
0.0
 11
255.0994736868
 21
239.6875106439
 31
0.0
  0
SPLINE
  5
2E2
330
216
100
AcDbEntity
  8
0
  6
Continuous
 62
     7
100
AcDbSpline
210
0.0
220
0.0
230
1.0
 70
  1064
 71
     3
 72
    12
 73
     8
 74
     6
 42
0.000000001
 43
0.0000000001
 44
0.0000000001
 12
0.6900568953484151
 22
0.7237551251508392
 32
0.0
 13
0.3989165026918109
 23
-0.9169872539354811
 33
0.0
 40
0.0
 40
0.0
 40
0.0
 40
0.0
 40
0.1162609454447837
 40
0.2128016847102375
 40
0.2575471491718265
 40
0.3027131492641511
 40
0.4021071308252902
 40
0.4021071308252902
 40
0.4021071308252902
 40
0.4021071308252902
 10
255.0994736868
 20
239.6875106439
 30
0.0
 10
255.1262159091546
 20
239.7155587956068
 30
0.0
 10
255.1827280805476
 20
239.7610977549675
 30
0.0
 10
255.2703173452982
 20
239.7823952477896
 30
0.0
 10
255.3319157464148
 20
239.7684087250517
 30
0.0
 10
255.3871033243301
 20
239.7360545950409
 30
0.0
 10
255.415697095929
 20
239.6939766454365
 30
0.0
 10
255.4289137291
 20
239.6635956407
 30
0.0
 11
255.0994736868
 21
239.6875106439
 31
0.0
 11
255.1926988286
 21
239.7569777611
 31
0.0
 11
255.2872912718
 21
239.7762750155
 31
0.0
 11
255.3309118236
 21
239.7663048575
 31
0.0
 11
255.3699717757
 21
239.7436269452
 31
0.0
 11
255.4289137291
 21
239.6635956407
 31
0.0
  0
SPLINE
  5
2E3
330
216
100
AcDbEntity
  8
0
  6
Continuous
 62
     7
100
AcDbSpline
210
0.0
220
0.0
230
1.0
 70
  1064
 71
     3
 72
    14
 73
    10
 74
     8
 42
0.000000001
 43
0.0000000001
 44
0.0000000001
 12
-0.9839559410998749
 22
-0.1784116195046146
 32
0.0
 13
0.6187513185058458
 23
0.7855869180729002
 33
0.0
 40
0.0
 40
0.0
 40
0.0
 40
0.0
 40
0.1117270671127349
 40
0.221203124832741
 40
0.3368871363031685
 40
0.4635763395443619
 40
0.600591927566445
 40
0.7429066565363911
 40
1.011623897594632
 40
1.011623897594632
 40
1.011623897594632
 40
1.011623897594632
 10
255.0572412303
 20
238.9708182914
 30
0.0
 10
255.0205963931443
 20
238.9641738224046
 30
0.0
 10
254.9444740723393
 20
238.9641829891458
 30
0.0
 10
254.8394327911121
 20
239.0125791307738
 30
0.0
 10
254.7593915344589
 20
239.1020748818412
 30
0.0
 10
254.7098522432583
 20
239.2203980945871
 30
0.0
 10
254.6922272840745
 20
239.3560897857626
 30
0.0
 10
254.7100930807046
 20
239.5385740476155
 30
0.0
 10
254.76576884183
 20
239.670648055388
 30
0.0
 10
254.8211918909
 20
239.7410149718
 30
0.0
 11
255.0572412303
 21
238.9708182914
 31
0.0
 11
254.9455238248
 21
238.9722875885
 31
0.0
 11
254.8458562726
 21
239.0175798202
 31
0.0
 11
254.7672460657
 21
239.1024516405
 31
0.0
 11
254.7165059945
 21
239.2185360899
 31
0.0
 11
254.6975656805
 21
239.3542362589
 31
0.0
 11
254.711040618
 21
239.4959116207
 31
0.0
 11
254.8211918909
 21
239.7410149718
 31
0.0
  0
SPLINE
  5
2E4
330
216
100
AcDbEntity
  8
0
  6
Continuous
 62
     7
100
AcDbSpline
210
0.0
220
0.0
230
1.0
 70
  1064
 71
     3
 72
     9
 73
     5
 74
     3
 42
0.000000001
 43
0.0000000001
 44
0.0000000001
 12
0.6187513184338523
 22
0.7855869181296044
 32
0.0
 13
0.7067699164898075
 23
0.7074434854778088
 33
0.0
 40
0.0
 40
0.0
 40
0.0
 40
0.0
 40
0.0128887005898381
 40
0.050411614275062
 40
0.050411614275062
 40
0.050411614275062
 40
0.050411614275062
 10
254.8211918909
 20
239.7410149718
 30
0.0
 10
254.8238501910609
 20
239.7443900366583
 30
0.0
 10
254.8344310088747
 20
239.7574448820651
 30
0.0
 10
254.8457510695094
 20
239.7699050349524
 30
0.0
 10
254.8545910917
 20
239.7787534819
 30
0.0
 11
254.8211918909
 21
239.7410149718
 31
0.0
 11
254.8293088929
 21
239.7510266091
 31
0.0
 11
254.8545910917
 21
239.7787534819
 31
0.0
  0
SPLINE
  5
2E5
330
216
100
AcDbEntity
  8
0
  6
Continuous
 62
     7
100
AcDbSpline
210
0.0
220
0.0
230
1.0
 70
  1064
 71
     3
 72
    12
 73
     8
 74
     6
 42
0.000000001
 43
0.0000000001
 44
0.0000000001
 12
0.7067699165285029
 22
0.7074434854391502
 32
0.0
 13
0.3956668908152563
 23
-0.9183940937923045
 33
0.0
 40
0.0
 40
0.0
 40
0.0
 40
0.0
 40
0.1129659182673692
 40
0.2071917513995666
 40
0.2511508876164226
 40
0.2956729082824172
 40
0.3937362545210263
 40
0.3937362545210263
 40
0.3937362545210263
 40
0.3937362545210263
 10
254.8545910917
 20
239.7787534819
 30
0.0
 10
254.8812047292414
 20
239.805392482885
 30
0.0
 10
254.9373307088859
 20
239.8484006063008
 30
0.0
 10
255.0232598442036
 20
239.8668050674255
 30
0.0
 10
255.083257621516
 20
239.8517084190963
 30
0.0
 10
255.1370446426353
 20
239.8189095734355
 30
0.0
 10
255.1648997000969
 20
239.777308971001
 30
0.0
 10
255.1778331732
 20
239.747288705
 30
0.0
 11
254.8545910917
 21
239.7787534819
 31
0.0
 11
254.9467957524
 21
239.8440190872
 31
0.0
 11
255.0395741393
 21
239.8604713987
 31
0.0
 11
255.0821981194
 21
239.8497195627
 31
0.0
 11
255.1203143368
 21
239.8267116446
 31
0.0
 11
255.1778331732
 21
239.747288705
 31
0.0
  0
SPLINE
  5
2E6
330
216
100
AcDbEntity
  8
0
  6
Continuous
 62
     7
100
AcDbSpline
210
0.0
220
0.0
230
1.0
 70
  1064
 71
     3
 72
    11
 73
     7
 74
     5
 42
0.000000001
 43
0.0000000001
 44
0.0000000001
 12
0.9432690091387522
 22
0.3320294812187566
 32
0.0
 13
0.3880415301049152
 23
-0.9216418886497272
 33
0.0
 40
0.0
 40
0.0
 40
0.0
 40
0.0
 40
0.063399753265284
 40
0.1224498974384117
 40
0.1832593526700428
 40
0.2512076704705428
 40
0.2512076704705428
 40
0.2512076704705428
 40
0.2512076704705428
 10
254.7064297826
 20
239.9206588212
 30
0.0
 10
254.7263641234141
 20
239.9276756835953
 30
0.0
 10
254.767559927797
 20
239.9354383042398
 30
0.0
 10
254.8289095006209
 20
239.9211329207813
 30
0.0
 10
254.8794204115377
 20
239.8812455761605
 30
0.0
 10
254.9015709112309
 20
239.8434579681827
 30
0.0
 10
254.9103598343
 20
239.8225832962
 30
0.0
 11
254.7064297826
 21
239.9206588212
 31
0.0
 11
254.7689687504
 21
239.931070652
 31
0.0
 11
254.826405743
 21
239.9173625738
 31
0.0
 11
254.8747170448
 21
239.8804328031
 31
0.0
 11
254.9103598343
 21
239.8225832962
 31
0.0
  0
SPLINE
  5
2E7
330
216
100
AcDbEntity
  8
0
  6
Continuous
 62
     7
100
AcDbSpline
210
0.0
220
0.0
230
1.0
 70
  1064
 71
     3
 72
    11
 73
     7
 74
     5
 42
0.000000001
 43
0.0000000001
 44
0.0000000001
 12
-0.9997739497073885
 22
0.0212614554179238
 32
0.0
 13
-0.2138571316062021
 23
0.9768649483225242
 33
0.0
 40
0.0
 40
0.0
 40
0.0
 40
0.0
 40
0.0890521519422273
 40
0.1793364547539304
 40
0.2759007216341595
 40
0.3808004927219082
 40
0.3808004927219082
 40
0.3808004927219082
 40
0.3808004927219082
 10
254.5178564374
 20
239.1862134649
 30
0.0
 10
254.488179096841
 20
239.1868445910195
 30
0.0
 10
254.4279271730437
 20
239.1991199173093
 30
0.0
 10
254.3498729120476
 20
239.251670137905
 30
0.0
 10
254.2919424712037
 20
239.3318486283227
 30
0.0
 10
254.269690275617
 20
239.3961842108125
 30
0.0
 10
254.2622124209
 20
239.4303418473
 30
0.0
 11
254.5178564374
 21
239.1862134649
 31
0.0
 11
254.430687655
 21
239.2044312897
 31
0.0
 11
254.3553290593
 21
239.2541538941
 31
0.0
 11
254.2976757477
 21
239.3316184234
 31
0.0
 11
254.2622124209
 21
239.4303418473
 31
0.0
  0
SPLINE
  5
2E8
330
216
100
AcDbEntity
  8
0
  6
Continuous
 62
     7
100
AcDbSpline
210
0.0
220
0.0
230
1.0
 70
  1064
 71
     3
 72
     9
 73
     5
 74
     3
 42
0.000000001
 43
0.0000000001
 44
0.0000000001
 12
-0.1648291597145619
 22
0.986322132017624
 32
0.0
 13
0.6032209333481155
 23
0.7975741379775478
 33
0.0
 40
0.0
 40
0.0
 40
0.0
 40
0.0
 40
0.2010941492766316
 40
0.3900294232552037
 40
0.3900294232552037
 40
0.3900294232552037
 40
0.3900294232552037
 10
254.2579551273
 20
239.4524337713
 30
0.0
 10
254.2469064007504
 20
239.5185483079836
 30
0.0
 10
254.2528736214553
 20
239.6518285095075
 30
0.0
 10
254.3051206984961
 20
239.775358264141
 30
0.0
 10
254.3431106026
 20
239.8255882269
 30
0.0
 11
254.2579551273
 21
239.4524337713
 31
0.0
 11
254.2653622232
 21
239.6533914579
 31
0.0
 11
254.3431106026
 21
239.8255882269
 31
0.0
  0
SPLINE
  5
2E9
330
216
100
AcDbEntity
  8
0
  6
Continuous
 62
     7
100
AcDbSpline
210
0.0
220
0.0
230
1.0
 70
  1064
 71
     3
 72
    10
 73
     6
 74
     4
 42
0.000000001
 43
0.0000000001
 44
0.0000000001
 12
0.6032209331736059
 22
0.7975741381095331
 32
0.0
 13
0.988894287252377
 23
-0.1486206198332292
 33
0.0
 40
0.0
 40
0.0
 40
0.0
 40
0.0
 40
0.0562153457901141
 40
0.106231624466075
 40
0.1882516674523922
 40
0.1882516674523922
 40
0.1882516674523922
 40
0.1882516674523922
 10
254.3431106026
 20
239.8255882269
 30
0.0
 10
254.3544140270487
 20
239.840533528889
 30
0.0
 10
254.3782203955383
 20
239.8671900301696
 30
0.0
 10
254.4280613666057
 20
239.9051556163569
 30
0.0
 10
254.4742760684169
 20
239.9184540692758
 30
0.0
 10
254.5013124524
 20
239.9143907794
 30
0.0
 11
254.3431106026
 21
239.8255882269
 31
0.0
 11
254.3808191004
 21
239.867280364
 31
0.0
 11
254.4212034826
 21
239.8967884952
 31
0.0
 11
254.5013124524
 21
239.9143907794
 31
0.0
  0
SPLINE
  5
2EA
330
216
100
AcDbEntity
  8
0
  6
Continuous
 62
     7
100
AcDbSpline
210
0.0
220
0.0
230
1.0
 70
  1064
 71
     3
 72
     9
 73
     5
 74
     3
 42
0.000000001
 43
0.0000000001
 44
0.0000000001
 12
0.988894287203646
 22
-0.1486206201574766
 32
0.0
 13
0.3378814238911616
 23
-0.9411886863903971
 33
0.0
 40
0.0
 40
0.0
 40
0.0
 40
0.0
 40
0.0556441639616699
 40
0.1192074435973782
 40
0.1192074435973782
 40
0.1192074435973782
 40
0.1192074435973782
 10
254.5013124524
 20
239.9143907794
 30
0.0
 10
254.519654517686
 20
239.9116341560146
 30
0.0
 10
254.5577749832538
 20
239.8926953165058
 30
0.0
 10
254.5783398289231
 20
239.8564758981877
 30
0.0
 10
254.5854987794
 20
239.8365342183
 30
0.0
 11
254.5013124524
 21
239.9143907794
 31
0.0
 11
254.5514174362
 21
239.8901882262
 31
0.0
 11
254.5854987794
 21
239.8365342183
 31
0.0
  0
SPLINE
  5
2EB
330
216
100
AcDbEntity
  8
0
  6
Continuous
 62
     7
100
AcDbSpline
210
0.0
220
0.0
230
1.0
 70
  1064
 71
     3
 72
    10
 73
     6
 74
     4
 42
0.000000001
 43
0.0000000001
 44
0.0000000001
 12
-0.9443146154021015
 22
0.3290439288878937
 32
0.0
 13
-0.1828045586608574
 23
0.9831492731690389
 33
0.0
 40
0.0
 40
0.0
 40
0.0
 40
0.0
 40
0.0485658540939832
 40
0.099167931759994
 40
0.2084404605552834
 40
0.2084404605552834
 40
0.2084404605552834
 40
0.2084404605552834
 10
254.2608879911
 20
239.4304895088
 30
0.0
 10
254.2456008424899
 20
239.4358162752803
 30
0.0
 10
254.2158672502544
 20
239.4515939712417
 30
0.0
 10
254.1660660421815
 20
239.5011260793239
 30
0.0
 10
254.1451240224668
 20
239.5530796151792
 30
0.0
 10
254.138465517
 20
239.5888900176
 30
0.0
 11
254.2608879911
 21
239.4304895088
 31
0.0
 11
254.2179264229
 21
239.4531378165
 31
0.0
 11
254.181812421
 21
239.4885828321
 31
0.0
 11
254.138465517
 21
239.5888900176
 31
0.0
  0
SPLINE
  5
2EC
330
216
100
AcDbEntity
  8
0
  6
Continuous
 62
     7
100
AcDbSpline
210
0.0
220
0.0
230
1.0
 70
  1064
 71
     3
 72
     9
 73
     5
 74
     3
 42
0.000000001
 43
0.0000000001
 44
0.0000000001
 12
-0.1828045585163488
 22
0.9831492731959084
 32
0.0
 13
0.4881130521098374
 23
0.872780412452078
 33
0.0
 40
0.0
 40
0.0
 40
0.0
 40
0.0
 40
0.0894137754625149
 40
0.1671513245593656
 40
0.1671513245593656
 40
0.1671513245593656
 40
0.1671513245593656
 10
254.138465517
 20
239.5888900176
 30
0.0
 10
254.1330171017504
 20
239.6181923803865
 30
0.0
 10
254.1317832634792
 20
239.6747685296036
 30
0.0
 10
254.1471675203489
 20
239.7298087997788
 30
0.0
 10
254.1598157578
 20
239.7524247365
 30
0.0
 11
254.138465517
 21
239.5888900176
 31
0.0
 11
254.136452293
 21
239.6782811255
 31
0.0
 11
254.1598157578
 21
239.7524247365
 31
0.0
  0
SPLINE
  5
2ED
330
216
100
AcDbEntity
  8
0
  6
Continuous
 62
     7
100
AcDbSpline
210
0.0
220
0.0
230
1.0
 70
  1064
 71
     3
 72
     9
 73
     5
 74
     3
 42
0.000000001
 43
0.0000000001
 44
0.0000000001
 12
-0.8450076808023725
 22
0.534754167244161
 32
0.0
 13
-0.108630894811917
 23
0.9940821538949196
 33
0.0
 40
0.0
 40
0.0
 40
0.0
 40
0.0
 40
0.1214986717357956
 40
0.2571921500638003
 40
0.2571921500638003
 40
0.2571921500638003
 40
0.2571921500638003
 10
255.4775775938
 20
238.9442197942
 30
0.0
 10
255.4433551568587
 20
238.9658771012084
 30
0.0
 10
255.3845817836215
 20
239.0341430709281
 30
0.0
 10
255.3616121518236
 20
239.1190609864981
 30
0.0
 10
255.3566986505
 20
239.1640244749
 30
0.0
 11
255.4775775938
 21
238.9442197942
 31
0.0
 11
255.3958157417
 21
239.0340915182
 31
0.0
 11
255.3566986505
 21
239.1640244749
 31
0.0
  0
SPLINE
  5
2EE
330
216
100
AcDbEntity
  8
0
  6
Continuous
 62
     7
100
AcDbSpline
210
0.0
220
0.0
230
1.0
 70
  1064
 71
     3
 72
     9
 73
     5
 74
     3
 42
0.000000001
 43
0.0000000001
 44
0.0000000001
 12
-0.8416431398308638
 22
0.5400340963084139
 32
0.0
 13
-0.1086308950002453
 23
0.9940821538743394
 33
0.0
 40
0.0
 40
0.0
 40
0.0
 40
0.0
 40
0.1209380310274839
 40
0.2559245121198085
 40
0.2559245121198085
 40
0.2559245121198085
 40
0.2559245121198085
 10
255.2250326665
 20
239.0294464917
 30
0.0
 10
255.1911037784471
 20
239.0512167117984
 30
0.0
 10
255.1329378866639
 20
239.1193333269116
 30
0.0
 10
255.1101456040513
 20
239.2038185603106
 30
0.0
 10
255.1052577033
 20
239.2485477776
 30
0.0
 11
255.2250326665
 21
239.0294464917
 31
0.0
 11
255.1440299525
 21
239.1192494297
 31
0.0
 11
255.1052577033
 21
239.2485477776
 31
0.0
  0
SPLINE
  5
2EF
330
216
100
AcDbEntity
  8
0
  6
Continuous
 62
     7
100
AcDbSpline
210
0.0
220
0.0
230
1.0
 70
  1064
 71
     3
 72
     9
 73
     5
 74
     3
 42
0.000000001
 43
0.0000000001
 44
0.0000000001
 12
-0.8465695565140736
 22
0.5322781096227466
 32
0.0
 13
-0.1086308948176832
 23
0.9940821538942895
 33
0.0
 40
0.0
 40
0.0
 40
0.0
 40
0.0
 40
0.1217577550039579
 40
0.2577819546194722
 40
0.2577819546194722
 40
0.2577819546194722
 40
0.2577819546194722
 10
254.9752108146
 20
239.1129412711
 30
0.0
 10
254.9408520117147
 20
239.1345442669885
 30
0.0
 10
254.8817947431574
 20
239.202878673896
 30
0.0
 10
254.8587422330403
 20
239.2879980038548
 30
0.0
 10
254.8538167562
 20
239.3330710803
 30
0.0
 11
254.9752108146
 21
239.1129412711
 31
0.0
 11
254.8930956057
 21
239.2028414567
 31
0.0
 11
254.8538167562
 21
239.3330710803
 31
0.0
  0
SPLINE
  5
2F0
330
216
100
AcDbEntity
  8
0
  6
Continuous
 62
     7
100
AcDbSpline
210
0.0
220
0.0
230
1.0
 70
  1064
 71
     3
 72
    12
 73
     8
 74
     6
 42
0.000000001
 43
0.0000000001
 44
0.0000000001
 12
-0.1054958002177522
 22
0.9944197484646091
 32
0.0
 13
0.9999441014871806
 23
-0.0105732634978699
 33
0.0
 40
0.0
 40
0.0
 40
0.0
 40
0.0
 40
0.1202216691980943
 40
0.2329837281225706
 40
0.2828445449340558
 40
0.3266488341469146
 40
0.3946836377089393
 40
0.3946836377089393
 40
0.3946836377089393
 40
0.3946836377089393
 10
254.3473928416
 20
239.5142656988
 30
0.0
 10
254.3431652145348
 20
239.554115966148
 30
0.0
 10
254.3467196576504
 20
239.6329050430942
 30
0.0
 10
254.3765406865418
 20
239.7237875653629
 30
0.0
 10
254.4137546095815
 20
239.7823045146955
 30
0.0
 10
254.4503616832229
 20
239.8214823481633
 30
0.0
 10
254.4869037441274
 20
239.8403099642017
 30
0.0
 10
254.5095807443
 20
239.8400701809
 30
0.0
 11
254.3473928416
 21
239.5142656988
 31
0.0
 11
254.3524275955
 21
239.6343818967
 31
0.0
 11
254.389024464
 21
239.7410400007
 31
0.0
 11
254.4160704009
 21
239.7829281655
 31
0.0
 11
254.446597841
 21
239.8143429893
 31
0.0
 11
254.5095807443
 21
239.8400701809
 31
0.0
  0
SPLINE
  5
2F1
330
216
100
AcDbEntity
  8
0
  6
Continuous
 62
     7
100
AcDbSpline
210
0.0
220
0.0
230
1.0
 70
  1064
 71
     3
 72
     9
 73
     5
 74
     3
 42
0.000000001
 43
0.0000000001
 44
0.0000000001
 12
-0.8480561072055216
 22
0.5299064436590833
 32
0.0
 13
-0.1139334772301323
 23
0.9934883807907624
 33
0.0
 40
0.0
 40
0.0
 40
0.0
 40
0.0
 40
0.1224077458286939
 40
0.2590597972598989
 40
0.2590597972598989
 40
0.2590597972598989
 40
0.2590597972598989
 10
254.7237861823
 20
239.1973542321
 30
0.0
 10
254.6891833034936
 20
239.2189757831895
 30
0.0
 10
254.6296206446899
 20
239.2874393407453
 30
0.0
 10
254.6060508756967
 20
239.3728494765972
 30
0.0
 10
254.6008611279
 20
239.4181035517
 30
0.0
 11
254.7237861823
 21
239.1973542321
 31
0.0
 11
254.6409315742
 21
239.2874584504
 31
0.0
 11
254.6008611279
 21
239.4181035517
 31
0.0
  0
SPLINE
  5
2F2
330
216
100
AcDbEntity
  8
0
  6
Continuous
 62
     7
100
AcDbSpline
210
0.0
220
0.0
230
1.0
 70
  1064
 71
     3
 72
     9
 73
     5
 74
     3
 42
0.000000001
 43
0.0000000001
 44
0.0000000001
 12
-0.8593297072721332
 22
0.5114219922916787
 32
0.0
 13
-0.1054958001946119
 23
0.994419748467064
 33
0.0
 40
0.0
 40
0.0
 40
0.0
 40
0.0
 40
0.1216041930527013
 40
0.2569682788446037
 40
0.2569682788446037
 40
0.2569682788446037
 40
0.2569682788446037
 10
254.4706045921
 20
239.2965229096
 30
0.0
 10
254.4357718935603
 20
239.317253262494
 30
0.0
 10
254.3754988521116
 20
239.3844455636052
 30
0.0
 10
254.3521529557827
 20
239.4693961254184
 30
0.0
 10
254.3473928416
 20
239.5142656988
 30
0.0
 11
254.4706045921
 21
239.2965229096
 31
0.0
 11
254.3869958822
 21
239.3848244577
 31
0.0
 11
254.3473928416
 21
239.5142656988
 31
0.0
  0
SPLINE
  5
2F3
330
216
100
AcDbEntity
  8
0
  6
Continuous
 62
     7
100
AcDbSpline
210
0.0
220
0.0
230
1.0
 70
  1064
 71
     3
 72
     9
 73
     5
 74
     3
 42
0.000000001
 43
0.0000000001
 44
0.0000000001
 12
-0.6735796150843293
 22
0.7391146745552054
 32
0.0
 13
-0.1276355859321625
 23
0.9918211316582008
 33
0.0
 40
0.0
 40
0.0
 40
0.0
 40
0.0
 40
0.0337118913306263
 40
0.1391873369696696
 40
0.1391873369696696
 40
0.1391873369696696
 40
0.1391873369696696
 10
254.2056673488
 20
239.5048262563
 30
0.0
 10
254.1980981345379
 20
239.5131319074965
 30
0.0
 10
254.169962002036
 20
239.5502520673639
 30
0.0
 10
254.1547998641352
 20
239.5962938506147
 30
0.0
 10
254.1503123907
 20
239.6311647759
 30
0.0
 11
254.2056673488
 21
239.5048262563
 31
0.0
 11
254.1852297994
 21
239.5316366683
 31
0.0
 11
254.1503123907
 21
239.6311647759
 31
0.0
  0
SPLINE
  5
2F4
330
216
100
AcDbEntity
  8
0
  6
Continuous
 62
     7
100
AcDbSpline
210
0.0
220
0.0
230
1.0
 70
  1064
 71
     3
 72
     9
 73
     5
 74
     3
 42
0.000000001
 43
0.0000000001
 44
0.0000000001
 12
0.9158203287251403
 22
0.4015882536800303
 32
0.0
 13
0.9478642671949032
 23
-0.3186743337249952
 33
0.0
 40
0.0
 40
0.0
 40
0.0
 40
0.0
 40
0.0607843308546461
 40
0.1170818784719801
 40
0.1170818784719801
 40
0.1170818784719801
 40
0.1170818784719801
 10
254.7349197635
 20
239.7738644372
 30
0.0
 10
254.7534756054549
 20
239.7820011949597
 30
0.0
 10
254.79191092412
 20
239.7926565601344
 30
0.0
 10
254.8318904998942
 20
239.7880783466924
 30
0.0
 10
254.8496779778
 20
239.7820981522
 30
0.0
 11
254.7349197635
 21
239.7738644372
 31
0.0
 11
254.7938000536
 21
239.7889590162
 31
0.0
 11
254.8496779778
 21
239.7820981522
 31
0.0
  0
SPLINE
  5
2F5
330
216
100
AcDbEntity
  8
0
  6
Continuous
 62
     7
100
AcDbSpline
210
0.0
220
0.0
230
1.0
 70
  1064
 71
     3
 72
    10
 73
     6
 74
     4
 42
0.000000001
 43
0.0000000001
 44
0.0000000001
 12
-0.1139334773699565
 22
0.9934883807747274
 32
0.0
 13
0.8445743280327874
 23
0.5354383292480709
 33
0.0
 40
0.0
 40
0.0
 40
0.0
 40
0.0
 40
0.2160082639170576
 40
0.313413461098902
 40
0.3948579901932084
 40
0.3948579901932084
 40
0.3948579901932084
 40
0.3948579901932084
 10
254.6008611279
 20
239.4181035517
 30
0.0
 10
254.5926576036837
 20
239.4896374518176
 30
0.0
 10
254.6070914179683
 20
239.5987076336425
 30
0.0
 10
254.6691386850149
 20
239.715637088167
 30
0.0
 10
254.7119911106894
 20
239.7593282630051
 30
0.0
 10
254.7349197635
 20
239.7738644372
 30
0.0
 11
254.6008611279
 21
239.4181035517
 31
0.0
 11
254.6290912838
 21
239.6322591689
 31
0.0
 11
254.6760212293
 21
239.7176134462
 31
0.0
 11
254.7349197635
 21
239.7738644372
 31
0.0
  0
SPLINE
  5
2F6
330
216
100
AcDbEntity
  8
0
  6
Continuous
 62
     7
100
AcDbSpline
210
0.0
220
0.0
230
1.0
 70
  1064
 71
     3
 72
    13
 73
     9
 74
     7
 42
0.000000001
 43
0.0000000001
 44
0.0000000001
 12
-0.1086308949543045
 22
0.9940821538793597
 32
0.0
 13
0.9478975904383389
 23
-0.3185751999782641
 33
0.0
 40
0.0
 40
0.0
 40
0.0
 40
0.0
 40
0.1510309514692901
 40
0.2921090011054721
 40
0.3534623568362437
 40
0.4067117481294796
 40
0.4522991604501859
 40
0.4929674014293737
 40
0.4929674014293737
 40
0.4929674014293737
 40
0.4929674014293737
 10
254.8538167562
 20
239.3330710803
 30
0.0
 10
254.848347880392
 20
239.383116804813
 30
0.0
 10
254.8552397592979
 20
239.4822522299103
 30
0.0
 10
254.9001793941848
 20
239.5938691040802
 30
0.0
 10
254.9538948756954
 20
239.6608152223966
 30
0.0
 10
254.9966804227455
 20
239.6938206484983
 30
0.0
 10
255.0413379114335
 20
239.7099945126949
 30
0.0
 10
255.0711759092228
 20
239.7076424028009
 30
0.0
 10
255.0840256851
 20
239.7033237718
 30
0.0
 11
254.8538167562
 21
239.3330710803
 31
0.0
 11
254.863560466
 21
239.483787398
 31
0.0
 11
254.9184710057
 21
239.6137406539
 31
0.0
 11
254.9574697772
 21
239.6611044595
 31
0.0
 11
255.0002479965
 21
239.6928144205
 31
0.0
 11
255.0435344949
 21
239.7071144631
 31
0.0
 11
255.0840256851
 21
239.7033237718
 31
0.0
  0
SPLINE
  5
2F7
330
216
100
AcDbEntity
  8
0
  6
Continuous
 62
     7
100
AcDbSpline
210
0.0
220
0.0
230
1.0
 70
  1064
 71
     3
 72
    13
 73
     9
 74
     7
 42
0.000000001
 43
0.0000000001
 44
0.0000000001
 12
-0.1086308949487335
 22
0.9940821538799685
 32
0.0
 13
0.9479018714014229
 23
-0.3185624619971421
 33
0.0
 40
0.0
 40
0.0
 40
0.0
 40
0.0
 40
0.1510316819073256
 40
0.2921084438841047
 40
0.3534629510041378
 40
0.4067130866701995
 40
0.4523001651863154
 40
0.4929680826854062
 40
0.4929680826854062
 40
0.4929680826854062
 40
0.4929680826854062
 10
255.1052577033
 20
239.2485477776
 30
0.0
 10
255.099788801043
 20
239.2985937441515
 30
0.0
 10
255.1066806192917
 20
239.3977290132265
 30
0.0
 10
255.1516204169602
 20
239.5093460055036
 30
0.0
 10
255.2053361708148
 20
239.5762922091183
 30
0.0
 10
255.2481222421527
 20
239.6092977825622
 30
0.0
 10
255.2927800080196
 20
239.625471379291
 30
0.0
 10
255.3226176006989
 20
239.6231185738743
 30
0.0
 10
255.3354673324
 20
239.6188001499
 30
0.0
 11
255.1052577033
 21
239.2485477776
 31
0.0
 11
255.1150014976
 21
239.3992648218
 31
0.0
 11
255.169911626
 21
239.5292168536
 31
0.0
 11
255.2089112051
 21
239.5765814857
 31
0.0
 11
255.2516901773
 21
239.608291681
 31
0.0
 11
255.2949764999
 21
239.6225911916
 31
0.0
 11
255.3354673324
 21
239.6188001499
 31
0.0
  0
SPLINE
  5
2F8
330
216
100
AcDbEntity
  8
0
  6
Continuous
 62
     7
100
AcDbSpline
210
0.0
220
0.0
230
1.0
 70
  1064
 71
     3
 72
    13
 73
     9
 74
     7
 42
0.000000001
 43
0.0000000001
 44
0.0000000001
 12
-0.1086308950506326
 22
0.994082153868833
 32
0.0
 13
0.9479053260899821
 23
-0.3185521821778103
 33
0.0
 40
0.0
 40
0.0
 40
0.0
 40
0.0
 40
0.1510324524751672
 40
0.292107899717417
 40
0.3534633121373149
 40
0.4067145777956009
 40
0.4523013675166131
 40
0.4929687688404707
 40
0.4929687688404707
 40
0.4929687688404707
 40
0.4929687688404707
 10
255.3566986505
 20
239.1640244749
 30
0.0
 10
255.3512297203353
 20
239.2140706967869
 30
0.0
 10
255.3581214907791
 20
239.313205835794
 30
0.0
 10
255.403061492258
 20
239.4248227918331
 30
0.0
 10
255.4567773841631
 20
239.4917692615589
 30
0.0
 10
255.4995641510195
 20
239.5247748608869
 30
0.0
 10
255.5442222345555
 20
239.5409483014151
 30
0.0
 10
255.5740593805623
 20
239.5385947316118
 30
0.0
 10
255.586908996
 20
239.5342765018
 30
0.0
 11
255.3566986505
 21
239.1640244749
 31
0.0
 11
255.3664425589
 21
239.3147422839
 31
0.0
 11
255.4213522701
 21
239.4446930647
 31
0.0
 11
255.4603524415
 21
239.4920583818
 31
0.0
 11
255.5031325306
 21
239.5237689679
 31
0.0
 11
255.5464187208
 21
239.5380679586
 31
0.0
 11
255.586908996
 21
239.5342765018
 31
0.0
  0
SPLINE
  5
2F9
330
216
100
AcDbEntity
  8
0
  6
Continuous
 62
     7
100
AcDbSpline
210
0.0
220
0.0
230
1.0
 70
  1064
 71
     3
 72
     9
 73
     5
 74
     3
 42
0.000000001
 43
0.0000000001
 44
0.0000000001
 12
-0.1086308949585965
 22
0.9940821538788908
 32
0.0
 13
0.2963304407279289
 23
0.9550854777966165
 33
0.0
 40
0.0
 40
0.0
 40
0.0
 40
0.0
 40
0.1367892153348034
 40
0.1817989183166965
 40
0.1817989183166965
 40
0.1817989183166965
 40
0.1817989183166965
 10
255.6081395976
 20
239.0795011722
 30
0.0
 10
255.6031864193058
 20
239.1248277448025
 30
0.0
 10
255.606500344791
 20
239.186662808781
 30
0.0
 10
255.6214927185595
 20
239.245405334474
 30
0.0
 10
255.6259386336
 20
239.2597347057
 30
0.0
 11
255.6081395976
 21
239.0795011722
 31
0.0
 11
255.614784945
 21
239.2161288736
 31
0.0
 11
255.6259386336
 21
239.2597347057
 31
0.0
  0
SPLINE
  5
2FA
330
216
100
AcDbEntity
  8
0
  6
Continuous
 62
     7
100
AcDbSpline
210
0.0
220
0.0
230
1.0
 70
  1064
 71
     3
 72
    11
 73
     7
 74
     5
 42
0.000000001
 43
0.0000000001
 44
0.0000000001
 12
0.2963304405723548
 22
0.955085477844886
 32
0.0
 13
0.9478615621577194
 23
-0.3186823794688498
 33
0.0
 40
0.0
 40
0.0
 40
0.0
 40
0.0
 40
0.0983161818220459
 40
0.1837407337575144
 40
0.2533856819369161
 40
0.3109183792157264
 40
0.3109183792157264
 40
0.3109183792157264
 40
0.3109183792157264
 10
255.6259386336
 20
239.2597347057
 30
0.0
 10
255.6356499927582
 20
239.2910348248651
 30
0.0
 10
255.6603385399348
 20
239.3478769338196
 30
0.0
 10
255.71334605481
 20
239.4149468414617
 30
0.0
 10
255.7746814581682
 20
239.4544093640796
 30
0.0
 10
255.8201680814607
 20
239.4558664540887
 30
0.0
 10
255.8383457589
 20
239.4497549018
 30
0.0
 11
255.6259386336
 21
239.2597347057
 31
0.0
 11
255.6660073698
 21
239.3495153717
 31
0.0
 11
255.720378917
 21
239.4154023122
 31
0.0
 11
255.7808136511
 21
239.4500153404
 31
0.0
 11
255.8383457589
 21
239.4497549018
 31
0.0
  0
SPLINE
  5
2FB
330
216
100
AcDbEntity
  8
0
  6
Continuous
 62
     7
100
AcDbSpline
210
0.0
220
0.0
230
1.0
 70
  1064
 71
     3
 72
    13
 73
     9
 74
     7
 42
0.000000001
 43
0.0000000001
 44
0.0000000001
 12
-0.1086308948924671
 22
0.994082153886117
 32
0.0
 13
0.9479636094314971
 23
-0.3183786977698228
 33
0.0
 40
0.0
 40
0.0
 40
0.0
 40
0.0
 40
0.1510326482798532
 40
0.2921040337475414
 40
0.3534573952643143
 40
0.4067077314046898
 40
0.4522914183477945
 40
0.4929539976278273
 40
0.4929539976278273
 40
0.4929539976278273
 40
0.4929539976278273
 10
255.8595805447
 20
238.9949778695
 30
0.0
 10
255.8541116074532
 20
239.0450241562697
 30
0.0
 10
255.8610031408913
 20
239.1441580872577
 30
0.0
 10
255.9059422169446
 20
239.255772944618
 30
0.0
 10
255.9596552976187
 20
239.3227186318719
 30
0.0
 10
256.0024397078594
 20
239.35572375014
 30
0.0
 10
256.0470935162774
 20
239.3718992294985
 30
0.0
 10
256.0769278103923
 20
239.3695499239464
 30
0.0
 10
256.0897766922
 20
239.3652345576
 30
0.0
 11
255.8595805447
 21
238.9949778695
 31
0.0
 11
255.8693244332
 21
239.145695876
 31
0.0
 11
255.9242320128
 21
239.275643148
 31
0.0
 11
255.9632300217
 21
239.323007589
 31
0.0
 11
256.0060084766
 21
239.3547188188
 31
0.0
 11
256.0492906925
 21
239.3690199482
 31
0.0
 11
256.0897766922
 21
239.3652345576
 31
0.0
  0
SPLINE
  5
2FC
330
216
100
AcDbEntity
  8
0
  6
Continuous
 62
     7
100
AcDbSpline
210
0.0
220
0.0
230
1.0
 70
  1064
 71
     3
 72
    13
 73
     9
 74
     7
 42
0.000000001
 43
0.0000000001
 44
0.0000000001
 12
-0.1086308949345681
 22
0.9940821538815164
 32
0.0
 13
0.9479765614205886
 23
-0.3183401309875915
 33
0.0
 40
0.0
 40
0.0
 40
0.0
 40
0.0
 40
0.1510326396673085
 40
0.292103571462502
 40
0.3534555825445636
 40
0.4067052287638599
 40
0.4522887290226145
 40
0.4929499063978867
 40
0.4929499063978867
 40
0.4929499063978867
 40
0.4929499063978867
 10
256.1110214918
 20
238.9104545668
 30
0.0
 10
256.1055525548629
 20
238.9605008507157
 30
0.0
 10
256.1124440980498
 20
239.0596345965777
 30
0.0
 10
256.1573827674904
 20
239.1712489953801
 30
0.0
 10
256.2110951810321
 20
239.2381940491147
 30
0.0
 10
256.2538785735384
 20
239.2711992905635
 30
0.0
 10
256.2985313202521
 20
239.2873750002243
 30
0.0
 10
256.3283650902294
 20
239.2850272969439
 30
0.0
 10
256.3412137046
 20
239.2807126021
 30
0.0
 11
256.1110214918
 21
238.9104545668
 31
0.0
 11
256.120765369
 21
239.0611725654
 31
0.0
 11
256.1756726518
 21
239.1911194703
 31
0.0
 11
256.2146696444
 21
239.2384829988
 31
0.0
 11
256.2574471691
 21
239.2701943249
 31
0.0
 11
256.3007289446
 21
239.2844961921
 31
0.0
 11
256.3412137046
 21
239.2807126021
 31
0.0
  0
SPLINE
  5
2FD
330
216
100
AcDbEntity
  8
0
  6
Continuous
 62
     7
100
AcDbSpline
210
0.0
220
0.0
230
1.0
 70
  1064
 71
     3
 72
    10
 73
     6
 74
     4
 42
0.000000001
 43
0.0000000001
 44
0.0000000001
 12
-0.108630895060403
 22
0.9940821538677655
 32
0.0
 13
0.824083669388346
 23
0.5664680978196735
 33
0.0
 40
0.0
 40
0.0
 40
0.0
 40
0.0
 40
0.2097327364711637
 40
0.3054337010271412
 40
0.3867694386759024
 40
0.3867694386759024
 40
0.3867694386759024
 40
0.3867694386759024
 10
256.362462439
 20
238.8259312641
 30
0.0
 10
256.3548679540379
 20
238.8954284542359
 30
0.0
 10
256.3689943342883
 20
239.0014545691382
 30
0.0
 10
256.4288416051379
 20
239.1164428306471
 30
0.0
 10
256.470273172222
 20
239.1603957686698
 30
0.0
 10
256.4926156566
 20
239.1757538022
 30
0.0
 11
256.362462439
 21
238.8259312641
 31
0.0
 11
256.3898922301
 21
239.0338625684
 31
0.0
 11
256.4351664468
 21
239.1181769795
 31
0.0
 11
256.4926156566
 21
239.1757538022
 31
0.0
  0
SPLINE
  5
2FE
330
216
100
AcDbEntity
  8
0
  6
Continuous
 62
     7
100
AcDbSpline
210
0.0
220
0.0
230
1.0
 70
  1064
 71
     3
 72
     9
 73
     5
 74
     3
 42
0.000000001
 43
0.0000000001
 44
0.0000000001
 12
0.8445743281948219
 22
0.5354383289924857
 32
0.0
 13
0.9552956517098571
 23
-0.2956521906298675
 33
0.0
 40
0.0
 40
0.0
 40
0.0
 40
0.0
 40
0.0493091127789016
 40
0.092196042491363
 40
0.092196042491363
 40
0.092196042491363
 40
0.092196042491363
 10
254.7349197635
 20
239.7738644372
 30
0.0
 10
254.748801500433
 20
239.7826651001835
 30
0.0
 10
254.7775406057002
 20
239.7956914421531
 30
0.0
 10
254.8097040634768
 20
239.7948126484396
 30
0.0
 10
254.8233606293
 20
239.7905861102
 30
0.0
 11
254.7349197635
 21
239.7738644372
 31
0.0
 11
254.7805220202
 21
239.7926213769
 31
0.0
 11
254.8233606293
 21
239.7905861102
 31
0.0
  0
SPLINE
  5
2FF
330
216
100
AcDbEntity
  8
0
  6
Continuous
 62
     7
100
AcDbSpline
210
0.0
220
0.0
230
1.0
 70
  1064
 71
     3
 72
     9
 73
     5
 74
     3
 42
0.000000001
 43
0.0000000001
 44
0.0000000001
 12
-0.827918438810985
 22
0.5608485166930385
 32
0.0
 13
-0.108630895189689
 23
0.9940821538536376
 33
0.0
 40
0.0
 40
0.0
 40
0.0
 40
0.0
 40
0.11869912137074
 40
0.2508502701313322
 40
0.2508502701313322
 40
0.2508502701313322
 40
0.2508502701313322
 10
256.477868367
 20
238.6097109402
 30
0.0
 10
256.4451106365822
 20
238.6319016822512
 30
0.0
 10
256.3893346566289
 20
238.6993825731194
 30
0.0
 10
256.3672476715301
 20
238.7821415645686
 30
0.0
 10
256.362462439
 20
238.8259312641
 30
0.0
 11
256.477868367
 21
238.6097109402
 31
0.0
 11
256.3998688543
 21
238.6991847209
 31
0.0
 11
256.362462439
 21
238.8259312641
 31
0.0
  0
SPLINE
  5
300
330
216
100
AcDbEntity
  8
0
  6
Continuous
 62
     7
100
AcDbSpline
210
0.0
220
0.0
230
1.0
 70
  1064
 71
     3
 72
     9
 73
     5
 74
     3
 42
0.000000001
 43
0.0000000001
 44
0.0000000001
 12
-0.8443675888678823
 22
0.5357642904015151
 32
0.0
 13
-0.1086308948466675
 23
0.9940821538911221
 33
0.0
 40
0.0
 40
0.0
 40
0.0
 40
0.0
 40
0.1213950207142589
 40
0.256950593512659
 40
0.256950593512659
 40
0.256950593512659
 40
0.256950593512659
 10
256.2316897881
 20
238.6907833616
 30
0.0
 10
256.1975224477864
 20
238.7124630673104
 30
0.0
 10
256.1388657231931
 20
238.7807015703977
 30
0.0
 10
256.1159299995249
 20
238.8655367748736
 30
0.0
 10
256.1110214918
 20
238.9104545668
 30
0.0
 11
256.2316897881
 21
238.6907833616
 31
0.0
 11
256.1500713763
 21
238.7806453998
 31
0.0
 11
256.1110214918
 21
238.9104545668
 31
0.0
  0
SPLINE
  5
301
330
216
100
AcDbEntity
  8
0
  6
Continuous
 62
     7
100
AcDbSpline
210
0.0
220
0.0
230
1.0
 70
  1064
 71
     3
 72
     9
 73
     5
 74
     3
 42
0.000000001
 43
0.0000000001
 44
0.0000000001
 12
-0.8426615273533833
 22
0.5384436370860585
 32
0.0
 13
-0.1086308949832281
 23
0.9940821538761991
 33
0.0
 40
0.0
 40
0.0
 40
0.0
 40
0.0
 40
0.1211112056476614
 40
0.2563081028750824
 40
0.2563081028750824
 40
0.2563081028750824
 40
0.2563081028750824
 10
255.9796892443
 20
238.7756630404
 30
0.0
 10
255.9456706597898
 20
238.7974002264203
 30
0.0
 10
255.8873218381017
 20
238.8655629911496
 30
0.0
 10
255.8644760646816
 20
238.950178928569
 30
0.0
 10
255.8595805447
 20
238.9949778695
 30
0.0
 11
255.9796892443
 21
238.7756630404
 31
0.0
 11
255.8984554753
 21
238.865490647
 31
0.0
 11
255.8595805447
 21
238.9949778695
 31
0.0
  0
SPLINE
  5
302
330
216
100
AcDbEntity
  8
0
  6
Continuous
 62
     7
100
AcDbSpline
210
0.0
220
0.0
230
1.0
 70
  1064
 71
     3
 72
     9
 73
     5
 74
     3
 42
0.000000001
 43
0.0000000001
 44
0.0000000001
 12
-0.1276355865550705
 22
0.9918211315780396
 32
0.0
 13
0.3617436679716186
 23
0.9322775974367502
 33
0.0
 40
0.0
 40
0.0
 40
0.0
 40
0.0
 40
0.0330882135101755
 40
0.1211387710625196
 40
0.1211387710625196
 40
0.1211387710625196
 40
0.1211387710625196
 10
254.1503123907
 20
239.6311647759
 30
0.0
 10
254.1489046461869
 20
239.6421039723552
 30
0.0
 10
254.1462252961224
 20
239.6823761608246
 30
0.0
 10
254.1521352933147
 20
239.7236349493507
 30
0.0
 10
254.1627525372
 20
239.7509974701
 30
0.0
 11
254.1503123907
 21
239.6311647759
 31
0.0
 11
254.148081781
 21
239.6641777166
 31
0.0
 11
254.1627525372
 21
239.7509974701
 31
0.0
  0
SPLINE
  5
303
330
216
100
AcDbEntity
  8
0
  6
Continuous
 62
     7
100
AcDbSpline
210
0.0
220
0.0
230
1.0
 70
  1064
 71
     3
 72
     9
 73
     5
 74
     3
 42
0.000000001
 43
0.0000000001
 44
0.0000000001
 12
-0.8467590496791331
 22
0.5319766083076316
 32
0.0
 13
-0.1086308949612412
 23
0.9940821538786018
 33
0.0
 40
0.0
 40
0.0
 40
0.0
 40
0.0
 40
0.1217940312064366
 40
0.2578561578394681
 40
0.2578561578394681
 40
0.2578561578394681
 40
0.2578561578394681
 10
255.7295988175
 20
238.8593306268
 30
0.0
 10
255.695222084793
 20
238.8809278186778
 30
0.0
 10
255.6361291477202
 20
238.949270845631
 30
0.0
 10
255.6130664477954
 20
239.0344155282318
 30
0.0
 10
255.6081395976
 20
239.0795011722
 30
0.0
 11
255.7295988175
 21
238.8593306268
 31
0.0
 11
255.6474372677
 21
238.9492376108
 31
0.0
 11
255.6081395976
 21
239.0795011722
 31
0.0
  0
SPLINE
  5
304
330
216
100
AcDbEntity
  8
02___PRT_ALL_AXES
  6
Continuous
 62
     7
100
AcDbSpline
210
0.0
220
0.0
230
1.0
 70
  1064
 71
     3
 72
     9
 73
     5
 74
     3
 42
0.000000001
 43
0.0000000001
 44
0.0000000001
 12
0.392097314428367
 22
-0.9199237446756455
 32
0.0
 13
0.5820962661829722
 23
-0.8131198785516453
 33
0.0
 40
0.0
 40
0.0
 40
0.0
 40
0.0
 40
0.0380269349275708
 40
0.1654700950285816
 40
0.1654700950285816
 40
0.1654700950285816
 40
0.1654700950285816
 10
176.1513405182
 20
218.3070908708
 30
0.0
 10
176.1563106045537
 20
218.2954302440077
 30
0.0
 10
176.1794925845698
 20
218.2453600620516
 30
0.0
 10
176.2084678374515
 20
218.1980364981545
 30
0.0
 10
176.2331959
 20
218.1634943092
 30
0.0
 11
176.1513405182
 21
218.3070908708
 31
0.0
 11
176.167271539
 21
218.2725618923
 31
0.0
 11
176.2331959
 21
218.1634943092
 31
0.0
  0
SPLINE
  5
305
330
216
100
AcDbEntity
  8
0
  6
Continuous
 62
     7
100
AcDbSpline
210
0.0
220
0.0
230
1.0
 70
  1064
 71
     3
 72
    11
 73
     7
 74
     5
 42
0.000000001
 43
0.0000000001
 44
0.0000000001
 12
-0.989994435525916
 22
0.1411064053391015
 32
0.0
 13
0.0501920406248691
 23
0.9987395852062295
 33
0.0
 40
0.0
 40
0.0
 40
0.0
 40
0.0
 40
0.1223160482960455
 40
0.2517794652517018
 40
0.3950982650668874
 40
0.5505173441765125
 40
0.5505173441765125
 40
0.5505173441765125
 40
0.5505173441765125
 10
178.5697432377
 20
217.0361092749
 30
0.0
 10
178.5293791686371
 20
217.0418624675301
 30
0.0
 10
178.4479084120839
 20
217.0742329758192
 30
0.0
 10
178.358041513653
 20
217.1756364056079
 30
0.0
 10
178.3071087152112
 20
217.3115574537695
 30
0.0
 10
178.2999979234891
 20
217.412239484699
 30
0.0
 10
178.3025981904
 20
217.4639805469
 30
0.0
 11
178.5697432377
 21
217.0361092749
 31
0.0
 11
178.4559331037
 21
217.0809252215
 31
0.0
 11
178.3678601661
 21
217.175814283
 31
0.0
 11
178.3150897379
 21
217.3090642747
 31
0.0
 11
178.3025981904
 21
217.4639805469
 31
0.0
  0
SPLINE
  5
306
330
216
100
AcDbEntity
  8
0
  6
Continuous
 62
     7
100
AcDbSpline
210
0.0
220
0.0
230
1.0
 70
  1064
 71
     3
 72
     9
 73
     5
 74
     3
 42
0.000000001
 43
0.0000000001
 44
0.0000000001
 12
0.3391305582675296
 22
0.9407393180095928
 32
0.0
 13
0.693516971596126
 23
0.7204402890650539
 33
0.0
 40
0.0
 40
0.0
 40
0.0
 40
0.0
 40
0.0588925975700285
 40
0.221400082205982
 40
0.221400082205982
 40
0.221400082205982
 40
0.221400082205982
 10
177.5860055612
 20
217.9053323231
 30
0.0
 10
177.5926629876972
 20
217.923799850458
 30
0.0
 10
177.6208676750058
 20
217.9919588228234
 30
0.0
 10
177.6618636632312
 20
218.0554388327979
 30
0.0
 10
177.6994308961
 20
218.0944644792
 30
0.0
 11
177.5860055612
 21
217.9053323231
 31
0.0
 11
177.6085729928
 21
217.9597294653
 31
0.0
 11
177.6994308961
 21
218.0944644792
 31
0.0
  0
SPLINE
  5
307
330
216
100
AcDbEntity
  8
0
  6
Continuous
 62
     7
100
AcDbSpline
210
0.0
220
0.0
230
1.0
 70
  1064
 71
     3
 72
    12
 73
     8
 74
     6
 42
0.000000001
 43
0.0000000001
 44
0.0000000001
 12
0.6935169714171741
 22
0.7204402892373181
 32
0.0
 13
0.3961408805944963
 23
-0.9181897422220622
 33
0.0
 40
0.0
 40
0.0
 40
0.0
 40
0.0
 40
0.1156985403127983
 40
0.2118412720544937
 40
0.2564732739744856
 40
0.3015737026894103
 40
0.4008950186627774
 40
0.4008950186627774
 40
0.4008950186627774
 40
0.4008950186627774
 10
177.6994308961
 20
218.0944644792
 30
0.0
 10
177.726177196525
 20
218.1222491091491
 30
0.0
 10
177.7826839760523
 20
218.1672958946986
 30
0.0
 10
177.8700583130113
 20
218.187925189473
 30
0.0
 10
177.9313683752682
 20
218.1735677089922
 30
0.0
 10
177.986283286749
 20
218.1409356329548
 30
0.0
 10
178.0146833899428
 20
218.0988144505036
 30
0.0
 10
178.0277984678
 20
218.068415846
 30
0.0
 11
177.6994308961
 21
218.0944644792
 31
0.0
 11
177.7925722368
 21
218.1631000595
 31
0.0
 11
177.8868956288
 21
218.1817151767
 31
0.0
 11
177.9303398082
 21
218.17148684
 31
0.0
 11
177.9692121645
 21
218.1486178963
 31
0.0
 11
178.0277984678
 21
218.068415846
 31
0.0
  0
SPLINE
  5
308
330
216
100
AcDbEntity
  8
0
  6
Continuous
 62
     7
100
AcDbSpline
210
0.0
220
0.0
230
1.0
 70
  1064
 71
     3
 72
    11
 73
     7
 74
     5
 42
0.000000001
 43
0.0000000001
 44
0.0000000001
 12
-0.9849126842976973
 22
-0.17305202775323
 32
0.0
 13
-0.2867092583209078
 23
0.9580176413788397
 33
0.0
 40
0.0
 40
0.0
 40
0.0
 40
0.0
 40
0.1082807065035766
 40
0.2143581001245207
 40
0.3260819605286311
 40
0.4481304051512502
 40
0.4481304051512502
 40
0.4481304051512502
 40
0.4481304051512502
 10
176.9003365931
 20
217.6297759151
 30
0.0
 10
176.8647875793333
 20
217.6235298498243
 30
0.0
 10
176.7911443047406
 20
217.6236248100296
 30
0.0
 10
176.6891268585846
 20
217.6693565216538
 30
0.0
 10
176.6102748220781
 20
217.7541918841412
 30
0.0
 10
176.578115492979
 20
217.8266134697496
 30
0.0
 10
176.5664513533
 20
217.8655883241
 30
0.0
 11
176.9003365931
 21
217.6297759151
 31
0.0
 11
176.7920662305
 21
217.6312725725
 31
0.0
 11
176.6950697894
 21
217.6742156028
 31
0.0
 11
176.6177136557
 21
217.7548273238
 31
0.0
 11
176.5664513533
 21
217.8655883241
 31
0.0
  0
SPLINE
  5
309
330
216
100
AcDbEntity
  8
0
  6
Continuous
 62
     7
100
AcDbSpline
210
0.0
220
0.0
230
1.0
 70
  1064
 71
     3
 72
    11
 73
     7
 74
     5
 42
0.000000001
 43
0.0000000001
 44
0.0000000001
 12
-0.2867092582913774
 22
0.9580176413876774
 32
0.0
 13
0.9432690091205641
 23
0.3320294812704279
 33
0.0
 40
0.0
 40
0.0
 40
0.0
 40
0.0
 40
0.1935079244863939
 40
0.3925569390614049
 40
0.5748499496914843
 40
0.7228702185057191
 40
0.7228702185057191
 40
0.7228702185057191
 40
0.7228702185057191
 10
176.5664513533
 20
217.8655883241
 30
0.0
 10
176.547957848799
 20
217.9273829925687
 30
0.0
 10
176.5356550526713
 20
218.0608000139666
 30
0.0
 10
176.577608562398
 20
218.2505808822299
 30
0.0
 10
176.66534044383
 20
218.406461896457
 30
0.0
 10
176.7555878343686
 20
218.4788427716427
 30
0.0
 10
176.8021288118
 20
218.495225136
 30
0.0
 11
176.5664513533
 21
217.8655883241
 31
0.0
 11
176.5457797872
 21
218.0579889561
 31
0.0
 11
176.5884679009
 21
218.2524066383
 31
0.0
 11
176.6818340297
 21
218.4089745396
 31
0.0
 11
176.8021288118
 21
218.495225136
 31
0.0
  0
SPLINE
  5
30A
330
216
100
AcDbEntity
  8
02___PRT_ALL_AXES
  6
Continuous
 62
     7
100
AcDbSpline
210
0.0
220
0.0
230
1.0
 70
  1064
 71
     3
 72
     9
 73
     5
 74
     3
 42
0.000000001
 43
0.0000000001
 44
0.0000000001
 12
-0.9882948185436632
 22
-0.1525560606457442
 32
0.0
 13
-0.8681623489078704
 23
-0.4962802997689606
 33
0.0
 40
0.0
 40
0.0
 40
0.0
 40
0.0
 40
0.082323759801631
 40
0.3025230194221067
 40
0.3025230194221067
 40
0.3025230194221067
 40
0.3025230194221067
 10
176.4373509817
 20
218.4028285085
 30
0.0
 10
176.4102309332816
 20
218.3986421790024
 30
0.0
 10
176.3113279552612
 20
218.379105283109
 30
0.0
 10
176.2150634203533
 20
218.3435177223245
 30
0.0
 10
176.1513405182
 20
218.3070908708
 30
0.0
 11
176.4373509817
 21
218.4028285085
 31
0.0
 11
176.3565985752
 21
218.3868206894
 31
0.0
 11
176.1513405182
 21
218.3070908708
 31
0.0
  0
SPLINE
  5
30B
330
216
100
AcDbEntity
  8
0
  6
Continuous
 62
     7
100
AcDbSpline
210
0.0
220
0.0
230
1.0
 70
  1064
 71
     3
 72
     9
 73
     5
 74
     3
 42
0.000000001
 43
0.0000000001
 44
0.0000000001
 12
-0.2169123106873431
 22
0.9761910927027953
 32
0.0
 13
0.2911375345487984
 23
0.9566812091688888
 33
0.0
 40
0.0
 40
0.0
 40
0.0
 40
0.0
 40
0.0764987222403194
 40
0.3130692826846393
 40
0.3130692826846393
 40
0.3130692826846393
 40
0.3130692826846393
 10
178.5662917492
 20
217.2256046892
 30
0.0
 10
178.5607605776647
 20
217.2504971462847
 30
0.0
 10
178.5457243828281
 20
217.353982162286
 30
0.0
 10
178.5585607553951
 20
217.4609241011601
 30
0.0
 10
178.5815189453
 20
217.5363649711
 30
0.0
 11
178.5662917492
 21
217.2256046892
 31
0.0
 11
178.5550765617
 21
217.3012768378
 31
0.0
 11
178.5815189453
 21
217.5363649711
 31
0.0
  0
SPLINE
  5
30C
330
216
100
AcDbEntity
  8
0
  6
Continuous
 62
     7
100
AcDbSpline
210
0.0
220
0.0
230
1.0
 70
  1064
 71
     3
 72
     9
 73
     5
 74
     3
 42
0.000000001
 43
0.0000000001
 44
0.0000000001
 12
0.0501920406420078
 22
0.9987395852053683
 32
0.0
 13
0.6937791529855389
 23
0.7201878136171623
 33
0.0
 40
0.0
 40
0.0
 40
0.0
 40
0.0
 40
0.2161760667737357
 40
0.4123324522417679
 40
0.4123324522417679
 40
0.4123324522417679
 40
0.4123324522417679
 10
178.3025981904
 20
217.4639805469
 30
0.0
 10
178.3062149630431
 20
217.535948411987
 30
0.0
 10
178.336137166169
 20
217.6726878437623
 30
0.0
 10
178.4084920994791
 20
217.7939112712076
 30
0.0
 10
178.4538551698
 20
217.841001084
 30
0.0
 11
178.3025981904
 21
217.4639805469
 31
0.0
 11
178.3492532498
 21
217.6750620413
 31
0.0
 11
178.4538551698
 21
217.841001084
 31
0.0
  0
SPLINE
  5
30D
330
216
100
AcDbEntity
  8
0
  6
Continuous
 62
     7
100
AcDbSpline
210
0.0
220
0.0
230
1.0
 70
  1064
 71
     3
 72
     9
 73
     5
 74
     3
 42
0.000000001
 43
0.0000000001
 44
0.0000000001
 12
0.6937791529198
 22
0.7201878136804906
 32
0.0
 13
0.9792519431015296
 23
0.2026465690108734
 33
0.0
 40
0.0
 40
0.0
 40
0.0
 40
0.0
 40
0.0455242462091525
 40
0.1637755938757373
 40
0.1637755938757373
 40
0.1637755938757373
 40
0.1637755938757373
 10
178.4538551698
 20
217.841001084
 30
0.0
 10
178.4643830941241
 20
217.8519297531156
 30
0.0
 10
178.5042539625004
 20
217.8890112427261
 30
0.0
 10
178.5543774654743
 20
217.9169997680048
 30
0.0
 10
178.5929767528
 20
217.9249875113
 30
0.0
 11
178.4538551698
 21
217.841001084
 31
0.0
 11
178.4873408606
 21
217.8718420552
 31
0.0
 11
178.5929767528
 21
217.9249875113
 31
0.0
  0
SPLINE
  5
30E
330
216
100
AcDbEntity
  8
0
  6
Continuous
 62
     7
100
AcDbSpline
210
0.0
220
0.0
230
1.0
 70
  1064
 71
     3
 72
    13
 73
     9
 74
     7
 42
0.000000001
 43
0.0000000001
 44
0.0000000001
 12
-0.9850038283349272
 22
-0.1725324843776886
 32
0.0
 13
0.149447131463254
 23
0.9887697178298925
 33
0.0
 40
0.0
 40
0.0
 40
0.0
 40
0.0
 40
0.0808420912593922
 40
0.1593339411447237
 40
0.2387204383001872
 40
0.3219445818077582
 40
0.5043656638452095
 40
0.7050670987809409
 40
0.7050670987809409
 40
0.7050670987809409
 40
0.7050670987809409
 10
178.4083355394
 20
217.1224472386
 30
0.0
 10
178.3817922829396
 20
217.1177979429843
 30
0.0
 10
178.3279027508278
 20
217.1154156435975
 30
0.0
 10
178.2497245417002
 20
217.1357038232653
 30
0.0
 10
178.1805536169196
 20
217.1789281106644
 30
0.0
 10
178.1030386763507
 20
217.2656696483787
 30
0.0
 10
178.0472386546267
 20
217.4162683292338
 30
0.0
 10
178.0476059057227
 20
217.5463444773368
 30
0.0
 10
178.0576039903
 20
217.6124936444
 30
0.0
 11
178.4083355394
 21
217.1224472386
 31
0.0
 11
178.3275479317
 21
217.1194797209
 31
0.0
 11
178.2516016601
 21
217.1393073362
 31
0.0
 11
178.1840665844
 21
217.1810353781
 31
0.0
 11
178.1280621713
 21
217.2425964354
 31
0.0
 11
178.0599021505
 21
217.4118053676
 31
0.0
 11
178.0576039903
 21
217.6124936444
 31
0.0
  0
SPLINE
  5
30F
330
216
100
AcDbEntity
  8
0
  6
Continuous
 62
     7
100
AcDbSpline
210
0.0
220
0.0
230
1.0
 70
  1064
 71
     3
 72
     9
 73
     5
 74
     3
 42
0.000000001
 43
0.0000000001
 44
0.0000000001
 12
0.1494471315175414
 22
0.9887697178216871
 32
0.0
 13
0.6947974755693548
 23
0.7192054420973553
 33
0.0
 40
0.0
 40
0.0
 40
0.0
 40
0.0
 40
0.1834587058162936
 40
0.3493589845045411
 40
0.3493589845045411
 40
0.3493589845045411
 40
0.3493589845045411
 10
178.0576039903
 20
217.6124936444
 30
0.0
 10
178.0667431160787
 20
217.672959781994
 30
0.0
 10
178.1000805050102
 20
217.7861858674824
 30
0.0
 10
178.164385071957
 20
217.8861620435406
 30
0.0
 10
178.2028074369
 20
217.9259341713
 30
0.0
 11
178.0576039903
 21
217.6124936444
 31
0.0
 11
178.1102955477
 21
217.7882226873
 31
0.0
 11
178.2028074369
 21
217.9259341713
 31
0.0
  0
SPLINE
  5
310
330
216
100
AcDbEntity
  8
0
  6
Continuous
 62
     7
100
AcDbSpline
210
0.0
220
0.0
230
1.0
 70
  1064
 71
     3
 72
    12
 73
     8
 74
     6
 42
0.000000001
 43
0.0000000001
 44
0.0000000001
 12
0.6947974754796543
 22
0.7192054421840113
 32
0.0
 13
0.4029620373872034
 23
-0.9152166936986859
 33
0.0
 40
0.0
 40
0.0
 40
0.0
 40
0.0
 40
0.1149643839146893
 40
0.2105962630985585
 40
0.2549781082434675
 40
0.2997791187578867
 40
0.3982606915596334
 40
0.3982606915596334
 40
0.3982606915596334
 40
0.3982606915596334
 10
178.2028074369
 20
217.9259341713
 30
0.0
 10
178.2294330914713
 20
217.9534951748229
 30
0.0
 10
178.2856626355769
 20
217.9981819097507
 30
0.0
 10
178.3724422678515
 20
218.0187914924995
 30
0.0
 10
178.4334563307075
 20
218.0048114601006
 30
0.0
 10
178.4881704549136
 20
217.9727775520129
 30
0.0
 10
178.5166647059596
 20
217.9312158821499
 30
0.0
 10
178.5298928177
 20
217.901171889
 30
0.0
 11
178.2028074369
 21
217.9259341713
 31
0.0
 11
178.2954271827
 21
217.9940399145
 31
0.0
 11
178.3892181986999
 21
218.0127134689
 31
0.0
 11
178.4324657726
 21
218.0027437382
 31
0.0
 11
178.4712213705
 21
217.980268548
 31
0.0
 11
178.5298928177
 21
217.901171889
 31
0.0
  0
SPLINE
  5
311
330
216
100
AcDbEntity
  8
0
  6
Continuous
 62
     7
100
AcDbSpline
210
0.0
220
0.0
230
1.0
 70
  1064
 71
     3
 72
    14
 73
    10
 74
     8
 42
0.000000001
 43
0.0000000001
 44
0.0000000001
 12
-0.9854365243693973
 22
-0.1700436897940136
 32
0.0
 13
0.2453356800930279
 23
0.96943818991893
 33
0.0
 40
0.0
 40
0.0
 40
0.0
 40
0.0
 40
0.0868666828893181
 40
0.1713217131924175
 40
0.2574311746109336
 40
0.3486244226666039
 40
0.4465627764599594
 40
0.5509178470521212
 40
0.7691208515799419
 40
0.7691208515799419
 40
0.7691208515799419
 40
0.7691208515799419
 10
178.1560712086
 20
217.2068273007
 30
0.0
 10
178.1275373412433
 20
217.2019035902738
 30
0.0
 10
178.0694069122038
 20
217.2000781783506
 30
0.0
 10
177.9857931978265
 20
217.2252533693673
 30
0.0
 10
177.9135716007251
 20
217.2767721019268
 30
0.0
 10
177.8569822237271
 20
217.3504279885061
 30
0.0
 10
177.8182143496578
 20
217.4412306222929
 30
0.0
 10
177.7914726397667
 20
217.5795445915089
 30
0.0
 10
177.8010264400952
 20
217.6895309138853
 30
0.0
 10
177.8188707675999
 20
217.7600423558
 30
0.0
 11
178.1560712086
 21
217.2068273007
 31
0.0
 11
178.0692275116
 21
217.2048290796
 31
0.0
 11
177.9883750437
 21
217.2292325748
 31
0.0
 11
177.91791468
 21
217.2787318323
 31
0.0
 11
177.861601071
 21
217.3504603896
 31
0.0
 11
177.8223098813
 21
217.4401717242
 31
0.0
 11
177.8018599043
 21
217.5425034358
 31
0.0
 11
177.8188707675999
 21
217.7600423558
 31
0.0
  0
SPLINE
  5
312
330
216
100
AcDbEntity
  8
0
  6
Continuous
 62
     7
100
AcDbSpline
210
0.0
220
0.0
230
1.0
 70
  1064
 71
     3
 72
     9
 73
     5
 74
     3
 42
0.000000001
 43
0.0000000001
 44
0.0000000001
 12
0.2453356801722447
 22
0.9694381898988828
 32
0.0
 13
0.6905455242071732
 23
0.7232889318919796
 33
0.0
 40
0.0
 40
0.0
 40
0.0
 40
0.0
 40
0.0754821861902811
 40
0.282602830806184
 40
0.282602830806184
 40
0.282602830806184
 40
0.282602830806184
 10
177.8188707675999
 20
217.7600423558
 30
0.0
 10
177.8250435920966
 20
217.7844341271166
 30
0.0
 10
177.8533280270139
 20
217.8742073369667
 30
0.0
 10
177.9020098334298
 20
217.9587695240277
 30
0.0
 10
177.9496852448
 20
218.0087055473
 30
0.0
 11
177.8188707675999
 21
217.7600423558
 31
0.0
 11
177.841608089
 21
217.8320185647
 31
0.0
 11
177.9496852448
 21
218.0087055473
 31
0.0
  0
SPLINE
  5
313
330
216
100
AcDbEntity
  8
0
  6
Continuous
 62
     7
100
AcDbSpline
210
0.0
220
0.0
230
1.0
 70
  1064
 71
     3
 72
    12
 73
     8
 74
     6
 42
0.000000001
 43
0.0000000001
 44
0.0000000001
 12
0.6905455242799029
 22
0.7232889318225422
 32
0.0
 13
0.3980359205023587
 23
-0.9173698305426443
 33
0.0
 40
0.0
 40
0.0
 40
0.0
 40
0.0
 40
0.1162192981933545
 40
0.2127296215183637
 40
0.2574734495881633
 40
0.3026489692005352
 40
0.4020881449223665
 40
0.4020881449223665
 40
0.4020881449223665
 40
0.4020881449223665
 10
177.9496852448
 20
218.0087055473
 30
0.0
 10
177.9764368168675
 20
218.0367255913158
 30
0.0
 10
178.0329659351533
 20
218.0822101550139
 30
0.0
 10
178.1205611180429
 20
218.1033993547139
 30
0.0
 10
178.1821327289114
 20
218.0893274234276
 30
0.0
 10
178.2372902369825
 20
218.0568879322939
 30
0.0
 10
178.2658446520858
 20
218.0147642290271
 30
0.0
 10
178.2790381067
 20
217.9843567291
 30
0.0
 11
177.9496852448
 21
218.0087055473
 31
0.0
 11
178.0429321256
 21
218.078073728
 31
0.0
 11
178.1375169673
 21
218.0972557568
 31
0.0
 11
178.1811222599
 21
218.0872263696
 31
0.0
 11
178.2201597799
 21
218.0644909434
 31
0.0
 11
178.2790381067
 21
217.9843567291
 31
0.0
  0
SPLINE
  5
314
330
216
100
AcDbEntity
  8
0
  6
Continuous
 62
     7
100
AcDbSpline
210
0.0
220
0.0
230
1.0
 70
  1064
 71
     3
 72
    14
 73
    10
 74
     8
 42
0.000000001
 43
0.0000000001
 44
0.0000000001
 12
-0.9837582135716369
 22
-0.1794986830880431
 32
0.0
 13
0.3391305582318573
 23
0.9407393180224525
 33
0.0
 40
0.0
 40
0.0
 40
0.0
 40
0.0
 40
0.0935094425140344
 40
0.184424137167131
 40
0.277803557087404
 40
0.3776280692722207
 40
0.4853747477791332
 40
0.5999381936408584
 40
0.8351358428473114
 40
0.8351358428473114
 40
0.8351358428473114
 40
0.8351358428473114
 10
177.907612403
 20
217.2918780813
 30
0.0
 10
177.8769488422934
 20
217.2862831407042
 30
0.0
 10
177.8141838143039
 20
217.2843197509855
 30
0.0
 10
177.7244661522131
 20
217.3140258822941
 30
0.0
 10
177.648880225071
 20
217.3740048032855
 30
0.0
 10
177.5923250351692
 20
217.4584658108259
 30
0.0
 10
177.5570026228811
 20
217.5609703008414
 30
0.0
 10
177.5393885269806
 20
217.7132217379491
 30
0.0
 10
177.5594179911766
 20
217.8315790977284
 30
0.0
 10
177.5860055612
 20
217.9053323231
 30
0.0
 11
177.907612403
 21
217.2918780813
 31
0.0
 11
177.814124593
 21
217.2898668079
 31
0.0
 11
177.7278148425
 21
217.3184344237
 31
0.0
 11
177.6541203411
 21
217.3757828023
 31
0.0
 11
177.5975713507
 21
217.4580454604
 31
0.0
 11
177.561465693
 21
217.559562593
 31
0.0
 11
177.5476265834
 21
217.6732870942
 31
0.0
 11
177.5860055612
 21
217.9053323231
 31
0.0
  0
SPLINE
  5
315
330
216
100
AcDbEntity
  8
0
  6
Continuous
 62
     7
100
AcDbSpline
210
0.0
220
0.0
230
1.0
 70
  1064
 71
     3
 72
    14
 73
    10
 74
     8
 42
0.000000001
 43
0.0000000001
 44
0.0000000001
 12
-0.9847905919583201
 22
-0.1737454747335359
 32
0.0
 13
0.4320278467914718
 23
0.9018602661148371
 33
0.0
 40
0.0
 40
0.0
 40
0.0
 40
0.0
 40
0.0993217409532685
 40
0.1961725244354273
 40
0.2966197193451026
 40
0.4049829887330029
 40
0.5222365891507566
 40
0.6462171070201704
 40
0.8948160349978845
 40
0.8948160349978845
 40
0.8948160349978845
 40
0.8948160349978845
 10
177.6543974787
 20
217.3760845575
 30
0.0
 10
177.6217937733441
 20
217.3703323231556
 30
0.0
 10
177.5547896403394
 20
217.3692994215461
 30
0.0
 10
177.4601491672765
 20
217.4051255071362
 30
0.0
 10
177.3828496803769
 20
217.4746609123686
 30
0.0
 10
177.3281127144172
 20
217.5702724295906
 30
0.0
 10
177.2979506104646
 20
217.684038336008
 30
0.0
 10
177.2913547732657
 20
217.8479605331411
 30
0.0
 10
177.3226904763104
 20
217.9723832335194
 30
0.0
 10
177.3584910295
 20
218.0471170653
 30
0.0
 11
177.6543974787
 21
217.3760845575
 31
0.0
 11
177.5550768017
 21
217.3756248334
 31
0.0
 11
177.4644425806
 21
217.4097644325
 31
0.0
 11
177.3889597713
 21
217.4760364814
 31
0.0
 11
177.333851902
 21
217.5693409341
 31
0.0
 11
177.3026806404
 21
217.6823752619
 31
0.0
 11
177.2970581858
 21
217.8062282264
 31
0.0
 11
177.3584910295
 21
218.0471170653
 31
0.0
  0
SPLINE
  5
316
330
216
100
AcDbEntity
  8
0
  6
Continuous
 62
     7
100
AcDbSpline
210
0.0
220
0.0
230
1.0
 70
  1064
 71
     3
 72
     9
 73
     5
 74
     3
 42
0.000000001
 43
0.0000000001
 44
0.0000000001
 12
0.4320278469432662
 22
0.9018602660421212
 32
0.0
 13
0.6947676733387647
 23
0.7192342317238799
 33
0.0
 40
0.0
 40
0.0
 40
0.0
 40
0.0
 40
0.0423024810916341
 40
0.1604406651382314
 40
0.1604406651382314
 40
0.1604406651382314
 40
0.1604406651382314
 10
177.3584910295
 20
218.0471170653
 30
0.0
 10
177.3645829794421
 20
218.0598340409172
 30
0.0
 10
177.3893887080735
 20
218.1072024039024
 30
0.0
 10
177.4211185344791
 20
218.15117411902
 30
0.0
 10
177.4484780649
 20
218.1794971277
 30
0.0
 11
177.3584910295
 21
218.0471170653
 31
0.0
 11
177.3781451068
 21
218.0845766055
 31
0.0
 11
177.4484780649
 21
218.1794971277
 31
0.0
  0
SPLINE
  5
317
330
216
100
AcDbEntity
  8
0
  6
Continuous
 62
     7
100
AcDbSpline
210
0.0
220
0.0
230
1.0
 70
  1064
 71
     3
 72
    12
 73
     8
 74
     6
 42
0.000000001
 43
0.0000000001
 44
0.0000000001
 12
0.6947676731882268
 22
0.7192342318692969
 32
0.0
 13
0.4019586738225901
 23
-0.9156578097405082
 33
0.0
 40
0.0
 40
0.0
 40
0.0
 40
0.0
 40
0.1150357705201775
 40
0.2107174513087529
 40
0.2551270311898521
 40
0.2999640849924088
 40
0.3985511949451193
 40
0.3985511949451193
 40
0.3985511949451193
 40
0.3985511949451193
 10
177.4484780649
 20
218.1794971277
 30
0.0
 10
177.4751191097726
 20
218.2070763490492
 30
0.0
 10
177.531385136169
 20
218.2517880838482
 30
0.0
 10
177.6182322673351
 20
218.2723732461011
 30
0.0
 10
177.6792730244218
 20
218.2583292990366
 30
0.0
 10
177.7340018551892
 20
218.2262061204733
 30
0.0
 10
177.7624760517424
 20
218.1845702076226
 30
0.0
 10
177.7756853664
 20
218.1544795219
 30
0.0
 11
177.4484780649
 21
218.1794971277
 31
0.0
 11
177.5411618024
 21
218.2476363477
 31
0.0
 11
177.6350106381
 21
218.2662744827
 31
0.0
 11
177.6782765061
 21
218.2562607196
 31
0.0
 11
177.7170394957
 21
218.2337264783
 31
0.0
 11
177.7756853664
 21
218.1544795219
 31
0.0
  0
SPLINE
  5
318
330
216
100
AcDbEntity
  8
0
  6
Continuous
 62
     7
100
AcDbSpline
210
0.0
220
0.0
230
1.0
 70
  1064
 71
     3
 72
    14
 73
    10
 74
     8
 42
0.000000001
 43
0.0000000001
 44
0.0000000001
 12
-0.9856619801755522
 22
-0.1687319200282187
 32
0.0
 13
0.5250367426959084
 23
0.8510795608045528
 33
0.0
 40
0.0
 40
0.0
 40
0.0
 40
0.0
 40
0.1051348642628264
 40
0.2080168271314044
 40
0.3157952932706475
 40
0.4330060055296966
 40
0.5598769107133352
 40
0.6929409718461626
 40
0.9523719565666945
 40
0.9523719565666945
 40
0.9523719565666945
 40
0.9523719565666945
 10
177.4013412799
 20
217.4603274506
 30
0.0
 10
177.3667988004017
 20
217.454414248097
 30
0.0
 10
177.2954871727856
 20
217.4544264451145
 30
0.0
 10
177.1961354255233
 20
217.4968956285228
 30
0.0
 10
177.1177317638775
 20
217.5764367623385
 30
0.0
 10
177.0656513731392
 20
217.6833444169843
 30
0.0
 10
177.0416144137395
 20
217.8080657057918
 30
0.0
 10
177.0470616029079
 20
217.9818539805374
 30
0.0
 10
177.090292816576
 20
218.110625596655
 30
0.0
 10
177.1356964163
 20
218.1842243995
 30
0.0
 11
177.4013412799
 21
217.4603274506
 31
0.0
 11
177.2962137522
 21
217.4615694664
 31
0.0
 11
177.201468349
 21
217.5016694272
 31
0.0
 11
177.1246915627
 21
217.5773101758
 31
0.0
 11
177.0718250305
 21
217.6819212691
 31
0.0
 11
177.046605257
 21
217.8062602799
 31
0.0
 11
177.0502319007
 21
217.93927491
 31
0.0
 11
177.1356964163
 21
218.1842243995
 31
0.0
  0
SPLINE
  5
319
330
216
100
AcDbEntity
  8
0
  6
Continuous
 62
     7
100
AcDbSpline
210
0.0
220
0.0
230
1.0
 70
  1064
 71
     3
 72
     9
 73
     5
 74
     3
 42
0.000000001
 43
0.0000000001
 44
0.0000000001
 12
0.5250367426936026
 22
0.8510795608059751
 32
0.0
 13
0.6900568952276403
 23
0.7237551252659904
 33
0.0
 40
0.0
 40
0.0
 40
0.0
 40
0.0
 40
0.0254524755771225
 40
0.0980690853913397
 40
0.0980690853913397
 40
0.0980690853913397
 40
0.0980690853913397
 10
177.1356964163
 20
218.1842243995
 30
0.0
 10
177.1401509112568
 20
218.1914450934119
 30
0.0
 10
177.1579741670682
 20
218.2188483086683
 30
0.0
 10
177.1784695185632
 20
218.2445580775225
 30
0.0
 10
177.195172716
 20
218.2620769587
 30
0.0
 11
177.1356964163
 21
218.1842243995
 31
0.0
 11
177.1495824604
 21
218.205555276
 31
0.0
 11
177.195172716
 21
218.2620769587
 31
0.0
  0
SPLINE
  5
31A
330
216
100
AcDbEntity
  8
0
  6
Continuous
 62
     7
100
AcDbSpline
210
0.0
220
0.0
230
1.0
 70
  1064
 71
     3
 72
    12
 73
     8
 74
     6
 42
0.000000001
 43
0.0000000001
 44
0.0000000001
 12
0.6900568953484151
 22
0.7237551251508392
 32
0.0
 13
0.3989165026918109
 23
-0.9169872539354811
 33
0.0
 40
0.0
 40
0.0
 40
0.0
 40
0.0
 40
0.1162609454447837
 40
0.2128016847102375
 40
0.2575471491718265
 40
0.3027131492641757
 40
0.4021071308253148
 40
0.4021071308253148
 40
0.4021071308253148
 40
0.4021071308253148
 10
177.195172716
 20
218.2620769587
 30
0.0
 10
177.2219149383546
 20
218.2901251104068
 30
0.0
 10
177.2784271097476
 20
218.3356640697675
 30
0.0
 10
177.3660163744981
 20
218.3569615625897
 30
0.0
 10
177.4276147756148
 20
218.3429750398516
 30
0.0
 10
177.48280235353
 20
218.3106209098408
 30
0.0
 10
177.511396125129
 20
218.2685429602365
 30
0.0
 10
177.5246127583
 20
218.2381619555
 30
0.0
 11
177.195172716
 21
218.2620769587
 31
0.0
 11
177.2883978578
 21
218.3315440759
 31
0.0
 11
177.382990301
 21
218.3508413303
 31
0.0
 11
177.4266108528
 21
218.3408711723
 31
0.0
 11
177.4656708049
 21
218.31819326
 31
0.0
 11
177.5246127583
 21
218.2381619555
 31
0.0
  0
SPLINE
  5
31B
330
216
100
AcDbEntity
  8
0
  6
Continuous
 62
     7
100
AcDbSpline
210
0.0
220
0.0
230
1.0
 70
  1064
 71
     3
 72
    14
 73
    10
 74
     8
 42
0.000000001
 43
0.0000000001
 44
0.0000000001
 12
-0.9839559410998749
 22
-0.1784116195046146
 32
0.0
 13
0.6187513185058458
 23
0.7855869180729002
 33
0.0
 40
0.0
 40
0.0
 40
0.0
 40
0.0
 40
0.1117270671127637
 40
0.2212031248327321
 40
0.3368871363031596
 40
0.4635763395043186
 40
0.6005919275402195
 40
0.742906656510163
 40
1.011623897568393
 40
1.011623897568393
 40
1.011623897568393
 40
1.011623897568393
 10
177.1529402595
 20
217.5453846062
 30
0.0
 10
177.1162954223442
 20
217.5387401372046
 30
0.0
 10
177.0401731015368
 20
217.538749303945
 30
0.0
 10
176.935131820321
 20
217.5871454455772
 30
0.0
 10
176.8550905636315
 20
217.6766411966172
 30
0.0
 10
176.8055512726205
 20
217.7949644094239
 30
0.0
 10
176.7879263132281
 20
217.9306561005487
 30
0.0
 10
176.8057921099308
 20
218.1131403624207
 30
0.0
 10
176.8614678710299
 20
218.245214370188
 30
0.0
 10
176.9168909200999
 20
218.3155812866
 30
0.0
 11
177.1529402595
 21
217.5453846062
 31
0.0
 11
177.041222854
 21
217.5468539033
 31
0.0
 11
176.9415553018
 21
217.592146135
 31
0.0
 11
176.8629450949
 21
217.6770179553
 31
0.0
 11
176.8122050238
 21
217.7931024047
 31
0.0
 11
176.7932647097
 21
217.9288025737
 31
0.0
 11
176.8067396472
 21
218.0704779355
 31
0.0
 11
176.9168909200999
 21
218.3155812866
 31
0.0
  0
SPLINE
  5
31C
330
216
100
AcDbEntity
  8
0
  6
Continuous
 62
     7
100
AcDbSpline
210
0.0
220
0.0
230
1.0
 70
  1064
 71
     3
 72
     9
 73
     5
 74
     3
 42
0.000000001
 43
0.0000000001
 44
0.0000000001
 12
0.6187513184338523
 22
0.7855869181296044
 32
0.0
 13
0.7067699164898075
 23
0.7074434854778088
 33
0.0
 40
0.0
 40
0.0
 40
0.0
 40
0.0
 40
0.0128887005898381
 40
0.0504116142751003
 40
0.0504116142751003
 40
0.0504116142751003
 40
0.0504116142751003
 10
176.9168909200999
 20
218.3155812866
 30
0.0
 10
176.9195492202609
 20
218.3189563514583
 30
0.0
 10
176.9301300380746
 20
218.3320111968651
 30
0.0
 10
176.9414500987094
 20
218.3444713497524
 30
0.0
 10
176.9502901209
 20
218.3533197967
 30
0.0
 11
176.9168909200999
 21
218.3155812866
 31
0.0
 11
176.9250079220999
 21
218.3255929239
 31
0.0
 11
176.9502901209
 21
218.3533197967
 31
0.0
  0
SPLINE
  5
31D
330
216
100
AcDbEntity
  8
0
  6
Continuous
 62
     7
100
AcDbSpline
210
0.0
220
0.0
230
1.0
 70
  1064
 71
     3
 72
    12
 73
     8
 74
     6
 42
0.000000001
 43
0.0000000001
 44
0.0000000001
 12
0.7067699165285029
 22
0.7074434854391502
 32
0.0
 13
0.3956668908152563
 23
-0.9183940937923045
 33
0.0
 40
0.0
 40
0.0
 40
0.0
 40
0.0
 40
0.1129659182673228
 40
0.2071917513995202
 40
0.2511508876164313
 40
0.2956729083680273
 40
0.393736254547989
 40
0.393736254547989
 40
0.393736254547989
 40
0.393736254547989
 10
176.9502901209
 20
218.3533197967
 30
0.0
 10
176.9769037584414
 20
218.3799587976849
 30
0.0
 10
177.0330297380824
 20
218.4229669210955
 30
0.0
 10
177.1189588734113
 20
218.4413713822371
 30
0.0
 10
177.1789566507318
 20
218.4262747338706
 30
0.0
 10
177.2327436719358
 20
218.3934758883155
 30
0.0
 10
177.2605987293047
 20
218.3518752857831
 30
0.0
 10
177.2735322024
 20
218.3218550198
 30
0.0
 11
176.9502901209
 21
218.3533197967
 31
0.0
 11
177.0424947816
 21
218.418585402
 31
0.0
 11
177.1352731685
 21
218.4350377135
 31
0.0
 11
177.1778971486
 21
218.4242858775
 31
0.0
 11
177.2160133661
 21
218.4012779594
 31
0.0
 11
177.2735322024
 21
218.3218550198
 31
0.0
  0
SPLINE
  5
31E
330
216
100
AcDbEntity
  8
0
  6
Continuous
 62
     7
100
AcDbSpline
210
0.0
220
0.0
230
1.0
 70
  1064
 71
     3
 72
    11
 73
     7
 74
     5
 42
0.000000001
 43
0.0000000001
 44
0.0000000001
 12
0.9432690091387522
 22
0.3320294812187566
 32
0.0
 13
0.3880415301049152
 23
-0.9216418886497272
 33
0.0
 40
0.0
 40
0.0
 40
0.0
 40
0.0
 40
0.063399753265256
 40
0.122449897438439
 40
0.1832593526700475
 40
0.2512076704705326
 40
0.2512076704705326
 40
0.2512076704705326
 40
0.2512076704705326
 10
176.8021288118
 20
218.495225136
 30
0.0
 10
176.822063152614
 20
218.5022419983953
 30
0.0
 10
176.8632589569971
 20
218.5100046190399
 30
0.0
 10
176.9246085298209
 20
218.4956992355813
 30
0.0
 10
176.9751194407377
 20
218.4558118909604
 30
0.0
 10
176.9972699404308
 20
218.4180242829827
 30
0.0
 10
177.0060588635
 20
218.397149611
 30
0.0
 11
176.8021288118
 21
218.495225136
 31
0.0
 11
176.8646677796
 21
218.5056369668
 31
0.0
 11
176.9221047722
 21
218.4919288886
 31
0.0
 11
176.970416074
 21
218.4549991179
 31
0.0
 11
177.0060588635
 21
218.397149611
 31
0.0
  0
SPLINE
  5
31F
330
216
100
AcDbEntity
  8
0
  6
Continuous
 62
     7
100
AcDbSpline
210
0.0
220
0.0
230
1.0
 70
  1064
 71
     3
 72
    11
 73
     7
 74
     5
 42
0.000000001
 43
0.0000000001
 44
0.0000000001
 12
-0.9997739497073885
 22
0.0212614554179238
 32
0.0
 13
-0.2138571316062021
 23
0.9768649483225242
 33
0.0
 40
0.0
 40
0.0
 40
0.0
 40
0.0
 40
0.0890521518443265
 40
0.1793364547395112
 40
0.275900721619763
 40
0.3808004927074851
 40
0.3808004927074851
 40
0.3808004927074851
 40
0.3808004927074851
 10
176.6135554666
 20
217.7607797797
 30
0.0
 10
176.5838781260735
 20
217.7614109058188
 30
0.0
 10
176.523626202302
 20
217.773686232161
 30
0.0
 10
176.4455719412538
 20
217.8262364526641
 30
0.0
 10
176.3876415004069
 20
217.9064149431285
 30
0.0
 10
176.365389304817
 20
217.9707505256124
 30
0.0
 10
176.3579114500999
 20
218.0049081621
 30
0.0
 11
176.6135554666
 21
217.7607797797
 31
0.0
 11
176.5263866843
 21
217.7789976045
 31
0.0
 11
176.4510280885
 21
217.8287202089
 31
0.0
 11
176.3933747769
 21
217.9061847382
 31
0.0
 11
176.3579114500999
 21
218.0049081621
 31
0.0
  0
SPLINE
  5
320
330
216
100
AcDbEntity
  8
0
  6
Continuous
 62
     7
100
AcDbSpline
210
0.0
220
0.0
230
1.0
 70
  1064
 71
     3
 72
     9
 73
     5
 74
     3
 42
0.000000001
 43
0.0000000001
 44
0.0000000001
 12
-0.1648291597145619
 22
0.986322132017624
 32
0.0
 13
0.6032209333481155
 23
0.7975741379775478
 33
0.0
 40
0.0
 40
0.0
 40
0.0
 40
0.0
 40
0.2010941492766316
 40
0.3900294232963494
 40
0.3900294232963494
 40
0.3900294232963494
 40
0.3900294232963494
 10
176.3536541565
 20
218.0270000861
 30
0.0
 10
176.3426054299504
 20
218.0931146227836
 30
0.0
 10
176.348572650613
 20
218.2263948243411
 30
0.0
 10
176.4008197277878
 20
218.34992457893
 30
0.0
 10
176.4388096319
 20
218.4001545417
 30
0.0
 11
176.3536541565
 21
218.0270000861
 31
0.0
 11
176.3610612524
 21
218.2279577727
 31
0.0
 11
176.4388096319
 21
218.4001545417
 31
0.0
  0
SPLINE
  5
321
330
216
100
AcDbEntity
  8
0
  6
Continuous
 62
     7
100
AcDbSpline
210
0.0
220
0.0
230
1.0
 70
  1064
 71
     3
 72
    10
 73
     6
 74
     4
 42
0.000000001
 43
0.0000000001
 44
0.0000000001
 12
0.6032209331736059
 22
0.7975741381095331
 32
0.0
 13
0.988894287252377
 23
-0.1486206198332292
 33
0.0
 40
0.0
 40
0.0
 40
0.0
 40
0.0
 40
0.0562153457230057
 40
0.1062316243989895
 40
0.188251667385279
 40
0.188251667385279
 40
0.188251667385279
 40
0.188251667385279
 10
176.4388096319
 20
218.4001545417
 30
0.0
 10
176.4501130563352
 20
218.4150998436712
 30
0.0
 10
176.4739194247332
 20
218.4417563450039
 30
0.0
 10
176.5237603958162
 20
218.4797219311473
 30
0.0
 10
176.5699750976169
 20
218.4930203840758
 30
0.0
 10
176.5970114816
 20
218.4889570942
 30
0.0
 11
176.4388096319
 21
218.4001545417
 31
0.0
 11
176.4765181296
 21
218.4418466788
 31
0.0
 11
176.5169025118
 21
218.47135481
 31
0.0
 11
176.5970114816
 21
218.4889570942
 31
0.0
  0
SPLINE
  5
322
330
216
100
AcDbEntity
  8
0
  6
Continuous
 62
     7
100
AcDbSpline
210
0.0
220
0.0
230
1.0
 70
  1064
 71
     3
 72
     9
 73
     5
 74
     3
 42
0.000000001
 43
0.0000000001
 44
0.0000000001
 12
0.988894287203646
 22
-0.1486206201574766
 32
0.0
 13
0.3378814238911616
 23
-0.9411886863903971
 33
0.0
 40
0.0
 40
0.0
 40
0.0
 40
0.0
 40
0.0556441639617211
 40
0.1192074435974294
 40
0.1192074435974294
 40
0.1192074435974294
 40
0.1192074435974294
 10
176.5970114816
 20
218.4889570942
 30
0.0
 10
176.615353546886
 20
218.4862004708146
 30
0.0
 10
176.6534740124539
 20
218.4672616313058
 30
0.0
 10
176.6740388581232
 20
218.4310422129877
 30
0.0
 10
176.6811978086
 20
218.4111005331
 30
0.0
 11
176.5970114816
 21
218.4889570942
 31
0.0
 11
176.6471164654
 21
218.464754541
 31
0.0
 11
176.6811978086
 21
218.4111005331
 31
0.0
  0
SPLINE
  5
323
330
216
100
AcDbEntity
  8
0
  6
Continuous
 62
     7
100
AcDbSpline
210
0.0
220
0.0
230
1.0
 70
  1064
 71
     3
 72
    10
 73
     6
 74
     4
 42
0.000000001
 43
0.0000000001
 44
0.0000000001
 12
-0.9443146154021015
 22
0.3290439288878937
 32
0.0
 13
-0.1828045586608574
 23
0.9831492731690389
 33
0.0
 40
0.0
 40
0.0
 40
0.0
 40
0.0
 40
0.0485658540939832
 40
0.0991679317599737
 40
0.2084404605553004
 40
0.2084404605553004
 40
0.2084404605553004
 40
0.2084404605553004
 10
176.3565870203
 20
218.0050558236
 30
0.0
 10
176.3412998716898
 20
218.0103825900803
 30
0.0
 10
176.3115662794544
 20
218.0261602860417
 30
0.0
 10
176.2617650713815
 20
218.0756923941239
 30
0.0
 10
176.2408230516667
 20
218.1276459299792
 30
0.0
 10
176.2341645462
 20
218.1634563324
 30
0.0
 11
176.3565870203
 21
218.0050558236
 31
0.0
 11
176.3136254521
 21
218.0277041313
 31
0.0
 11
176.2775114502
 21
218.0631491469
 31
0.0
 11
176.2341645462
 21
218.1634563324
 31
0.0
  0
SPLINE
  5
324
330
216
100
AcDbEntity
  8
0
  6
Continuous
 62
     7
100
AcDbSpline
210
0.0
220
0.0
230
1.0
 70
  1064
 71
     3
 72
     9
 73
     5
 74
     3
 42
0.000000001
 43
0.0000000001
 44
0.0000000001
 12
-0.1828045585163488
 22
0.9831492731959084
 32
0.0
 13
0.4881130521098374
 23
0.872780412452078
 33
0.0
 40
0.0
 40
0.0
 40
0.0
 40
0.0
 40
0.0894137754625136
 40
0.1671513245593372
 40
0.1671513245593372
 40
0.1671513245593372
 40
0.1671513245593372
 10
176.2341645462
 20
218.1634563324
 30
0.0
 10
176.2287161309504
 20
218.1927586951866
 30
0.0
 10
176.2274822926793
 20
218.2493348444036
 30
0.0
 10
176.2428665495489
 20
218.3043751145788
 30
0.0
 10
176.255514787
 20
218.3269910513
 30
0.0
 11
176.2341645462
 21
218.1634563324
 31
0.0
 11
176.2321513222
 21
218.2528474403
 31
0.0
 11
176.255514787
 21
218.3269910513
 31
0.0
  0
SPLINE
  5
325
330
216
100
AcDbEntity
  8
0
  6
Continuous
 62
     7
100
AcDbSpline
210
0.0
220
0.0
230
1.0
 70
  1064
 71
     3
 72
     9
 73
     5
 74
     3
 42
0.000000001
 43
0.0000000001
 44
0.0000000001
 12
-0.8450076808023725
 22
0.534754167244161
 32
0.0
 13
-0.108630894811917
 23
0.9940821538949196
 33
0.0
 40
0.0
 40
0.0
 40
0.0
 40
0.0
 40
0.1214986717357363
 40
0.2571921500637492
 40
0.2571921500637492
 40
0.2571921500637492
 40
0.2571921500637492
 10
177.573276623
 20
217.518786109
 30
0.0
 10
177.5390541860587
 20
217.5404434160085
 30
0.0
 10
177.4802808128217
 20
217.6087093857282
 30
0.0
 10
177.4573111810236
 20
217.6936273012981
 30
0.0
 10
177.4523976797
 20
217.7385907897
 30
0.0
 11
177.573276623
 21
217.518786109
 31
0.0
 11
177.4915147709
 21
217.608657833
 31
0.0
 11
177.4523976797
 21
217.7385907897
 31
0.0
  0
SPLINE
  5
326
330
216
100
AcDbEntity
  8
0
  6
Continuous
 62
     7
100
AcDbSpline
210
0.0
220
0.0
230
1.0
 70
  1064
 71
     3
 72
     9
 73
     5
 74
     3
 42
0.000000001
 43
0.0000000001
 44
0.0000000001
 12
-0.8416431398308638
 22
0.5400340963084139
 32
0.0
 13
-0.1086308950002453
 23
0.9940821538743394
 33
0.0
 40
0.0
 40
0.0
 40
0.0
 40
0.0
 40
0.1209380310274628
 40
0.2559245121198146
 40
0.2559245121198146
 40
0.2559245121198146
 40
0.2559245121198146
 10
177.3207316957
 20
217.6040128065
 30
0.0
 10
177.286802807647
 20
217.6257830265984
 30
0.0
 10
177.2286369158638
 20
217.6938996417116
 30
0.0
 10
177.2058446332513
 20
217.7783848751106
 30
0.0
 10
177.2009567325
 20
217.8231140924
 30
0.0
 11
177.3207316957
 21
217.6040128065
 31
0.0
 11
177.2397289817
 21
217.6938157445
 31
0.0
 11
177.2009567325
 21
217.8231140924
 31
0.0
  0
SPLINE
  5
327
330
216
100
AcDbEntity
  8
0
  6
Continuous
 62
     7
100
AcDbSpline
210
0.0
220
0.0
230
1.0
 70
  1064
 71
     3
 72
     9
 73
     5
 74
     3
 42
0.000000001
 43
0.0000000001
 44
0.0000000001
 12
-0.8465695565140736
 22
0.5322781096227466
 32
0.0
 13
-0.1086308948176832
 23
0.9940821538942895
 33
0.0
 40
0.0
 40
0.0
 40
0.0
 40
0.0
 40
0.1217577550039789
 40
0.2577819546194741
 40
0.2577819546194741
 40
0.2577819546194741
 40
0.2577819546194741
 10
177.0709098438
 20
217.6875075859
 30
0.0
 10
177.0365510409147
 20
217.7091105817885
 30
0.0
 10
176.9774937723575
 20
217.777444988696
 30
0.0
 10
176.9544412622403
 20
217.8625643186548
 30
0.0
 10
176.9495157854
 20
217.9076373951
 30
0.0
 11
177.0709098438
 21
217.6875075859
 31
0.0
 11
176.9887946349
 21
217.7774077715
 31
0.0
 11
176.9495157854
 21
217.9076373951
 31
0.0
  0
SPLINE
  5
328
330
216
100
AcDbEntity
  8
0
  6
Continuous
 62
     7
100
AcDbSpline
210
0.0
220
0.0
230
1.0
 70
  1064
 71
     3
 72
    12
 73
     8
 74
     6
 42
0.000000001
 43
0.0000000001
 44
0.0000000001
 12
-0.1054958002177522
 22
0.9944197484646091
 32
0.0
 13
0.9999441014871806
 23
-0.0105732634978699
 33
0.0
 40
0.0
 40
0.0
 40
0.0
 40
0.0
 40
0.1202216691981511
 40
0.2329837281225552
 40
0.2828445449340404
 40
0.3266488342166207
 40
0.3946836376860297
 40
0.3946836376860297
 40
0.3946836376860297
 40
0.3946836376860297
 10
176.4430918708
 20
218.0888320136
 30
0.0
 10
176.4388642437348
 20
218.128682280948
 30
0.0
 10
176.4424186868449
 20
218.2074713579
 30
0.0
 10
176.4722397157553
 20
218.2983538801483
 30
0.0
 10
176.5094536387744
 20
218.3568708295361
 30
0.0
 10
176.5460607125154
 20
218.3960486628878
 30
0.0
 10
176.5826027733583
 20
218.4148762790014
 30
0.0
 10
176.6052797735
 20
218.4146364957
 30
0.0
 11
176.4430918708
 21
218.0888320136
 31
0.0
 11
176.4481266247
 21
218.2089482115
 31
0.0
 11
176.4847234932
 21
218.3156063155
 31
0.0
 11
176.5117694301
 21
218.3574944803
 31
0.0
 11
176.5422968703
 21
218.3889093041
 31
0.0
 11
176.6052797735
 21
218.4146364957
 31
0.0
  0
SPLINE
  5
329
330
216
100
AcDbEntity
  8
0
  6
Continuous
 62
     7
100
AcDbSpline
210
0.0
220
0.0
230
1.0
 70
  1064
 71
     3
 72
     9
 73
     5
 74
     3
 42
0.000000001
 43
0.0000000001
 44
0.0000000001
 12
-0.8480561072055216
 22
0.5299064436590833
 32
0.0
 13
-0.1139334772301323
 23
0.9934883807907624
 33
0.0
 40
0.0
 40
0.0
 40
0.0
 40
0.0
 40
0.1224077458287131
 40
0.2590597972306448
 40
0.2590597972306448
 40
0.2590597972306448
 40
0.2590597972306448
 10
176.8194852115
 20
217.7719205469
 30
0.0
 10
176.7848823326936
 20
217.7935420979895
 30
0.0
 10
176.7253196738548
 20
217.8620056555245
 30
0.0
 10
176.7017499049956
 20
217.947415791407
 30
0.0
 10
176.6965601572
 20
217.9926698665
 30
0.0
 11
176.8194852115
 21
217.7719205469
 31
0.0
 11
176.7366306034
 21
217.8620247652
 31
0.0
 11
176.6965601572
 21
217.9926698665
 31
0.0
  0
SPLINE
  5
32A
330
216
100
AcDbEntity
  8
0
  6
Continuous
 62
     7
100
AcDbSpline
210
0.0
220
0.0
230
1.0
 70
  1064
 71
     3
 72
     9
 73
     5
 74
     3
 42
0.000000001
 43
0.0000000001
 44
0.0000000001
 12
-0.8593297072721332
 22
0.5114219922916787
 32
0.0
 13
-0.1054958001946119
 23
0.994419748467064
 33
0.0
 40
0.0
 40
0.0
 40
0.0
 40
0.0
 40
0.1216041930527404
 40
0.2569682788446261
 40
0.2569682788446261
 40
0.2569682788446261
 40
0.2569682788446261
 10
176.5663036213
 20
217.8710892244
 30
0.0
 10
176.5314709227603
 20
217.891819577294
 30
0.0
 10
176.4711978813115
 20
217.9590118784051
 30
0.0
 10
176.4478519849828
 20
218.0439624402184
 30
0.0
 10
176.4430918708
 20
218.0888320136
 30
0.0
 11
176.5663036213
 21
217.8710892244
 31
0.0
 11
176.4826949114
 21
217.9593907725
 31
0.0
 11
176.4430918708
 21
218.0888320136
 31
0.0
  0
SPLINE
  5
32B
330
216
100
AcDbEntity
  8
0
  6
Continuous
 62
     7
100
AcDbSpline
210
0.0
220
0.0
230
1.0
 70
  1064
 71
     3
 72
     9
 73
     5
 74
     3
 42
0.000000001
 43
0.0000000001
 44
0.0000000001
 12
-0.6735796150843293
 22
0.7391146745552054
 32
0.0
 13
-0.1276355859321625
 23
0.9918211316582008
 33
0.0
 40
0.0
 40
0.0
 40
0.0
 40
0.0
 40
0.0337118913306091
 40
0.1391873369696523
 40
0.1391873369696523
 40
0.1391873369696523
 40
0.1391873369696523
 10
176.3013663779999
 20
218.0793925711
 30
0.0
 10
176.2937971637379
 20
218.0876982222965
 30
0.0
 10
176.2656610312359
 20
218.1248183821637
 30
0.0
 10
176.2504988933352
 20
218.1708601654147
 30
0.0
 10
176.2460114199
 20
218.2057310907
 30
0.0
 11
176.3013663779999
 21
218.0793925711
 31
0.0
 11
176.2809288286
 21
218.1062029831
 31
0.0
 11
176.2460114199
 21
218.2057310907
 31
0.0
  0
SPLINE
  5
32C
330
216
100
AcDbEntity
  8
0
  6
Continuous
 62
     7
100
AcDbSpline
210
0.0
220
0.0
230
1.0
 70
  1064
 71
     3
 72
     9
 73
     5
 74
     3
 42
0.000000001
 43
0.0000000001
 44
0.0000000001
 12
0.9158203287251403
 22
0.4015882536800303
 32
0.0
 13
0.9478642671949032
 23
-0.3186743337249952
 33
0.0
 40
0.0
 40
0.0
 40
0.0
 40
0.0
 40
0.0607843308546736
 40
0.1170818783727653
 40
0.1170818783727653
 40
0.1170818783727653
 40
0.1170818783727653
 10
176.8306187928
 20
218.348430752
 30
0.0
 10
176.8491746347548
 20
218.3565675097597
 30
0.0
 10
176.8876099533878
 20
218.3672228749352
 30
0.0
 10
176.9275895291256
 20
218.3626446614819
 30
0.0
 10
176.945377007
 20
218.356664467
 30
0.0
 11
176.8306187928
 21
218.348430752
 31
0.0
 11
176.8894990829
 21
218.363525331
 31
0.0
 11
176.945377007
 21
218.356664467
 31
0.0
  0
SPLINE
  5
32D
330
216
100
AcDbEntity
  8
0
  6
Continuous
 62
     7
100
AcDbSpline
210
0.0
220
0.0
230
1.0
 70
  1064
 71
     3
 72
    10
 73
     6
 74
     4
 42
0.000000001
 43
0.0000000001
 44
0.0000000001
 12
-0.1139334773699565
 22
0.9934883807747274
 32
0.0
 13
0.8445743280327874
 23
0.5354383292480709
 33
0.0
 40
0.0
 40
0.0
 40
0.0
 40
0.0
 40
0.2160082639039264
 40
0.3134134610857708
 40
0.3948579902524061
 40
0.3948579902524061
 40
0.3948579902524061
 40
0.3948579902524061
 10
176.6965601572
 20
217.9926698665
 30
0.0
 10
176.6883566329843
 20
218.0642037666133
 30
0.0
 10
176.7027904471674
 20
218.1732739484303
 30
0.0
 10
176.7648377142048
 20
218.2902034030143
 30
0.0
 10
176.807690139969
 20
218.3338945777922
 30
0.0
 10
176.8306187928
 20
218.348430752
 30
0.0
 11
176.6965601572
 21
217.9926698665
 31
0.0
 11
176.724790313
 21
218.2068254837
 31
0.0
 11
176.7717202585
 21
218.292179761
 31
0.0
 11
176.8306187928
 21
218.348430752
 31
0.0
  0
SPLINE
  5
32E
330
216
100
AcDbEntity
  8
0
  6
Continuous
 62
     7
100
AcDbSpline
210
0.0
220
0.0
230
1.0
 70
  1064
 71
     3
 72
    13
 73
     9
 74
     7
 42
0.000000001
 43
0.0000000001
 44
0.0000000001
 12
-0.1086308949543045
 22
0.9940821538793597
 32
0.0
 13
0.9478975904383389
 23
-0.3185751999782641
 33
0.0
 40
0.0
 40
0.0
 40
0.0
 40
0.0
 40
0.1510309514692901
 40
0.2921090011054832
 40
0.3534623568362187
 40
0.4067117481294545
 40
0.4522991604501608
 40
0.4929674014293769
 40
0.4929674014293769
 40
0.4929674014293769
 40
0.4929674014293769
 10
176.9495157854
 20
217.9076373951
 30
0.0
 10
176.944046909592
 20
217.957683119613
 30
0.0
 10
176.9509387884979
 20
218.0568185447103
 30
0.0
 10
176.9958784233848
 20
218.1684354188801
 30
0.0
 10
177.0495939048955
 20
218.2353815371968
 30
0.0
 10
177.0923794519455
 20
218.2683869632983
 30
0.0
 10
177.1370369406335
 20
218.2845608274949
 30
0.0
 10
177.1668749384228
 20
218.2822087176009
 30
0.0
 10
177.1797247143
 20
218.2778900866
 30
0.0
 11
176.9495157854
 21
217.9076373951
 31
0.0
 11
176.9592594952
 21
218.0583537128
 31
0.0
 11
177.0141700349
 21
218.1883069687
 31
0.0
 11
177.0531688064
 21
218.2356707743
 31
0.0
 11
177.0959470257
 21
218.2673807353
 31
0.0
 11
177.1392335241
 21
218.2816807779
 31
0.0
 11
177.1797247143
 21
218.2778900866
 31
0.0
  0
SPLINE
  5
32F
330
216
100
AcDbEntity
  8
0
  6
Continuous
 62
     7
100
AcDbSpline
210
0.0
220
0.0
230
1.0
 70
  1064
 71
     3
 72
    13
 73
     9
 74
     7
 42
0.000000001
 43
0.0000000001
 44
0.0000000001
 12
-0.1086308949487335
 22
0.9940821538799685
 32
0.0
 13
0.9479018714014229
 23
-0.3185624619971421
 33
0.0
 40
0.0
 40
0.0
 40
0.0
 40
0.0
 40
0.1510316819072991
 40
0.2921084438840782
 40
0.3534629510041294
 40
0.406713086670208
 40
0.4523001651862609
 40
0.4929680826853519
 40
0.4929680826853519
 40
0.4929680826853519
 40
0.4929680826853519
 10
177.2009567325
 20
217.8231140924
 30
0.0
 10
177.1954878302429
 20
217.8731600589515
 30
0.0
 10
177.2023796484918
 20
217.9722953280266
 30
0.0
 10
177.2473194461601
 20
218.0839123203035
 30
0.0
 10
177.3010352000148
 20
218.1508585239183
 30
0.0
 10
177.3438212713527
 20
218.1838640973621
 30
0.0
 10
177.3884790372196
 20
218.200037694091
 30
0.0
 10
177.4183166298988
 20
218.1976848886743
 30
0.0
 10
177.4311663616
 20
218.1933664647
 30
0.0
 11
177.2009567325
 21
217.8231140924
 31
0.0
 11
177.2107005268
 21
217.9738311366
 31
0.0
 11
177.2656106552
 21
218.1037831684
 31
0.0
 11
177.3046102343
 21
218.1511478005
 31
0.0
 11
177.3473892065
 21
218.1828579958
 31
0.0
 11
177.3906755291
 21
218.1971575064
 31
0.0
 11
177.4311663616
 21
218.1933664647
 31
0.0
  0
SPLINE
  5
330
330
216
100
AcDbEntity
  8
0
  6
Continuous
 62
     7
100
AcDbSpline
210
0.0
220
0.0
230
1.0
 70
  1064
 71
     3
 72
    13
 73
     9
 74
     7
 42
0.000000001
 43
0.0000000001
 44
0.0000000001
 12
-0.1086308950506326
 22
0.994082153868833
 32
0.0
 13
0.9479053260693975
 23
-0.3185521822390631
 33
0.0
 40
0.0
 40
0.0
 40
0.0
 40
0.0
 40
0.151032452475169
 40
0.2921078996252786
 40
0.3534633121223691
 40
0.4067145777806552
 40
0.4523013675016943
 40
0.4929687689251323
 40
0.4929687689251323
 40
0.4929687689251323
 40
0.4929687689251323
 10
177.4523976797
 20
217.7385907897
 30
0.0
 10
177.4469287495353
 20
217.7886370115869
 30
0.0
 10
177.4538205199379
 20
217.8877721505863
 30
0.0
 10
177.498760521539
 20
217.9993891065417
 30
0.0
 10
177.5524764133293
 20
218.0663355763525
 30
0.0
 10
177.5952631802223
 20
218.0993411756876
 30
0.0
 10
177.6399212637867
 20
218.1155146162184
 30
0.0
 10
177.6697584098311
 20
218.1131610464232
 30
0.0
 10
177.6826080253
 20
218.1088428166
 30
0.0
 11
177.4523976797
 21
217.7385907897
 31
0.0
 11
177.4621415881
 21
217.8893085987
 31
0.0
 11
177.5170512993
 21
218.0192593794
 31
0.0
 11
177.5560514707
 21
218.0666246966
 31
0.0
 11
177.5988315598
 21
218.0983352827
 31
0.0
 11
177.64211775
 21
218.1126342734
 31
0.0
 11
177.6826080253
 21
218.1088428166
 31
0.0
  0
SPLINE
  5
331
330
216
100
AcDbEntity
  8
0
  6
Continuous
 62
     7
100
AcDbSpline
210
0.0
220
0.0
230
1.0
 70
  1064
 71
     3
 72
     9
 73
     5
 74
     3
 42
0.000000001
 43
0.0000000001
 44
0.0000000001
 12
-0.1086308949585965
 22
0.9940821538788908
 32
0.0
 13
0.2963304407279289
 23
0.9550854777966165
 33
0.0
 40
0.0
 40
0.0
 40
0.0
 40
0.0
 40
0.1367892153348006
 40
0.1817989183166938
 40
0.1817989183166938
 40
0.1817989183166938
 40
0.1817989183166938
 10
177.7038386268
 20
217.654067487
 30
0.0
 10
177.6988854485058
 20
217.6993940596025
 30
0.0
 10
177.702199373991
 20
217.7612291235809
 30
0.0
 10
177.7171917477594
 20
217.819971649274
 30
0.0
 10
177.7216376628
 20
217.8343010205
 30
0.0
 11
177.7038386268
 21
217.654067487
 31
0.0
 11
177.7104839741999
 21
217.7906951884
 31
0.0
 11
177.7216376628
 21
217.8343010205
 31
0.0
  0
SPLINE
  5
332
330
216
100
AcDbEntity
  8
0
  6
Continuous
 62
     7
100
AcDbSpline
210
0.0
220
0.0
230
1.0
 70
  1064
 71
     3
 72
    11
 73
     7
 74
     5
 42
0.000000001
 43
0.0000000001
 44
0.0000000001
 12
0.2963304405723548
 22
0.955085477844886
 32
0.0
 13
0.9478615621577194
 23
-0.3186823794688498
 33
0.0
 40
0.0
 40
0.0
 40
0.0
 40
0.0
 40
0.0983161818220951
 40
0.1837407337575054
 40
0.2533856819369071
 40
0.3109183792157458
 40
0.3109183792157458
 40
0.3109183792157458
 40
0.3109183792157458
 10
177.7216376628
 20
217.8343010205
 30
0.0
 10
177.7313490219582
 20
217.8656011396651
 30
0.0
 10
177.7560375691348
 20
217.9224432486197
 30
0.0
 10
177.80904508401
 20
217.9895131562616
 30
0.0
 10
177.8703804873682
 20
218.0289756788797
 30
0.0
 10
177.9158671106607
 20
218.0304327688887
 30
0.0
 10
177.9340447881
 20
218.0243212166
 30
0.0
 11
177.7216376628
 21
217.8343010205
 31
0.0
 11
177.761706399
 21
217.9240816865
 31
0.0
 11
177.8160779462
 21
217.989968627
 31
0.0
 11
177.8765126803
 21
218.0245816552
 31
0.0
 11
177.9340447881
 21
218.0243212166
 31
0.0
  0
SPLINE
  5
333
330
216
100
AcDbEntity
  8
0
  6
Continuous
 62
     7
100
AcDbSpline
210
0.0
220
0.0
230
1.0
 70
  1064
 71
     3
 72
    13
 73
     9
 74
     7
 42
0.000000001
 43
0.0000000001
 44
0.0000000001
 12
-0.1086308948924671
 22
0.994082153886117
 32
0.0
 13
0.9479636094314971
 23
-0.3183786977698228
 33
0.0
 40
0.0
 40
0.0
 40
0.0
 40
0.0
 40
0.1510326482798834
 40
0.2921040337864625
 40
0.3534573952396803
 40
0.4067077313800559
 40
0.4522914183231335
 40
0.4929539976031636
 40
0.4929539976031636
 40
0.4929539976031636
 40
0.4929539976031636
 10
177.9552795739
 20
217.5695441843
 30
0.0
 10
177.9498106366531
 20
217.6195904710698
 30
0.0
 10
177.956702170033
 20
217.7187244021046
 30
0.0
 10
178.0016412462936
 20
217.8303392593392
 30
0.0
 10
178.0553543268157
 20
217.8972849467006
 30
0.0
 10
178.0981387370635
 20
217.9302900649366
 30
0.0
 10
178.1427925454764
 20
217.9464655442993
 30
0.0
 10
178.1726268395923
 20
217.9441162387464
 30
0.0
 10
178.1854757214
 20
217.9398008724
 30
0.0
 11
177.9552795739
 21
217.5695441843
 31
0.0
 11
177.9650234624
 21
217.7202621908
 31
0.0
 11
178.0199310421
 21
217.8502094628
 31
0.0
 11
178.0589290509
 21
217.8975739038
 31
0.0
 11
178.1017075058
 21
217.9292851336
 31
0.0
 11
178.1449897216999
 21
217.943586263
 31
0.0
 11
178.1854757214
 21
217.9398008724
 31
0.0
  0
SPLINE
  5
334
330
216
100
AcDbEntity
  8
0
  6
Continuous
 62
     7
100
AcDbSpline
210
0.0
220
0.0
230
1.0
 70
  1064
 71
     3
 72
    13
 73
     9
 74
     7
 42
0.000000001
 43
0.0000000001
 44
0.0000000001
 12
-0.1086308949345681
 22
0.9940821538815164
 32
0.0
 13
0.9479765614205886
 23
-0.3183401309875915
 33
0.0
 40
0.0
 40
0.0
 40
0.0
 40
0.0
 40
0.1510326396608542
 40
0.2921035714560366
 40
0.3534555825381524
 40
0.4067052287574487
 40
0.4522887290161762
 40
0.4929499064910304
 40
0.4929499064910304
 40
0.4929499064910304
 40
0.4929499064910304
 10
178.2067205211
 20
217.4850208816
 30
0.0
 10
178.2012515841631
 20
217.5350671655135
 30
0.0
 10
178.208143127206
 20
217.6342009113823
 30
0.0
 10
178.2530817966949
 20
217.7458153101806
 30
0.0
 10
178.3067942102315
 20
217.8127603639138
 30
0.0
 10
178.3495776027385
 20
217.8457656053663
 30
0.0
 10
178.394230349484
 20
217.8619413150275
 30
0.0
 10
178.424064119498
 20
217.8595936117545
 30
0.0
 10
178.4369127339
 20
217.8552789169
 30
0.0
 11
178.2067205211
 21
217.4850208816
 31
0.0
 11
178.2164643982
 21
217.6357388802
 31
0.0
 11
178.271371681
 21
217.7656857851
 31
0.0
 11
178.3103686736
 21
217.8130493136
 31
0.0
 11
178.3531461983
 21
217.8447606397
 31
0.0
 11
178.3964279738
 21
217.8590625069
 31
0.0
 11
178.4369127339
 21
217.8552789169
 31
0.0
  0
SPLINE
  5
335
330
216
100
AcDbEntity
  8
0
  6
Continuous
 62
     7
100
AcDbSpline
210
0.0
220
0.0
230
1.0
 70
  1064
 71
     3
 72
    10
 73
     6
 74
     4
 42
0.000000001
 43
0.0000000001
 44
0.0000000001
 12
-0.108630895060403
 22
0.9940821538677655
 32
0.0
 13
0.824083669388346
 23
0.5664680978196735
 33
0.0
 40
0.0
 40
0.0
 40
0.0
 40
0.0
 40
0.2097327364711711
 40
0.3054337010271218
 40
0.3867694386759232
 40
0.3867694386759232
 40
0.3867694386759232
 40
0.3867694386759232
 10
178.4581614682
 20
217.4004975789
 30
0.0
 10
178.4505669832379
 20
217.4699947690359
 30
0.0
 10
178.4646933634883
 20
217.5760208839381
 30
0.0
 10
178.5245406343378
 20
217.6910091454472
 30
0.0
 10
178.565972201422
 20
217.7349620834698
 30
0.0
 10
178.5883146858
 20
217.750320117
 30
0.0
 11
178.4581614682
 21
217.4004975789
 31
0.0
 11
178.4855912593
 21
217.6084288832
 31
0.0
 11
178.5308654759999
 21
217.6927432943
 31
0.0
 11
178.5883146858
 21
217.750320117
 31
0.0
  0
SPLINE
  5
336
330
216
100
AcDbEntity
  8
0
  6
Continuous
 62
     7
100
AcDbSpline
210
0.0
220
0.0
230
1.0
 70
  1064
 71
     3
 72
     9
 73
     5
 74
     3
 42
0.000000001
 43
0.0000000001
 44
0.0000000001
 12
0.8445743281948219
 22
0.5354383289924857
 32
0.0
 13
0.9552956517098571
 23
-0.2956521906298675
 33
0.0
 40
0.0
 40
0.0
 40
0.0
 40
0.0
 40
0.0493091126864044
 40
0.0921960423988658
 40
0.0921960423988658
 40
0.0921960423988658
 40
0.0921960423988658
 10
176.8306187928
 20
218.348430752
 30
0.0
 10
176.8445005297069
 20
218.357231414967
 30
0.0
 10
176.8732396349254
 20
218.3702577569707
 30
0.0
 10
176.9054030926768
 20
218.3693789632396
 30
0.0
 10
176.9190596585
 20
218.365152425
 30
0.0
 11
176.8306187928
 21
218.348430752
 31
0.0
 11
176.8762210494
 21
218.3671876917
 31
0.0
 11
176.9190596585
 21
218.365152425
 31
0.0
  0
SPLINE
  5
337
330
216
100
AcDbEntity
  8
0
  6
Continuous
 62
     7
100
AcDbSpline
210
0.0
220
0.0
230
1.0
 70
  1064
 71
     3
 72
     9
 73
     5
 74
     3
 42
0.000000001
 43
0.0000000001
 44
0.0000000001
 12
-0.827918438810985
 22
0.5608485166930385
 32
0.0
 13
-0.108630895189689
 23
0.9940821538536376
 33
0.0
 40
0.0
 40
0.0
 40
0.0
 40
0.0
 40
0.1186991213050176
 40
0.2508502700939281
 40
0.2508502700939281
 40
0.2508502700939281
 40
0.2508502700939281
 10
178.5735673962
 20
217.184277255
 30
0.0
 10
178.5408096658002
 20
217.2064679970389
 30
0.0
 10
178.4850336859883
 20
217.2739488879878
 30
0.0
 10
178.4629467007311
 20
217.3567078793592
 30
0.0
 10
178.4581614682
 20
217.4004975789
 30
0.0
 11
178.5735673962
 21
217.184277255
 31
0.0
 11
178.4955678836
 21
217.2737510357
 31
0.0
 11
178.4581614682
 21
217.4004975789
 31
0.0
  0
SPLINE
  5
338
330
216
100
AcDbEntity
  8
0
  6
Continuous
 62
     7
100
AcDbSpline
210
0.0
220
0.0
230
1.0
 70
  1064
 71
     3
 72
     9
 73
     5
 74
     3
 42
0.000000001
 43
0.0000000001
 44
0.0000000001
 12
-0.8443675888678823
 22
0.5357642904015151
 32
0.0
 13
-0.1086308948466675
 23
0.9940821538911221
 33
0.0
 40
0.0
 40
0.0
 40
0.0
 40
0.0
 40
0.1213950206469953
 40
0.2569505934453954
 40
0.2569505934453954
 40
0.2569505934453954
 40
0.2569505934453954
 10
178.3273888173
 20
217.2653496764
 30
0.0
 10
178.2932214770052
 20
217.2870293820984
 30
0.0
 10
178.2345647525152
 20
217.3552678852466
 30
0.0
 10
178.2116290288248
 20
217.4401030896735
 30
0.0
 10
178.2067205211
 20
217.4850208816
 30
0.0
 11
178.3273888173
 21
217.2653496764
 31
0.0
 11
178.2457704056
 21
217.3552117146
 31
0.0
 11
178.2067205211
 21
217.4850208816
 31
0.0
  0
SPLINE
  5
339
330
216
100
AcDbEntity
  8
0
  6
Continuous
 62
     7
100
AcDbSpline
210
0.0
220
0.0
230
1.0
 70
  1064
 71
     3
 72
     9
 73
     5
 74
     3
 42
0.000000001
 43
0.0000000001
 44
0.0000000001
 12
-0.8426615273533833
 22
0.5384436370860585
 32
0.0
 13
-0.1086308949832281
 23
0.9940821538761991
 33
0.0
 40
0.0
 40
0.0
 40
0.0
 40
0.0
 40
0.1211112056476232
 40
0.2563081028750607
 40
0.2563081028750607
 40
0.2563081028750607
 40
0.2563081028750607
 10
178.0753882735
 20
217.3502293552
 30
0.0
 10
178.0413696889897
 20
217.3719665412203
 30
0.0
 10
177.9830208673018
 20
217.4401293059497
 30
0.0
 10
177.9601750938816
 20
217.5247452433689
 30
0.0
 10
177.9552795739
 20
217.5695441843
 30
0.0
 11
178.0753882735
 21
217.3502293552
 31
0.0
 11
177.9941545045
 21
217.4400569618
 31
0.0
 11
177.9552795739
 21
217.5695441843
 31
0.0
  0
SPLINE
  5
33A
330
216
100
AcDbEntity
  8
0
  6
Continuous
 62
     7
100
AcDbSpline
210
0.0
220
0.0
230
1.0
 70
  1064
 71
     3
 72
     9
 73
     5
 74
     3
 42
0.000000001
 43
0.0000000001
 44
0.0000000001
 12
-0.1276355865550705
 22
0.9918211315780396
 32
0.0
 13
0.3617436679716186
 23
0.9322775974367502
 33
0.0
 40
0.0
 40
0.0
 40
0.0
 40
0.0
 40
0.0330882135101736
 40
0.1211387710625642
 40
0.1211387710625642
 40
0.1211387710625642
 40
0.1211387710625642
 10
176.2460114199
 20
218.2057310907
 30
0.0
 10
176.2446036753869
 20
218.2166702871552
 30
0.0
 10
176.2419243253224
 20
218.2569424756246
 30
0.0
 10
176.2478343225146
 20
218.2982012641507
 30
0.0
 10
176.2584515664
 20
218.3255637849
 30
0.0
 11
176.2460114199
 21
218.2057310907
 31
0.0
 11
176.2437808102
 21
218.2387440314
 31
0.0
 11
176.2584515664
 21
218.3255637849
 31
0.0
  0
SPLINE
  5
33B
330
216
100
AcDbEntity
  8
0
  6
Continuous
 62
     7
100
AcDbSpline
210
0.0
220
0.0
230
1.0
 70
  1064
 71
     3
 72
     9
 73
     5
 74
     3
 42
0.000000001
 43
0.0000000001
 44
0.0000000001
 12
-0.8467590496791331
 22
0.5319766083076316
 32
0.0
 13
-0.1086308949612412
 23
0.9940821538786018
 33
0.0
 40
0.0
 40
0.0
 40
0.0
 40
0.0
 40
0.1217940312064366
 40
0.2578561578394516
 40
0.2578561578394516
 40
0.2578561578394516
 40
0.2578561578394516
 10
177.8252978467
 20
217.4338969416
 30
0.0
 10
177.790921113993
 20
217.4554941334778
 30
0.0
 10
177.7318281769202
 20
217.5238371604311
 30
0.0
 10
177.7087654769955
 20
217.6089818430318
 30
0.0
 10
177.7038386268
 20
217.654067487
 30
0.0
 11
177.8252978467
 21
217.4338969416
 31
0.0
 11
177.7431362969
 21
217.5238039256
 31
0.0
 11
177.7038386268
 21
217.654067487
 31
0.0
  0
SPLINE
  5
33C
330
216
100
AcDbEntity
  8
0
  6
Continuous
 62
     7
100
AcDbSpline
210
0.0
220
0.0
230
1.0
 70
  1064
 71
     3
 72
     9
 73
     5
 74
     3
 42
0.000000001
 43
0.0000000001
 44
0.0000000001
 12
0.0256951960462266
 22
0.9996698239419584
 32
0.0
 13
0.9641998521884758
 23
0.265176629889818
 33
0.0
 40
0.0
 40
0.0
 40
0.0
 40
0.0
 40
0.0769277376483942
 40
0.281740928776248
 40
0.281740928776248
 40
0.281740928776248
 40
0.281740928776248
 10
256.7921689452
 20
222.3657849889
 30
0.0
 10
256.7928278363001
 20
222.3914191015504
 30
0.0
 10
256.8080215745808
 20
222.4830132278306
 30
0.0
 10
256.8742843062627
 20
222.5774097805066
 30
0.0
 10
256.9401112558
 20
222.5955136711
 30
0.0
 11
256.7921689452
 21
222.3657849889
 31
0.0
 11
256.8049323164
 21
222.4416465284
 31
0.0
 11
256.9401112558
 21
222.5955136711
 31
0.0
  0
SPLINE
  5
33D
330
216
100
AcDbEntity
  8
0
  6
Continuous
 62
     7
100
AcDbSpline
210
0.0
220
0.0
230
1.0
 70
  1064
 71
     3
 72
     8
 73
     4
 74
     2
 42
0.000000001
 43
0.0000000001
 44
0.0000000001
 12
0.9641998520765884
 22
0.2651766302966473
 32
0.0
 13
0.9479981278557728
 23
-0.3182759016670125
 33
0.0
 40
0.0
 40
0.0
 40
0.0
 40
0.0
 40
0.0587958070506495
 40
0.0587958070506495
 40
0.0587958070506495
 40
0.0587958070506495
 10
258.7568292549
 20
223.095151952
 30
0.0
 10
258.775726224387
 20
223.1003490433298
 30
0.0
 10
258.7970402324634
 20
223.1005935207345
 30
0.0
 10
258.8156196708
 20
223.0943557579
 30
0.0
 11
258.7568292549
 21
223.095151952
 31
0.0
 11
258.8156196708
 21
223.0943557579
 31
0.0
  0
SPLINE
  5
33E
330
216
100
AcDbEntity
  8
0
  6
Continuous
 62
     7
100
AcDbSpline
210
0.0
220
0.0
230
1.0
 70
  1064
 71
     3
 72
    11
 73
     7
 74
     5
 42
0.000000001
 43
0.0000000001
 44
0.0000000001
 12
-0.0325716716580264
 22
-0.9994694023357602
 32
0.0
 13
-0.964199852163589
 23
-0.2651766299803084
 33
0.0
 40
0.0
 40
0.0
 40
0.0
 40
0.0
 40
1.418591001300339
 40
2.71112285960557
 40
3.879382483407156
 40
4.969283013738612
 40
4.969283013738612
 40
4.969283013738612
 40
4.969283013738612
 10
277.5051716244
 20
219.2358915456
 30
0.0
 10
277.4897696642962
 20
218.7632787788572
 30
0.0
 10
277.3687363001027
 20
217.8587239437857
 30
0.0
 10
276.8828957954927
 20
216.6431699393806
 30
0.0
 10
276.1148281208779
 20
215.7119713128751
 30
0.0
 10
275.4266220584395
 20
215.348230724849
 30
0.0
 10
275.0763280816999
 20
215.2518920083
 30
0.0
 11
277.5051716244
 21
219.2358915456
 31
0.0
 11
277.3032861692
 21
217.831739598
 31
0.0
 11
276.8054989959
 21
216.6389082877
 31
0.0
 11
276.0444192772
 21
215.7525741462
 31
0.0
 11
275.0763280816999
 21
215.2518920083
 31
0.0
  0
SPLINE
  5
33F
330
216
100
AcDbEntity
  8
0
  6
Continuous
 62
     7
100
AcDbSpline
210
0.0
220
0.0
230
1.0
 70
  1064
 71
     3
 72
     9
 73
     5
 74
     3
 42
0.000000001
 43
0.0000000001
 44
0.0000000001
 12
-0.9641998521653256
 22
-0.2651766299739937
 32
0.0
 13
-0.9478776707409211
 23
0.3186344634699233
 33
0.0
 40
0.0
 40
0.0
 40
0.0
 40
0.0
 40
0.8144032193404337
 40
1.663126081067876
 40
1.663126081067876
 40
1.663126081067876
 40
1.663126081067876
 10
273.2596100826
 20
214.7522537273
 30
0.0
 10
272.9978609280363
 20
214.6802668269184
 30
0.0
 10
272.4362900673628
 20
214.6194968696097
 30
0.0
 10
271.8845811820262
 20
214.7300075696063
 30
0.0
 10
271.6164193656
 20
214.8201516875
 30
0.0
 11
273.2596100826
 21
214.7522537273
 31
0.0
 11
272.4502432215
 21
214.6618220524
 31
0.0
 11
271.6164193656
 21
214.8201516875
 31
0.0
  0
SPLINE
  5
340
330
216
100
AcDbEntity
  8
0
  6
Continuous
 62
     7
100
AcDbSpline
210
0.0
220
0.0
230
1.0
 70
  1064
 71
     3
 72
    11
 73
     7
 74
     5
 42
0.000000001
 43
0.0000000001
 44
0.0000000001
 12
-0.0256951961911054
 22
-0.9996698239382345
 32
0.0
 13
-0.9641998521716741
 23
-0.2651766299509092
 33
0.0
 40
0.0
 40
0.0
 40
0.0
 40
0.0
 40
0.6641242494512731
 40
1.253673555997203
 40
1.761866706699304
 40
2.212940196058242
 40
2.212940196058242
 40
2.212940196058242
 40
2.212940196058242
 10
273.5159204676
 20
219.3905975791
 30
0.0
 10
273.5102321999717
 20
219.169295921926
 30
0.0
 10
273.4580471792274
 20
218.7506189654501
 30
0.0
 10
273.2446374637672
 20
218.1959933048046
 30
0.0
 10
272.9162575086947
 20
217.784264273625
 30
0.0
 10
272.6249657877528
 20
217.6268726752895
 30
0.0
 10
272.4799907905
 20
217.5870012927
 30
0.0
 11
273.5159204676
 21
219.3905975791
 31
0.0
 11
273.4269731828
 21
218.7324567133
 31
0.0
 11
273.2060044103
 21
218.1858844981
 31
0.0
 11
272.8794748266
 21
217.7964763454
 31
0.0
 11
272.4799907905
 21
217.5870012927
 31
0.0
  0
SPLINE
  5
341
330
216
100
AcDbEntity
  8
0
  6
Continuous
 62
     7
100
AcDbSpline
210
0.0
220
0.0
230
1.0
 70
  1064
 71
     3
 72
    13
 73
     9
 74
     7
 42
0.000000001
 43
0.0000000001
 44
0.0000000001
 12
0.9478776707366545
 22
-0.3186344634826163
 32
0.0
 13
0.0256951961713733
 23
0.9996698239387416
 33
0.0
 40
0.0
 40
0.0
 40
0.0
 40
0.0
 40
0.3807559692304798
 40
0.7433081931187211
 40
1.103180382213846
 40
1.476626551562897
 40
2.304317527175321
 40
3.265321422020078
 40
3.265321422020078
 40
3.265321422020078
 40
3.265321422020078
 10
271.5992469427
 20
217.3883016078
 30
0.0
 10
271.7195503031111
 20
217.3478609498088
 30
0.0
 10
271.9652313146099
 20
217.2961558909771
 30
0.0
 10
272.3370569377518
 20
217.3229265768624
 30
0.0
 10
272.6826716681768
 20
217.4569857574042
 30
0.0
 10
273.0994383982575
 20
217.7791832796394
 30
0.0
 10
273.4706181650199
 20
218.4267392005167
 30
0.0
 10
273.5645747098002
 20
219.0258880782121
 30
0.0
 10
273.572805771
 20
219.346116943
 30
0.0
 11
271.5992469427
 21
217.3883016078
 31
0.0
 11
271.9725207328
 21
217.3131897863
 31
0.0
 11
272.3340174774
 21
217.3408342919
 31
0.0
 11
272.6698441232
 21
217.4701728262
 31
0.0
 11
272.9670950128
 21
217.6962346541
 31
0.0
 11
273.402099601
 21
218.4003961124
 31
0.0
 11
273.572805771
 21
219.346116943
 31
0.0
  0
SPLINE
  5
342
330
216
100
AcDbEntity
  8
0
  6
Continuous
 62
     7
100
AcDbSpline
210
0.0
220
0.0
230
1.0
 70
  1064
 71
     3
 72
     9
 73
     5
 74
     3
 42
0.000000001
 43
0.0000000001
 44
0.0000000001
 12
0.9478776707424584
 22
-0.3186344634653502
 32
0.0
 13
0.9641667977634785
 23
0.2652967886924373
 33
0.0
 40
0.0
 40
0.0
 40
0.0
 40
0.0
 40
0.3800983020838747
 40
0.7417306431500354
 40
0.7417306431500354
 40
0.7417306431500354
 40
0.7417306431500354
 10
271.7471892533
 20
217.61803029
 30
0.0
 10
271.8672848177108
 20
217.5776594838171
 30
0.0
 10
272.1132781062612
 20
217.5280968165048
 30
0.0
 10
272.3637646462155
 20
217.5550267211427
 30
0.0
 10
272.4799892783
 20
217.5870066874
 30
0.0
 11
271.7471892533
 21
217.61803029
 31
0.0
 11
272.1205822409999
 21
217.5469500819
 31
0.0
 11
272.4799892783
 21
217.5870066874
 31
0.0
  0
SPLINE
  5
343
330
216
100
AcDbEntity
  8
0
  6
Continuous
 62
     7
100
AcDbSpline
210
0.0
220
0.0
230
1.0
 70
  1064
 71
     3
 72
    10
 73
     6
 74
     4
 42
0.000000001
 43
0.0000000001
 44
0.0000000001
 12
-0.0257751700387012
 22
-0.9996677651147285
 32
0.0
 13
0.9478776707155358
 23
-0.3186344635454401
 33
0.0
 40
0.0
 40
0.0
 40
0.0
 40
0.0
 40
0.0124440275993474
 40
0.0382427937247413
 40
0.0757269261796508
 40
0.0757269261796508
 40
0.0757269261796508
 40
0.0757269261796508
 10
273.5159297463
 20
219.3905973406
 30
0.0
 10
273.5158228306576
 20
219.3864507095136
 30
0.0
 10
273.5203366062756
 20
219.3736614543917
 30
0.0
 10
273.5415544881006
 20
219.3581426396545
 30
0.0
 10
273.5609623136133
 20
219.3500981884787
 30
0.0
 10
273.572805771
 20
219.346116943
 30
0.0
 11
273.5159297463
 21
219.3905973406
 31
0.0
 11
273.5194169767
 21
219.3786519211
 31
0.0
 11
273.5385590242
 21
219.3613557264
 31
0.0
 11
273.572805771
 21
219.346116943
 31
0.0
  0
SPLINE
  5
344
330
216
100
AcDbEntity
  8
0
  6
Continuous
 62
     7
100
AcDbSpline
210
0.0
220
0.0
230
1.0
 70
  1064
 71
     3
 72
    11
 73
     7
 74
     5
 42
0.000000001
 43
0.0000000001
 44
0.0000000001
 12
0.8160444105922438
 22
0.5779892040005226
 32
0.0
 13
0.0256951961748166
 23
0.999669823938653
 33
0.0
 40
0.0
 40
0.0
 40
0.0
 40
0.0
 40
0.8893750200487641
 40
1.860737094315582
 40
2.92392418143439
 40
4.070170295273533
 40
4.070170295273533
 40
4.070170295273533
 40
4.070170295273533
 10
275.870922081
 20
215.6310402021
 30
0.0
 10
276.1128452523437
 20
215.8023899220653
 30
0.0
 10
276.5611415045825
 20
216.2465889248277
 30
0.0
 10
277.0477761616507
 20
217.1016257439366
 30
0.0
 10
277.3579658003941
 20
218.1230973707688
 30
0.0
 10
277.4364997450801
 20
218.859824688896
 30
0.0
 10
277.446317418
 20
219.2417805725
 30
0.0
 11
275.870922081
 21
215.6310402021
 31
0.0
 11
276.5097227711
 21
216.2498467992
 31
0.0
 11
277.0005346108
 21
217.088087825
 31
0.0
 11
277.3181590924
 21
218.1027214884
 31
0.0
 11
277.446317418
 21
219.2417805725
 31
0.0
  0
SPLINE
  5
345
330
216
100
AcDbEntity
  8
0
  6
Continuous
 62
     7
100
AcDbSpline
210
0.0
220
0.0
230
1.0
 70
  1064
 71
     3
 72
    12
 73
     8
 74
     6
 42
0.000000001
 43
0.0000000001
 44
0.0000000001
 12
0.9642144056216123
 22
0.2651237069591495
 32
0.0
 13
0.0256951961719752
 23
0.9996698239387262
 33
0.0
 40
0.0
 40
0.0
 40
0.0
 40
0.0
 40
0.5269553577951612
 40
1.066687036632346
 40
2.220630434328167
 40
3.515921569838533
 40
4.948932915370702
 40
4.948932915370702
 40
4.948932915370702
 40
4.948932915370702
 10
273.2596078332
 20
214.7522622222
 30
0.0
 10
273.4289738155685
 20
214.7988316748203
 30
0.0
 10
273.7626379547728
 20
214.9307219097988
 30
0.0
 10
274.3830323158972
 20
215.3429663310054
 30
0.0
 10
275.02741514568
 20
216.1334509232427
 30
0.0
 10
275.5017982081782
 20
217.3534283890593
 30
0.0
 10
275.61732558292
 20
218.2646295584365
 30
0.0
 10
275.6295994188
 20
218.7421422916
 30
0.0
 11
273.2596078332
 21
214.7522622222
 31
0.0
 11
273.7499398004
 21
214.9452816799
 31
0.0
 11
274.2004634527
 21
215.24249999
 31
0.0
 11
274.9461663526
 21
216.1231318939
 31
0.0
 11
275.4358664122
 21
217.3222870037
 31
0.0
 11
275.6295994188
 21
218.7421422916
 31
0.0
  0
SPLINE
  5
346
330
216
100
AcDbEntity
  8
0
  6
Continuous
 62
     7
100
AcDbSpline
210
0.0
220
0.0
230
1.0
 70
  1064
 71
     3
 72
    14
 73
    10
 74
     8
 42
0.000000001
 43
0.0000000001
 44
0.0000000001
 12
0.9478776707396011
 22
-0.3186344634738499
 32
0.0
 13
0.0256951961698401
 23
0.9996698239387809
 33
0.0
 40
0.0
 40
0.0
 40
0.0
 40
0.0
 40
0.735036581316783
 40
1.434876630791475
 40
2.129580186280993
 40
2.850480165608576
 40
3.622137485318218
 40
4.457814578243735
 40
6.312926043725043
 40
6.312926043725043
 40
6.312926043725043
 40
6.312926043725043
 10
271.537097597
 20
214.9703856248
 30
0.0
 10
271.7693391845357
 20
214.8923162958928
 30
0.0
 10
272.2436012362036
 20
214.7924979237016
 30
0.0
 10
272.9613691871176
 20
214.8442069589024
 30
0.0
 10
273.6285428241606
 20
215.1029751861158
 30
0.0
 10
274.2125049548096
 20
215.5544228799952
 30
0.0
 10
274.6912909893226
 20
216.1745431181752
 30
0.0
 10
275.1861477550254
 20
217.2244902118358
 30
0.0
 10
275.3309721913925
 20
218.1315917676385
 30
0.0
 10
275.3468613424
 20
218.749758085
 30
0.0
 11
271.537097597
 21
214.9703856248
 31
0.0
 11
272.2576903328
 21
214.8253860214
 31
0.0
 11
272.9554917285
 21
214.8787649218
 31
0.0
 11
273.6037805329
 21
215.128434015
 31
0.0
 11
274.177595517
 21
215.564820477
 31
0.0
 11
274.6548895885
 21
216.1711581621
 31
0.0
 11
275.0173246665
 21
216.9241502058
 31
0.0
 11
275.3468613424
 21
218.749758085
 31
0.0
  0
SPLINE
  5
347
330
216
100
AcDbEntity
  8
0
  6
Continuous
 62
     7
100
AcDbSpline
210
0.0
220
0.0
230
1.0
 70
  1064
 71
     3
 72
     9
 73
     5
 74
     3
 42
0.000000001
 43
0.0000000001
 44
0.0000000001
 12
-0.9641998521177011
 22
-0.2651766301471594
 32
0.0
 13
-0.0256951961023439
 23
-0.9996698239405159
 33
0.0
 40
0.0
 40
0.0
 40
0.0
 40
0.0
 40
0.0625431250498122
 40
0.2831936665972954
 40
0.2831936665972954
 40
0.2831936665972954
 40
0.2831936665972954
 10
271.7471892533
 20
217.61803029
 30
0.0
 10
271.727087895992
 20
217.6125019649535
 30
0.0
 10
271.6431805156472
 20
217.5640518556101
 30
0.0
 10
271.6011368290117
 20
217.461827503807
 30
0.0
 10
271.5992469427
 20
217.3883016078
 30
0.0
 11
271.7471892533
 21
217.61803029
 31
0.0
 11
271.6920679996
 21
217.5884788115
 31
0.0
 11
271.5992469427
 21
217.3883016078
 31
0.0
  0
SPLINE
  5
348
330
216
100
AcDbEntity
  8
0
  6
Continuous
 62
     7
100
AcDbSpline
210
0.0
220
0.0
230
1.0
 70
  1064
 71
     3
 72
     9
 73
     5
 74
     3
 42
0.000000001
 43
0.0000000001
 44
0.0000000001
 12
0.9478776707023495
 22
-0.3186344635846666
 32
0.0
 13
0.9641998521696486
 23
0.2651766299582751
 33
0.0
 40
0.0
 40
0.0
 40
0.0
 40
0.0
 40
0.142333958307888
 40
0.2850928994589751
 40
0.2850928994589751
 40
0.2850928994589751
 40
0.2850928994589751
 10
275.3468613424
 20
218.749758085
 30
0.0
 10
275.3918330693543
 20
218.7346405835149
 30
0.0
 10
275.4875806878875
 20
218.7240701414665
 30
0.0
 10
275.5837167021488
 20
218.7295235132964
 30
0.0
 10
275.6295994188
 20
218.7421422916
 30
0.0
 11
275.3468613424
 21
218.749758085
 31
0.0
 11
275.4875347683
 21
218.7280799178
 31
0.0
 11
275.6295994188
 21
218.7421422916
 31
0.0
  0
SPLINE
  5
349
330
216
100
AcDbEntity
  8
0
  6
Continuous
 62
     7
100
AcDbSpline
210
0.0
220
0.0
230
1.0
 70
  1064
 71
     3
 72
     9
 73
     5
 74
     3
 42
0.000000001
 43
0.0000000001
 44
0.0000000001
 12
-0.0256951960559847
 22
-0.9996698239417076
 32
0.0
 13
0.9478396901976703
 23
-0.318747426163702
 33
0.0
 40
0.0
 40
0.0
 40
0.0
 40
0.0
 40
0.0988399522461518
 40
0.1786172127396098
 40
0.1786172127396098
 40
0.1786172127396098
 40
0.1786172127396098
 10
271.537097597
 20
214.9703856248
 30
0.0
 10
271.5362510263497
 20
214.9374498522466
 30
0.0
 10
271.5445949008675
 20
214.8757174326721
 30
0.0
 10
271.5912137224097
 20
214.8286270846829
 30
0.0
 10
271.6164190737
 20
214.8201508192
 30
0.0
 11
271.537097597
 21
214.9703856248
 31
0.0
 11
271.5572055365
 21
214.8736126589
 31
0.0
 11
271.6164190737
 21
214.8201508192
 31
0.0
  0
SPLINE
  5
34A
330
216
100
AcDbEntity
  8
0
  6
Continuous
 62
     7
100
AcDbSpline
210
0.0
220
0.0
230
1.0
 70
  1064
 71
     3
 72
     9
 73
     5
 74
     3
 42
0.000000001
 43
0.0000000001
 44
0.0000000001
 12
0.9641998521596361
 22
0.2651766299946814
 32
0.0
 13
0.0257751701862039
 23
0.9996677651109255
 33
0.0
 40
0.0
 40
0.0
 40
0.0
 40
0.0
 40
0.0480758332966974
 40
0.0761358076444995
 40
0.0761358076444995
 40
0.0761358076444995
 40
0.0761358076444995
 10
277.446317418
 20
219.2417805725
 30
0.0
 10
277.4617689884524
 20
219.2460301016526
 30
0.0
 10
277.485532143877
 20
219.2529922684756
 30
0.0
 10
277.5063116054619
 20
219.2742489449182
 30
0.0
 10
277.506552689
 20
219.2835991622
 30
0.0
 11
277.446317418
 21
219.2417805725
 31
0.0
 11
277.4905897215
 21
219.2605222077
 31
0.0
 11
277.506552689
 21
219.2835991622
 31
0.0
  0
SPLINE
  5
34B
330
216
100
AcDbEntity
  8
0
  6
Continuous
 62
     7
100
AcDbSpline
210
0.0
220
0.0
230
1.0
 70
  1064
 71
     3
 72
     9
 73
     5
 74
     3
 42
0.000000001
 43
0.0000000001
 44
0.0000000001
 12
0.0256951960010225
 22
0.9996698239431204
 32
0.0
 13
0.9641998521121177
 23
0.2651766301674615
 33
0.0
 40
0.0
 40
0.0
 40
0.0
 40
0.0
 40
0.0769187192132938
 40
0.2817396995461692
 40
0.2817396995461692
 40
0.2817396995461692
 40
0.2817396995461692
 10
256.5144926409
 20
240.0214843635
 30
0.0
 10
256.5151514547555
 20
240.0471154709979
 30
0.0
 10
256.5303460299238
 20
240.138708765272
 30
0.0
 10
256.5966054985179
 20
240.2331084665826
 30
0.0
 10
256.6624349515
 20
240.2512130457
 30
0.0
 11
256.5144926409
 21
240.0214843635
 31
0.0
 11
256.5272542903
 21
240.0973370475
 31
0.0
 11
256.6624349515
 21
240.2512130457
 31
0.0
  0
SPLINE
  5
34C
330
216
100
AcDbEntity
  8
0
  6
Continuous
 62
     7
100
AcDbSpline
210
0.0
220
0.0
230
1.0
 70
  1064
 71
     3
 72
     9
 73
     5
 74
     3
 42
0.000000001
 43
0.0000000001
 44
0.0000000001
 12
0.0256951960587244
 22
0.9996698239416373
 32
0.0
 13
-0.9482271013656259
 23
0.3175930796408248
 33
0.0
 40
0.0
 40
0.0
 40
0.0
 40
0.0
 40
0.0988993269974016
 40
0.1786984224172465
 40
0.1786984224172465
 40
0.1786984224172465
 40
0.1786984224172465
 10
290.6826910752
 20
230.7213557917
 30
0.0
 10
290.6835381543991
 20
230.7543113493025
 30
0.0
 10
290.6751760391007
 20
230.8160707665684
 30
0.0
 10
290.6285069932806
 20
230.8631724100444
 30
0.0
 10
290.6032844383
 20
230.8716202902
 30
0.0
 11
290.6826910752
 21
230.7213557917
 31
0.0
 11
290.6625488868
 21
230.8181822815
 31
0.0
 11
290.6032844383
 21
230.8716202902
 31
0.0
  0
SPLINE
  5
34D
330
216
100
AcDbEntity
  8
0
  6
Continuous
 62
     7
100
AcDbSpline
210
0.0
220
0.0
230
1.0
 70
  1064
 71
     3
 72
     9
 73
     5
 74
     3
 42
0.000000001
 43
0.0000000001
 44
0.0000000001
 12
0.9641998521957711
 22
0.2651766298632912
 32
0.0
 13
0.0256951962033286
 23
0.9996698239379202
 33
0.0
 40
0.0
 40
0.0
 40
0.0
 40
0.0
 40
0.0625357191827037
 40
0.2831923500878001
 40
0.2831923500878001
 40
0.2831923500878001
 40
0.2831923500878001
 10
290.4221948314
 20
226.1127241481
 30
0.0
 10
290.4422938084644
 20
226.1182518185196
 30
0.0
 10
290.526200097199
 20
226.1667019446187
 30
0.0
 10
290.5682472035251
 20
226.2689249051774
 30
0.0
 10
290.570137142
 20
226.3424528303
 30
0.0
 11
290.4221948314
 21
226.1127241481
 31
0.0
 11
290.477309691
 21
226.1422718794
 31
0.0
 11
290.570137142
 21
226.3424528303
 31
0.0
  0
SPLINE
  5
34E
330
216
100
AcDbEntity
  8
0
  6
Continuous
 62
     7
100
AcDbSpline
210
0.0
220
0.0
230
1.0
 70
  1064
 71
     3
 72
     9
 73
     5
 74
     3
 42
0.000000001
 43
0.0000000001
 44
0.0000000001
 12
0.9478776707090464
 22
-0.3186344635647452
 32
0.0
 13
-0.0256951963104977
 23
-0.9996698239351657
 33
0.0
 40
0.0
 40
0.0
 40
0.0
 40
0.0
 40
0.0622232853204843
 40
0.2827987150348916
 40
0.2827987150348916
 40
0.2827987150348916
 40
0.2827987150348916
 10
286.166795944
 20
229.0839319949
 30
0.0
 10
286.1864559649178
 20
229.0773231671869
 30
0.0
 10
286.2673315057244
 20
229.0241770899343
 30
0.0
 10
286.3034809527892
 20
228.9200883862957
 30
0.0
 10
286.3015917098
 20
228.8465875193
 30
0.0
 11
286.166795944
 21
229.0839319949
 31
0.0
 11
286.2198802618999
 21
229.0514698257
 31
0.0
 11
286.3015917098
 21
228.8465875193
 31
0.0
  0
SPLINE
  5
34F
330
216
100
AcDbEntity
  8
0
  6
Continuous
 62
     7
100
AcDbSpline
210
0.0
220
0.0
230
1.0
 70
  1064
 71
     3
 72
     9
 73
     5
 74
     3
 42
0.000000001
 43
0.0000000001
 44
0.0000000001
 12
-0.025695196560167
 22
-0.9996698239287482
 32
0.0
 13
-0.5900202992317763
 23
-0.8073884111717514
 33
0.0
 40
0.0
 40
0.0
 40
0.0
 40
0.0
 40
0.0305405619250353
 40
0.1121318567872134
 40
0.1121318567872134
 40
0.1121318567872134
 40
0.1121318567872134
 10
286.2482509327
 20
226.7713682898
 30
0.0
 10
286.2479893507861
 20
226.7611914637459
 30
0.0
 10
286.2448245301523
 20
226.7240370592921
 30
0.0
 10
286.2322036303697
 20
226.6867972285747
 30
0.0
 10
286.2161567903
 20
226.6648386066
 30
0.0
 11
286.2482509327
 21
226.7713682898
 31
0.0
 11
286.2455639243
 21
226.7409461612
 31
0.0
 11
286.2161567903
 21
226.6648386066
 31
0.0
  0
SPLINE
  5
350
330
216
100
AcDbEntity
  8
0
  6
Continuous
 62
     7
100
AcDbSpline
210
0.0
220
0.0
230
1.0
 70
  1064
 71
     3
 72
     8
 73
     4
 74
     2
 42
0.000000001
 43
0.0000000001
 44
0.0000000001
 12
-0.5900203008662146
 22
-0.8073884099773426
 32
0.0
 13
-0.7099327547482775
 23
-0.7042694681267408
 33
0.0
 40
0.0
 40
0.0
 40
0.0
 40
0.0
 40
0.0188802557853731
 40
0.0188802557853731
 40
0.0188802557853731
 40
0.0188802557853731
 10
286.2161567903
 20
226.6648386066
 30
0.0
 10
286.212443545567
 20
226.6597573733672
 30
0.0
 10
286.2083444217
 20
226.6549300545667
 30
0.0
 10
286.2038765177
 20
226.650497792
 30
0.0
 11
286.2161567903
 21
226.6648386066
 31
0.0
 11
286.2038765177
 21
226.650497792
 31
0.0
  0
SPLINE
  5
351
330
216
100
AcDbEntity
  8
0
  6
Continuous
 62
     7
100
AcDbSpline
210
0.0
220
0.0
230
1.0
 70
  1064
 71
     3
 72
     8
 73
     4
 74
     2
 42
0.000000001
 43
0.0000000001
 44
0.0000000001
 12
-0.7099327529001407
 22
-0.7042694699897391
 32
0.0
 13
-0.9644892926776424
 23
-0.2641219496940397
 33
0.0
 40
0.0
 40
0.0
 40
0.0
 40
0.0
 40
0.0492054174731346
 40
0.0492054174731346
 40
0.0492054174731346
 40
0.0492054174731346
 10
286.2038765177
 20
226.650497792
 30
0.0
 10
286.1922323385386
 20
226.6389465009052
 30
0.0
 10
286.1773359223982
 20
226.6297937594328
 30
0.0
 10
286.1615165563
 20
226.6254616825
 30
0.0
 11
286.2038765177
 21
226.650497792
 31
0.0
 11
286.1615165563
 21
226.6254616825
 31
0.0
  0
SPLINE
  5
352
330
216
100
AcDbEntity
  8
0
  6
Continuous
 62
     7
100
AcDbSpline
210
0.0
220
0.0
230
1.0
 70
  1064
 71
     3
 72
     9
 73
     5
 74
     3
 42
0.000000001
 43
0.0000000001
 44
0.0000000001
 12
0.9478776707090464
 22
-0.3186344635647452
 32
0.0
 13
-0.0256951963104977
 23
-0.9996698239351657
 33
0.0
 40
0.0
 40
0.0
 40
0.0
 40
0.0
 40
0.0622232854580473
 40
0.2827987151353934
 40
0.2827987151353934
 40
0.2827987151353934
 40
0.2827987151353934
 10
262.2799059667
 20
237.1136457513
 30
0.0
 10
262.2995659876612
 20
237.1070369235723
 30
0.0
 10
262.3804415284701
 20
237.0538908462378
 30
0.0
 10
262.416590975489
 20
236.9498021425833
 30
0.0
 10
262.4147017325
 20
236.8763012756
 30
0.0
 11
262.2799059667
 21
237.1136457513
 31
0.0
 11
262.3329902847
 21
237.081183582
 31
0.0
 11
262.4147017325
 21
236.8763012756
 31
0.0
  0
SPLINE
  5
353
330
216
100
AcDbEntity
  8
0
  6
Continuous
 62
     7
100
AcDbSpline
210
0.0
220
0.0
230
1.0
 70
  1064
 71
     3
 72
     9
 73
     5
 74
     3
 42
0.000000001
 43
0.0000000001
 44
0.0000000001
 12
-0.025695196560167
 22
-0.9996698239287482
 32
0.0
 13
-0.5900202992317763
 23
-0.8073884111717514
 33
0.0
 40
0.0
 40
0.0
 40
0.0
 40
0.0
 40
0.030540561925012
 40
0.1121318567871961
 40
0.1121318567871961
 40
0.1121318567871961
 40
0.1121318567871961
 10
262.3613609555
 20
234.8010820461
 30
0.0
 10
262.3610993735861
 20
234.7909052200459
 30
0.0
 10
262.3579345529521
 20
234.7537508155921
 30
0.0
 10
262.3453136531697
 20
234.7165109848747
 30
0.0
 10
262.3292668131
 20
234.6945523629
 30
0.0
 11
262.3613609555
 21
234.8010820461
 31
0.0
 11
262.3586739471
 21
234.7706599175
 31
0.0
 11
262.3292668131
 21
234.6945523629
 31
0.0
  0
SPLINE
  5
354
330
216
100
AcDbEntity
  8
0
  6
Continuous
 62
     7
100
AcDbSpline
210
0.0
220
0.0
230
1.0
 70
  1064
 71
     3
 72
     8
 73
     4
 74
     2
 42
0.000000001
 43
0.0000000001
 44
0.0000000001
 12
-0.5900203008662146
 22
-0.8073884099773426
 32
0.0
 13
-0.7099327547482775
 23
-0.7042694681267408
 33
0.0
 40
0.0
 40
0.0
 40
0.0
 40
0.0
 40
0.0188802557853731
 40
0.0188802557853731
 40
0.0188802557853731
 40
0.0188802557853731
 10
262.3292668131
 20
234.6945523629
 30
0.0
 10
262.325553568367
 20
234.6894711296672
 30
0.0
 10
262.3214544445001
 20
234.6846438108667
 30
0.0
 10
262.3169865405
 20
234.6802115483
 30
0.0
 11
262.3292668131
 21
234.6945523629
 31
0.0
 11
262.3169865405
 21
234.6802115483
 31
0.0
  0
SPLINE
  5
355
330
216
100
AcDbEntity
  8
0
  6
Continuous
 62
     7
100
AcDbSpline
210
0.0
220
0.0
230
1.0
 70
  1064
 71
     3
 72
     8
 73
     4
 74
     2
 42
0.000000001
 43
0.0000000001
 44
0.0000000001
 12
-0.7099327529001407
 22
-0.7042694699897391
 32
0.0
 13
-0.9644892926776424
 23
-0.2641219496940397
 33
0.0
 40
0.0
 40
0.0
 40
0.0
 40
0.0
 40
0.0492054174731346
 40
0.0492054174731346
 40
0.0492054174731346
 40
0.0492054174731346
 10
262.3169865405
 20
234.6802115483
 30
0.0
 10
262.3053423613386
 20
234.6686602572052
 30
0.0
 10
262.2904459451982
 20
234.6595075157328
 30
0.0
 10
262.2746265791
 20
234.6551754388
 30
0.0
 11
262.3169865405
 21
234.6802115483
 31
0.0
 11
262.2746265791
 21
234.6551754388
 31
0.0
  0
SPLINE
  5
356
330
216
100
AcDbEntity
  8
0
  6
Continuous
 62
     7
100
AcDbSpline
210
0.0
220
0.0
230
1.0
 70
  1064
 71
     3
 72
     9
 73
     5
 74
     3
 42
0.000000001
 43
0.0000000001
 44
0.0000000001
 12
-0.025695196560167
 22
-0.9996698239287482
 32
0.0
 13
-0.5900202992317763
 23
-0.8073884111717514
 33
0.0
 40
0.0
 40
0.0
 40
0.0
 40
0.0
 40
0.0305405619250403
 40
0.1121318567871979
 40
0.1121318567871979
 40
0.1121318567871979
 40
0.1121318567871979
 10
279.1240907641
 20
229.1661951996
 30
0.0
 10
279.1238291821861
 20
229.1560183735459
 30
0.0
 10
279.1206643615522
 20
229.1188639690921
 30
0.0
 10
279.1080434617697
 20
229.0816241383748
 30
0.0
 10
279.0919966217
 20
229.0596655164
 30
0.0
 11
279.1240907641
 21
229.1661951996
 31
0.0
 11
279.1214037557
 21
229.135773071
 31
0.0
 11
279.0919966217
 21
229.0596655164
 31
0.0
  0
SPLINE
  5
357
330
216
100
AcDbEntity
  8
0
  6
Continuous
 62
     7
100
AcDbSpline
210
0.0
220
0.0
230
1.0
 70
  1064
 71
     3
 72
     8
 73
     4
 74
     2
 42
0.000000001
 43
0.0000000001
 44
0.0000000001
 12
-0.5900203008662146
 22
-0.8073884099773426
 32
0.0
 13
-0.7099327547482775
 23
-0.7042694681267408
 33
0.0
 40
0.0
 40
0.0
 40
0.0
 40
0.0
 40
0.0188802558613635
 40
0.0188802558613635
 40
0.0188802558613635
 40
0.0188802558613635
 10
279.0919966217
 20
229.0596655164
 30
0.0
 10
279.0882833769521
 20
229.0545842831467
 30
0.0
 10
279.084184253118
 20
229.0497569642845
 30
0.0
 10
279.0797163491
 20
229.0453247017
 30
0.0
 11
279.0919966217
 21
229.0596655164
 31
0.0
 11
279.0797163491
 21
229.0453247017
 31
0.0
  0
SPLINE
  5
358
330
216
100
AcDbEntity
  8
0
  6
Continuous
 62
     7
100
AcDbSpline
210
0.0
220
0.0
230
1.0
 70
  1064
 71
     3
 72
     8
 73
     4
 74
     2
 42
0.000000001
 43
0.0000000001
 44
0.0000000001
 12
-0.7099327529001407
 22
-0.7042694699897391
 32
0.0
 13
-0.9644892926776424
 23
-0.2641219496940397
 33
0.0
 40
0.0
 40
0.0
 40
0.0
 40
0.0
 40
0.0492054175592319
 40
0.0492054175592319
 40
0.0492054175592319
 40
0.0492054175592319
 10
279.0797163491
 20
229.0453247017
 30
0.0
 10
279.0680721699182
 20
229.0337734105849
 30
0.0
 10
279.0531757537258
 20
229.0246206691404
 30
0.0
 10
279.0373563876
 20
229.0202885922
 30
0.0
 11
279.0797163491
 21
229.0453247017
 31
0.0
 11
279.0373563876
 21
229.0202885922
 31
0.0
  0
SPLINE
  5
359
330
216
100
AcDbEntity
  8
0
  6
Continuous
 62
     7
100
AcDbSpline
210
0.0
220
0.0
230
1.0
 70
  1064
 71
     3
 72
     9
 73
     5
 74
     3
 42
0.000000001
 43
0.0000000001
 44
0.0000000001
 12
-0.025695196560167
 22
-0.9996698239287482
 32
0.0
 13
-0.5900202992317763
 23
-0.8073884111717514
 33
0.0
 40
0.0
 40
0.0
 40
0.0
 40
0.0
 40
0.0305405618254072
 40
0.1121318567808587
 40
0.1121318567808587
 40
0.1121318567808587
 40
0.1121318567808587
 10
270.7427258598
 20
231.9836386228
 30
0.0
 10
270.7424642778869
 20
231.9734617967791
 30
0.0
 10
270.7392994572222
 20
231.9363073923315
 30
0.0
 10
270.7266785574881
 20
231.8990675615998
 30
0.0
 10
270.7106317174
 20
231.8771089396
 30
0.0
 11
270.7427258598
 21
231.9836386228
 31
0.0
 11
270.7400388514
 21
231.9532164943
 31
0.0
 11
270.7106317174
 21
231.8771089396
 31
0.0
  0
SPLINE
  5
35A
330
216
100
AcDbEntity
  8
0
  6
Continuous
 62
     7
100
AcDbSpline
210
0.0
220
0.0
230
1.0
 70
  1064
 71
     3
 72
     8
 73
     4
 74
     2
 42
0.000000001
 43
0.0000000001
 44
0.0000000001
 12
-0.5900203008662146
 22
-0.8073884099773426
 32
0.0
 13
-0.7099327547482775
 23
-0.7042694681267408
 33
0.0
 40
0.0
 40
0.0
 40
0.0
 40
0.0
 40
0.0188802557854101
 40
0.0188802557854101
 40
0.0188802557854101
 40
0.0188802557854101
 10
270.7106317174
 20
231.8771089396
 30
0.0
 10
270.7069184726671
 20
231.8720277063671
 30
0.0
 10
270.7028193488
 20
231.8672003875667
 30
0.0
 10
270.6983514448
 20
231.862768125
 30
0.0
 11
270.7106317174
 21
231.8771089396
 31
0.0
 11
270.6983514448
 21
231.862768125
 31
0.0
  0
SPLINE
  5
35B
330
216
100
AcDbEntity
  8
0
  6
Continuous
 62
     7
100
AcDbSpline
210
0.0
220
0.0
230
1.0
 70
  1064
 71
     3
 72
     8
 73
     4
 74
     2
 42
0.000000001
 43
0.0000000001
 44
0.0000000001
 12
-0.7099327529001407
 22
-0.7042694699897391
 32
0.0
 13
-0.9644892926776424
 23
-0.2641219496940397
 33
0.0
 40
0.0
 40
0.0
 40
0.0
 40
0.0
 40
0.0492054174731346
 40
0.0492054174731346
 40
0.0492054174731346
 40
0.0492054174731346
 10
270.6983514448
 20
231.862768125
 30
0.0
 10
270.6867072656386
 20
231.8512168339052
 30
0.0
 10
270.6718108494982
 20
231.8420640924328
 30
0.0
 10
270.6559914834
 20
231.8377320155
 30
0.0
 11
270.6983514448
 21
231.862768125
 31
0.0
 11
270.6559914834
 21
231.8377320155
 31
0.0
  0
SPLINE
  5
35C
330
216
100
AcDbEntity
  8
0
  6
Continuous
 62
     7
100
AcDbSpline
210
0.0
220
0.0
230
1.0
 70
  1064
 71
     3
 72
     9
 73
     5
 74
     3
 42
0.000000001
 43
0.0000000001
 44
0.0000000001
 12
0.9478776707090464
 22
-0.3186344635647452
 32
0.0
 13
-0.0256951963104977
 23
-0.9996698239351657
 33
0.0
 40
0.0
 40
0.0
 40
0.0
 40
0.0
 40
0.0622232854579988
 40
0.2827987151353449
 40
0.2827987151353449
 40
0.2827987151353449
 40
0.2827987151353449
 10
270.661270871
 20
234.296202328
 30
0.0
 10
270.6809308919613
 20
234.2895935002723
 30
0.0
 10
270.76180643277
 20
234.2364474229378
 30
0.0
 10
270.797955879789
 20
234.1323587192833
 30
0.0
 10
270.7960666368
 20
234.0588578523
 30
0.0
 11
270.661270871
 21
234.296202328
 31
0.0
 11
270.714355189
 21
234.2637401587
 31
0.0
 11
270.7960666368
 21
234.0588578523
 31
0.0
  0
SPLINE
  5
35D
330
216
100
AcDbEntity
  8
0
  6
Continuous
 62
     7
100
AcDbSpline
210
0.0
220
0.0
230
1.0
 70
  1064
 71
     3
 72
     9
 73
     5
 74
     3
 42
0.000000001
 43
0.0000000001
 44
0.0000000001
 12
0.9478776707090464
 22
-0.3186344635647452
 32
0.0
 13
-0.0256951963104977
 23
-0.9996698239351657
 33
0.0
 40
0.0
 40
0.0
 40
0.0
 40
0.0
 40
0.0622232854058833
 40
0.2827987150832559
 40
0.2827987150832559
 40
0.2827987150832559
 40
0.2827987150832559
 10
279.0426357753
 20
231.4787589047
 30
0.0
 10
279.0622957962447
 20
231.4721500769779
 30
0.0
 10
279.1431713371586
 20
231.4190039998511
 30
0.0
 10
279.179320784089
 20
231.3149152960833
 30
0.0
 10
279.1774315411
 20
231.2414144291
 30
0.0
 11
279.0426357753
 21
231.4787589047
 31
0.0
 11
279.0957200933
 21
231.4462967355
 31
0.0
 11
279.1774315411
 21
231.2414144291
 31
0.0
  0
SPLINE
  5
35E
330
216
100
AcDbEntity
  8
0
  6
Continuous
 62
     7
100
AcDbSpline
210
0.0
220
0.0
230
1.0
 70
  1064
 71
     3
 72
     9
 73
     5
 74
     3
 42
0.000000001
 43
0.0000000001
 44
0.0000000001
 12
-0.9641998521957711
 22
-0.2651766298632912
 32
0.0
 13
-0.0256951962033286
 23
-0.9996698239379202
 33
0.0
 40
0.0
 40
0.0
 40
0.0
 40
0.0
 40
0.0625357191354969
 40
0.2831923501313302
 40
0.2831923501313302
 40
0.2831923501313302
 40
0.2831923501313302
 10
287.2544168521
 20
229.9675445507
 30
0.0
 10
287.2343178750508
 20
229.9620168802845
 30
0.0
 10
287.1504115861868
 20
229.9135667543898
 30
0.0
 10
287.1083644799757
 20
229.8113437936528
 30
0.0
 10
287.1064745415
 20
229.7378158685
 30
0.0
 11
287.2544168521
 21
229.9675445507
 31
0.0
 11
287.1993019925
 21
229.9379968195
 31
0.0
 11
287.1064745415
 21
229.7378158685
 31
0.0
  0
SPLINE
  5
35F
330
216
100
AcDbEntity
  8
0
  6
Continuous
 62
     7
100
AcDbSpline
210
0.0
220
0.0
230
1.0
 70
  1064
 71
     3
 72
     9
 73
     5
 74
     3
 42
0.000000001
 43
0.0000000001
 44
0.0000000001
 12
-0.0256951960587244
 22
-0.9996698239416373
 32
0.0
 13
0.9482271013656259
 23
-0.3175930796408248
 33
0.0
 40
0.0
 40
0.0
 40
0.0
 40
0.0
 40
0.0988993269973622
 40
0.1786984224172683
 40
0.1786984224172683
 40
0.1786984224172683
 40
0.1786984224172683
 10
286.9939206083
 20
225.3589129072
 30
0.0
 10
286.9930735291009
 20
225.3259573495975
 30
0.0
 10
287.0014356443992
 20
225.2641979323316
 30
0.0
 10
287.0481046902195
 20
225.2170962888556
 30
0.0
 10
287.0733272452
 20
225.2086484087
 30
0.0
 11
286.9939206083
 21
225.3589129072
 31
0.0
 11
287.0140627967
 21
225.2620864174
 31
0.0
 11
287.0733272452
 21
225.2086484087
 31
0.0
  0
SPLINE
  5
360
330
216
100
AcDbEntity
  8
0
  6
Continuous
 62
     7
100
AcDbSpline
210
0.0
220
0.0
230
1.0
 70
  1064
 71
     3
 72
     8
 73
     4
 74
     2
 42
0.000000001
 43
0.0000000001
 44
0.0000000001
 12
0.5900202991159919
 22
0.8073884112563641
 32
0.0
 13
0.9644892927603866
 23
0.2641219493918852
 33
0.0
 40
0.0
 40
0.0
 40
0.0
 40
0.0
 40
0.067350555477704
 40
0.067350555477704
 40
0.067350555477704
 40
0.067350555477704
 10
284.5316923978
 20
229.5588675385
 30
0.0
 10
284.5449384627628
 20
229.5769935578281
 30
0.0
 10
284.5646796685934
 20
229.5923148759315
 30
0.0
 10
284.5863326318
 20
229.5982444626
 30
0.0
 11
284.5316923978
 21
229.5588675385
 31
0.0
 11
284.5863326318
 21
229.5982444626
 31
0.0
  0
SPLINE
  5
361
330
216
100
AcDbEntity
  8
0
  6
Continuous
 62
     7
100
AcDbSpline
210
0.0
220
0.0
230
1.0
 70
  1064
 71
     3
 72
     8
 73
     4
 74
     2
 42
0.000000001
 43
0.0000000001
 44
0.0000000001
 12
0.5900202991159919
 22
0.8073884112563641
 32
0.0
 13
0.9644892927603866
 23
0.2641219493918852
 33
0.0
 40
0.0
 40
0.0
 40
0.0
 40
0.0
 40
0.0673505554776578
 40
0.0673505554776578
 40
0.0673505554776578
 40
0.0673505554776578
 10
260.6448024205
 20
237.5885812948
 30
0.0
 10
260.6580484854629
 20
237.6067073141281
 30
0.0
 10
260.6777896912934
 20
237.6220286322316
 30
0.0
 10
260.6994426545
 20
237.6279582189
 30
0.0
 11
260.6448024205
 21
237.5885812948
 31
0.0
 11
260.6994426545
 21
237.6279582189
 31
0.0
  0
SPLINE
  5
362
330
216
100
AcDbEntity
  8
0
  6
Continuous
 62
     7
100
AcDbSpline
210
0.0
220
0.0
230
1.0
 70
  1064
 71
     3
 72
     8
 73
     4
 74
     2
 42
0.000000001
 43
0.0000000001
 44
0.0000000001
 12
0.5900202991159919
 22
0.8073884112563641
 32
0.0
 13
0.9644892927603866
 23
0.2641219493918852
 33
0.0
 40
0.0
 40
0.0
 40
0.0
 40
0.0
 40
0.0673505555361623
 40
0.0673505555361623
 40
0.0673505555361623
 40
0.0673505555361623
 10
269.0261673248
 20
234.7711378715
 30
0.0
 10
269.0394133897743
 20
234.7892638908439
 30
0.0
 10
269.0591545955746
 20
234.8045852090264
 30
0.0
 10
269.0808075588
 20
234.8105147957
 30
0.0
 11
269.0261673248
 21
234.7711378715
 31
0.0
 11
269.0808075588
 21
234.8105147957
 31
0.0
  0
SPLINE
  5
363
330
216
100
AcDbEntity
  8
0
  6
Continuous
 62
     7
100
AcDbSpline
210
0.0
220
0.0
230
1.0
 70
  1064
 71
     3
 72
     8
 73
     4
 74
     2
 42
0.000000001
 43
0.0000000001
 44
0.0000000001
 12
0.5900202991159919
 22
0.8073884112563641
 32
0.0
 13
0.9644892927603866
 23
0.2641219493918852
 33
0.0
 40
0.0
 40
0.0
 40
0.0
 40
0.0
 40
0.0673505554776578
 40
0.0673505554776578
 40
0.0673505554776578
 40
0.0673505554776578
 10
277.4075322291
 20
231.9536944483
 30
0.0
 10
277.4207782940629
 20
231.9718204676281
 30
0.0
 10
277.4405194998934
 20
231.9871417857315
 30
0.0
 10
277.4621724631
 20
231.9930713724
 30
0.0
 11
277.4075322291
 21
231.9536944483
 31
0.0
 11
277.4621724631
 21
231.9930713724
 31
0.0
  0
SPLINE
  5
364
330
216
100
AcDbEntity
  8
0
  6
Continuous
 62
     7
100
AcDbSpline
210
0.0
220
0.0
230
1.0
 70
  1064
 71
     3
 72
     9
 73
     5
 74
     3
 42
0.000000001
 43
0.0000000001
 44
0.0000000001
 12
0.0256951960462266
 22
0.9996698239419584
 32
0.0
 13
0.9641998521884758
 23
0.265176629889818
 33
0.0
 40
0.0
 40
0.0
 40
0.0
 40
0.0
 40
0.0769277375497971
 40
0.2817409287527485
 40
0.2817409287527485
 40
0.2817409287527485
 40
0.2817409287527485
 10
178.8878679744
 20
200.9403513037
 30
0.0
 10
178.8885268654992
 20
200.9659854163175
 30
0.0
 10
178.9037206038346
 20
201.0575795425759
 30
0.0
 10
178.9699833354386
 20
201.1519760953
 30
0.0
 10
179.035810285
 20
201.1700799859
 30
0.0
 11
178.8878679744
 21
200.9403513037
 31
0.0
 11
178.9006313456
 21
201.0162128431
 31
0.0
 11
179.035810285
 21
201.1700799859
 31
0.0
  0
SPLINE
  5
365
330
216
100
AcDbEntity
  8
0
  6
Continuous
 62
     7
100
AcDbSpline
210
0.0
220
0.0
230
1.0
 70
  1064
 71
     3
 72
     8
 73
     4
 74
     2
 42
0.000000001
 43
0.0000000001
 44
0.0000000001
 12
0.9641998520765884
 22
0.2651766302966473
 32
0.0
 13
0.9479981278557728
 23
-0.3182759016670125
 33
0.0
 40
0.0
 40
0.0
 40
0.0
 40
0.0
 40
0.0587958071506564
 40
0.0587958071506564
 40
0.0587958071506564
 40
0.0587958071506564
 10
180.8525282841
 20
201.6697182668
 30
0.0
 10
180.8714252536191
 20
201.6749153581386
 30
0.0
 10
180.8927392617318
 20
201.6751598355451
 30
0.0
 10
180.9113187001
 20
201.6689220727
 30
0.0
 11
180.8525282841
 21
201.6697182668
 31
0.0
 11
180.9113187001
 21
201.6689220727
 31
0.0
  0
SPLINE
  5
366
330
216
100
AcDbEntity
  8
0
  6
Continuous
 62
     7
100
AcDbSpline
210
0.0
220
0.0
230
1.0
 70
  1064
 71
     3
 72
    11
 73
     7
 74
     5
 42
0.000000001
 43
0.0000000001
 44
0.0000000001
 12
-0.0325716716580264
 22
-0.9994694023357602
 32
0.0
 13
-0.964199852163589
 23
-0.2651766299803084
 33
0.0
 40
0.0
 40
0.0
 40
0.0
 40
0.0
 40
1.418591001300339
 40
2.711122859605566
 40
3.879382483407173
 40
4.969283013738579
 40
4.969283013738579
 40
4.969283013738579
 40
4.969283013738579
 10
199.6008706536
 20
197.8104578604
 30
0.0
 10
199.5854686934962
 20
197.3378450936571
 30
0.0
 10
199.4644353293026
 20
196.4332902585856
 30
0.0
 10
198.9785948246927
 20
195.2177362541806
 30
0.0
 10
198.2105271500778
 20
194.2865376276751
 30
0.0
 10
197.5223210876395
 20
193.922797039649
 30
0.0
 10
197.1720271108999
 20
193.8264583231
 30
0.0
 11
199.6008706536
 21
197.8104578604
 31
0.0
 11
199.3989851984
 21
196.4063059128
 31
0.0
 11
198.9011980251
 21
195.2134746025
 31
0.0
 11
198.1401183064
 21
194.3271404609999
 31
0.0
 11
197.1720271108999
 21
193.8264583231
 31
0.0
  0
SPLINE
  5
367
330
216
100
AcDbEntity
  8
0
  6
Continuous
 62
     7
100
AcDbSpline
210
0.0
220
0.0
230
1.0
 70
  1064
 71
     3
 72
     9
 73
     5
 74
     3
 42
0.000000001
 43
0.0000000001
 44
0.0000000001
 12
-0.9479981278815211
 22
0.3182759015903203
 32
0.0
 13
0.025695196012534
 23
0.9996698239428244
 33
0.0
 40
0.0
 40
0.0
 40
0.0
 40
0.0
 40
0.0797941897482524
 40
0.1786595011382081
 40
0.1786595011382081
 40
0.1786595011382081
 40
0.1786595011382081
 10
178.9050832248
 20
198.3721860265
 30
0.0
 10
178.8798683106342
 20
198.3806515490613
 30
0.0
 10
178.8332188590537
 20
198.4277413315737
 30
0.0
 10
178.8248718407483
 20
198.4894910978896
 30
0.0
 10
178.8257186286
 20
198.5224353207
 30
0.0
 11
178.9050832248
 21
198.3721860265
 31
0.0
 11
178.8458388943999
 21
198.4256390155
 31
0.0
 11
178.8257186286
 21
198.5224353207
 31
0.0
  0
SPLINE
  5
368
330
216
100
AcDbEntity
  8
0
  6
Continuous
 62
     7
100
AcDbSpline
210
0.0
220
0.0
230
1.0
 70
  1064
 71
     3
 72
     9
 73
     5
 74
     3
 42
0.000000001
 43
0.0000000001
 44
0.0000000001
 12
-0.9641998521653256
 22
-0.2651766299739937
 32
0.0
 13
-0.9478776707409211
 23
0.3186344634699233
 33
0.0
 40
0.0
 40
0.0
 40
0.0
 40
0.0
 40
0.8144032193404619
 40
1.663126081067904
 40
1.663126081067904
 40
1.663126081067904
 40
1.663126081067904
 10
195.3553091118
 20
193.3268200421
 30
0.0
 10
195.0935599572363
 20
193.2548331417184
 30
0.0
 10
194.5319890965627
 20
193.1940631844097
 30
0.0
 10
193.9802802112263
 20
193.3045738844062
 30
0.0
 10
193.7121183948
 20
193.3947180023
 30
0.0
 11
195.3553091118
 21
193.3268200421
 31
0.0
 11
194.5459422507
 21
193.2363883672
 31
0.0
 11
193.7121183948
 21
193.3947180023
 31
0.0
  0
SPLINE
  5
369
330
216
100
AcDbEntity
  8
0
  6
Continuous
 62
     7
100
AcDbSpline
210
0.0
220
0.0
230
1.0
 70
  1064
 71
     3
 72
    11
 73
     7
 74
     5
 42
0.000000001
 43
0.0000000001
 44
0.0000000001
 12
-0.0256951961911054
 22
-0.9996698239382345
 32
0.0
 13
-0.9641998521716741
 23
-0.2651766299509092
 33
0.0
 40
0.0
 40
0.0
 40
0.0
 40
0.0
 40
0.6641242494512768
 40
1.253673555997206
 40
1.761866706635063
 40
2.212940196082527
 40
2.212940196082527
 40
2.212940196082527
 40
2.212940196082527
 10
195.6116194968
 20
197.9651638939
 30
0.0
 10
195.6059312291717
 20
197.7438622367259
 30
0.0
 10
195.5537462084367
 20
197.3251852802407
 30
0.0
 10
195.3403364929478
 20
196.7705596196518
 30
0.0
 10
195.0119565379874
 20
196.3588305883531
 30
0.0
 10
194.7206648169813
 20
196.2014389900972
 30
0.0
 10
194.5756898197
 20
196.1615676075
 30
0.0
 11
195.6116194968
 21
197.9651638939
 31
0.0
 11
195.522672212
 21
197.3070230281
 31
0.0
 11
195.3017034395
 21
196.7604508129
 31
0.0
 11
194.9751738559
 21
196.3710426602
 31
0.0
 11
194.5756898197
 21
196.1615676075
 31
0.0
  0
SPLINE
  5
36A
330
216
100
AcDbEntity
  8
0
  6
Continuous
 62
     7
100
AcDbSpline
210
0.0
220
0.0
230
1.0
 70
  1064
 71
     3
 72
    14
 73
    10
 74
     8
 42
0.000000001
 43
0.0000000001
 44
0.0000000001
 12
0.9478776707396011
 22
-0.3186344634738499
 32
0.0
 13
0.0256951961698401
 23
0.9996698239387809
 33
0.0
 40
0.0
 40
0.0
 40
0.0
 40
0.0
 40
0.7350365813168108
 40
1.434876630791531
 40
2.12958018628097
 40
2.850480165688207
 40
3.622137485335987
 40
4.457814578261491
 40
6.312926043742798
 40
6.312926043742798
 40
6.312926043742798
 40
6.312926043742798
 10
193.6327966262
 20
193.5449519396
 30
0.0
 10
193.8650382137356
 20
193.4668826106928
 30
0.0
 10
194.339300265402
 20
193.3670642385035
 30
0.0
 10
195.0570682163227
 20
193.4187732736963
 30
0.0
 10
195.7242418533661
 20
193.6775415009486
 30
0.0
 10
196.3082039841114
 20
194.1289891947267
 30
0.0
 10
196.7869900185046
 20
194.7491094330173
 30
0.0
 10
197.2818467842439
 20
195.7990565266196
 30
0.0
 10
197.4266712205925
 20
196.7061580824385
 30
0.0
 10
197.4425603716
 20
197.3243243998
 30
0.0
 11
193.6327966262
 21
193.5449519396
 31
0.0
 11
194.353389362
 21
193.3999523362
 31
0.0
 11
195.0511907577
 21
193.4533312366
 31
0.0
 11
195.6994795621
 21
193.7030003298
 31
0.0
 11
196.2732945463
 21
194.1393867918
 31
0.0
 11
196.7505886177
 21
194.7457244769
 31
0.0
 11
197.1130236957
 21
195.4987165206
 31
0.0
 11
197.4425603716
 21
197.3243243998
 31
0.0
  0
SPLINE
  5
36B
330
216
100
AcDbEntity
  8
0
  6
Continuous
 62
     7
100
AcDbSpline
210
0.0
220
0.0
230
1.0
 70
  1064
 71
     3
 72
     9
 73
     5
 74
     3
 42
0.000000001
 43
0.0000000001
 44
0.0000000001
 12
-0.9641998521177011
 22
-0.2651766301471594
 32
0.0
 13
-0.0256951961023439
 23
-0.9996698239405159
 33
0.0
 40
0.0
 40
0.0
 40
0.0
 40
0.0
 40
0.0625431251379094
 40
0.2831936666854046
 40
0.2831936666854046
 40
0.2831936666854046
 40
0.2831936666854046
 10
193.8428882825999
 20
196.1925966048
 30
0.0
 10
193.8227869252636
 20
196.1870682797457
 30
0.0
 10
193.738879544826
 20
196.1386181705089
 30
0.0
 10
193.6968358582117
 20
196.036393818607
 30
0.0
 10
193.6949459719
 20
195.9628679226
 30
0.0
 11
193.8428882825999
 21
196.1925966048
 31
0.0
 11
193.7877670288
 21
196.1630451263
 31
0.0
 11
193.6949459719
 21
195.9628679226
 31
0.0
  0
SPLINE
  5
36C
330
216
100
AcDbEntity
  8
0
  6
Continuous
 62
     7
100
AcDbSpline
210
0.0
220
0.0
230
1.0
 70
  1064
 71
     3
 72
     9
 73
     5
 74
     3
 42
0.000000001
 43
0.0000000001
 44
0.0000000001
 12
0.9478776707023495
 22
-0.3186344635846666
 32
0.0
 13
0.9641998521696486
 23
0.2651766299582751
 33
0.0
 40
0.0
 40
0.0
 40
0.0
 40
0.0
 40
0.142333958307888
 40
0.2850928994589751
 40
0.2850928994589751
 40
0.2850928994589751
 40
0.2850928994589751
 10
197.4425603716
 20
197.3243243998
 30
0.0
 10
197.4875320985542
 20
197.3092068983149
 30
0.0
 10
197.5832797170874
 20
197.2986364562665
 30
0.0
 10
197.6794157313487
 20
197.3040898280963
 30
0.0
 10
197.725298448
 20
197.3167086064
 30
0.0
 11
197.4425603716
 21
197.3243243998
 31
0.0
 11
197.5832337974999
 21
197.3026462326
 31
0.0
 11
197.725298448
 21
197.3167086064
 31
0.0
  0
SPLINE
  5
36D
330
216
100
AcDbEntity
  8
0
  6
Continuous
 62
     7
100
AcDbSpline
210
0.0
220
0.0
230
1.0
 70
  1064
 71
     3
 72
     9
 73
     5
 74
     3
 42
0.000000001
 43
0.0000000001
 44
0.0000000001
 12
-0.0256951960559847
 22
-0.9996698239417076
 32
0.0
 13
0.9478396901976703
 23
-0.318747426163702
 33
0.0
 40
0.0
 40
0.0
 40
0.0
 40
0.0
 40
0.0988399522461518
 40
0.1786172127396118
 40
0.1786172127396118
 40
0.1786172127396118
 40
0.1786172127396118
 10
193.6327966262
 20
193.5449519396
 30
0.0
 10
193.6319500555496
 20
193.5120161670465
 30
0.0
 10
193.6402939300674
 20
193.4502837474721
 30
0.0
 10
193.6869127516097
 20
193.4031933994829
 30
0.0
 10
193.7121181029
 20
193.394717134
 30
0.0
 11
193.6327966262
 21
193.5449519396
 31
0.0
 11
193.6529045657
 21
193.4481789737
 31
0.0
 11
193.7121181029
 21
193.394717134
 31
0.0
  0
SPLINE
  5
36E
330
216
100
AcDbEntity
  8
0
  6
Continuous
 62
     7
100
AcDbSpline
210
0.0
220
0.0
230
1.0
 70
  1064
 71
     3
 72
     9
 73
     5
 74
     3
 42
0.000000001
 43
0.0000000001
 44
0.0000000001
 12
0.9641998521596361
 22
0.2651766299946814
 32
0.0
 13
0.0257751701862039
 23
0.9996677651109255
 33
0.0
 40
0.0
 40
0.0
 40
0.0
 40
0.0
 40
0.0480758332966188
 40
0.0761358076444533
 40
0.0761358076444533
 40
0.0761358076444533
 40
0.0761358076444533
 10
199.5420164472
 20
197.8163468873
 30
0.0
 10
199.5574680176523
 20
197.8205964164526
 30
0.0
 10
199.5812311730769
 20
197.8275585832756
 30
0.0
 10
199.6020106346619
 20
197.8488152597182
 30
0.0
 10
199.6022517182
 20
197.858165477
 30
0.0
 11
199.5420164472
 21
197.8163468873
 31
0.0
 11
199.5862887507
 21
197.8350885225
 31
0.0
 11
199.6022517182
 21
197.858165477
 31
0.0
  0
SPLINE
  5
36F
330
216
100
AcDbEntity
  8
0
  6
Continuous
 62
     7
100
AcDbSpline
210
0.0
220
0.0
230
1.0
 70
  1064
 71
     3
 72
    13
 73
     9
 74
     7
 42
0.000000001
 43
0.0000000001
 44
0.0000000001
 12
0.9478776707366545
 22
-0.3186344634826163
 32
0.0
 13
0.0256951961713733
 23
0.9996698239387416
 33
0.0
 40
0.0
 40
0.0
 40
0.0
 40
0.0
 40
0.3807559692305355
 40
0.7433081932183884
 40
1.103180382220287
 40
1.476626551569337
 40
2.304317527181761
 40
3.265321422026513
 40
3.265321422026513
 40
3.265321422026513
 40
3.265321422026513
 10
193.6949459719
 20
195.9628679226
 30
0.0
 10
193.8152493323111
 20
195.9224272646088
 30
0.0
 10
194.0609303438408
 20
195.8707222057811
 30
0.0
 10
194.4327559669941
 20
195.897492891633
 30
0.0
 10
194.7783706973981
 20
196.0315520722331
 30
0.0
 10
195.1951374274599
 20
196.3537495944331
 30
0.0
 10
195.5663171942189
 20
197.0013055153194
 30
0.0
 10
195.6602737390001
 20
197.600454393012
 30
0.0
 10
195.6685048002
 20
197.9206832578
 30
0.0
 11
193.6949459719
 21
195.9628679226
 31
0.0
 11
194.068219762
 21
195.8877561011
 31
0.0
 11
194.4297165066999
 21
195.9154006067
 31
0.0
 11
194.7655431524
 21
196.0447391409999
 31
0.0
 11
195.062794042
 21
196.2708009689
 31
0.0
 11
195.4977986302
 21
196.9749624272
 31
0.0
 11
195.6685048002
 21
197.9206832578
 31
0.0
  0
SPLINE
  5
370
330
216
100
AcDbEntity
  8
0
  6
Continuous
 62
     7
100
AcDbSpline
210
0.0
220
0.0
230
1.0
 70
  1064
 71
     3
 72
     9
 73
     5
 74
     3
 42
0.000000001
 43
0.0000000001
 44
0.0000000001
 12
0.9478776707424584
 22
-0.3186344634653502
 32
0.0
 13
0.9641667977634785
 23
0.2652967886924373
 33
0.0
 40
0.0
 40
0.0
 40
0.0
 40
0.0
 40
0.3800983019857068
 40
0.7417306431511834
 40
0.7417306431511834
 40
0.7417306431511834
 40
0.7417306431511834
 10
193.8428882825999
 20
196.1925966048
 30
0.0
 10
193.9629838469797
 20
196.1522257986275
 30
0.0
 10
194.208977135525
 20
196.1026631312988
 30
0.0
 10
194.4594636754836
 20
196.1295930359338
 30
0.0
 10
194.5756883076
 20
196.1615730022
 30
0.0
 11
193.8428882825999
 21
196.1925966048
 31
0.0
 11
194.2162812702
 21
196.1215163966999
 31
0.0
 11
194.5756883076
 21
196.1615730022
 31
0.0
  0
SPLINE
  5
371
330
216
100
AcDbEntity
  8
0
  6
Continuous
 62
     7
100
AcDbSpline
210
0.0
220
0.0
230
1.0
 70
  1064
 71
     3
 72
    10
 73
     6
 74
     4
 42
0.000000001
 43
0.0000000001
 44
0.0000000001
 12
-0.0257751700387012
 22
-0.9996677651147285
 32
0.0
 13
0.9478776707155358
 23
-0.3186344635454401
 33
0.0
 40
0.0
 40
0.0
 40
0.0
 40
0.0
 40
0.0124440275993634
 40
0.0382427937247572
 40
0.0757269261796407
 40
0.0757269261796407
 40
0.0757269261796407
 40
0.0757269261796407
 10
195.6116287755
 20
197.9651636554
 30
0.0
 10
195.6115218598575
 20
197.9610170243136
 30
0.0
 10
195.6160356354756
 20
197.9482277691917
 30
0.0
 10
195.6372535173008
 20
197.9327089544546
 30
0.0
 10
195.6566613428133
 20
197.9246645032787
 30
0.0
 10
195.6685048002
 20
197.9206832578
 30
0.0
 11
195.6116287755
 21
197.9651636554
 31
0.0
 11
195.6151160059
 21
197.9532182359
 31
0.0
 11
195.6342580534
 21
197.9359220412
 31
0.0
 11
195.6685048002
 21
197.9206832578
 31
0.0
  0
SPLINE
  5
372
330
216
100
AcDbEntity
  8
0
  6
Continuous
 62
     7
100
AcDbSpline
210
0.0
220
0.0
230
1.0
 70
  1064
 71
     3
 72
    11
 73
     7
 74
     5
 42
0.000000001
 43
0.0000000001
 44
0.0000000001
 12
0.8160444105922438
 22
0.5779892040005226
 32
0.0
 13
0.0256951961748166
 23
0.999669823938653
 33
0.0
 40
0.0
 40
0.0
 40
0.0
 40
0.0
 40
0.8893750199769263
 40
1.860737094243748
 40
2.92392418136254
 40
4.070170295201693
 40
4.070170295201693
 40
4.070170295201693
 40
4.070170295201693
 10
197.9666211103
 20
194.2056065169
 30
0.0
 10
198.2085442816241
 20
194.3769562368514
 30
0.0
 10
198.6568405337712
 20
194.8211552396732
 30
0.0
 10
199.1434751908579
 20
195.6761920587291
 30
0.0
 10
199.4536648295917
 20
196.6976636855712
 30
0.0
 10
199.5321987742801
 20
197.434391003696
 30
0.0
 10
199.5420164472
 20
197.8163468873
 30
0.0
 11
197.9666211103
 21
194.2056065169
 31
0.0
 11
198.6054218003
 21
194.824413114
 31
0.0
 11
199.09623364
 21
195.6626541398
 31
0.0
 11
199.4138581216
 21
196.6772878032
 31
0.0
 11
199.5420164472
 21
197.8163468873
 31
0.0
  0
SPLINE
  5
373
330
216
100
AcDbEntity
  8
0
  6
Continuous
 62
     7
100
AcDbSpline
210
0.0
220
0.0
230
1.0
 70
  1064
 71
     3
 72
    12
 73
     8
 74
     6
 42
0.000000001
 43
0.0000000001
 44
0.0000000001
 12
0.9642144056216123
 22
0.2651237069591495
 32
0.0
 13
0.0256951961719752
 23
0.9996698239387262
 33
0.0
 40
0.0
 40
0.0
 40
0.0
 40
0.0
 40
0.5269553577020964
 40
1.06668703662279
 40
2.220630434253997
 40
3.515921569764342
 40
4.948932915296511
 40
4.948932915296511
 40
4.948932915296511
 40
4.948932915296511
 10
195.3553068625
 20
193.326828537
 30
0.0
 10
195.5246728448386
 20
193.373397989612
 30
0.0
 10
195.858336984006
 20
193.5052882246602
 30
0.0
 10
196.478731345198
 20
193.9175326457178
 30
0.0
 10
197.1231141748527
 20
194.7080172381018
 30
0.0
 10
197.5974972373898
 20
195.9279947038463
 30
0.0
 10
197.7130246121199
 20
196.8391958732365
 30
0.0
 10
197.725298448
 20
197.3167086064
 30
0.0
 11
195.3553068625
 21
193.326828537
 31
0.0
 11
195.8456388295999
 21
193.5198479947
 31
0.0
 11
196.296162482
 21
193.8170663048
 31
0.0
 11
197.0418653818
 21
194.6976982087
 31
0.0
 11
197.5315654414
 21
195.8968533184999
 31
0.0
 11
197.725298448
 21
197.3167086064
 31
0.0
  0
SPLINE
  5
374
330
216
100
AcDbEntity
  8
0
  6
Continuous
 62
     7
100
AcDbSpline
210
0.0
220
0.0
230
1.0
 70
  1064
 71
     3
 72
     9
 73
     5
 74
     3
 42
0.000000001
 43
0.0000000001
 44
0.0000000001
 12
0.0256951960010225
 22
0.9996698239431204
 32
0.0
 13
0.9641998521121177
 23
0.2651766301674615
 33
0.0
 40
0.0
 40
0.0
 40
0.0
 40
0.0
 40
0.0769187192132425
 40
0.281739699546099
 40
0.281739699546099
 40
0.281739699546099
 40
0.281739699546099
 10
178.6101916701
 20
218.5960506783001
 30
0.0
 10
178.6108504839554
 20
218.621681785798
 30
0.0
 10
178.6260450591238
 20
218.7132750800719
 30
0.0
 10
178.6923045277178
 20
218.8076747813826
 30
0.0
 10
178.7581339807
 20
218.8257793605
 30
0.0
 11
178.6101916701
 21
218.5960506783001
 31
0.0
 11
178.6229533195
 21
218.6719033623
 31
0.0
 11
178.7581339807
 21
218.8257793605
 31
0.0
  0
SPLINE
  5
375
330
216
100
AcDbEntity
  8
0
  6
Continuous
 62
     7
100
AcDbSpline
210
0.0
220
0.0
230
1.0
 70
  1064
 71
     3
 72
     9
 73
     5
 74
     3
 42
0.000000001
 43
0.0000000001
 44
0.0000000001
 12
0.0256951960587244
 22
0.9996698239416373
 32
0.0
 13
-0.9482271013656259
 23
0.3175930796408248
 33
0.0
 40
0.0
 40
0.0
 40
0.0
 40
0.0
 40
0.0988993269973402
 40
0.1786984224172062
 40
0.1786984224172062
 40
0.1786984224172062
 40
0.1786984224172062
 10
212.7783901044
 20
209.2959221065
 30
0.0
 10
212.7792371835991
 20
209.3288776641025
 30
0.0
 10
212.7708750683007
 20
209.3906370813685
 30
0.0
 10
212.7242060224805
 20
209.4377387248444
 30
0.0
 10
212.6989834675
 20
209.446186605
 30
0.0
 11
212.7783901044
 21
209.2959221065
 31
0.0
 11
212.758247916
 21
209.3927485963
 31
0.0
 11
212.6989834675
 21
209.446186605
 31
0.0
  0
SPLINE
  5
376
330
216
100
AcDbEntity
  8
0
  6
Continuous
 62
     7
100
AcDbSpline
210
0.0
220
0.0
230
1.0
 70
  1064
 71
     3
 72
     9
 73
     5
 74
     3
 42
0.000000001
 43
0.0000000001
 44
0.0000000001
 12
0.9641998521957711
 22
0.2651766298632912
 32
0.0
 13
0.0256951962033286
 23
0.9996698239379202
 33
0.0
 40
0.0
 40
0.0
 40
0.0
 40
0.0
 40
0.0625357191827154
 40
0.2831923500877877
 40
0.2831923500877877
 40
0.2831923500877877
 40
0.2831923500877877
 10
212.5178938606
 20
204.6872904629
 30
0.0
 10
212.5379928376644
 20
204.6928181333197
 30
0.0
 10
212.6218991263991
 20
204.7412682594187
 30
0.0
 10
212.6639462327251
 20
204.8434912199774
 30
0.0
 10
212.6658361712
 20
204.9170191451
 30
0.0
 11
212.5178938606
 21
204.6872904629
 31
0.0
 11
212.5730087202
 21
204.7168381942
 31
0.0
 11
212.6658361712
 21
204.9170191451
 31
0.0
  0
SPLINE
  5
377
330
216
100
AcDbEntity
  8
0
  6
Continuous
 62
     7
100
AcDbSpline
210
0.0
220
0.0
230
1.0
 70
  1064
 71
     3
 72
     9
 73
     5
 74
     3
 42
0.000000001
 43
0.0000000001
 44
0.0000000001
 12
-0.9482271013656259
 22
0.3175930796408248
 32
0.0
 13
0.0256951960587244
 23
0.9996698239416373
 33
0.0
 40
0.0
 40
0.0
 40
0.0
 40
0.0
 40
0.0797990954199083
 40
0.1786984224376064
 40
0.1786984224376064
 40
0.1786984224376064
 40
0.1786984224376064
 10
178.5770443738
 20
214.0668832184
 30
0.0
 10
178.5518218188195
 20
214.0753310985556
 30
0.0
 10
178.5051527730334
 20
214.1224327420453
 30
0.0
 10
178.4967906576007
 20
214.1841921592907
 30
0.0
 10
178.4976377368
 20
214.2171477169
 30
0.0
 11
178.5770443738
 21
214.0668832184
 31
0.0
 11
178.5177799252999
 21
214.1203212271
 31
0.0
 11
178.4976377368
 21
214.2171477169
 31
0.0
  0
SPLINE
  5
378
330
216
100
AcDbEntity
  8
0
  6
Continuous
 62
     7
100
AcDbSpline
210
0.0
220
0.0
230
1.0
 70
  1064
 71
     3
 72
     9
 73
     5
 74
     3
 42
0.000000001
 43
0.0000000001
 44
0.0000000001
 12
-0.9641998521957711
 22
-0.2651766298632912
 32
0.0
 13
-0.0256951962033286
 23
-0.9996698239379202
 33
0.0
 40
0.0
 40
0.0
 40
0.0
 40
0.0
 40
0.062535719135522
 40
0.2831923501313036
 40
0.2831923501313036
 40
0.2831923501313036
 40
0.2831923501313036
 10
209.3501158813
 20
208.5421108655
 30
0.0
 10
209.3300169042509
 20
208.5365831950845
 30
0.0
 10
209.2461106153868
 20
208.4881330691898
 30
0.0
 10
209.2040635091756
 20
208.3859101084528
 30
0.0
 10
209.2021735707
 20
208.3123821833
 30
0.0
 11
209.3501158813
 21
208.5421108655
 31
0.0
 11
209.2950010217
 21
208.5125631343
 31
0.0
 11
209.2021735707
 21
208.3123821833
 31
0.0
  0
SPLINE
  5
379
330
216
100
AcDbEntity
  8
0
  6
Continuous
 62
     7
100
AcDbSpline
210
0.0
220
0.0
230
1.0
 70
  1064
 71
     3
 72
     9
 73
     5
 74
     3
 42
0.000000001
 43
0.0000000001
 44
0.0000000001
 12
-0.0256951960587244
 22
-0.9996698239416373
 32
0.0
 13
0.9482271013656259
 23
-0.3175930796408248
 33
0.0
 40
0.0
 40
0.0
 40
0.0
 40
0.0
 40
0.098899326997368
 40
0.178698422417253
 40
0.178698422417253
 40
0.178698422417253
 40
0.178698422417253
 10
209.0896196375
 20
203.933479222
 30
0.0
 10
209.0887725583009
 20
203.9005236643975
 30
0.0
 10
209.0971346735992
 20
203.8387642471316
 30
0.0
 10
209.1438037194194
 20
203.7916626036556
 30
0.0
 10
209.1690262744
 20
203.7832147235
 30
0.0
 11
209.0896196375
 21
203.933479222
 31
0.0
 11
209.1097618259
 21
203.8366527322
 31
0.0
 11
209.1690262744
 21
203.7832147235
 31
0.0
  0
SPLINE
  5
37A
330
216
100
AcDbEntity
  8
0
  6
Continuous
 62
     7
100
AcDbSpline
210
0.0
220
0.0
230
1.0
 70
  1064
 71
     3
 72
     9
 73
     5
 74
     3
 42
0.000000001
 43
0.0000000001
 44
0.0000000001
 12
0.9478776707090464
 22
-0.3186344635647452
 32
0.0
 13
-0.0256951963104977
 23
-0.9996698239351657
 33
0.0
 40
0.0
 40
0.0
 40
0.0
 40
0.0
 40
0.0622232854579988
 40
0.2827987151353449
 40
0.2827987151353449
 40
0.2827987151353449
 40
0.2827987151353449
 10
270.8924716981
 20
217.5909168343
 30
0.0
 10
270.9121317190613
 20
217.5843080065723
 30
0.0
 10
270.9930072598701
 20
217.5311619292378
 30
0.0
 10
271.0291567068889
 20
217.4270732255834
 30
0.0
 10
271.0272674639
 20
217.3535723586
 30
0.0
 11
270.8924716981
 21
217.5909168343
 31
0.0
 11
270.9455560161
 21
217.558454665
 31
0.0
 11
271.0272674639
 21
217.3535723586
 31
0.0
  0
SPLINE
  5
37B
330
216
100
AcDbEntity
  8
0
  6
Continuous
 62
     7
100
AcDbSpline
210
0.0
220
0.0
230
1.0
 70
  1064
 71
     3
 72
     9
 73
     5
 74
     3
 42
0.000000001
 43
0.0000000001
 44
0.0000000001
 12
-0.0256951960146805
 22
-0.9996698239427692
 32
0.0
 13
-0.9644892928741645
 23
-0.2641219489764035
 33
0.0
 40
0.0
 40
0.0
 40
0.0
 40
0.0
 40
0.0523792721420843
 40
0.1755880864337459
 40
0.1755880864337459
 40
0.1755880864337459
 40
0.1755880864337459
 10
270.9749054167
 20
215.3164305462
 30
0.0
 10
270.9744567848117
 20
215.2989765536132
 30
0.0
 10
270.9685035219586
 20
215.2417025135978
 30
0.0
 10
270.9277822343573
 20
215.181371322954
 30
0.0
 10
270.8881710403
 20
215.1705239389
 30
0.0
 11
270.9749054167
 21
215.3164305462
 31
0.0
 11
270.9678110586001
 21
215.2645339352
 31
0.0
 11
270.8881710403
 21
215.1705239389
 31
0.0
  0
ENDSEC
  0
SECTION
  2
OBJECTS
  0
DICTIONARY
  5
C
330
0
100
AcDbDictionary
281
     1
  3
ACAD_CIP_PREVIOUS_PRODUCT_INFO
350
436
  3
ACAD_COLOR
350
3AA
  3
ACAD_DETAILVIEWSTYLE
350
430
  3
ACAD_GROUP
350
D
  3
ACAD_LAYOUT
350
1A
  3
ACAD_MATERIAL
350
380
  3
ACAD_MLEADERSTYLE
350
3CF
  3
ACAD_MLINESTYLE
350
17
  3
ACAD_PLOTSETTINGS
350
19
  3
ACAD_PLOTSTYLENAME
350
E
  3
ACAD_SCALELIST
350
3AD
  3
ACAD_SECTIONVIEWSTYLE
350
42E
  3
ACAD_TABLESTYLE
350
3AB
  3
ACAD_VISUALSTYLE
350
399
  3
ACDB_RECOMPOSE_DATA
350
446
  3
AcDbVariableDictionary
350
3D5
  3
lxx_dict
350
3E1
  0
DICTIONARY
  5
41C
330
2
100
AcDbDictionary
280
     1
281
     1
  3
ACAD_LAYERSTATES
360
41D
  0
DICTIONARY
  5
3E3
330
10
100
AcDbDictionary
280
     1
281
     1
  3
ADSK_XREC_LAYER_RECONCILED
360
3E4
  0
DICTIONARY
  5
3E5
330
1FA
100
AcDbDictionary
280
     1
281
     1
  3
ADSK_XREC_LAYER_RECONCILED
360
3E6
  0
DICTIONARY
  5
3E7
330
1FB
100
AcDbDictionary
280
     1
281
     1
  3
ADSK_XREC_LAYER_RECONCILED
360
3E8
  0
DICTIONARY
  5
3E9
330
1FC
100
AcDbDictionary
280
     1
281
     1
  3
ADSK_XREC_LAYER_RECONCILED
360
3EA
  0
DICTIONARY
  5
3EB
330
1FD
100
AcDbDictionary
280
     1
281
     1
  3
ADSK_XREC_LAYER_RECONCILED
360
3EC
  0
DICTIONARY
  5
3ED
330
1FE
100
AcDbDictionary
280
     1
281
     1
  3
ADSK_XREC_LAYER_RECONCILED
360
3EE
  0
DICTIONARY
  5
3EF
330
1FF
100
AcDbDictionary
280
     1
281
     1
  3
ADSK_XREC_LAYER_RECONCILED
360
3F0
  0
DICTIONARY
  5
3F1
330
200
100
AcDbDictionary
280
     1
281
     1
  3
ADSK_XREC_LAYER_RECONCILED
360
3F2
  0
DICTIONARY
  5
3F3
330
201
100
AcDbDictionary
280
     1
281
     1
  3
ADSK_XREC_LAYER_RECONCILED
360
3F4
  0
DICTIONARY
  5
3F5
330
202
100
AcDbDictionary
280
     1
281
     1
  3
ADSK_XREC_LAYER_RECONCILED
360
3F6
  0
DICTIONARY
  5
3F7
330
203
100
AcDbDictionary
280
     1
281
     1
  3
ADSK_XREC_LAYER_RECONCILED
360
3F8
  0
DICTIONARY
  5
3F9
330
204
100
AcDbDictionary
280
     1
281
     1
  3
ADSK_XREC_LAYER_RECONCILED
360
3FA
  0
DICTIONARY
  5
3FB
330
205
100
AcDbDictionary
280
     1
281
     1
  3
ADSK_XREC_LAYER_RECONCILED
360
3FC
  0
DICTIONARY
  5
3FD
330
206
100
AcDbDictionary
280
     1
281
     1
  3
ADSK_XREC_LAYER_RECONCILED
360
3FE
  0
DICTIONARY
  5
3FF
330
207
100
AcDbDictionary
280
     1
281
     1
  3
ADSK_XREC_LAYER_RECONCILED
360
400
  0
DICTIONARY
  5
401
330
208
100
AcDbDictionary
280
     1
281
     1
  3
ADSK_XREC_LAYER_RECONCILED
360
402
  0
DICTIONARY
  5
403
330
209
100
AcDbDictionary
280
     1
281
     1
  3
ADSK_XREC_LAYER_RECONCILED
360
404
  0
DICTIONARY
  5
405
330
20A
100
AcDbDictionary
280
     1
281
     1
  3
ADSK_XREC_LAYER_RECONCILED
360
406
  0
DICTIONARY
  5
407
330
20B
100
AcDbDictionary
280
     1
281
     1
  3
ADSK_XREC_LAYER_RECONCILED
360
408
  0
DICTIONARY
  5
409
330
20C
100
AcDbDictionary
280
     1
281
     1
  3
ADSK_XREC_LAYER_RECONCILED
360
40A
  0
DICTIONARY
  5
40B
330
20D
100
AcDbDictionary
280
     1
281
     1
  3
ADSK_XREC_LAYER_RECONCILED
360
40C
  0
DICTIONARY
  5
40D
330
20E
100
AcDbDictionary
280
     1
281
     1
  3
ADSK_XREC_LAYER_RECONCILED
360
40E
  0
DICTIONARY
  5
40F
330
20F
100
AcDbDictionary
280
     1
281
     1
  3
ADSK_XREC_LAYER_RECONCILED
360
410
  0
DICTIONARY
  5
411
330
210
100
AcDbDictionary
280
     1
281
     1
  3
ADSK_XREC_LAYER_RECONCILED
360
412
  0
DICTIONARY
  5
413
330
211
100
AcDbDictionary
280
     1
281
     1
  3
ADSK_XREC_LAYER_RECONCILED
360
414
  0
DICTIONARY
  5
415
330
212
100
AcDbDictionary
280
     1
281
     1
  3
ADSK_XREC_LAYER_RECONCILED
360
416
  0
DICTIONARY
  5
417
330
213
100
AcDbDictionary
280
     1
281
     1
  3
ADSK_XREC_LAYER_RECONCILED
360
418
  0
XRECORD
  5
436
102
{ACAD_REACTORS
330
C
102
}
330
C
100
AcDbXrecord
280
     1
300
ACD
300
2017
300
ACD_F_S
  0
DICTIONARY
  5
3AA
102
{ACAD_REACTORS
330
C
102
}
330
C
100
AcDbDictionary
281
     1
  0
DICTIONARY
  5
430
102
{ACAD_REACTORS
330
C
102
}
330
C
100
AcDbDictionary
281
     1
  3
Metric50
350
431
  0
DICTIONARY
  5
D
102
{ACAD_REACTORS
330
C
102
}
330
C
100
AcDbDictionary
281
     1
  0
DICTIONARY
  5
1A
102
{ACAD_REACTORS
330
C
102
}
330
C
100
AcDbDictionary
281
     1
  3
Layout1
350
37D
  3
Model
350
37C
  0
DICTIONARY
  5
380
102
{ACAD_REACTORS
330
C
102
}
330
C
100
AcDbDictionary
281
     1
  3
ByBlock
350
389
  3
ByLayer
350
381
  3
Global
350
391
  0
DICTIONARY
  5
3CF
102
{ACAD_REACTORS
330
C
102
}
330
C
100
AcDbDictionary
281
     1
  3
Standard
350
3D0
  0
DICTIONARY
  5
17
102
{ACAD_REACTORS
330
C
102
}
330
C
100
AcDbDictionary
281
     1
  3
Standard
350
18
  0
DICTIONARY
  5
19
102
{ACAD_REACTORS
330
C
102
}
330
C
100
AcDbDictionary
281
     1
  0
ACDBDICTIONARYWDFLT
  5
E
102
{ACAD_REACTORS
330
C
102
}
330
C
100
AcDbDictionary
281
     1
  3
Normal
350
F
100
AcDbDictionaryWithDefault
340
F
  0
DICTIONARY
  5
3AD
102
{ACAD_REACTORS
330
C
102
}
330
C
100
AcDbDictionary
281
     1
  3
A0
350
3AE
  3
A1
350
3AF
  3
A2
350
3B0
  3
A3
350
3B1
  3
A4
350
3B2
  3
A5
350
3B3
  3
A6
350
3B4
  3
A7
350
3B5
  3
A8
350
3B6
  3
A9
350
3B7
  3
B0
350
3B8
  3
B1
350
3B9
  3
B2
350
3BA
  3
B3
350
3BB
  3
B4
350
3BC
  3
B5
350
3BD
  3
B6
350
3BE
  3
B7
350
3BF
  3
B8
350
3C0
  3
B9
350
3C1
  3
C0
350
3C2
  3
C1
350
3C3
  3
C2
350
3C4
  3
C3
350
3C5
  3
C4
350
3C6
  3
C5
350
3C7
  3
C6
350
3C8
  3
C7
350
3C9
  3
C8
350
3CA
  3
C9
350
3CB
  3
D0
350
3CC
  3
D1
350
3CD
  3
D2
350
3CE
  0
DICTIONARY
  5
42E
102
{ACAD_REACTORS
330
C
102
}
330
C
100
AcDbDictionary
281
     1
  3
Metric50
350
42F
  0
DICTIONARY
  5
3AB
102
{ACAD_REACTORS
330
C
102
}
330
C
100
AcDbDictionary
281
     1
  3
Standard
350
3AC
  0
DICTIONARY
  5
399
102
{ACAD_REACTORS
330
C
102
}
330
C
100
AcDbDictionary
281
     1
  3
2dWireframe
350
39F
  3
3D Hidden
350
3A1
  3
3dWireframe
350
3A0
  3
Basic
350
39E
  3
Brighten
350
3A5
  3
ColorChange
350
3A9
  3
Conceptual
350
3A2
  3
Dim
350
3A4
  3
EdgeColorOff
350
3DC
  3
Facepattern
350
3A8
  3
Flat
350
39A
  3
FlatWithEdges
350
39B
  3
Gouraud
350
39C
  3
GouraudWithEdges
350
39D
  3
Hidden
350
428
  3
JitterOff
350
3DA
  3
Linepattern
350
3A7
  3
OverhangOff
350
3DB
  3
Realistic
350
3A3
  3
Shaded
350
42D
  3
Shaded with edges
350
42C
  3
Shades of Gray
350
429
  3
Sketchy
350
42A
  3
Thicken
350
3A6
  3
Wireframe
350
427
  3
X-Ray
350
42B
  0
XRECORD
  5
446
102
{ACAD_REACTORS
330
C
102
}
330
C
100
AcDbXrecord
280
     1
 90
        1
330
3AC
330
42F
330
431
  0
DICTIONARY
  5
3D5
102
{ACAD_REACTORS
330
C
102
}
330
C
100
AcDbDictionary
281
     1
  3
CANNOSCALE
350
3D8
  3
CMLEADERSTYLE
350
3D7
  3
CTABLESTYLE
350
3D6
  3
CVIEWDETAILSTYLE
350
43F
  3
CVIEWSECTIONSTYLE
350
440
  3
LAYEREVAL
350
424
  3
LAYERNOTIFY
350
425
  0
DICTIONARY
  5
3E1
102
{ACAD_REACTORS
330
C
102
}
330
C
100
AcDbDictionary
281
     1
  3
lxx_dimth
350
3E2
  0
DICTIONARY
  5
41D
102
{ACAD_REACTORS
330
41C
102
}
330
41C
100
AcDbDictionary
281
     1
  0
XRECORD
  5
3E4
102
{ACAD_REACTORS
330
3E3
102
}
330
3E3
100
AcDbXrecord
280
     1
290
     1
  0
XRECORD
  5
3E6
102
{ACAD_REACTORS
330
3E5
102
}
330
3E5
100
AcDbXrecord
280
     1
290
     1
  0
XRECORD
  5
3E8
102
{ACAD_REACTORS
330
3E7
102
}
330
3E7
100
AcDbXrecord
280
     1
290
     1
  0
XRECORD
  5
3EA
102
{ACAD_REACTORS
330
3E9
102
}
330
3E9
100
AcDbXrecord
280
     1
290
     1
  0
XRECORD
  5
3EC
102
{ACAD_REACTORS
330
3EB
102
}
330
3EB
100
AcDbXrecord
280
     1
290
     1
  0
XRECORD
  5
3EE
102
{ACAD_REACTORS
330
3ED
102
}
330
3ED
100
AcDbXrecord
280
     1
290
     1
  0
XRECORD
  5
3F0
102
{ACAD_REACTORS
330
3EF
102
}
330
3EF
100
AcDbXrecord
280
     1
290
     1
  0
XRECORD
  5
3F2
102
{ACAD_REACTORS
330
3F1
102
}
330
3F1
100
AcDbXrecord
280
     1
290
     1
  0
XRECORD
  5
3F4
102
{ACAD_REACTORS
330
3F3
102
}
330
3F3
100
AcDbXrecord
280
     1
290
     1
  0
XRECORD
  5
3F6
102
{ACAD_REACTORS
330
3F5
102
}
330
3F5
100
AcDbXrecord
280
     1
290
     1
  0
XRECORD
  5
3F8
102
{ACAD_REACTORS
330
3F7
102
}
330
3F7
100
AcDbXrecord
280
     1
290
     1
  0
XRECORD
  5
3FA
102
{ACAD_REACTORS
330
3F9
102
}
330
3F9
100
AcDbXrecord
280
     1
290
     1
  0
XRECORD
  5
3FC
102
{ACAD_REACTORS
330
3FB
102
}
330
3FB
100
AcDbXrecord
280
     1
290
     1
  0
XRECORD
  5
3FE
102
{ACAD_REACTORS
330
3FD
102
}
330
3FD
100
AcDbXrecord
280
     1
290
     1
  0
XRECORD
  5
400
102
{ACAD_REACTORS
330
3FF
102
}
330
3FF
100
AcDbXrecord
280
     1
290
     1
  0
XRECORD
  5
402
102
{ACAD_REACTORS
330
401
102
}
330
401
100
AcDbXrecord
280
     1
290
     1
  0
XRECORD
  5
404
102
{ACAD_REACTORS
330
403
102
}
330
403
100
AcDbXrecord
280
     1
290
     1
  0
XRECORD
  5
406
102
{ACAD_REACTORS
330
405
102
}
330
405
100
AcDbXrecord
280
     1
290
     1
  0
XRECORD
  5
408
102
{ACAD_REACTORS
330
407
102
}
330
407
100
AcDbXrecord
280
     1
290
     1
  0
XRECORD
  5
40A
102
{ACAD_REACTORS
330
409
102
}
330
409
100
AcDbXrecord
280
     1
290
     1
  0
XRECORD
  5
40C
102
{ACAD_REACTORS
330
40B
102
}
330
40B
100
AcDbXrecord
280
     1
290
     1
  0
XRECORD
  5
40E
102
{ACAD_REACTORS
330
40D
102
}
330
40D
100
AcDbXrecord
280
     1
290
     1
  0
XRECORD
  5
410
102
{ACAD_REACTORS
330
40F
102
}
330
40F
100
AcDbXrecord
280
     1
290
     1
  0
XRECORD
  5
412
102
{ACAD_REACTORS
330
411
102
}
330
411
100
AcDbXrecord
280
     1
290
     1
  0
XRECORD
  5
414
102
{ACAD_REACTORS
330
413
102
}
330
413
100
AcDbXrecord
280
     1
290
     1
  0
XRECORD
  5
416
102
{ACAD_REACTORS
330
415
102
}
330
415
100
AcDbXrecord
280
     1
290
     1
  0
XRECORD
  5
418
102
{ACAD_REACTORS
330
417
102
}
330
417
100
AcDbXrecord
280
     1
290
     1
  0
ACDBDETAILVIEWSTYLE
  5
431
102
{ACAD_XDICTIONARY
360
444
102
}
102
{ACAD_REACTORS
330
430
102
}
330
430
100
AcDbModelDocViewStyle
 70
     0
  3
Metric50
290
     0
100
AcDbDetailViewStyle
 70
     0
 71
     0
 90
        3
 71
     1
340
11
 62
   256
 40
5.0
340
0
 62
   256
 40
5.0
300

 40
0.0
280
     1
 71
     2
340
16
 90
       25
 62
   256
 71
     3
340
11
 62
   256
 40
5.0
 90
        0
 40
15.0
 90
        1
300
%<\AcVar ViewDetailId>% (%<\AcVar ViewScale \f "%sn">%)
 71
     4
340
16
 90
       25
 62
   256
340
16
 90
       25
 62
   256
280
     0
  0
LAYOUT
  5
37D
102
{ACAD_REACTORS
330
1A
102
}
330
1A
100
AcDbPlotSettings
  1

  2
none_device
  4
ANSI_C_(22.00_x_17.00_Inches)
  6

 40
0.0
 41
0.0
 42
0.0
 43
0.0
 44
558.8
 45
431.8
 46
0.0
 47
0.0
 48
0.0
 49
0.0
140
0.0
141
0.0
142
1.0
143
1.0
 70
     0
 72
     1
 73
     0
 74
     0
  7

 75
     0
147
1.0
 76
     0
 77
     2
 78
   300
148
0.0
149
0.0
100
AcDbLayout
  1
Layout1
 70
     1
 71
     1
 10
0.0
 20
0.0
 11
12.0
 21
9.0
 12
0.0
 22
0.0
 32
0.0
 14
1.000000000000000E+20
 24
1.000000000000000E+20
 34
1.000000000000000E+20
 15
-1.000000000000000E+20
 25
-1.000000000000000E+20
 35
-1.000000000000000E+20
146
0.0
 13
0.0
 23
0.0
 33
0.0
 16
1.0
 26
0.0
 36
0.0
 17
0.0
 27
1.0
 37
0.0
 76
     0
330
217
  0
LAYOUT
  5
37C
102
{ACAD_XDICTIONARY
360
422
102
}
102
{ACAD_REACTORS
330
1A
102
}
330
1A
100
AcDbPlotSettings
  1

  2
none_device
  4
ANSI_C_(22.00_x_17.00_Inches)
  6

 40
0.0
 41
0.0
 42
0.0
 43
0.0
 44
558.8
 45
431.8
 46
0.0
 47
0.0
 48
0.0
 49
0.0
140
0.0
141
0.0
142
1.0
143
1.0
 70
  1024
 72
     1
 73
     0
 74
     0
  7

 75
     0
147
1.0
 76
     0
 77
     2
 78
   300
148
0.0
149
0.0
100
AcDbLayout
  1
Model
 70
     0
 71
     0
 10
0.0
 20
0.0
 11
558.8
 21
431.8
 12
0.0
 22
0.0
 32
0.0
 14
0.0
 24
0.0
 34
0.0
 15
0.0
 25
0.0
 35
0.0
146
0.0
 13
0.0
 23
0.0
 33
0.0
 16
1.0
 26
0.0
 36
0.0
 17
0.0
 27
1.0
 37
0.0
 76
     0
330
216
331
1F4
  0
MATERIAL
  5
389
102
{ACAD_XDICTIONARY
360
38A
102
}
102
{ACAD_REACTORS
330
380
102
}
330
380
100
AcDbMaterial
  1
ByBlock
 72
     0
 43
0.0008202099737533
 43
0.0
 43
0.0
 43
0.0
 43
0.0
 43
0.0008202099737533
 43
0.0
 43
0.0
 43
0.0
 43
0.0
 43
1.0
 43
0.0
 43
0.0
 43
0.0
 43
0.0
 43
1.0
 77
     0
 47
0.0008202099737533
 47
0.0
 47
0.0
 47
0.0
 47
0.0
 47
0.0008202099737533
 47
0.0
 47
0.0
 47
0.0
 47
0.0
 47
1.0
 47
0.0
 47
0.0
 47
0.0
 47
0.0
 47
1.0
171
     0
 49
0.0008202099737533
 49
0.0
 49
0.0
 49
0.0
 49
0.0
 49
0.0008202099737533
 49
0.0
 49
0.0
 49
0.0
 49
0.0
 49
1.0
 49
0.0
 49
0.0
 49
0.0
 49
0.0
 49
1.0
175
     0
142
0.0008202099737533
142
0.0
142
0.0
142
0.0
142
0.0
142
0.0008202099737533
142
0.0
142
0.0
142
0.0
142
0.0
142
1.0
142
0.0
142
0.0
142
0.0
142
0.0
142
1.0
179
     0
144
0.0008202099737533
144
0.0
144
0.0
144
0.0
144
0.0
144
0.0008202099737533
144
0.0
144
0.0
144
0.0
144
0.0
144
1.0
144
0.0
144
0.0
144
0.0
144
0.0
144
1.0
147
0.0008202099737533
147
0.0
147
0.0
147
0.0
147
0.0
147
0.0008202099737533
147
0.0
147
0.0
147
0.0
147
0.0
147
1.0
147
0.0
147
0.0
147
0.0
147
0.0
147
1.0
  0
MATERIAL
  5
381
102
{ACAD_XDICTIONARY
360
382
102
}
102
{ACAD_REACTORS
330
380
102
}
330
380
100
AcDbMaterial
  1
ByLayer
 72
     0
 43
0.0008202099737533
 43
0.0
 43
0.0
 43
0.0
 43
0.0
 43
0.0008202099737533
 43
0.0
 43
0.0
 43
0.0
 43
0.0
 43
1.0
 43
0.0
 43
0.0
 43
0.0
 43
0.0
 43
1.0
 77
     0
 47
0.0008202099737533
 47
0.0
 47
0.0
 47
0.0
 47
0.0
 47
0.0008202099737533
 47
0.0
 47
0.0
 47
0.0
 47
0.0
 47
1.0
 47
0.0
 47
0.0
 47
0.0
 47
0.0
 47
1.0
171
     0
 49
0.0008202099737533
 49
0.0
 49
0.0
 49
0.0
 49
0.0
 49
0.0008202099737533
 49
0.0
 49
0.0
 49
0.0
 49
0.0
 49
1.0
 49
0.0
 49
0.0
 49
0.0
 49
0.0
 49
1.0
175
     0
142
0.0008202099737533
142
0.0
142
0.0
142
0.0
142
0.0
142
0.0008202099737533
142
0.0
142
0.0
142
0.0
142
0.0
142
1.0
142
0.0
142
0.0
142
0.0
142
0.0
142
1.0
179
     0
144
0.0008202099737533
144
0.0
144
0.0
144
0.0
144
0.0
144
0.0008202099737533
144
0.0
144
0.0
144
0.0
144
0.0
144
1.0
144
0.0
144
0.0
144
0.0
144
0.0
144
1.0
147
0.0008202099737533
147
0.0
147
0.0
147
0.0
147
0.0
147
0.0008202099737533
147
0.0
147
0.0
147
0.0
147
0.0
147
1.0
147
0.0
147
0.0
147
0.0
147
0.0
147
1.0
  0
MATERIAL
  5
391
102
{ACAD_XDICTIONARY
360
392
102
}
102
{ACAD_REACTORS
330
380
102
}
330
380
100
AcDbMaterial
  1
Global
 72
     0
 43
0.0008202099737533
 43
0.0
 43
0.0
 43
0.0
 43
0.0
 43
0.0008202099737533
 43
0.0
 43
0.0
 43
0.0
 43
0.0
 43
1.0
 43
0.0
 43
0.0
 43
0.0
 43
0.0
 43
1.0
 77
     0
 47
0.0008202099737533
 47
0.0
 47
0.0
 47
0.0
 47
0.0
 47
0.0008202099737533
 47
0.0
 47
0.0
 47
0.0
 47
0.0
 47
1.0
 47
0.0
 47
0.0
 47
0.0
 47
0.0
 47
1.0
171
     0
 49
0.0008202099737533
 49
0.0
 49
0.0
 49
0.0
 49
0.0
 49
0.0008202099737533
 49
0.0
 49
0.0
 49
0.0
 49
0.0
 49
1.0
 49
0.0
 49
0.0
 49
0.0
 49
0.0
 49
1.0
175
     0
142
0.0008202099737533
142
0.0
142
0.0
142
0.0
142
0.0
142
0.0008202099737533
142
0.0
142
0.0
142
0.0
142
0.0
142
1.0
142
0.0
142
0.0
142
0.0
142
0.0
142
1.0
179
     0
144
0.0008202099737533
144
0.0
144
0.0
144
0.0
144
0.0
144
0.0008202099737533
144
0.0
144
0.0
144
0.0
144
0.0
144
1.0
144
0.0
144
0.0
144
0.0
144
0.0
144
1.0
147
0.0008202099737533
147
0.0
147
0.0
147
0.0
147
0.0
147
0.0008202099737533
147
0.0
147
0.0
147
0.0
147
0.0
147
1.0
147
0.0
147
0.0
147
0.0
147
0.0
147
1.0
  0
MLEADERSTYLE
  5
3D0
102
{ACAD_REACTORS
330
3CF
102
}
330
3CF
100
AcDbMLeaderStyle
179
     2
170
     2
171
     1
172
     0
 90
        2
 40
0.0
 41
0.0
173
     1
 91
-1056964608
340
14
 92
       -2
290
     1
 42
2.0
291
     1
 43
0.36
  3
Standard
 44
4.0
300

342
11
174
     1
178
     6
175
     1
176
     0
 93
-1056964608
 45
4.0
292
     0
297
     0
 46
4.0
 94
-1056964608
 47
1.0
 49
1.0
140
1.0
293
     1
141
0.0
294
     1
177
     0
142
1.0
295
     0
296
     0
143
0.125
271
     0
272
     9
273
     9
298
     0
  0
MLINESTYLE
  5
18
102
{ACAD_REACTORS
330
17
102
}
330
17
100
AcDbMlineStyle
  2
STANDARD
 70
     0
  3

 62
   256
 51
90.0
 52
90.0
 71
     2
 49
0.5
 62
   256
  6
BYLAYER
 49
-0.5
 62
   256
  6
BYLAYER
  0
ACDBPLACEHOLDER
  5
F
102
{ACAD_REACTORS
330
E
102
}
330
E
  0
SCALE
  5
3AE
102
{ACAD_REACTORS
330
3AD
102
}
330
3AD
100
AcDbScale
 70
     0
300
1:1
140
1.0
141
1.0
290
     1
  0
SCALE
  5
3AF
102
{ACAD_REACTORS
330
3AD
102
}
330
3AD
100
AcDbScale
 70
     0
300
1:2
140
1.0
141
2.0
290
     0
  0
SCALE
  5
3B0
102
{ACAD_REACTORS
330
3AD
102
}
330
3AD
100
AcDbScale
 70
     0
300
1:4
140
1.0
141
4.0
290
     0
  0
SCALE
  5
3B1
102
{ACAD_REACTORS
330
3AD
102
}
330
3AD
100
AcDbScale
 70
     0
300
1:5
140
1.0
141
5.0
290
     0
  0
SCALE
  5
3B2
102
{ACAD_REACTORS
330
3AD
102
}
330
3AD
100
AcDbScale
 70
     0
300
1:8
140
1.0
141
8.0
290
     0
  0
SCALE
  5
3B3
102
{ACAD_REACTORS
330
3AD
102
}
330
3AD
100
AcDbScale
 70
     0
300
1:10
140
1.0
141
10.0
290
     0
  0
SCALE
  5
3B4
102
{ACAD_REACTORS
330
3AD
102
}
330
3AD
100
AcDbScale
 70
     0
300
1:16
140
1.0
141
16.0
290
     0
  0
SCALE
  5
3B5
102
{ACAD_REACTORS
330
3AD
102
}
330
3AD
100
AcDbScale
 70
     0
300
1:20
140
1.0
141
20.0
290
     0
  0
SCALE
  5
3B6
102
{ACAD_REACTORS
330
3AD
102
}
330
3AD
100
AcDbScale
 70
     0
300
1:30
140
1.0
141
30.0
290
     0
  0
SCALE
  5
3B7
102
{ACAD_REACTORS
330
3AD
102
}
330
3AD
100
AcDbScale
 70
     0
300
1:40
140
1.0
141
40.0
290
     0
  0
SCALE
  5
3B8
102
{ACAD_REACTORS
330
3AD
102
}
330
3AD
100
AcDbScale
 70
     0
300
1:50
140
1.0
141
50.0
290
     0
  0
SCALE
  5
3B9
102
{ACAD_REACTORS
330
3AD
102
}
330
3AD
100
AcDbScale
 70
     0
300
1:100
140
1.0
141
100.0
290
     0
  0
SCALE
  5
3BA
102
{ACAD_REACTORS
330
3AD
102
}
330
3AD
100
AcDbScale
 70
     0
300
2:1
140
2.0
141
1.0
290
     0
  0
SCALE
  5
3BB
102
{ACAD_REACTORS
330
3AD
102
}
330
3AD
100
AcDbScale
 70
     0
300
4:1
140
4.0
141
1.0
290
     0
  0
SCALE
  5
3BC
102
{ACAD_REACTORS
330
3AD
102
}
330
3AD
100
AcDbScale
 70
     0
300
8:1
140
8.0
141
1.0
290
     0
  0
SCALE
  5
3BD
102
{ACAD_REACTORS
330
3AD
102
}
330
3AD
100
AcDbScale
 70
     0
300
10:1
140
10.0
141
1.0
290
     0
  0
SCALE
  5
3BE
102
{ACAD_REACTORS
330
3AD
102
}
330
3AD
100
AcDbScale
 70
     0
300
100:1
140
100.0
141
1.0
290
     0
  0
SCALE
  5
3BF
102
{ACAD_REACTORS
330
3AD
102
}
330
3AD
100
AcDbScale
 70
     0
300
1/128" = 1'-0"
140
0.0078125
141
12.0
290
     0
  0
SCALE
  5
3C0
102
{ACAD_REACTORS
330
3AD
102
}
330
3AD
100
AcDbScale
 70
     0
300
1/64" = 1'-0"
140
0.015625
141
12.0
290
     0
  0
SCALE
  5
3C1
102
{ACAD_REACTORS
330
3AD
102
}
330
3AD
100
AcDbScale
 70
     0
300
1/32" = 1'-0"
140
0.03125
141
12.0
290
     0
  0
SCALE
  5
3C2
102
{ACAD_REACTORS
330
3AD
102
}
330
3AD
100
AcDbScale
 70
     0
300
1/16" = 1'-0"
140
0.0625
141
12.0
290
     0
  0
SCALE
  5
3C3
102
{ACAD_REACTORS
330
3AD
102
}
330
3AD
100
AcDbScale
 70
     0
300
3/32" = 1'-0"
140
0.09375
141
12.0
290
     0
  0
SCALE
  5
3C4
102
{ACAD_REACTORS
330
3AD
102
}
330
3AD
100
AcDbScale
 70
     0
300
1/8" = 1'-0"
140
0.125
141
12.0
290
     0
  0
SCALE
  5
3C5
102
{ACAD_REACTORS
330
3AD
102
}
330
3AD
100
AcDbScale
 70
     0
300
3/16" = 1'-0"
140
0.1875
141
12.0
290
     0
  0
SCALE
  5
3C6
102
{ACAD_REACTORS
330
3AD
102
}
330
3AD
100
AcDbScale
 70
     0
300
1/4" = 1'-0"
140
0.25
141
12.0
290
     0
  0
SCALE
  5
3C7
102
{ACAD_REACTORS
330
3AD
102
}
330
3AD
100
AcDbScale
 70
     0
300
3/8" = 1'-0"
140
0.375
141
12.0
290
     0
  0
SCALE
  5
3C8
102
{ACAD_REACTORS
330
3AD
102
}
330
3AD
100
AcDbScale
 70
     0
300
1/2" = 1'-0"
140
0.5
141
12.0
290
     0
  0
SCALE
  5
3C9
102
{ACAD_REACTORS
330
3AD
102
}
330
3AD
100
AcDbScale
 70
     0
300
3/4" = 1'-0"
140
0.75
141
12.0
290
     0
  0
SCALE
  5
3CA
102
{ACAD_REACTORS
330
3AD
102
}
330
3AD
100
AcDbScale
 70
     0
300
1" = 1'-0"
140
1.0
141
12.0
290
     0
  0
SCALE
  5
3CB
102
{ACAD_REACTORS
330
3AD
102
}
330
3AD
100
AcDbScale
 70
     0
300
1-1/2" = 1'-0"
140
1.5
141
12.0
290
     0
  0
SCALE
  5
3CC
102
{ACAD_REACTORS
330
3AD
102
}
330
3AD
100
AcDbScale
 70
     0
300
3" = 1'-0"
140
3.0
141
12.0
290
     0
  0
SCALE
  5
3CD
102
{ACAD_REACTORS
330
3AD
102
}
330
3AD
100
AcDbScale
 70
     0
300
6" = 1'-0"
140
6.0
141
12.0
290
     0
  0
SCALE
  5
3CE
102
{ACAD_REACTORS
330
3AD
102
}
330
3AD
100
AcDbScale
 70
     0
300
1'-0" = 1'-0"
140
12.0
141
12.0
290
     0
  0
ACDBSECTIONVIEWSTYLE
  5
42F
102
{ACAD_XDICTIONARY
360
442
102
}
102
{ACAD_REACTORS
330
42E
102
}
330
42E
100
AcDbModelDocViewStyle
 70
     0
  3
Metric50
290
     0
100
AcDbSectionViewStyle
 70
     0
 71
     0
 90
      102
 71
     1
340
11
 62
   256
 40
5.0
340
0
340
0
 62
   256
 40
5.0
300
I, O, Q, S, X, Z
 40
10.0
 90
        0
 40
2.5
 90
        0
 71
     2
340
16
 90
       25
 62
   256
340
16
 90
       50
 62
   256
 40
5.0
 40
2.5
 40
5.0
 71
     3
340
11
 62
   256
 40
5.0
 90
        0
 40
15.0
 90
        1
300
%<\AcVar ViewSectionStartId>%-%<\AcVar ViewSectionEndId>% (%<\AcVar ViewScale \f "%sn">%)
 71
     4
 62
   256
 62
   257
300
ANSI31
 40
1.0
 90
        0
290
     0
290
     0
 90
        6
 40
0.0
 40
1.570796326794896
 40
0.2617993877991494
 40
1.308996938995747
 40
-0.2617993877991494
 40
1.832595714594046
  0
TABLESTYLE
  5
3AC
102
{ACAD_XDICTIONARY
360
3D2
102
}
102
{ACAD_REACTORS
330
3AB
102
}
330
3AB
100
AcDbTableStyle
280
     0
  3
Standard
 70
     0
 71
     0
 40
1.5
 41
1.5
280
     0
281
     0
  7
STANDARD
140
4.5
170
     2
 62
     0
 63
     7
283
     0
 90
      512
 91
        0
  1

274
    -2
284
     1
 64
     0
275
    -2
285
     1
 65
     0
276
    -2
286
     1
 66
     0
277
    -2
287
     1
 67
     0
278
    -2
288
     1
 68
     0
279
    -2
289
     1
 69
     0
  7
STANDARD
140
6.0
170
     5
 62
     0
 63
     7
283
     0
 90
      512
 91
        0
  1

274
    -2
284
     1
 64
     0
275
    -2
285
     1
 65
     0
276
    -2
286
     1
 66
     0
277
    -2
287
     1
 67
     0
278
    -2
288
     1
 68
     0
279
    -2
289
     1
 69
     0
  7
STANDARD
140
4.5
170
     5
 62
     0
 63
     7
283
     0
 90
      512
 91
        0
  1

274
    -2
284
     1
 64
     0
275
    -2
285
     1
 65
     0
276
    -2
286
     1
 66
     0
277
    -2
287
     1
 67
     0
278
    -2
288
     1
 68
     0
279
    -2
289
     1
 69
     0
  0
VISUALSTYLE
  5
39F
102
{ACAD_REACTORS
330
399
102
}
330
399
100
AcDbVisualStyle
  2
2dWireframe
 70
     4
177
     3
291
     0
 70
    58
 90
        0
176
     1
 90
        2
176
     1
 90
        0
176
     1
 90
        0
176
     1
 40
0.6
176
     1
 40
30.0
176
     1
 62
     7
420
 16777215
176
     1
 90
        1
176
     1
 90
        4
176
     1
 62
     7
176
     1
 62
   257
176
     1
 90
        1
176
     1
 90
        1
176
     1
 40
1.0
176
     1
 90
        0
176
     1
 62
   257
176
     1
 40
1.0
176
     1
 90
        1
176
     1
 90
        6
176
     1
 90
        2
176
     1
 62
     7
176
     1
 90
        5
176
     1
 90
        0
176
     1
 90
        0
176
     1
290
     0
176
     1
 90
        1
176
     1
 40
0.0
176
     1
 90
        0
176
     1
290
     1
176
     1
290
     1
176
     1
290
     0
176
     1
290
     0
176
     1
290
     0
176
     1
290
     0
176
     1
290
     0
176
     1
290
     0
176
     1
290
     0
176
     1
 90
       50
176
     1
 40
0.0
176
     1
 40
1.0
176
     1
 90
        0
176
     1
 62
    18
420
        0
176
     1
 90
       50
176
     1
 90
        3
176
     1
 62
     5
420
      255
176
     1
290
     0
176
     1
 90
       50
176
     1
 90
       50
176
     1
 90
       50
176
     1
290
     0
176
     1
 90
       50
176
     1
 62
   256
176
     0
 40
1.0
176
     0
 90
        2
176
     1
  1
strokes_ogs.tif
176
     1
290
     0
176
     1
 40
1.0
176
     1
 40
1.0
176
     1
  0
VISUALSTYLE
  5
3A1
102
{ACAD_REACTORS
330
399
102
}
330
399
100
AcDbVisualStyle
  2
3D Hidden
 70
     6
177
     3
291
     0
 70
    58
 90
        1
176
     1
 90
        2
176
     1
 90
        2
176
     1
 90
        0
176
     1
 40
0.6
176
     1
 40
30.0
176
     1
 62
     7
420
 16777215
176
     1
 90
        2
176
     1
 90
        2
176
     1
 62
     7
176
     1
 62
   257
176
     1
 90
        2
176
     1
 90
        1
176
     1
 40
40.0
176
     1
 90
        0
176
     1
 62
   257
176
     1
 40
1.0
176
     1
 90
        1
176
     1
 90
        6
176
     1
 90
        2
176
     1
 62
     7
176
     1
 90
        3
176
     1
 90
        0
176
     1
 90
        0
176
     1
290
     0
176
     1
 90
        1
176
     1
 40
0.0
176
     1
 90
        0
176
     1
290
     0
176
     1
290
     1
176
     1
290
     1
176
     1
290
     0
176
     1
290
     0
176
     1
290
     0
176
     1
290
     0
176
     1
290
     0
176
     1
290
     0
176
     1
 90
       50
176
     1
 40
0.0
176
     1
 40
1.0
176
     1
 90
        0
176
     1
 62
    18
420
        0
176
     1
 90
       50
176
     1
 90
        3
176
     1
 62
     5
420
      255
176
     1
290
     0
176
     1
 90
       50
176
     1
 90
       50
176
     1
 90
       50
176
     1
290
     0
176
     1
 90
       50
176
     1
 62
   256
176
     0
 40
1.0
176
     0
 90
        2
176
     1
  1
strokes_ogs.tif
176
     1
290
     0
176
     1
 40
1.0
176
     1
 40
1.0
176
     1
  0
VISUALSTYLE
  5
3A0
102
{ACAD_REACTORS
330
399
102
}
330
399
100
AcDbVisualStyle
  2
3dWireframe
 70
     5
177
     3
291
     0
 70
    58
 90
        0
176
     1
 90
        2
176
     1
 90
        0
176
     1
 90
        0
176
     1
 40
0.6
176
     1
 40
30.0
176
     1
 62
     7
420
 16777215
176
     1
 90
        1
176
     1
 90
        4
176
     1
 62
     7
176
     1
 62
   257
176
     1
 90
        1
176
     1
 90
        1
176
     1
 40
1.0
176
     1
 90
        0
176
     1
 62
   257
176
     1
 40
1.0
176
     1
 90
        1
176
     1
 90
        6
176
     1
 90
        2
176
     1
 62
     7
176
     1
 90
        5
176
     1
 90
        0
176
     1
 90
        0
176
     1
290
     0
176
     1
 90
        1
176
     1
 40
0.0
176
     1
 90
        0
176
     1
290
     0
176
     1
290
     1
176
     1
290
     1
176
     1
290
     0
176
     1
290
     0
176
     1
290
     0
176
     1
290
     0
176
     1
290
     0
176
     1
290
     0
176
     1
 90
       50
176
     1
 40
0.0
176
     1
 40
1.0
176
     1
 90
        0
176
     1
 62
    18
420
        0
176
     1
 90
       50
176
     1
 90
        3
176
     1
 62
     5
420
      255
176
     1
290
     0
176
     1
 90
       50
176
     1
 90
       50
176
     1
 90
       50
176
     1
290
     0
176
     1
 90
       50
176
     1
 62
   256
176
     0
 40
1.0
176
     0
 90
        2
176
     1
  1
strokes_ogs.tif
176
     1
290
     0
176
     1
 40
1.0
176
     1
 40
1.0
176
     1
  0
VISUALSTYLE
  5
39E
102
{ACAD_REACTORS
330
399
102
}
330
399
100
AcDbVisualStyle
  2
Basic
 70
     7
177
     3
291
     1
 70
    58
 90
        1
176
     1
 90
        0
176
     1
 90
        1
176
     1
 90
        0
176
     1
 40
0.6
176
     1
 40
30.0
176
     1
 62
     7
420
 16777215
176
     1
 90
        0
176
     1
 90
        4
176
     1
 62
     7
176
     1
 62
   257
176
     1
 90
        1
176
     1
 90
        1
176
     1
 40
1.0
176
     1
 90
        8
176
     1
 62
     7
176
     1
 40
1.0
176
     1
 90
        1
176
     1
 90
        6
176
     1
 90
        2
176
     1
 62
     7
176
     1
 90
        5
176
     1
 90
        0
176
     1
 90
        0
176
     1
290
     0
176
     1
 90
        1
176
     1
 40
0.0
176
     1
 90
        0
176
     1
290
     0
176
     1
290
     1
176
     1
290
     1
176
     1
290
     0
176
     1
290
     0
176
     1
290
     0
176
     1
290
     0
176
     1
290
     0
176
     1
290
     0
176
     1
 90
       50
176
     1
 40
0.0
176
     1
 40
1.0
176
     1
 90
        0
176
     1
 62
    18
420
        0
176
     1
 90
       50
176
     1
 90
        3
176
     1
 62
     5
420
      255
176
     1
290
     0
176
     1
 90
       50
176
     1
 90
       50
176
     1
 90
       50
176
     1
290
     0
176
     1
 90
       50
176
     1
 62
   256
176
     0
 40
1.0
176
     0
 90
        2
176
     1
  1
strokes_ogs.tif
176
     1
290
     0
176
     1
 40
1.0
176
     1
 40
1.0
176
     1
  0
VISUALSTYLE
  5
3A5
102
{ACAD_REACTORS
330
399
102
}
330
399
100
AcDbVisualStyle
  2
Brighten
 70
    12
177
     3
291
     1
 70
    58
 90
        2
176
     1
 90
        2
176
     1
 90
        0
176
     1
 90
        0
176
     1
 40
0.6
176
     1
 40
30.0
176
     1
 62
     7
420
 16777215
176
     1
 90
        1
176
     1
 90
        4
176
     1
 62
     7
176
     1
 62
   257
176
     1
 90
        1
176
     1
 90
        1
176
     1
 40
1.0
176
     1
 90
        8
176
     1
 62
     7
176
     1
 40
1.0
176
     1
 90
        1
176
     1
 90
        6
176
     1
 90
        2
176
     1
 62
     7
176
     1
 90
        5
176
     1
 90
        0
176
     1
 90
        0
176
     1
290
     0
176
     1
 90
        1
176
     1
 40
50.0
176
     1
 90
        0
176
     1
290
     0
176
     1
290
     1
176
     1
290
     1
176
     1
290
     0
176
     1
290
     0
176
     1
290
     0
176
     1
290
     0
176
     1
290
     0
176
     1
290
     0
176
     1
 90
       50
176
     1
 40
0.0
176
     1
 40
1.0
176
     1
 90
        0
176
     1
 62
    18
420
        0
176
     1
 90
       50
176
     1
 90
        3
176
     1
 62
     5
420
      255
176
     1
290
     0
176
     1
 90
       50
176
     1
 90
       50
176
     1
 90
       50
176
     1
290
     0
176
     1
 90
       50
176
     1
 62
   256
176
     0
 40
1.0
176
     0
 90
        2
176
     1
  1
strokes_ogs.tif
176
     1
290
     0
176
     1
 40
1.0
176
     1
 40
1.0
176
     1
  0
VISUALSTYLE
  5
3A9
102
{ACAD_REACTORS
330
399
102
}
330
399
100
AcDbVisualStyle
  2
ColorChange
 70
    16
177
     3
291
     1
 70
    58
 90
        2
176
     1
 90
        2
176
     1
 90
        3
176
     1
 90
        0
176
     1
 40
0.6
176
     1
 40
30.0
176
     1
 62
     8
420
  8421504
176
     1
 90
        1
176
     1
 90
        4
176
     1
 62
     7
176
     1
 62
   257
176
     1
 90
        1
176
     1
 90
        1
176
     1
 40
1.0
176
     1
 90
        8
176
     1
 62
     8
420
  8421504
176
     1
 40
1.0
176
     1
 90
        1
176
     1
 90
        6
176
     1
 90
        2
176
     1
 62
     7
176
     1
 90
        5
176
     1
 90
        0
176
     1
 90
        0
176
     1
290
     0
176
     1
 90
        1
176
     1
 40
0.0
176
     1
 90
        0
176
     1
290
     0
176
     1
290
     1
176
     1
290
     1
176
     1
290
     0
176
     1
290
     0
176
     1
290
     0
176
     1
290
     0
176
     1
290
     0
176
     1
290
     0
176
     1
 90
       50
176
     1
 40
0.0
176
     1
 40
1.0
176
     1
 90
        0
176
     1
 62
    18
420
        0
176
     1
 90
       50
176
     1
 90
        3
176
     1
 62
     5
420
      255
176
     1
290
     0
176
     1
 90
       50
176
     1
 90
       50
176
     1
 90
       50
176
     1
290
     0
176
     1
 90
       50
176
     1
 62
   256
176
     0
 40
1.0
176
     0
 90
        2
176
     1
  1
strokes_ogs.tif
176
     1
290
     0
176
     1
 40
1.0
176
     1
 40
1.0
176
     1
  0
VISUALSTYLE
  5
3A2
102
{ACAD_REACTORS
330
399
102
}
330
399
100
AcDbVisualStyle
  2
Conceptual
 70
     9
177
     3
291
     0
 70
    58
 90
        3
176
     1
 90
        2
176
     1
 90
        0
176
     1
 90
        0
176
     1
 40
0.6
176
     1
 40
30.0
176
     1
 62
     7
420
 16777215
176
     1
 90
        2
176
     1
 90
        2
176
     1
 62
     7
176
     1
 62
   257
176
     1
 90
        1
176
     1
 90
        1
176
     1
 40
40.0
176
     1
 90
        8
176
     1
 62
     7
176
     1
 40
1.0
176
     1
 90
        1
176
     1
 90
        6
176
     1
 90
        2
176
     1
 62
     7
176
     1
 90
        3
176
     1
 90
        0
176
     1
 90
        0
176
     1
290
     0
176
     1
 90
        1
176
     1
 40
0.0
176
     1
 90
        0
176
     1
290
     0
176
     1
290
     1
176
     1
290
     1
176
     1
290
     0
176
     1
290
     0
176
     1
290
     0
176
     1
290
     0
176
     1
290
     0
176
     1
290
     0
176
     1
 90
       50
176
     1
 40
0.0
176
     1
 40
1.0
176
     1
 90
        0
176
     1
 62
    18
420
        0
176
     1
 90
       50
176
     1
 90
        3
176
     1
 62
     5
420
      255
176
     1
290
     0
176
     1
 90
       50
176
     1
 90
       50
176
     1
 90
       50
176
     1
290
     0
176
     1
 90
       50
176
     1
 62
   256
176
     0
 40
1.0
176
     0
 90
        2
176
     1
  1
strokes_ogs.tif
176
     1
290
     0
176
     1
 40
1.0
176
     1
 40
1.0
176
     1
  0
VISUALSTYLE
  5
3A4
102
{ACAD_REACTORS
330
399
102
}
330
399
100
AcDbVisualStyle
  2
Dim
 70
    11
177
     3
291
     1
 70
    58
 90
        2
176
     1
 90
        2
176
     1
 90
        0
176
     1
 90
        0
176
     1
 40
0.6
176
     1
 40
30.0
176
     1
 62
     7
420
 16777215
176
     1
 90
        1
176
     1
 90
        4
176
     1
 62
     7
176
     1
 62
   257
176
     1
 90
        1
176
     1
 90
        1
176
     1
 40
1.0
176
     1
 90
        8
176
     1
 62
     7
176
     1
 40
1.0
176
     1
 90
        1
176
     1
 90
        6
176
     1
 90
        2
176
     1
 62
     7
176
     1
 90
        5
176
     1
 90
        0
176
     1
 90
        0
176
     1
290
     0
176
     1
 90
        1
176
     1
 40
-50.0
176
     1
 90
        0
176
     1
290
     0
176
     1
290
     1
176
     1
290
     1
176
     1
290
     0
176
     1
290
     0
176
     1
290
     0
176
     1
290
     0
176
     1
290
     0
176
     1
290
     0
176
     1
 90
       50
176
     1
 40
0.0
176
     1
 40
1.0
176
     1
 90
        0
176
     1
 62
    18
420
        0
176
     1
 90
       50
176
     1
 90
        3
176
     1
 62
     5
420
      255
176
     1
290
     0
176
     1
 90
       50
176
     1
 90
       50
176
     1
 90
       50
176
     1
290
     0
176
     1
 90
       50
176
     1
 62
   256
176
     0
 40
1.0
176
     0
 90
        2
176
     1
  1
strokes_ogs.tif
176
     1
290
     0
176
     1
 40
1.0
176
     1
 40
1.0
176
     1
  0
VISUALSTYLE
  5
3DC
102
{ACAD_REACTORS
330
399
102
}
330
399
100
AcDbVisualStyle
  2
EdgeColorOff
 70
    22
177
     3
291
     1
 70
    58
 90
        2
176
     0
 90
        2
176
     0
 90
        0
176
     0
 90
        0
176
     0
 40
0.6
176
     0
 40
30.0
176
     0
 62
     7
420
 16777215
176
     0
 90
        1
176
     0
 90
        4
176
     0
 62
     7
176
     0
 62
   257
176
     0
 90
        1
176
     0
 90
        1
176
     0
 40
1.0
176
     0
 90
        8
176
     2
 62
     7
176
     0
 40
1.0
176
     0
 90
        1
176
     0
 90
        6
176
     0
 90
        2
176
     0
 62
     7
176
     0
 90
        5
176
     0
 90
        0
176
     0
 90
        0
176
     0
290
     0
176
     0
 90
        1
176
     0
 40
0.0
176
     0
 90
        0
176
     0
290
     0
176
     1
290
     1
176
     1
290
     1
176
     1
290
     0
176
     1
290
     0
176
     1
290
     0
176
     1
290
     0
176
     1
290
     0
176
     1
290
     0
176
     1
 90
       50
176
     1
 40
0.0
176
     1
 40
1.0
176
     1
 90
        0
176
     1
 62
    18
420
        0
176
     1
 90
       50
176
     1
 90
        3
176
     1
 62
     5
420
      255
176
     1
290
     0
176
     1
 90
       50
176
     1
 90
       50
176
     1
 90
       50
176
     1
290
     0
176
     1
 90
       50
176
     1
 62
   256
176
     0
 40
1.0
176
     0
 90
        2
176
     1
  1
strokes_ogs.tif
176
     1
290
     0
176
     1
 40
1.0
176
     1
 40
1.0
176
     1
  0
VISUALSTYLE
  5
3A8
102
{ACAD_REACTORS
330
399
102
}
330
399
100
AcDbVisualStyle
  2
Facepattern
 70
    15
177
     3
291
     1
 70
    58
 90
        2
176
     1
 90
        2
176
     1
 90
        0
176
     1
 90
        0
176
     1
 40
0.6
176
     1
 40
30.0
176
     1
 62
     7
420
 16777215
176
     1
 90
        1
176
     1
 90
        4
176
     1
 62
     7
176
     1
 62
   257
176
     1
 90
        1
176
     1
 90
        1
176
     1
 40
1.0
176
     1
 90
        8
176
     1
 62
     7
176
     1
 40
1.0
176
     1
 90
        1
176
     1
 90
        6
176
     1
 90
        2
176
     1
 62
     7
176
     1
 90
        5
176
     1
 90
        0
176
     1
 90
        0
176
     1
290
     0
176
     1
 90
        1
176
     1
 40
0.0
176
     1
 90
        0
176
     1
290
     0
176
     1
290
     1
176
     1
290
     1
176
     1
290
     0
176
     1
290
     0
176
     1
290
     0
176
     1
290
     0
176
     1
290
     0
176
     1
290
     0
176
     1
 90
       50
176
     1
 40
0.0
176
     1
 40
1.0
176
     1
 90
        0
176
     1
 62
    18
420
        0
176
     1
 90
       50
176
     1
 90
        3
176
     1
 62
     5
420
      255
176
     1
290
     0
176
     1
 90
       50
176
     1
 90
       50
176
     1
 90
       50
176
     1
290
     0
176
     1
 90
       50
176
     1
 62
   256
176
     0
 40
1.0
176
     0
 90
        2
176
     1
  1
strokes_ogs.tif
176
     1
290
     0
176
     1
 40
1.0
176
     1
 40
1.0
176
     1
  0
VISUALSTYLE
  5
39A
102
{ACAD_REACTORS
330
399
102
}
330
399
100
AcDbVisualStyle
  2
Flat
 70
     0
177
     3
291
     1
 70
    58
 90
        2
176
     1
 90
        1
176
     1
 90
        1
176
     1
 90
        2
176
     1
 40
0.6
176
     1
 40
30.0
176
     1
 62
     7
420
 16777215
176
     1
 90
        0
176
     1
 90
        4
176
     1
 62
     7
176
     1
 62
   257
176
     1
 90
        1
176
     1
 90
        1
176
     1
 40
1.0
176
     1
 90
        8
176
     1
 62
     7
176
     1
 40
1.0
176
     1
 90
        1
176
     1
 90
        6
176
     1
 90
        2
176
     1
 62
     7
176
     1
 90
        5
176
     1
 90
        0
176
     1
 90
        0
176
     1
290
     0
176
     1
 90
       13
176
     1
 40
0.0
176
     1
 90
        0
176
     1
290
     0
176
     1
290
     1
176
     1
290
     1
176
     1
290
     0
176
     1
290
     0
176
     1
290
     0
176
     1
290
     0
176
     1
290
     0
176
     1
290
     0
176
     1
 90
       50
176
     1
 40
0.0
176
     1
 40
1.0
176
     1
 90
        0
176
     1
 62
    18
420
        0
176
     1
 90
       50
176
     1
 90
        3
176
     1
 62
     5
420
      255
176
     1
290
     0
176
     1
 90
       50
176
     1
 90
       50
176
     1
 90
       50
176
     1
290
     0
176
     1
 90
       50
176
     1
 62
   256
176
     0
 40
1.0
176
     0
 90
        2
176
     1
  1
strokes_ogs.tif
176
     1
290
     0
176
     1
 40
1.0
176
     1
 40
1.0
176
     1
  0
VISUALSTYLE
  5
39B
102
{ACAD_REACTORS
330
399
102
}
330
399
100
AcDbVisualStyle
  2
FlatWithEdges
 70
     1
177
     3
291
     1
 70
    58
 90
        2
176
     1
 90
        1
176
     1
 90
        1
176
     1
 90
        2
176
     1
 40
0.6
176
     1
 40
30.0
176
     1
 62
     7
420
 16777215
176
     1
 90
        1
176
     1
 90
        4
176
     1
 62
     7
176
     1
 62
   257
176
     1
 90
        1
176
     1
 90
        1
176
     1
 40
1.0
176
     1
 90
        0
176
     1
 62
   257
176
     1
 40
1.0
176
     1
 90
        1
176
     1
 90
        6
176
     1
 90
        2
176
     1
 62
     7
176
     1
 90
        5
176
     1
 90
        0
176
     1
 90
        0
176
     1
290
     0
176
     1
 90
       13
176
     1
 40
0.0
176
     1
 90
        0
176
     1
290
     0
176
     1
290
     1
176
     1
290
     1
176
     1
290
     0
176
     1
290
     0
176
     1
290
     0
176
     1
290
     0
176
     1
290
     0
176
     1
290
     0
176
     1
 90
       50
176
     1
 40
0.0
176
     1
 40
1.0
176
     1
 90
        0
176
     1
 62
    18
420
        0
176
     1
 90
       50
176
     1
 90
        3
176
     1
 62
     5
420
      255
176
     1
290
     0
176
     1
 90
       50
176
     1
 90
       50
176
     1
 90
       50
176
     1
290
     0
176
     1
 90
       50
176
     1
 62
   256
176
     0
 40
1.0
176
     0
 90
        2
176
     1
  1
strokes_ogs.tif
176
     1
290
     0
176
     1
 40
1.0
176
     1
 40
1.0
176
     1
  0
VISUALSTYLE
  5
39C
102
{ACAD_REACTORS
330
399
102
}
330
399
100
AcDbVisualStyle
  2
Gouraud
 70
     2
177
     3
291
     1
 70
    58
 90
        2
176
     1
 90
        2
176
     1
 90
        1
176
     1
 90
        2
176
     1
 40
0.6
176
     1
 40
30.0
176
     1
 62
     7
420
 16777215
176
     1
 90
        0
176
     1
 90
        4
176
     1
 62
     7
176
     1
 62
   257
176
     1
 90
        1
176
     1
 90
        1
176
     1
 40
1.0
176
     1
 90
        0
176
     1
 62
     7
176
     1
 40
1.0
176
     1
 90
        1
176
     1
 90
        6
176
     1
 90
        2
176
     1
 62
     7
176
     1
 90
        5
176
     1
 90
        0
176
     1
 90
        0
176
     1
290
     0
176
     1
 90
       13
176
     1
 40
0.0
176
     1
 90
        0
176
     1
290
     0
176
     1
290
     1
176
     1
290
     1
176
     1
290
     0
176
     1
290
     0
176
     1
290
     0
176
     1
290
     0
176
     1
290
     0
176
     1
290
     0
176
     1
 90
       50
176
     1
 40
0.0
176
     1
 40
1.0
176
     1
 90
        0
176
     1
 62
    18
420
        0
176
     1
 90
       50
176
     1
 90
        3
176
     1
 62
     5
420
      255
176
     1
290
     0
176
     1
 90
       50
176
     1
 90
       50
176
     1
 90
       50
176
     1
290
     0
176
     1
 90
       50
176
     1
 62
   256
176
     0
 40
1.0
176
     0
 90
        2
176
     1
  1
strokes_ogs.tif
176
     1
290
     0
176
     1
 40
1.0
176
     1
 40
1.0
176
     1
  0
VISUALSTYLE
  5
39D
102
{ACAD_REACTORS
330
399
102
}
330
399
100
AcDbVisualStyle
  2
GouraudWithEdges
 70
     3
177
     3
291
     1
 70
    58
 90
        2
176
     1
 90
        2
176
     1
 90
        1
176
     1
 90
        2
176
     1
 40
0.6
176
     1
 40
30.0
176
     1
 62
     7
420
 16777215
176
     1
 90
        1
176
     1
 90
        4
176
     1
 62
     7
176
     1
 62
   257
176
     1
 90
        1
176
     1
 90
        1
176
     1
 40
1.0
176
     1
 90
        0
176
     1
 62
   257
176
     1
 40
1.0
176
     1
 90
        1
176
     1
 90
        6
176
     1
 90
        2
176
     1
 62
     7
176
     1
 90
        5
176
     1
 90
        0
176
     1
 90
        0
176
     1
290
     0
176
     1
 90
       13
176
     1
 40
0.0
176
     1
 90
        0
176
     1
290
     0
176
     1
290
     1
176
     1
290
     1
176
     1
290
     0
176
     1
290
     0
176
     1
290
     0
176
     1
290
     0
176
     1
290
     0
176
     1
290
     0
176
     1
 90
       50
176
     1
 40
0.0
176
     1
 40
1.0
176
     1
 90
        0
176
     1
 62
    18
420
        0
176
     1
 90
       50
176
     1
 90
        3
176
     1
 62
     5
420
      255
176
     1
290
     0
176
     1
 90
       50
176
     1
 90
       50
176
     1
 90
       50
176
     1
290
     0
176
     1
 90
       50
176
     1
 62
   256
176
     0
 40
1.0
176
     0
 90
        2
176
     1
  1
strokes_ogs.tif
176
     1
290
     0
176
     1
 40
1.0
176
     1
 40
1.0
176
     1
  0
VISUALSTYLE
  5
428
102
{ACAD_REACTORS
330
399
102
}
330
399
100
AcDbVisualStyle
  2
Hidden
 70
     6
177
     3
291
     0
 70
    58
 90
        1
176
     1
 90
        2
176
     1
 90
        2
176
     1
 90
        0
176
     1
 40
0.6
176
     1
 40
30.0
176
     1
 62
     7
420
 16777215
176
     1
 90
        2
176
     1
 90
        2
176
     1
 62
     7
176
     1
 62
   257
176
     1
 90
        2
176
     1
 90
        1
176
     1
 40
40.0
176
     1
 90
        0
176
     1
 62
   257
176
     1
 40
1.0
176
     1
 90
        1
176
     1
 90
        6
176
     1
 90
        2
176
     1
 62
     7
176
     1
 90
        3
176
     1
 90
        0
176
     1
 90
        0
176
     1
290
     0
176
     1
 90
        1
176
     1
 40
0.0
176
     1
 90
        0
176
     1
290
     0
176
     1
290
     1
176
     1
290
     1
176
     1
290
     0
176
     1
290
     0
176
     1
290
     0
176
     1
290
     0
176
     1
290
     0
176
     1
290
     0
176
     1
 90
       50
176
     1
 40
0.0
176
     1
 40
1.0
176
     1
 90
        0
176
     1
 62
    18
420
        0
176
     1
 90
       50
176
     1
 90
        3
176
     1
 62
     5
420
      255
176
     1
290
     0
176
     1
 90
       50
176
     1
 90
       50
176
     1
 90
       50
176
     1
290
     0
176
     1
 90
       50
176
     1
 62
   256
176
     0
 40
1.0
176
     0
 90
        2
176
     1
  1
strokes_ogs.tif
176
     1
290
     0
176
     1
 40
1.0
176
     1
 40
1.0
176
     1
  0
VISUALSTYLE
  5
3DA
102
{ACAD_REACTORS
330
399
102
}
330
399
100
AcDbVisualStyle
  2
JitterOff
 70
    20
177
     3
291
     1
 70
    58
 90
        2
176
     0
 90
        2
176
     0
 90
        0
176
     0
 90
        0
176
     0
 40
0.6
176
     0
 40
30.0
176
     0
 62
     7
420
 16777215
176
     0
 90
        1
176
     0
 90
        4
176
     0
 62
     7
176
     0
 62
   257
176
     0
 90
        1
176
     0
 90
        1
176
     0
 40
1.0
176
     0
 90
       10
176
     2
 62
     7
176
     0
 40
1.0
176
     0
 90
        1
176
     0
 90
        6
176
     0
 90
        2
176
     0
 62
     7
176
     0
 90
        5
176
     0
 90
        0
176
     0
 90
        0
176
     0
290
     0
176
     0
 90
        1
176
     0
 40
0.0
176
     0
 90
        0
176
     0
290
     0
176
     1
290
     1
176
     1
290
     1
176
     1
290
     0
176
     1
290
     0
176
     1
290
     0
176
     1
290
     0
176
     1
290
     0
176
     1
290
     0
176
     1
 90
       50
176
     1
 40
0.0
176
     1
 40
1.0
176
     1
 90
        0
176
     1
 62
    18
420
        0
176
     1
 90
       50
176
     1
 90
        3
176
     1
 62
     5
420
      255
176
     1
290
     0
176
     1
 90
       50
176
     1
 90
       50
176
     1
 90
       50
176
     1
290
     0
176
     1
 90
       50
176
     1
 62
   256
176
     0
 40
1.0
176
     0
 90
        2
176
     1
  1
strokes_ogs.tif
176
     1
290
     0
176
     1
 40
1.0
176
     1
 40
1.0
176
     1
  0
VISUALSTYLE
  5
3A7
102
{ACAD_REACTORS
330
399
102
}
330
399
100
AcDbVisualStyle
  2
Linepattern
 70
    14
177
     3
291
     1
 70
    58
 90
        2
176
     1
 90
        2
176
     1
 90
        0
176
     1
 90
        0
176
     1
 40
0.6
176
     1
 40
30.0
176
     1
 62
     7
420
 16777215
176
     1
 90
        1
176
     1
 90
        4
176
     1
 62
     7
176
     1
 62
   257
176
     1
 90
        7
176
     1
 90
        7
176
     1
 40
1.0
176
     1
 90
        8
176
     1
 62
     7
176
     1
 40
1.0
176
     1
 90
        1
176
     1
 90
        6
176
     1
 90
        2
176
     1
 62
     7
176
     1
 90
        5
176
     1
 90
        0
176
     1
 90
        0
176
     1
290
     0
176
     1
 90
        1
176
     1
 40
0.0
176
     1
 90
        0
176
     1
290
     0
176
     1
290
     1
176
     1
290
     1
176
     1
290
     0
176
     1
290
     0
176
     1
290
     0
176
     1
290
     0
176
     1
290
     0
176
     1
290
     0
176
     1
 90
       50
176
     1
 40
0.0
176
     1
 40
1.0
176
     1
 90
        0
176
     1
 62
    18
420
        0
176
     1
 90
       50
176
     1
 90
        3
176
     1
 62
     5
420
      255
176
     1
290
     0
176
     1
 90
       50
176
     1
 90
       50
176
     1
 90
       50
176
     1
290
     0
176
     1
 90
       50
176
     1
 62
   256
176
     0
 40
1.0
176
     0
 90
        2
176
     1
  1
strokes_ogs.tif
176
     1
290
     0
176
     1
 40
1.0
176
     1
 40
1.0
176
     1
  0
VISUALSTYLE
  5
3DB
102
{ACAD_REACTORS
330
399
102
}
330
399
100
AcDbVisualStyle
  2
OverhangOff
 70
    21
177
     3
291
     1
 70
    58
 90
        2
176
     0
 90
        2
176
     0
 90
        0
176
     0
 90
        0
176
     0
 40
0.6
176
     0
 40
30.0
176
     0
 62
     7
420
 16777215
176
     0
 90
        1
176
     0
 90
        4
176
     0
 62
     7
176
     0
 62
   257
176
     0
 90
        1
176
     0
 90
        1
176
     0
 40
1.0
176
     0
 90
        9
176
     2
 62
     7
176
     0
 40
1.0
176
     0
 90
        1
176
     0
 90
        6
176
     0
 90
        2
176
     0
 62
     7
176
     0
 90
        5
176
     0
 90
        0
176
     0
 90
        0
176
     0
290
     0
176
     0
 90
        1
176
     0
 40
0.0
176
     0
 90
        0
176
     0
290
     0
176
     1
290
     1
176
     1
290
     1
176
     1
290
     0
176
     1
290
     0
176
     1
290
     0
176
     1
290
     0
176
     1
290
     0
176
     1
290
     0
176
     1
 90
       50
176
     1
 40
0.0
176
     1
 40
1.0
176
     1
 90
        0
176
     1
 62
    18
420
        0
176
     1
 90
       50
176
     1
 90
        3
176
     1
 62
     5
420
      255
176
     1
290
     0
176
     1
 90
       50
176
     1
 90
       50
176
     1
 90
       50
176
     1
290
     0
176
     1
 90
       50
176
     1
 62
   256
176
     0
 40
1.0
176
     0
 90
        2
176
     1
  1
strokes_ogs.tif
176
     1
290
     0
176
     1
 40
1.0
176
     1
 40
1.0
176
     1
  0
VISUALSTYLE
  5
3A3
102
{ACAD_REACTORS
330
399
102
}
330
399
100
AcDbVisualStyle
  2
Realistic
 70
     8
177
     3
291
     0
 70
    58
 90
        2
176
     1
 90
        2
176
     1
 90
        0
176
     1
 90
        0
176
     1
 40
0.6
176
     1
 40
30.0
176
     1
 62
     7
420
 16777215
176
     1
 90
        1
176
     1
 90
        0
176
     1
 62
     7
176
     1
 62
   257
176
     1
 90
        1
176
     1
 90
        1
176
     1
 40
1.0
176
     1
 90
        8
176
     1
 62
     8
420
  7895160
176
     1
 40
1.0
176
     1
 90
        1
176
     1
 90
        6
176
     1
 90
        2
176
     1
 62
     7
176
     1
 90
        5
176
     1
 90
        0
176
     1
 90
        0
176
     1
290
     0
176
     1
 90
       13
176
     1
 40
0.0
176
     1
 90
        0
176
     1
290
     0
176
     1
290
     1
176
     1
290
     1
176
     1
290
     0
176
     1
290
     0
176
     1
290
     0
176
     1
290
     0
176
     1
290
     0
176
     1
290
     0
176
     1
 90
       50
176
     1
 40
0.0
176
     1
 40
1.0
176
     1
 90
        0
176
     1
 62
    18
420
        0
176
     1
 90
       50
176
     1
 90
        3
176
     1
 62
     5
420
      255
176
     1
290
     0
176
     1
 90
       50
176
     1
 90
       50
176
     1
 90
       50
176
     1
290
     0
176
     1
 90
       50
176
     1
 62
   256
176
     0
 40
1.0
176
     0
 90
        2
176
     1
  1
strokes_ogs.tif
176
     1
290
     0
176
     1
 40
1.0
176
     1
 40
1.0
176
     1
  0
VISUALSTYLE
  5
42D
102
{ACAD_REACTORS
330
399
102
}
330
399
100
AcDbVisualStyle
  2
Shaded
 70
    27
177
     3
291
     0
 70
    58
 90
        2
176
     1
 90
        2
176
     1
 90
        1
176
     1
 90
        2
176
     1
 40
0.6
176
     1
 40
30.0
176
     1
 62
     7
420
 16777215
176
     1
 90
        0
176
     1
 90
        4
176
     1
 62
     7
176
     1
 62
   257
176
     1
 90
        1
176
     1
 90
        1
176
     1
 40
1.0
176
     1
 90
        8
176
     1
 62
   257
176
     1
 40
1.0
176
     1
 90
        1
176
     1
 90
        6
176
     1
 90
        2
176
     1
 62
     8
420
  7895160
176
     1
 90
        3
176
     1
 90
        0
176
     1
 90
        0
176
     1
290
     0
176
     1
 90
        5
176
     1
 40
0.0
176
     1
 90
        0
176
     1
290
     0
176
     1
290
     1
176
     1
290
     1
176
     1
290
     0
176
     1
290
     0
176
     1
290
     0
176
     1
290
     0
176
     1
290
     0
176
     1
290
     0
176
     1
 90
       50
176
     1
 40
0.0
176
     1
 40
1.0
176
     1
 90
        0
176
     1
 62
    18
420
        0
176
     1
 90
       50
176
     1
 90
        3
176
     1
 62
     5
420
      255
176
     1
290
     0
176
     1
 90
       50
176
     1
 90
       50
176
     1
 90
       50
176
     1
290
     0
176
     1
 90
       50
176
     1
 62
   256
176
     0
 40
1.0
176
     0
 90
        2
176
     1
  1
strokes_ogs.tif
176
     1
290
     0
176
     1
 40
1.0
176
     1
 40
1.0
176
     1
  0
VISUALSTYLE
  5
42C
102
{ACAD_REACTORS
330
399
102
}
330
399
100
AcDbVisualStyle
  2
Shaded with edges
 70
    26
177
     3
291
     0
 70
    58
 90
        2
176
     1
 90
        2
176
     1
 90
        1
176
     1
 90
        2
176
     1
 40
0.6
176
     1
 40
30.0
176
     1
 62
     7
420
 16777215
176
     1
 90
        1
176
     1
 90
        2
176
     1
 62
     7
176
     1
 62
   257
176
     1
 90
        2
176
     1
 90
        1
176
     1
 40
1.0
176
     1
 90
        8
176
     1
 62
   257
176
     1
 40
1.0
176
     1
 90
        1
176
     1
 90
        6
176
     1
 90
        2
176
     1
 62
     7
176
     1
 90
        3
176
     1
 90
        0
176
     1
 90
        0
176
     1
290
     0
176
     1
 90
        5
176
     1
 40
0.0
176
     1
 90
        0
176
     1
290
     0
176
     1
290
     1
176
     1
290
     1
176
     1
290
     0
176
     1
290
     0
176
     1
290
     0
176
     1
290
     0
176
     1
290
     0
176
     1
290
     0
176
     1
 90
       50
176
     1
 40
0.0
176
     1
 40
1.0
176
     1
 90
        0
176
     1
 62
    18
420
        0
176
     1
 90
       50
176
     1
 90
        3
176
     1
 62
     5
420
      255
176
     1
290
     0
176
     1
 90
       50
176
     1
 90
       50
176
     1
 90
       50
176
     1
290
     0
176
     1
 90
       50
176
     1
 62
   256
176
     0
 40
1.0
176
     0
 90
        2
176
     1
  1
strokes_ogs.tif
176
     1
290
     0
176
     1
 40
1.0
176
     1
 40
1.0
176
     1
  0
VISUALSTYLE
  5
429
102
{ACAD_REACTORS
330
399
102
}
330
399
100
AcDbVisualStyle
  2
Shades of Gray
 70
    23
177
     3
291
     0
 70
    58
 90
        2
176
     1
 90
        2
176
     1
 90
        3
176
     1
 90
        0
176
     1
 40
0.6
176
     1
 40
30.0
176
     1
 62
     7
420
 16777215
176
     1
 90
        2
176
     1
 90
        2
176
     1
 62
     7
176
     1
 62
     7
176
     1
 90
        1
176
     1
 90
        1
176
     1
 40
40.0
176
     1
 90
        8
176
     1
 62
     7
176
     1
 40
1.0
176
     1
 90
        1
176
     1
 90
        6
176
     1
 90
        2
176
     1
 62
     7
176
     1
 90
        3
176
     1
 90
        0
176
     1
 90
        0
176
     1
290
     0
176
     1
 90
        1
176
     1
 40
0.0
176
     1
 90
        0
176
     1
290
     0
176
     1
290
     1
176
     1
290
     1
176
     1
290
     0
176
     1
290
     0
176
     1
290
     0
176
     1
290
     0
176
     1
290
     0
176
     1
290
     0
176
     1
 90
       50
176
     1
 40
0.0
176
     1
 40
1.0
176
     1
 90
        0
176
     1
 62
    18
420
        0
176
     1
 90
       50
176
     1
 90
        3
176
     1
 62
     5
420
      255
176
     1
290
     0
176
     1
 90
       50
176
     1
 90
       50
176
     1
 90
       50
176
     1
290
     0
176
     1
 90
       50
176
     1
 62
   256
176
     0
 40
1.0
176
     0
 90
        2
176
     1
  1
strokes_ogs.tif
176
     1
290
     0
176
     1
 40
1.0
176
     1
 40
1.0
176
     1
  0
VISUALSTYLE
  5
42A
102
{ACAD_REACTORS
330
399
102
}
330
399
100
AcDbVisualStyle
  2
Sketchy
 70
    24
177
     3
291
     0
 70
    58
 90
        1
176
     1
 90
        2
176
     1
 90
        2
176
     1
 90
        0
176
     1
 40
0.6
176
     1
 40
30.0
176
     1
 62
     7
420
 16777215
176
     1
 90
        2
176
     1
 90
        2
176
     1
 62
     7
176
     1
 62
     7
176
     1
 90
        1
176
     1
 90
        1
176
     1
 40
40.0
176
     1
 90
       11
176
     1
 62
     7
176
     1
 40
1.0
176
     1
 90
        1
176
     1
 90
        6
176
     1
 90
        2
176
     1
 62
     7
176
     1
 90
        6
176
     1
 90
        0
176
     1
 90
        0
176
     1
290
     0
176
     1
 90
        1
176
     1
 40
0.0
176
     1
 90
        0
176
     1
290
     0
176
     1
290
     1
176
     1
290
     1
176
     1
290
     0
176
     1
290
     0
176
     1
290
     0
176
     1
290
     0
176
     1
290
     0
176
     1
290
     0
176
     1
 90
       50
176
     1
 40
0.0
176
     1
 40
1.0
176
     1
 90
        0
176
     1
 62
    18
420
        0
176
     1
 90
       50
176
     1
 90
        3
176
     1
 62
     5
420
      255
176
     1
290
     0
176
     1
 90
       50
176
     1
 90
       50
176
     1
 90
       50
176
     1
290
     0
176
     1
 90
       50
176
     1
 62
   256
176
     0
 40
1.0
176
     0
 90
        2
176
     1
  1
strokes_ogs.tif
176
     1
290
     0
176
     1
 40
1.0
176
     1
 40
1.0
176
     1
  0
VISUALSTYLE
  5
3A6
102
{ACAD_REACTORS
330
399
102
}
330
399
100
AcDbVisualStyle
  2
Thicken
 70
    13
177
     3
291
     1
 70
    58
 90
        2
176
     1
 90
        2
176
     1
 90
        0
176
     1
 90
        0
176
     1
 40
0.6
176
     1
 40
30.0
176
     1
 62
     7
420
 16777215
176
     1
 90
        1
176
     1
 90
        4
176
     1
 62
     7
176
     1
 62
   257
176
     1
 90
        1
176
     1
 90
        1
176
     1
 40
1.0
176
     1
 90
       12
176
     1
 62
     7
176
     1
 40
1.0
176
     1
 90
        1
176
     1
 90
        6
176
     1
 90
        2
176
     1
 62
     7
176
     1
 90
        5
176
     1
 90
        0
176
     1
 90
        0
176
     1
290
     0
176
     1
 90
        1
176
     1
 40
0.0
176
     1
 90
        0
176
     1
290
     0
176
     1
290
     1
176
     1
290
     1
176
     1
290
     0
176
     1
290
     0
176
     1
290
     0
176
     1
290
     0
176
     1
290
     0
176
     1
290
     0
176
     1
 90
       50
176
     1
 40
0.0
176
     1
 40
1.0
176
     1
 90
        0
176
     1
 62
    18
420
        0
176
     1
 90
       50
176
     1
 90
        3
176
     1
 62
     5
420
      255
176
     1
290
     0
176
     1
 90
       50
176
     1
 90
       50
176
     1
 90
       50
176
     1
290
     0
176
     1
 90
       50
176
     1
 62
   256
176
     0
 40
1.0
176
     0
 90
        2
176
     1
  1
strokes_ogs.tif
176
     1
290
     0
176
     1
 40
1.0
176
     1
 40
1.0
176
     1
  0
VISUALSTYLE
  5
427
102
{ACAD_REACTORS
330
399
102
}
330
399
100
AcDbVisualStyle
  2
Wireframe
 70
     5
177
     3
291
     0
 70
    58
 90
        0
176
     1
 90
        2
176
     1
 90
        0
176
     1
 90
        0
176
     1
 40
0.6
176
     1
 40
30.0
176
     1
 62
     7
420
 16777215
176
     1
 90
        1
176
     1
 90
        4
176
     1
 62
     7
176
     1
 62
   257
176
     1
 90
        1
176
     1
 90
        1
176
     1
 40
1.0
176
     1
 90
        0
176
     1
 62
   257
176
     1
 40
1.0
176
     1
 90
        1
176
     1
 90
        6
176
     1
 90
        2
176
     1
 62
     7
176
     1
 90
        3
176
     1
 90
        0
176
     1
 90
        0
176
     1
290
     0
176
     1
 90
        1
176
     1
 40
0.0
176
     1
 90
        0
176
     1
290
     0
176
     1
290
     1
176
     1
290
     1
176
     1
290
     0
176
     1
290
     0
176
     1
290
     0
176
     1
290
     0
176
     1
290
     0
176
     1
290
     0
176
     1
 90
       50
176
     1
 40
0.0
176
     1
 40
1.0
176
     1
 90
        0
176
     1
 62
    18
420
        0
176
     1
 90
       50
176
     1
 90
        3
176
     1
 62
     5
420
      255
176
     1
290
     0
176
     1
 90
       50
176
     1
 90
       50
176
     1
 90
       50
176
     1
290
     0
176
     1
 90
       50
176
     1
 62
   256
176
     0
 40
1.0
176
     0
 90
        2
176
     1
  1
strokes_ogs.tif
176
     1
290
     0
176
     1
 40
1.0
176
     1
 40
1.0
176
     1
  0
VISUALSTYLE
  5
42B
102
{ACAD_REACTORS
330
399
102
}
330
399
100
AcDbVisualStyle
  2
X-Ray
 70
    25
177
     3
291
     0
 70
    58
 90
        2
176
     1
 90
        2
176
     1
 90
        1
176
     1
 90
        1
176
     1
 40
0.5
176
     1
 40
30.0
176
     1
 62
     7
420
 16777215
176
     1
 90
        1
176
     1
 90
        0
176
     1
 62
     7
176
     1
 62
   257
176
     1
 90
        1
176
     1
 90
        1
176
     1
 40
1.0
176
     1
 90
        8
176
     1
 62
     7
176
     1
 40
1.0
176
     1
 90
        1
176
     1
 90
        6
176
     1
 90
        2
176
     1
 62
     7
176
     1
 90
        3
176
     1
 90
        0
176
     1
 90
        0
176
     1
290
     0
176
     1
 90
       13
176
     1
 40
0.0
176
     1
 90
        0
176
     1
290
     0
176
     1
290
     1
176
     1
290
     1
176
     1
290
     0
176
     1
290
     0
176
     1
290
     0
176
     1
290
     0
176
     1
290
     0
176
     1
290
     0
176
     1
 90
       50
176
     1
 40
0.0
176
     1
 40
1.0
176
     1
 90
        0
176
     1
 62
    18
420
        0
176
     1
 90
       50
176
     1
 90
        3
176
     1
 62
     5
420
      255
176
     1
290
     0
176
     1
 90
       50
176
     1
 90
       50
176
     1
 90
       50
176
     1
290
     0
176
     1
 90
       50
176
     1
 62
   256
176
     0
 40
1.0
176
     0
 90
        2
176
     1
  1
strokes_ogs.tif
176
     1
290
     0
176
     1
 40
1.0
176
     1
 40
1.0
176
     1
  0
DICTIONARYVAR
  5
3D8
102
{ACAD_REACTORS
330
3D5
102
}
330
3D5
100
DictionaryVariables
280
     0
  1
1:1
  0
DICTIONARYVAR
  5
3D7
102
{ACAD_REACTORS
330
3D5
102
}
330
3D5
100
DictionaryVariables
280
     0
  1
STANDARD
  0
DICTIONARYVAR
  5
3D6
102
{ACAD_REACTORS
330
3D5
102
}
330
3D5
100
DictionaryVariables
280
     0
  1
STANDARD
  0
DICTIONARYVAR
  5
43F
102
{ACAD_REACTORS
330
3D5
102
}
330
3D5
100
DictionaryVariables
280
     0
  1
Metric50
  0
DICTIONARYVAR
  5
440
102
{ACAD_REACTORS
330
3D5
102
}
330
3D5
100
DictionaryVariables
280
     0
  1
Metric50
  0
DICTIONARYVAR
  5
424
102
{ACAD_REACTORS
330
3D5
102
}
330
3D5
100
DictionaryVariables
280
     0
  1
1
  0
DICTIONARYVAR
  5
425
102
{ACAD_REACTORS
330
3D5
102
}
330
3D5
100
DictionaryVariables
280
     0
  1
15
  0
VLO-VL
  5
3E2
102
{ACAD_REACTORS
330
3E1
102
}
330
3E1
100
vlo_VL
 90
   -64512
 91
       12
 92
        1
 40
2.5
300
(&VLO-R . 0)
  0
DICTIONARY
  5
444
330
431
100
AcDbDictionary
280
     1
281
     1
  3
ACAD_XREC_ROUNDTRIP
360
445
  0
DICTIONARY
  5
422
330
37C
100
AcDbDictionary
280
     1
281
     1
  0
DICTIONARY
  5
38A
330
389
100
AcDbDictionary
280
     1
281
     1
  3
BUMPTILE
360
38C
  3
DIFFUSETILE
360
38B
  3
OPACITYTILE
360
38F
  3
REFLECTIONTILE
360
38E
  3
REFRACTIONTILE
360
390
  3
SPECULARTILE
360
38D
  0
DICTIONARY
  5
382
330
381
100
AcDbDictionary
280
     1
281
     1
  3
BUMPTILE
360
384
  3
DIFFUSETILE
360
383
  3
OPACITYTILE
360
387
  3
REFLECTIONTILE
360
386
  3
REFRACTIONTILE
360
388
  3
SPECULARTILE
360
385
  0
DICTIONARY
  5
392
330
391
100
AcDbDictionary
280
     1
281
     1
  3
BUMPTILE
360
394
  3
DIFFUSETILE
360
393
  3
OPACITYTILE
360
397
  3
REFLECTIONTILE
360
396
  3
REFRACTIONTILE
360
398
  3
SPECULARTILE
360
395
  0
DICTIONARY
  5
442
330
42F
100
AcDbDictionary
280
     1
281
     1
  3
ACAD_XREC_ROUNDTRIP
360
443
  0
DICTIONARY
  5
3D2
330
3AC
100
AcDbDictionary
280
     1
281
     1
  3
ACAD_ROUNDTRIP_2008_TABLESTYLE_CELLSTYLEMAP
360
441
  0
XRECORD
  5
445
102
{ACAD_REACTORS
330
444
102
}
330
444
100
AcDbXrecord
280
     1
102
DISPLAYNAME
  1
Metric50
102
FLAGS
 90
        0
  0
XRECORD
  5
38C
102
{ACAD_REACTORS
330
38A
102
}
330
38A
100
AcDbXrecord
280
     1
270
     1
271
     1
  0
XRECORD
  5
38B
102
{ACAD_REACTORS
330
38A
102
}
330
38A
100
AcDbXrecord
280
     1
270
     1
271
     1
  0
XRECORD
  5
38F
102
{ACAD_REACTORS
330
38A
102
}
330
38A
100
AcDbXrecord
280
     1
270
     1
271
     1
  0
XRECORD
  5
38E
102
{ACAD_REACTORS
330
38A
102
}
330
38A
100
AcDbXrecord
280
     1
270
     1
271
     1
  0
XRECORD
  5
390
102
{ACAD_REACTORS
330
38A
102
}
330
38A
100
AcDbXrecord
280
     1
270
     1
271
     1
  0
XRECORD
  5
38D
102
{ACAD_REACTORS
330
38A
102
}
330
38A
100
AcDbXrecord
280
     1
270
     1
271
     1
  0
XRECORD
  5
384
102
{ACAD_REACTORS
330
382
102
}
330
382
100
AcDbXrecord
280
     1
270
     1
271
     1
  0
XRECORD
  5
383
102
{ACAD_REACTORS
330
382
102
}
330
382
100
AcDbXrecord
280
     1
270
     1
271
     1
  0
XRECORD
  5
387
102
{ACAD_REACTORS
330
382
102
}
330
382
100
AcDbXrecord
280
     1
270
     1
271
     1
  0
XRECORD
  5
386
102
{ACAD_REACTORS
330
382
102
}
330
382
100
AcDbXrecord
280
     1
270
     1
271
     1
  0
XRECORD
  5
388
102
{ACAD_REACTORS
330
382
102
}
330
382
100
AcDbXrecord
280
     1
270
     1
271
     1
  0
XRECORD
  5
385
102
{ACAD_REACTORS
330
382
102
}
330
382
100
AcDbXrecord
280
     1
270
     1
271
     1
  0
XRECORD
  5
394
102
{ACAD_REACTORS
330
392
102
}
330
392
100
AcDbXrecord
280
     1
270
     1
271
     1
  0
XRECORD
  5
393
102
{ACAD_REACTORS
330
392
102
}
330
392
100
AcDbXrecord
280
     1
270
     1
271
     1
  0
XRECORD
  5
397
102
{ACAD_REACTORS
330
392
102
}
330
392
100
AcDbXrecord
280
     1
270
     1
271
     1
  0
XRECORD
  5
396
102
{ACAD_REACTORS
330
392
102
}
330
392
100
AcDbXrecord
280
     1
270
     1
271
     1
  0
XRECORD
  5
398
102
{ACAD_REACTORS
330
392
102
}
330
392
100
AcDbXrecord
280
     1
270
     1
271
     1
  0
XRECORD
  5
395
102
{ACAD_REACTORS
330
392
102
}
330
392
100
AcDbXrecord
280
     1
270
     1
271
     1
  0
XRECORD
  5
443
102
{ACAD_REACTORS
330
442
102
}
330
442
100
AcDbXrecord
280
     1
102
DISPLAYNAME
  1
Metric50
102
FLAGS
 90
        0
  0
CELLSTYLEMAP
  5
441
102
{ACAD_REACTORS
330
3D2
102
}
330
3D2
100
AcDbCellStyleMap
 90
        3
300
CELLSTYLE
  1
TABLEFORMAT_BEGIN
 90
        5
170
     1
 91
        0
 92
    32768
 62
   257
 93
        1
300
CONTENTFORMAT
  1
CONTENTFORMAT_BEGIN
 90
        0
 91
        0
 92
      512
 93
        0
300

 40
0.0
140
1.0
 94
        5
 62
     0
340
11
144
6.0
309
CONTENTFORMAT_END
171
     1
301
MARGIN
  1
CELLMARGIN_BEGIN
 40
1.5
 40
1.5
 40
1.5
 40
1.5
 40
4.5
 40
4.5
309
CELLMARGIN_END
 94
        6
 95
        1
302
GRIDFORMAT
  1
GRIDFORMAT_BEGIN
 90
        0
 91
        1
 62
     0
 92
       -2
340
0
 93
        0
 40
1.125
309
GRIDFORMAT_END
 95
        2
302
GRIDFORMAT
  1
GRIDFORMAT_BEGIN
 90
        0
 91
        1
 62
     0
 92
       -2
340
0
 93
        0
 40
1.125
309
GRIDFORMAT_END
 95
        4
302
GRIDFORMAT
  1
GRIDFORMAT_BEGIN
 90
        0
 91
        1
 62
     0
 92
       -2
340
0
 93
        0
 40
1.125
309
GRIDFORMAT_END
 95
        8
302
GRIDFORMAT
  1
GRIDFORMAT_BEGIN
 90
        0
 91
        1
 62
     0
 92
       -2
340
0
 93
        0
 40
1.125
309
GRIDFORMAT_END
 95
       16
302
GRIDFORMAT
  1
GRIDFORMAT_BEGIN
 90
        0
 91
        1
 62
     0
 92
       -2
340
0
 93
        0
 40
1.125
309
GRIDFORMAT_END
 95
       32
302
GRIDFORMAT
  1
GRIDFORMAT_BEGIN
 90
        0
 91
        1
 62
     0
 92
       -2
340
0
 93
        0
 40
1.125
309
GRIDFORMAT_END
309
TABLEFORMAT_END
  1
CELLSTYLE_BEGIN
 90
        1
 91
        1
300
_TITLE
309
CELLSTYLE_END
300
CELLSTYLE
  1
TABLEFORMAT_BEGIN
 90
        5
170
     1
 91
        0
 92
        0
 62
   257
 93
        1
300
CONTENTFORMAT
  1
CONTENTFORMAT_BEGIN
 90
        0
 91
        0
 92
      512
 93
        0
300

 40
0.0
140
1.0
 94
        5
 62
     0
340
11
144
4.5
309
CONTENTFORMAT_END
171
     1
301
MARGIN
  1
CELLMARGIN_BEGIN
 40
1.5
 40
1.5
 40
1.5
 40
1.5
 40
4.5
 40
4.5
309
CELLMARGIN_END
 94
        6
 95
        1
302
GRIDFORMAT
  1
GRIDFORMAT_BEGIN
 90
        0
 91
        1
 62
     0
 92
       -2
340
0
 93
        0
 40
1.125
309
GRIDFORMAT_END
 95
        2
302
GRIDFORMAT
  1
GRIDFORMAT_BEGIN
 90
        0
 91
        1
 62
     0
 92
       -2
340
0
 93
        0
 40
1.125
309
GRIDFORMAT_END
 95
        4
302
GRIDFORMAT
  1
GRIDFORMAT_BEGIN
 90
        0
 91
        1
 62
     0
 92
       -2
340
0
 93
        0
 40
1.125
309
GRIDFORMAT_END
 95
        8
302
GRIDFORMAT
  1
GRIDFORMAT_BEGIN
 90
        0
 91
        1
 62
     0
 92
       -2
340
0
 93
        0
 40
1.125
309
GRIDFORMAT_END
 95
       16
302
GRIDFORMAT
  1
GRIDFORMAT_BEGIN
 90
        0
 91
        1
 62
     0
 92
       -2
340
0
 93
        0
 40
1.125
309
GRIDFORMAT_END
 95
       32
302
GRIDFORMAT
  1
GRIDFORMAT_BEGIN
 90
        0
 91
        1
 62
     0
 92
       -2
340
0
 93
        0
 40
1.125
309
GRIDFORMAT_END
309
TABLEFORMAT_END
  1
CELLSTYLE_BEGIN
 90
        2
 91
        1
300
_HEADER
309
CELLSTYLE_END
300
CELLSTYLE
  1
TABLEFORMAT_BEGIN
 90
        5
170
     1
 91
        0
 92
        0
 62
   257
 93
        1
300
CONTENTFORMAT
  1
CONTENTFORMAT_BEGIN
 90
        0
 91
        0
 92
      512
 93
        0
300

 40
0.0
140
1.0
 94
        2
 62
     0
340
11
144
4.5
309
CONTENTFORMAT_END
171
     1
301
MARGIN
  1
CELLMARGIN_BEGIN
 40
1.5
 40
1.5
 40
1.5
 40
1.5
 40
4.5
 40
4.5
309
CELLMARGIN_END
 94
        6
 95
        1
302
GRIDFORMAT
  1
GRIDFORMAT_BEGIN
 90
        0
 91
        1
 62
     0
 92
       -2
340
0
 93
        0
 40
1.125
309
GRIDFORMAT_END
 95
        2
302
GRIDFORMAT
  1
GRIDFORMAT_BEGIN
 90
        0
 91
        1
 62
     0
 92
       -2
340
0
 93
        0
 40
1.125
309
GRIDFORMAT_END
 95
        4
302
GRIDFORMAT
  1
GRIDFORMAT_BEGIN
 90
        0
 91
        1
 62
     0
 92
       -2
340
0
 93
        0
 40
1.125
309
GRIDFORMAT_END
 95
        8
302
GRIDFORMAT
  1
GRIDFORMAT_BEGIN
 90
        0
 91
        1
 62
     0
 92
       -2
340
0
 93
        0
 40
1.125
309
GRIDFORMAT_END
 95
       16
302
GRIDFORMAT
  1
GRIDFORMAT_BEGIN
 90
        0
 91
        1
 62
     0
 92
       -2
340
0
 93
        0
 40
1.125
309
GRIDFORMAT_END
 95
       32
302
GRIDFORMAT
  1
GRIDFORMAT_BEGIN
 90
        0
 91
        1
 62
     0
 92
       -2
340
0
 93
        0
 40
1.125
309
GRIDFORMAT_END
309
TABLEFORMAT_END
  1
CELLSTYLE_BEGIN
 90
        3
 91
        2
300
_DATA
309
CELLSTYLE_END
  0
ENDSEC
  0
SECTION
  2
ACDSDATA
 70
     2
 71
     8
  0
ACDSSCHEMA
 90
        0
  1
AcDb_Thumbnail_Schema
  2
AcDbDs::ID
280
    10
 91
        8
  2
Thumbnail_Data
280
    15
 91
        0
101
ACDSRECORD
 95
        0
 90
        1
  2
AcDbDs::TreatedAsObjectData
280
     1
291
     1
101
ACDSRECORD
 95
        0
 90
        2
  2
AcDbDs::Legacy
280
     1
291
     1
101
ACDSRECORD
  1
AcDbDs::ID
 90
        3
  2
AcDs:Indexable
280
     1
291
     1
101
ACDSRECORD
  1
AcDbDs::ID
 90
        4
  2
AcDbDs::HandleAttribute
280
     7
282
     1
  0
ACDSSCHEMA
 90
        1
  1
AcDbDs::TreatedAsObjectDataSchema
  2
AcDbDs::TreatedAsObjectData
280
     1
 91
        0
  0
ACDSSCHEMA
 90
        2
  1
AcDbDs::LegacySchema
  2
AcDbDs::Legacy
280
     1
 91
        0
  0
ACDSSCHEMA
 90
        3
  1
AcDbDs::IndexedPropertySchema
  2
AcDs:Indexable
280
     1
 91
        0
  0
ACDSSCHEMA
 90
        4
  1
AcDbDs::HandleAttributeSchema
  2
AcDbDs::HandleAttribute
280
     7
 91
        1
284
     1
  0
ACDSRECORD
 90
        0
  2
AcDbDs::ID
280
    10
320
37C
  2
Thumbnail_Data
280
    15
 94
     1765
310
89504E470D0A1A0A0000000D4948445200000100000000A408030000004F56001800000300504C5445000000000000FFFFFF0000000000000000000000000000000000000000000000000000330000660000990000CC0000FF0033000033330033660033990033CC0033FF0066000066330066660066990066CC0066FF0099
310
000099330099660099990099CC0099FF00CC0000CC3300CC6600CC9900CCCC00CCFF00FF0000FF3300FF6600FF9900FFCC00FFFF3300003300333300663300993300CC3300FF3333003333333333663333993333CC3333FF3366003366333366663366993366CC3366FF3399003399333399663399993399CC3399FF33CC00
310
33CC3333CC6633CC9933CCCC33CCFF33FF0033FF3333FF6633FF9933FFCC33FFFF6600006600336600666600996600CC6600FF6633006633336633666633996633CC6633FF6666006666336666666666996666CC6666FF6699006699336699666699996699CC6699FF66CC0066CC3366CC6666CC9966CCCC66CCFF66FF0066
310
FF3366FF6666FF9966FFCC66FFFF9900009900339900669900999900CC9900FF9933009933339933669933999933CC9933FF9966009966339966669966999966CC9966FF9999009999339999669999999999CC9999FF99CC0099CC3399CC6699CC9999CCCC99CCFF99FF0099FF3399FF6699FF9999FFCC99FFFFCC0000CC00
310
33CC0066CC0099CC00CCCC00FFCC3300CC3333CC3366CC3399CC33CCCC33FFCC6600CC6633CC6666CC6699CC66CCCC66FFCC9900CC9933CC9966CC9999CC99CCCC99FFCCCC00CCCC33CCCC66CCCC99CCCCCCCCCCFFCCFF00CCFF33CCFF66CCFF99CCFFCCCCFFFFFF0000FF0033FF0066FF0099FF00CCFF00FFFF3300FF3333
310
FF3366FF3399FF33CCFF33FFFF6600FF6633FF6666FF6699FF66CCFF66FFFF9900FF9933FF9966FF9999FF99CCFF99FFFFCC00FFCC33FFCC66FFCC99FFCCCCFFCCFFFFFF00FFFF33FFFF66FFFF99FFFFCCFFFFFF0000000D0D0D1A1A1A2828283535354343435050505D5D5D6B6B6B787878868686939393A1A1A1AEAEAEBB
310
BBBBC9C9C9D6D6D6E4E4E4F1F1F1FFFFFF000000000000000000000000000000000000000000000000000000000000C11FEF66000003A04944415478DAEDDA5B6EE3300C4051EF7F99DC03FF0B3469AC07F5702C45547303CC4F8341CB438AA2641FF2E59F0300000000000000000000000000000000000000000000000000
310
0000000000000000000000000000000000000000000000000000000000000000967D54F59B017EA39F63706C90FA33F009065B004864F06D4BE019FC6930B60C76E801FA5A0A130CB6007884FEF837DA609325F0E80432612D1CEE737F066A6C06F7090EFFC1E7C16AD010EE96C1E1BDEEC390439720F65B0687F7BA0F1D34
310
ED07030C0EFFA937BFD1EC94F0A6C1B14FEAD5EA077197D48D0192D46B29F5C1E92004CBE6C5AD008CD4272781AC28CE7690F403BD6870B8095E3BEADEFC2688FF69B00F40BDEEB595FAD7C27FED8D2AFB0074D4BD5514927E13ED8D970B6015C0A5D4575854E3A950760048529FCD7BA5D427DFFC75C0ECBEC837409EFA9E
310
E0CDD4673D225953FE00AAA9B7EB3E4D7DB02D161BA4CF3940DF4C7D5AF79559D9F159A0DAF25A759FA6DE9A093D035C6A79E5BA57B1EAFE1C039D020CAA7B3552FFDBEE5D030C4A7DB6DB05FFCF314072787F23F5DA6E795E01F2D44BABE519D14BA9E5053F580C60B560BD927AE9487DF2BB821BC1C500D605C4ADBA6FA5
310
5E25BB035259B50DE67F734FDD6BBBEECBA917D360550518534A2DF572A1EED51E988C3938698F1F5F02496D466BF47AEACDBAAFC8FFFD7E59F664C8589F3ABEEE0BF90F13B01AC0A88372DD27D177D5BD797B246FDD7FCE0230EAA0A31F04B7D9EDBA97FC6658073D1F7F7F1BB47706BB1F683CCD5F4CBD3616C7A241481B
310
06D5BA978EE025AFFB09EF89DD1A850BA3605007A5BA57E9EEF713831F71166819F8ACFBB187A1761D8475DFDBF2E413D10F3B0DF61A784AFDE8E370CD407B5BDEE0FBBE4FDF0768696390F4817E29F5F2C1D4CFB910310DEAA3AB2E4AFDA41B21E38CAE523EBAAF0D7E0E4016AC8AFDF2CAC2BA9F0D1019D80F2CD7A77E32
310
40B0F96700F1FDD8C2E027035817B966DDAF8B7E3A807197E726F59F02A8D5FDF2E8276D83C596279E523FE13EC00670D5F20602145E478901BCD6FD1000315FC909001CD7FD1880F3F09E036C90FA114BC0580A0F804D82BF09903E0C7872687E212A8E3F371F8FE70FB7A21EE03CF8FB7340FE0E9B843D4036F8DC1F84D2
310
771ED46DC39F3709C6AB5EB6097EE428AC6117942F0408E63E916F05D8F2030000000000000000000000000000000000000000000000000000000000000000000000000000000000000000000000000000000000000000000000F0EF3E3FC06E757DFFDA91470000000049454E44AE426082
  0
ENDSEC
  0
EOF
