999
Erzeugt mit innoplus bad 
0
SECTION
2
HEADER
9
$ACADVER
1
AC1009
9
$DWGCODEPAGE
3
ISO8859-1
0
ENDSEC
0
SECTION
2
TABLES
0
TABLE
2
LAYER
70
1
0
LAYER
2
0
70
0
62
7
6
CONTINUOUS
0
ENDTAB
0
ENDSEC
0
SECTION
2
ENTITIES
0
LINE
8
0
6
CONTINUOUS
10
-159.000000
20
138.000000
30
0.0
11
-162.000000
21
138.000000
31
0.0
0
LINE
8
0
6
CONTINUOUS
10
-159.000000
20
-138.000000
30
0.0
11
-159.000000
21
138.000000
31
0.0
0
LINE
8
0
6
CONTINUOUS
10
-162.000000
20
-138.000000
30
0.0
11
-159.000000
21
-138.000000
31
0.0
0
LINE
8
0
6
CONTINUOUS
10
-162.000000
20
138.000000
30
0.0
11
-164.196152
21
138.000000
31
0.0
0
LINE
8
0
6
CONTINUOUS
10
-164.196152
20
-138.000000
30
0.0
11
-162.000000
21
-138.000000
31
0.0
0
LINE
8
0
6
CONTINUOUS
10
-165.000000
20
138.000000
30
0.0
11
-165.000000
21
-138.000000
31
0.0
0
LINE
8
0
6
CONTINUOUS
10
-164.196152
20
138.000000
30
0.0
11
-165.000000
21
138.000000
31
0.0
0
LINE
8
0
6
CONTINUOUS
10
-165.000000
20
-138.000000
30
0.0
11
-164.196152
21
-138.000000
31
0.0
0
LINE
8
0
6
CONTINUOUS
10
165.000000
20
138.000000
30
0.0
11
164.196152
21
138.000000
31
0.0
0
LINE
8
0
6
CONTINUOUS
10
165.000000
20
-138.000000
30
0.0
11
165.000000
21
138.000000
31
0.0
0
LINE
8
0
6
CONTINUOUS
10
164.196152
20
-138.000000
30
0.0
11
165.000000
21
-138.000000
31
0.0
0
LINE
8
0
6
CONTINUOUS
10
164.196152
20
138.000000
30
0.0
11
162.000000
21
138.000000
31
0.0
0
LINE
8
0
6
CONTINUOUS
10
162.000000
20
-138.000000
30
0.0
11
164.196152
21
-138.000000
31
0.0
0
LINE
8
0
6
CONTINUOUS
10
159.000000
20
138.000000
30
0.0
11
159.000000
21
-138.000000
31
0.0
0
LINE
8
0
6
CONTINUOUS
10
162.000000
20
138.000000
30
0.0
11
159.000000
21
138.000000
31
0.0
0
LINE
8
0
6
CONTINUOUS
10
159.000000
20
-138.000000
30
0.0
11
162.000000
21
-138.000000
31
0.0
0
LINE
8
0
6
CONTINUOUS
10
163.000000
20
140.000000
30
0.0
11
162.403001
21
140.000000
31
0.0
0
LINE
8
0
6
CONTINUOUS
10
165.000000
20
138.000000
30
0.0
11
163.000000
21
140.000000
31
0.0
0
LINE
8
0
6
CONTINUOUS
10
164.196152
20
138.000000
30
0.0
11
165.000000
21
138.000000
31
0.0
0
LINE
8
0
6
CONTINUOUS
10
162.403001
20
140.000000
30
0.0
11
160.964724
21
140.000000
31
0.0
0
LINE
8
0
6
CONTINUOUS
10
162.000000
20
138.000000
30
0.0
11
164.196152
21
138.000000
31
0.0
0
LINE
8
0
6
CONTINUOUS
10
160.964724
20
140.000000
30
0.0
11
158.736695
21
140.000000
31
0.0
0
LINE
8
0
6
CONTINUOUS
10
159.000000
20
138.000000
30
0.0
11
162.000000
21
138.000000
31
0.0
0
LINE
8
0
6
CONTINUOUS
10
158.736695
20
140.000000
30
0.0
11
-158.736695
21
140.000000
31
0.0
0
LINE
8
0
6
CONTINUOUS
10
-159.000000
20
138.000000
30
0.0
11
159.000000
21
138.000000
31
0.0
0
LINE
8
0
6
CONTINUOUS
10
-158.736695
20
140.000000
30
0.0
11
-160.964724
21
140.000000
31
0.0
0
LINE
8
0
6
CONTINUOUS
10
-162.000000
20
138.000000
30
0.0
11
-159.000000
21
138.000000
31
0.0
0
LINE
8
0
6
CONTINUOUS
10
-160.964724
20
140.000000
30
0.0
11
-162.403001
21
140.000000
31
0.0
0
LINE
8
0
6
CONTINUOUS
10
-164.196152
20
138.000000
30
0.0
11
-162.000000
21
138.000000
31
0.0
0
LINE
8
0
6
CONTINUOUS
10
-163.000000
20
140.000000
30
0.0
11
-165.000000
21
138.000000
31
0.0
0
LINE
8
0
6
CONTINUOUS
10
-162.403001
20
140.000000
30
0.0
11
-163.000000
21
140.000000
31
0.0
0
LINE
8
0
6
CONTINUOUS
10
-165.000000
20
138.000000
30
0.0
11
-164.196152
21
138.000000
31
0.0
0
LINE
8
0
6
CONTINUOUS
10
163.000000
20
-140.000000
30
0.0
11
165.000000
21
-138.000000
31
0.0
0
LINE
8
0
6
CONTINUOUS
10
162.403001
20
-140.000000
30
0.0
11
163.000000
21
-140.000000
31
0.0
0
LINE
8
0
6
CONTINUOUS
10
165.000000
20
-138.000000
30
0.0
11
164.196152
21
-138.000000
31
0.0
0
LINE
8
0
6
CONTINUOUS
10
160.964724
20
-140.000000
30
0.0
11
162.403001
21
-140.000000
31
0.0
0
LINE
8
0
6
CONTINUOUS
10
164.196152
20
-138.000000
30
0.0
11
162.000000
21
-138.000000
31
0.0
0
LINE
8
0
6
CONTINUOUS
10
158.736695
20
-140.000000
30
0.0
11
160.964724
21
-140.000000
31
0.0
0
LINE
8
0
6
CONTINUOUS
10
162.000000
20
-138.000000
30
0.0
11
159.000000
21
-138.000000
31
0.0
0
LINE
8
0
6
CONTINUOUS
10
-158.736695
20
-140.000000
30
0.0
11
158.736695
21
-140.000000
31
0.0
0
LINE
8
0
6
CONTINUOUS
10
159.000000
20
-138.000000
30
0.0
11
-159.000000
21
-138.000000
31
0.0
0
LINE
8
0
6
CONTINUOUS
10
-160.964724
20
-140.000000
30
0.0
11
-158.736695
21
-140.000000
31
0.0
0
LINE
8
0
6
CONTINUOUS
10
-159.000000
20
-138.000000
30
0.0
11
-162.000000
21
-138.000000
31
0.0
0
LINE
8
0
6
CONTINUOUS
10
-162.403001
20
-140.000000
30
0.0
11
-160.964724
21
-140.000000
31
0.0
0
LINE
8
0
6
CONTINUOUS
10
-162.000000
20
-138.000000
30
0.0
11
-164.196152
21
-138.000000
31
0.0
0
LINE
8
0
6
CONTINUOUS
10
-163.000000
20
-140.000000
30
0.0
11
-162.403001
21
-140.000000
31
0.0
0
LINE
8
0
6
CONTINUOUS
10
-165.000000
20
-138.000000
30
0.0
11
-163.000000
21
-140.000000
31
0.0
0
LINE
8
0
6
CONTINUOUS
10
-164.196152
20
-138.000000
30
0.0
11
-165.000000
21
-138.000000
31
0.0
0
LINE
8
0
6
CONTINUOUS
10
-159.000000
20
-138.000000
30
0.0
11
159.000000
21
-138.000000
31
0.0
0
LINE
8
0
6
CONTINUOUS
10
-159.000000
20
138.000000
30
0.0
11
-159.000000
21
-138.000000
31
0.0
0
LINE
8
0
6
CONTINUOUS
10
159.000000
20
138.000000
30
0.0
11
-159.000000
21
138.000000
31
0.0
0
LINE
8
0
6
CONTINUOUS
10
159.000000
20
-138.000000
30
0.0
11
159.000000
21
138.000000
31
0.0
0
LINE
8
0
6
CONTINUOUS
10
153.000000
20
68.000000
30
0.0
11
165.000000
21
68.000000
31
0.0
0
LINE
8
0
6
CONTINUOUS
10
153.000000
20
138.000000
30
0.0
11
153.000000
21
68.000000
31
0.0
0
LINE
8
0
6
CONTINUOUS
10
165.000000
20
138.000000
30
0.0
11
153.000000
21
138.000000
31
0.0
0
LINE
8
0
6
CONTINUOUS
10
165.000000
20
68.000000
30
0.0
11
165.000000
21
138.000000
31
0.0
0
LINE
8
0
6
CONTINUOUS
10
153.000000
20
-138.000000
30
0.0
11
165.000000
21
-138.000000
31
0.0
0
LINE
8
0
6
CONTINUOUS
10
153.000000
20
-68.000000
30
0.0
11
153.000000
21
-138.000000
31
0.0
0
LINE
8
0
6
CONTINUOUS
10
165.000000
20
-68.000000
30
0.0
11
153.000000
21
-68.000000
31
0.0
0
LINE
8
0
6
CONTINUOUS
10
165.000000
20
-138.000000
30
0.0
11
165.000000
21
-68.000000
31
0.0
0
LINE
8
0
6
CONTINUOUS
10
-165.000000
20
-138.000000
30
0.0
11
-153.000000
21
-138.000000
31
0.0
0
LINE
8
0
6
CONTINUOUS
10
-165.000000
20
-68.000000
30
0.0
11
-165.000000
21
-138.000000
31
0.0
0
LINE
8
0
6
CONTINUOUS
10
-153.000000
20
-68.000000
30
0.0
11
-165.000000
21
-68.000000
31
0.0
0
LINE
8
0
6
CONTINUOUS
10
-153.000000
20
-138.000000
30
0.0
11
-153.000000
21
-68.000000
31
0.0
0
LINE
8
0
6
CONTINUOUS
10
-165.000000
20
68.000000
30
0.0
11
-153.000000
21
68.000000
31
0.0
0
LINE
8
0
6
CONTINUOUS
10
-165.000000
20
138.000000
30
0.0
11
-165.000000
21
68.000000
31
0.0
0
LINE
8
0
6
CONTINUOUS
10
-153.000000
20
138.000000
30
0.0
11
-165.000000
21
138.000000
31
0.0
0
LINE
8
0
6
CONTINUOUS
10
-153.000000
20
68.000000
30
0.0
11
-153.000000
21
138.000000
31
0.0
0
ENDSEC
0
EOF
