  0
SECTION
  2
HEADER
  9
$ACADVER
  1
AC1027
  9
$ACADMAINTVER
 70
   125
  9
$DWGCODEPAGE
  3
ANSI_1252
  9
$LASTSAVEDBY
  1
fleminab
  9
$REQUIREDVERSIONS
160
                 0
  9
$INSBASE
 10
0.0
 20
0.0
 30
0.0
  9
$EXTMIN
 10
101.4138312037084
 20
105.1212762870502
 30
-0.0015258207003583
  9
$EXTMAX
 10
324.8849527189068
 20
183.4887108071544
 30
0.0000000349246037
  9
$LIMMIN
 10
0.0
 20
0.0
  9
$LIMMAX
 10
12.0
 20
9.0
  9
$ORTHOMODE
 70
     0
  9
$REGENMODE
 70
     1
  9
$FILLMODE
 70
     1
  9
$QTEXTMODE
 70
     0
  9
$MIRRTEXT
 70
     1
  9
$LTSCALE
 40
1.0
  9
$ATTMODE
 70
     1
  9
$TEXTSIZE
 40
0.2
  9
$TRACEWID
 40
0.05
  9
$TEXTSTYLE
  7
Standard
  9
$CLAYER
  8
0
  9
$CELTYPE
  6
ByLayer
  9
$CECOLOR
 62
   256
  9
$CELTSCALE
 40
1.0
  9
$DISPSILH
 70
     0
  9
$DIMSCALE
 40
1.0
  9
$DIMASZ
 40
0.18
  9
$DIMEXO
 40
0.0625
  9
$DIMDLI
 40
0.38
  9
$DIMRND
 40
0.0
  9
$DIMDLE
 40
0.0
  9
$DIMEXE
 40
0.18
  9
$DIMTP
 40
0.0
  9
$DIMTM
 40
0.0
  9
$DIMTXT
 40
0.18
  9
$DIMCEN
 40
0.09
  9
$DIMTSZ
 40
0.0
  9
$DIMTOL
 70
     0
  9
$DIMLIM
 70
     0
  9
$DIMTIH
 70
     1
  9
$DIMTOH
 70
     1
  9
$DIMSE1
 70
     0
  9
$DIMSE2
 70
     0
  9
$DIMTAD
 70
     0
  9
$DIMZIN
 70
     0
  9
$DIMBLK
  1

  9
$DIMASO
 70
     1
  9
$DIMSHO
 70
     1
  9
$DIMPOST
  1

  9
$DIMAPOST
  1

  9
$DIMALT
 70
     0
  9
$DIMALTD
 70
     2
  9
$DIMALTF
 40
25.4
  9
$DIMLFAC
 40
1.0
  9
$DIMTOFL
 70
     0
  9
$DIMTVP
 40
0.0
  9
$DIMTIX
 70
     0
  9
$DIMSOXD
 70
     0
  9
$DIMSAH
 70
     0
  9
$DIMBLK1
  1

  9
$DIMBLK2
  1

  9
$DIMSTYLE
  2
Standard
  9
$DIMCLRD
 70
     0
  9
$DIMCLRE
 70
     0
  9
$DIMCLRT
 70
     0
  9
$DIMTFAC
 40
1.0
  9
$DIMGAP
 40
0.09
  9
$DIMJUST
 70
     0
  9
$DIMSD1
 70
     0
  9
$DIMSD2
 70
     0
  9
$DIMTOLJ
 70
     1
  9
$DIMTZIN
 70
     0
  9
$DIMALTZ
 70
     0
  9
$DIMALTTZ
 70
     0
  9
$DIMUPT
 70
     0
  9
$DIMDEC
 70
     4
  9
$DIMTDEC
 70
     4
  9
$DIMALTU
 70
     2
  9
$DIMALTTD
 70
     2
  9
$DIMTXSTY
  7
Standard
  9
$DIMAUNIT
 70
     0
  9
$DIMADEC
 70
     0
  9
$DIMALTRND
 40
0.0
  9
$DIMAZIN
 70
     0
  9
$DIMDSEP
 70
    46
  9
$DIMATFIT
 70
     3
  9
$DIMFRAC
 70
     0
  9
$DIMLDRBLK
  1

  9
$DIMLUNIT
 70
     2
  9
$DIMLWD
 70
    -2
  9
$DIMLWE
 70
    -2
  9
$DIMTMOVE
 70
     0
  9
$DIMFXL
 40
1.0
  9
$DIMFXLON
 70
     0
  9
$DIMJOGANG
 40
0.7853981633974483
  9
$DIMTFILL
 70
     0
  9
$DIMTFILLCLR
 70
     0
  9
$DIMARCSYM
 70
     0
  9
$DIMLTYPE
  6

  9
$DIMLTEX1
  6

  9
$DIMLTEX2
  6

  9
$DIMTXTDIRECTION
 70
     0
  9
$LUNITS
 70
     2
  9
$LUPREC
 70
     4
  9
$SKETCHINC
 40
0.1
  9
$FILLETRAD
 40
0.5
  9
$AUNITS
 70
     0
  9
$AUPREC
 70
     0
  9
$MENU
  1
.
  9
$ELEVATION
 40
0.0
  9
$PELEVATION
 40
0.0
  9
$THICKNESS
 40
0.0
  9
$LIMCHECK
 70
     0
  9
$CHAMFERA
 40
0.5
  9
$CHAMFERB
 40
0.5
  9
$CHAMFERC
 40
1.0
  9
$CHAMFERD
 40
0.0
  9
$SKPOLY
 70
     0
  9
$TDCREATE
 40
2457253.403217593
  9
$TDUCREATE
 40
2457252.986555452
  9
$TDUPDATE
 40
2458033.415439815
  9
$TDUUPDATE
 40
2458032.957106481
  9
$TDINDWG
 40
0.0003819560
  9
$TDUSRTIMER
 40
0.0003819560
  9
$USRTIMER
 70
     1
  9
$ANGBASE
 50
0.0
  9
$ANGDIR
 70
     0
  9
$PDMODE
 70
     0
  9
$PDSIZE
 40
0.0
  9
$PLINEWID
 40
0.0
  9
$SPLFRAME
 70
     0
  9
$SPLINETYPE
 70
     6
  9
$SPLINESEGS
 70
     8
  9
$HANDSEED
  5
714
  9
$SURFTAB1
 70
     6
  9
$SURFTAB2
 70
     6
  9
$SURFTYPE
 70
     6
  9
$SURFU
 70
     6
  9
$SURFV
 70
     6
  9
$UCSBASE
  2

  9
$UCSNAME
  2

  9
$UCSORG
 10
0.0
 20
0.0
 30
0.0
  9
$UCSXDIR
 10
1.0
 20
0.0
 30
0.0
  9
$UCSYDIR
 10
0.0
 20
1.0
 30
0.0
  9
$UCSORTHOREF
  2

  9
$UCSORTHOVIEW
 70
     0
  9
$UCSORGTOP
 10
0.0
 20
0.0
 30
0.0
  9
$UCSORGBOTTOM
 10
0.0
 20
0.0
 30
0.0
  9
$UCSORGLEFT
 10
0.0
 20
0.0
 30
0.0
  9
$UCSORGRIGHT
 10
0.0
 20
0.0
 30
0.0
  9
$UCSORGFRONT
 10
0.0
 20
0.0
 30
0.0
  9
$UCSORGBACK
 10
0.0
 20
0.0
 30
0.0
  9
$PUCSBASE
  2

  9
$PUCSNAME
  2

  9
$PUCSORG
 10
0.0
 20
0.0
 30
0.0
  9
$PUCSXDIR
 10
1.0
 20
0.0
 30
0.0
  9
$PUCSYDIR
 10
0.0
 20
1.0
 30
0.0
  9
$PUCSORTHOREF
  2

  9
$PUCSORTHOVIEW
 70
     0
  9
$PUCSORGTOP
 10
0.0
 20
0.0
 30
0.0
  9
$PUCSORGBOTTOM
 10
0.0
 20
0.0
 30
0.0
  9
$PUCSORGLEFT
 10
0.0
 20
0.0
 30
0.0
  9
$PUCSORGRIGHT
 10
0.0
 20
0.0
 30
0.0
  9
$PUCSORGFRONT
 10
0.0
 20
0.0
 30
0.0
  9
$PUCSORGBACK
 10
0.0
 20
0.0
 30
0.0
  9
$USERI1
 70
     0
  9
$USERI2
 70
     0
  9
$USERI3
 70
     0
  9
$USERI4
 70
     0
  9
$USERI5
 70
     0
  9
$USERR1
 40
0.0
  9
$USERR2
 40
0.0
  9
$USERR3
 40
0.0
  9
$USERR4
 40
0.0
  9
$USERR5
 40
0.0
  9
$WORLDVIEW
 70
     1
  9
$SHADEDGE
 70
     3
  9
$SHADEDIF
 70
    70
  9
$TILEMODE
 70
     1
  9
$MAXACTVP
 70
    64
  9
$PINSBASE
 10
0.0
 20
0.0
 30
0.0
  9
$PLIMCHECK
 70
     0
  9
$PEXTMIN
 10
1.000000000000000E+20
 20
1.000000000000000E+20
 30
1.000000000000000E+20
  9
$PEXTMAX
 10
-1.000000000000000E+20
 20
-1.000000000000000E+20
 30
-1.000000000000000E+20
  9
$PLIMMIN
 10
0.0
 20
0.0
  9
$PLIMMAX
 10
12.0
 20
9.0
  9
$UNITMODE
 70
     0
  9
$VISRETAIN
 70
     1
  9
$PLINEGEN
 70
     0
  9
$PSLTSCALE
 70
     1
  9
$TREEDEPTH
 70
  3020
  9
$CMLSTYLE
  2
Standard
  9
$CMLJUST
 70
     0
  9
$CMLSCALE
 40
1.0
  9
$PROXYGRAPHICS
 70
     1
  9
$MEASUREMENT
 70
     0
  9
$CELWEIGHT
370
    -1
  9
$ENDCAPS
280
     0
  9
$JOINSTYLE
280
     0
  9
$LWDISPLAY
290
     1
  9
$INSUNITS
 70
     1
  9
$HYPERLINKBASE
  1

  9
$STYLESHEET
  1

  9
$XEDIT
290
     1
  9
$CEPSNTYPE
380
     0
  9
$PSTYLEMODE
290
     1
  9
$FINGERPRINTGUID
  2
{F50629EA-30E8-4251-B63E-E406BE3A55D0}
  9
$VERSIONGUID
  2
{77AC8743-AE7E-EB48-A8F7-4F44BA1A6370}
  9
$EXTNAMES
290
     1
  9
$PSVPSCALE
 40
0.0
  9
$OLESTARTUP
290
     0
  9
$SORTENTS
280
   127
  9
$INDEXCTL
280
     0
  9
$HIDETEXT
280
     1
  9
$XCLIPFRAME
280
     0
  9
$HALOGAP
280
     0
  9
$OBSCOLOR
 70
   257
  9
$OBSLTYPE
280
     0
  9
$INTERSECTIONDISPLAY
280
     0
  9
$INTERSECTIONCOLOR
 70
   257
  9
$DIMASSOC
280
     2
  9
$PROJECTNAME
  1

  9
$CAMERADISPLAY
290
     0
  9
$LENSLENGTH
 40
50.0
  9
$CAMERAHEIGHT
 40
0.0
  9
$STEPSPERSEC
 40
2.0
  9
$STEPSIZE
 40
6.0
  9
$3DDWFPREC
 40
2.0
  9
$PSOLWIDTH
 40
0.25
  9
$PSOLHEIGHT
 40
4.0
  9
$LOFTANG1
 40
1.570796326794896
  9
$LOFTANG2
 40
1.570796326794896
  9
$LOFTMAG1
 40
0.0
  9
$LOFTMAG2
 40
0.0
  9
$LOFTPARAM
 70
     7
  9
$LOFTNORMALS
280
     1
  9
$LATITUDE
 40
37.795
  9
$LONGITUDE
 40
-122.394
  9
$NORTHDIRECTION
 40
0.0
  9
$TIMEZONE
 70
 -8000
  9
$LIGHTGLYPHDISPLAY
280
     1
  9
$TILEMODELIGHTSYNCH
280
     1
  9
$CMATERIAL
347
6AF
  9
$SOLIDHIST
280
     0
  9
$SHOWHIST
280
     1
  9
$DWFFRAME
280
     2
  9
$DGNFRAME
280
     0
  9
$REALWORLDSCALE
290
     1
  9
$INTERFERECOLOR
 62
     1
  9
$INTERFEREOBJVS
345
33
  9
$INTERFEREVPVS
346
6C7
  9
$CSHADOW
280
     0
  9
$SHADOWPLANELOCATION
 40
0.0
  0
ENDSEC
  0
SECTION
  2
CLASSES
  0
CLASS
  1
ACDBDICTIONARYWDFLT
  2
AcDbDictionaryWithDefault
  3
ObjectDBX Classes
 90
        0
 91
        1
280
     0
281
     0
  0
CLASS
  1
VISUALSTYLE
  2
AcDbVisualStyle
  3
ObjectDBX Classes
 90
     4095
 91
       26
280
     0
281
     0
  0
CLASS
  1
MATERIAL
  2
AcDbMaterial
  3
ObjectDBX Classes
 90
     1153
 91
        3
280
     0
281
     0
  0
CLASS
  1
TABLESTYLE
  2
AcDbTableStyle
  3
ObjectDBX Classes
 90
     4095
 91
        1
280
     0
281
     0
  0
CLASS
  1
SCALE
  2
AcDbScale
  3
ObjectDBX Classes
 90
     1153
 91
       17
280
     0
281
     0
  0
CLASS
  1
MLEADERSTYLE
  2
AcDbMLeaderStyle
  3
ACDB_MLEADERSTYLE_CLASS
 90
     4095
 91
        1
280
     0
281
     0
  0
CLASS
  1
ACDBSECTIONVIEWSTYLE
  2
AcDbSectionViewStyle
  3
ObjectDBX Classes
 90
     1025
 91
        1
280
     0
281
     0
  0
CLASS
  1
ACDBDETAILVIEWSTYLE
  2
AcDbDetailViewStyle
  3
ObjectDBX Classes
 90
     1025
 91
        1
280
     0
281
     0
  0
CLASS
  1
DICTIONARYVAR
  2
AcDbDictionaryVar
  3
ObjectDBX Classes
 90
        0
 91
       18
280
     0
281
     0
  0
CLASS
  1
CELLSTYLEMAP
  2
AcDbCellStyleMap
  3
ObjectDBX Classes
 90
     1152
 91
        1
280
     0
281
     0
  0
ENDSEC
  0
SECTION
  2
TABLES
  0
TABLE
  2
VPORT
  5
8
330
0
100
AcDbSymbolTable
 70
     1
1001
ACAD
1000
DbSaveVer
1071
        5
  0
VPORT
  5
29
330
8
100
AcDbSymbolTableRecord
100
AcDbViewportTableRecord
  2
*Active
 70
     0
 10
0.0
 20
0.0
 11
1.0
 21
1.0
 12
3.149634798095718
 22
-4.195072198107794
 13
0.0
 23
0.0
 14
0.5
 24
0.5
 15
0.5
 25
0.5
 16
0.0
 26
0.0
 36
1.0
 17
209.9997571632119
 27
148.5000657452101
 37
0.0
 40
97.77459722639441
 41
2.292712066905615
 42
50.0
 43
0.0
 44
0.0
 50
0.0
 51
0.0
 71
     0
 72
   100
 73
     1
 74
     3
 75
     0
 76
     0
 77
     0
 78
     0
281
     0
 65
     1
110
0.0
120
0.0
130
0.0
111
1.0
121
0.0
131
0.0
112
0.0
122
1.0
132
0.0
 79
     0
146
0.0
348
2F
 60
     3
 61
     5
292
     1
282
     1
141
0.0
142
0.0
 63
   250
421
  3355443
1001
ACAD_NAV_VCDISPLAY
1070
     3
  0
ENDTAB
  0
TABLE
  2
LTYPE
  5
5
330
0
100
AcDbSymbolTable
 70
     7
  0
LTYPE
  5
14
330
5
100
AcDbSymbolTableRecord
100
AcDbLinetypeTableRecord
  2
ByBlock
 70
     0
  3

 72
    65
 73
     0
 40
0.0
  0
LTYPE
  5
15
330
5
100
AcDbSymbolTableRecord
100
AcDbLinetypeTableRecord
  2
ByLayer
 70
     0
  3

 72
    65
 73
     0
 40
0.0
  0
LTYPE
  5
16
330
5
100
AcDbSymbolTableRecord
100
AcDbLinetypeTableRecord
  2
Continuous
 70
     0
  3
Solid line
 72
    65
 73
     0
 40
0.0
  0
LTYPE
  5
D2
330
5
100
AcDbSymbolTableRecord
100
AcDbLinetypeTableRecord
  2
AI-Linetype-1
 70
     0
  3
Adobe Illustrator Linetype No. 1
 72
    65
 73
     4
 40
19.05000016345505
 49
15.24000026533809
 74
     0
 49
-1.26999996603899
 74
     0
 49
1.26999996603899
 74
     0
 49
-1.26999996603899
 74
     0
  0
LTYPE
  5
D7
330
5
100
AcDbSymbolTableRecord
100
AcDbLinetypeTableRecord
  2
AI-Linetype-2
 70
     0
  3
Adobe Illustrator Linetype No. 2
 72
    65
 73
     4
 40
19.05000016345505
 49
15.24000026533809
 74
     0
 49
-1.26999996603899
 74
     0
 49
1.26999996603899
 74
     0
 49
-1.26999996603899
 74
     0
  0
LTYPE
  5
DC
330
5
100
AcDbSymbolTableRecord
100
AcDbLinetypeTableRecord
  2
AI-Linetype-3
 70
     0
  3
Adobe Illustrator Linetype No. 3
 72
    65
 73
     4
 40
19.05000016345505
 49
15.24000026533809
 74
     0
 49
-1.26999996603899
 74
     0
 49
1.26999996603899
 74
     0
 49
-1.26999996603899
 74
     0
  0
LTYPE
  5
E1
330
5
100
AcDbSymbolTableRecord
100
AcDbLinetypeTableRecord
  2
AI-Linetype-4
 70
     0
  3
Adobe Illustrator Linetype No. 4
 72
    65
 73
     4
 40
19.05000016345505
 49
15.24000026533809
 74
     0
 49
-1.26999996603899
 74
     0
 49
1.26999996603899
 74
     0
 49
-1.26999996603899
 74
     0
  0
LTYPE
  5
F6
330
5
100
AcDbSymbolTableRecord
100
AcDbLinetypeTableRecord
  2
AI-Linetype-5
 70
     0
  3
Adobe Illustrator Linetype No. 5
 72
    65
 73
     4
 40
19.05000016345505
 49
15.24000026533809
 74
     0
 49
-1.26999996603899
 74
     0
 49
1.26999996603899
 74
     0
 49
-1.26999996603899
 74
     0
  0
LTYPE
  5
FB
330
5
100
AcDbSymbolTableRecord
100
AcDbLinetypeTableRecord
  2
AI-Linetype-6
 70
     0
  3
Adobe Illustrator Linetype No. 6
 72
    65
 73
     4
 40
19.05000016345505
 49
15.24000026533809
 74
     0
 49
-1.26999996603899
 74
     0
 49
1.26999996603899
 74
     0
 49
-1.26999996603899
 74
     0
  0
ENDTAB
  0
TABLE
  2
LAYER
  5
2
330
0
100
AcDbSymbolTable
 70
     2
  0
LAYER
  5
10
102
{ACAD_XDICTIONARY
360
6FF
102
}
330
2
100
AcDbSymbolTableRecord
100
AcDbLayerTableRecord
  2
0
 70
     0
 62
     7
  6
Continuous
370
    -3
390
F
347
6BF
348
0
  0
LAYER
  5
3B
102
{ACAD_XDICTIONARY
360
701
102
}
330
2
100
AcDbSymbolTableRecord
100
AcDbLayerTableRecord
  2
Layer 1
 70
     0
 62
     7
  6
Continuous
370
    -3
390
F
347
6BF
348
0
  0
ENDTAB
  0
TABLE
  2
STYLE
  5
3
330
0
100
AcDbSymbolTable
 70
     1
  0
STYLE
  5
11
330
3
100
AcDbSymbolTableRecord
100
AcDbTextStyleTableRecord
  2
Standard
 70
     0
 40
0.0
 41
1.0
 50
0.0
 71
     0
 42
0.2
  3
txt
  4

  0
ENDTAB
  0
TABLE
  2
VIEW
  5
6
330
0
100
AcDbSymbolTable
 70
     0
  0
ENDTAB
  0
TABLE
  2
UCS
  5
7
330
0
100
AcDbSymbolTable
 70
     0
  0
ENDTAB
  0
TABLE
  2
APPID
  5
9
330
0
100
AcDbSymbolTable
 70
     2
  0
APPID
  5
12
330
9
100
AcDbSymbolTableRecord
100
AcDbRegAppTableRecord
  2
ACAD
 70
     0
  0
APPID
  5
6EF
330
9
100
AcDbSymbolTableRecord
100
AcDbRegAppTableRecord
  2
ACAD_NAV_VCDISPLAY
 70
     0
  0
ENDTAB
  0
TABLE
  2
DIMSTYLE
  5
A
330
0
100
AcDbSymbolTable
 70
     1
100
AcDbDimStyleTable
 71
     0
  0
DIMSTYLE
105
27
330
A
100
AcDbSymbolTableRecord
100
AcDbDimStyleTableRecord
  2
Standard
 70
     0
340
11
  0
ENDTAB
  0
TABLE
  2
BLOCK_RECORD
  5
1
330
0
100
AcDbSymbolTable
 70
     1
  0
BLOCK_RECORD
  5
1F
330
1
100
AcDbSymbolTableRecord
100
AcDbBlockTableRecord
  2
*Model_Space
340
22
 70
     0
280
     1
281
     0
  0
BLOCK_RECORD
  5
1B
330
1
100
AcDbSymbolTableRecord
100
AcDbBlockTableRecord
  2
*Paper_Space
340
1E
 70
     0
280
     1
281
     0
  0
BLOCK_RECORD
  5
23
330
1
100
AcDbSymbolTableRecord
100
AcDbBlockTableRecord
  2
*Paper_Space0
340
26
 70
     0
280
     1
281
     0
  0
ENDTAB
  0
ENDSEC
  0
SECTION
  2
BLOCKS
  0
BLOCK
  5
20
330
1F
100
AcDbEntity
  8
0
100
AcDbBlockBegin
  2
*Model_Space
 70
     0
 10
0.0
 20
0.0
 30
0.0
  3
*Model_Space
  1

  0
ENDBLK
  5
21
330
1F
100
AcDbEntity
  8
0
100
AcDbBlockEnd
  0
BLOCK
  5
1C
330
1B
100
AcDbEntity
 67
     1
  8
0
100
AcDbBlockBegin
  2
*Paper_Space
 70
     0
 10
0.0
 20
0.0
 30
0.0
  3
*Paper_Space
  1

  0
ENDBLK
  5
1D
330
1B
100
AcDbEntity
 67
     1
  8
0
100
AcDbBlockEnd
  0
BLOCK
  5
24
330
23
100
AcDbEntity
 67
     1
  8
0
100
AcDbBlockBegin
  2
*Paper_Space0
 70
     0
 10
0.0
 20
0.0
 30
0.0
  3
*Paper_Space0
  1

  0
ENDBLK
  5
25
330
23
100
AcDbEntity
 67
     1
  8
0
100
AcDbBlockEnd
  0
ENDSEC
  0
SECTION
  2
ENTITIES
  0
MTEXT
  5
3C
330
1F
100
AcDbEntity
  8
Layer 1
 62
     7
420
 16777215
100
AcDbMText
 10
298.9619411144957
 20
107.3791476511066
 30
0.0
 40
3.838222266133359
 41
0.0
 46
0.0
 71
     7
 72
     1
  1
\fCentury Gothic|b0|i0|c0|p34;\W0.999465; 53 
 73
     1
 44
1.0
  0
MTEXT
  5
3D
330
1F
100
AcDbEntity
  8
Layer 1
 62
     7
420
 16777215
100
AcDbMText
 10
300.525325445702
 20
115.4675428313762
 30
0.0
 40
3.838222399556371
 41
0.0
 46
0.0
 71
     7
 72
     1
  1
\fCentury Gothic|b0|i0|c0|p34;\W0.999048; 6 
 73
     1
 44
1.0
  0
MTEXT
  5
3E
330
1F
100
AcDbEntity
  8
Layer 1
 62
     7
420
 16777215
100
AcDbMText
 10
128.1609971467791
 20
178.1944633886111
 30
0.0
 40
3.838222227210298
 41
0.0
 46
0.0
 71
     7
 72
     1
  1
\fCentury Gothic|b0|i0|c0|p34;\W0.997792; 
 73
     1
 44
1.0
  0
POLYLINE
  5
3F
330
1F
100
AcDbEntity
  8
Layer 1
 62
     7
420
 16777215
370
    18
100
AcDb2dPolyline
 66
     1
 10
0.0
 20
0.0
 30
0.0
  0
VERTEX
  5
40
330
3F
100
AcDbEntity
  8
Layer 1
 62
     7
420
 16777215
370
    18
100
AcDbVertex
100
AcDb2dVertex
 10
134.5847221885761
 20
181.9275688564278
 30
0.0
  0
VERTEX
  5
41
330
3F
100
AcDbEntity
  8
Layer 1
 62
     7
420
 16777215
370
    18
100
AcDbVertex
100
AcDb2dVertex
 10
134.5847221885761
 20
178.7172566284978
 30
0.0
  0
SEQEND
  5
42
330
3F
100
AcDbEntity
  8
Layer 1
370
    18
  0
POLYLINE
  5
43
330
1F
100
AcDbEntity
  8
Layer 1
 62
     7
420
 16777215
370
    18
100
AcDb2dPolyline
 66
     1
 10
0.0
 20
0.0
 30
0.0
  0
VERTEX
  5
44
330
43
100
AcDbEntity
  8
Layer 1
 62
     7
420
 16777215
370
    18
100
AcDbVertex
100
AcDb2dVertex
 10
131.374409960646
 20
181.9275688564278
 30
0.0
  0
VERTEX
  5
45
330
43
100
AcDbEntity
  8
Layer 1
 62
     7
420
 16777215
370
    18
100
AcDbVertex
100
AcDb2dVertex
 10
134.5847221885761
 20
181.9275688564278
 30
0.0
  0
SEQEND
  5
46
330
43
100
AcDbEntity
  8
Layer 1
370
    18
  0
POLYLINE
  5
47
330
1F
100
AcDbEntity
  8
Layer 1
 62
     7
420
 16777215
370
    18
100
AcDb2dPolyline
 66
     1
 10
0.0
 20
0.0
 30
0.0
  0
VERTEX
  5
48
330
47
100
AcDbEntity
  8
Layer 1
 62
     7
420
 16777215
370
    18
100
AcDbVertex
100
AcDb2dVertex
 10
131.374409960646
 20
178.7172566284978
 30
0.0
  0
VERTEX
  5
49
330
47
100
AcDbEntity
  8
Layer 1
 62
     7
420
 16777215
370
    18
100
AcDbVertex
100
AcDb2dVertex
 10
131.374409960646
 20
181.9275688564278
 30
0.0
  0
SEQEND
  5
4A
330
47
100
AcDbEntity
  8
Layer 1
370
    18
  0
POLYLINE
  5
4B
330
1F
100
AcDbEntity
  8
Layer 1
 62
     7
420
 16777215
370
    18
100
AcDb2dPolyline
 66
     1
 10
0.0
 20
0.0
 30
0.0
  0
VERTEX
  5
4C
330
4B
100
AcDbEntity
  8
Layer 1
 62
     7
420
 16777215
370
    18
100
AcDbVertex
100
AcDb2dVertex
 10
131.374409960646
 20
178.7172566284978
 30
0.0
  0
VERTEX
  5
4D
330
4B
100
AcDbEntity
  8
Layer 1
 62
     7
420
 16777215
370
    18
100
AcDbVertex
100
AcDb2dVertex
 10
134.5847221885761
 20
178.7172566284978
 30
0.0
  0
SEQEND
  5
4E
330
4B
100
AcDbEntity
  8
Layer 1
370
    18
  0
MTEXT
  5
4F
330
1F
100
AcDbEntity
  8
Layer 1
 62
     7
420
 16777215
100
AcDbMText
 10
135.7751749335041
 20
178.196358191128
 30
0.0
 40
3.838222294852823
 41
0.0
 46
0.0
 71
     7
 72
     1
  1
\fCentury Gothic|b0|i0|c0|p34;\W0.999799;60 
 73
     1
 44
1.0
  0
MTEXT
  5
50
330
1F
100
AcDbEntity
  8
Layer 1
 62
     7
420
 16777215
100
AcDbMText
 10
131.1863077471513
 20
170.1925401050213
 30
0.0
 40
3.838222266133359
 41
0.0
 46
0.0
 71
     7
 72
     1
  1
\fCentury Gothic|b0|i0|c0|p34;\W0.999465; 37 
 73
     1
 44
1.0
  0
MTEXT
  5
51
330
1F
100
AcDbEntity
  8
Layer 1
 62
     7
420
 16777215
100
AcDbMText
 10
106.7256130375547
 20
137.1795681080662
 30
0.0
 40
3.838222266133359
 41
0.0
 46
0.0
 71
     7
 72
     1
  1
\fCentury Gothic|b0|i0|c0|p34;\W0.999465; 37 
 11
-0.00000004371139
 21
0.9999999999999992
 31
0.0
 73
     1
 44
1.0
  0
POLYLINE
  5
52
330
1F
100
AcDbEntity
  8
Layer 1
 62
     7
420
 16777215
370
    18
100
AcDb2dPolyline
 66
     1
 10
0.0
 20
0.0
 30
0.0
  0
VERTEX
  5
53
330
52
100
AcDbEntity
  8
Layer 1
 62
     7
420
 16777215
370
    18
100
AcDbVertex
100
AcDb2dVertex
 10
122.2374999694406
 20
168.9452432845866
 30
0.0
  0
VERTEX
  5
54
330
52
100
AcDbEntity
  8
Layer 1
 62
     7
420
 16777215
370
    18
100
AcDbVertex
100
AcDb2dVertex
 10
125.2361110798021
 20
169.4390977223972
 30
0.0
  0
VERTEX
  5
55
330
52
100
AcDbEntity
  8
Layer 1
 62
     7
420
 16777215
370
    18
100
AcDbVertex
100
AcDb2dVertex
 10
125.2361110798021
 20
168.451388846776
 30
0.0
  0
VERTEX
  5
56
330
52
100
AcDbEntity
  8
Layer 1
 62
     7
420
 16777215
370
    18
100
AcDbVertex
100
AcDb2dVertex
 10
122.2374999694406
 20
168.9452432845866
 30
0.0
  0
SEQEND
  5
57
330
52
100
AcDbEntity
  8
Layer 1
370
    18
  0
POLYLINE
  5
58
330
1F
100
AcDbEntity
  8
Layer 1
 62
     7
420
 16777215
370
    18
100
AcDb2dPolyline
 66
     1
 10
0.0
 20
0.0
 30
0.0
  0
VERTEX
  5
59
330
58
100
AcDbEntity
  8
Layer 1
 62
     7
420
 16777215
370
    18
100
AcDbVertex
100
AcDb2dVertex
 10
146.8966321789877
 20
168.9452432845866
 30
0.0
  0
VERTEX
  5
5A
330
58
100
AcDbEntity
  8
Layer 1
 62
     7
420
 16777215
370
    18
100
AcDbVertex
100
AcDb2dVertex
 10
143.8980210686262
 20
168.451388846776
 30
0.0
  0
VERTEX
  5
5B
330
58
100
AcDbEntity
  8
Layer 1
 62
     7
420
 16777215
370
    18
100
AcDbVertex
100
AcDb2dVertex
 10
143.8980210686262
 20
169.4390977223972
 30
0.0
  0
VERTEX
  5
5C
330
58
100
AcDbEntity
  8
Layer 1
 62
     7
420
 16777215
370
    18
100
AcDbVertex
100
AcDb2dVertex
 10
146.8966321789877
 20
168.9452432845866
 30
0.0
  0
SEQEND
  5
5D
330
58
100
AcDbEntity
  8
Layer 1
370
    18
  0
POLYLINE
  5
5E
330
1F
100
AcDbEntity
  8
Layer 1
 62
     7
420
 16777215
370
    18
100
AcDb2dPolyline
 66
     1
 10
0.0
 20
0.0
 30
0.0
  0
VERTEX
  5
5F
330
5E
100
AcDbEntity
  8
Layer 1
 62
     7
420
 16777215
370
    18
100
AcDbVertex
100
AcDb2dVertex
 10
114.5470133177174
 20
176.9533677400499
 30
0.0
  0
VERTEX
  5
60
330
5E
100
AcDbEntity
  8
Layer 1
 62
     7
420
 16777215
370
    18
100
AcDbVertex
100
AcDb2dVertex
 10
117.5456244280789
 20
177.4472221778604
 30
0.0
  0
VERTEX
  5
61
330
5E
100
AcDbEntity
  8
Layer 1
 62
     7
420
 16777215
370
    18
100
AcDbVertex
100
AcDb2dVertex
 10
117.5456244280789
 20
176.4595133022393
 30
0.0
  0
VERTEX
  5
62
330
5E
100
AcDbEntity
  8
Layer 1
 62
     7
420
 16777215
370
    18
100
AcDbVertex
100
AcDb2dVertex
 10
114.5470133177174
 20
176.9533677400499
 30
0.0
  0
SEQEND
  5
63
330
5E
100
AcDbEntity
  8
Layer 1
370
    18
  0
POLYLINE
  5
64
330
1F
100
AcDbEntity
  8
Layer 1
 62
     7
420
 16777215
370
    18
100
AcDb2dPolyline
 66
     1
 10
0.0
 20
0.0
 30
0.0
  0
VERTEX
  5
65
330
64
100
AcDbEntity
  8
Layer 1
 62
     7
420
 16777215
370
    18
100
AcDbVertex
100
AcDb2dVertex
 10
154.5519788567613
 20
176.9533677400499
 30
0.0
  0
VERTEX
  5
66
330
64
100
AcDbEntity
  8
Layer 1
 62
     7
420
 16777215
370
    18
100
AcDbVertex
100
AcDb2dVertex
 10
151.5533677463999
 20
176.4595133022393
 30
0.0
  0
VERTEX
  5
67
330
64
100
AcDbEntity
  8
Layer 1
 62
     7
420
 16777215
370
    18
100
AcDbVertex
100
AcDb2dVertex
 10
151.5533677463999
 20
177.4472221778604
 30
0.0
  0
VERTEX
  5
68
330
64
100
AcDbEntity
  8
Layer 1
 62
     7
420
 16777215
370
    18
100
AcDbVertex
100
AcDb2dVertex
 10
154.5519788567613
 20
176.9533677400499
 30
0.0
  0
SEQEND
  5
69
330
64
100
AcDbEntity
  8
Layer 1
370
    18
  0
POLYLINE
  5
6A
330
1F
100
AcDbEntity
  8
Layer 1
 62
     7
420
 16777215
370
    18
100
AcDb2dPolyline
 66
     1
 10
0.0
 20
0.0
 30
0.0
  0
VERTEX
  5
6B
330
6A
100
AcDbEntity
  8
Layer 1
 62
     7
420
 16777215
370
    18
100
AcDbVertex
100
AcDb2dVertex
 10
316.8650688226934
 20
114.2293755139774
 30
0.0
  0
VERTEX
  5
6C
330
6A
100
AcDbEntity
  8
Layer 1
 62
     7
420
 16777215
370
    18
100
AcDbVertex
100
AcDb2dVertex
 10
313.866457712332
 20
113.7356933309411
 30
0.0
  0
VERTEX
  5
6D
330
6A
100
AcDbEntity
  8
Layer 1
 62
     7
420
 16777215
370
    18
100
AcDbVertex
100
AcDb2dVertex
 10
313.866457712332
 20
114.7234022065622
 30
0.0
  0
VERTEX
  5
6E
330
6A
100
AcDbEntity
  8
Layer 1
 62
     7
420
 16777215
370
    18
100
AcDbVertex
100
AcDb2dVertex
 10
316.8650688226934
 20
114.2293755139774
 30
0.0
  0
SEQEND
  5
6F
330
6A
100
AcDbEntity
  8
Layer 1
370
    18
  0
POLYLINE
  5
70
330
1F
100
AcDbEntity
  8
Layer 1
 62
     7
420
 16777215
370
    18
100
AcDb2dPolyline
 66
     1
 10
0.0
 20
0.0
 30
0.0
  0
VERTEX
  5
71
330
70
100
AcDbEntity
  8
Layer 1
 62
     7
420
 16777215
370
    18
100
AcDbVertex
100
AcDb2dVertex
 10
320.533751004936
 20
114.2293755139774
 30
0.0
  0
VERTEX
  5
72
330
70
100
AcDbEntity
  8
Layer 1
 62
     7
420
 16777215
370
    18
100
AcDbVertex
100
AcDb2dVertex
 10
323.5323621152975
 20
114.7234022065622
 30
0.0
  0
VERTEX
  5
73
330
70
100
AcDbEntity
  8
Layer 1
 62
     7
420
 16777215
370
    18
100
AcDbVertex
100
AcDb2dVertex
 10
323.5323621152975
 20
113.7356933309411
 30
0.0
  0
VERTEX
  5
74
330
70
100
AcDbEntity
  8
Layer 1
 62
     7
420
 16777215
370
    18
100
AcDbVertex
100
AcDb2dVertex
 10
320.533751004936
 20
114.2293755139774
 30
0.0
  0
SEQEND
  5
75
330
70
100
AcDbEntity
  8
Layer 1
370
    18
  0
POLYLINE
  5
76
330
1F
100
AcDbEntity
  8
Layer 1
 62
     7
420
 16777215
370
    18
100
AcDb2dPolyline
 66
     1
 10
0.0
 20
0.0
 30
0.0
  0
VERTEX
  5
77
330
76
100
AcDbEntity
  8
Layer 1
 62
     7
420
 16777215
370
    18
100
AcDbVertex
100
AcDb2dVertex
 10
285.1856932880786
 20
106.150971110615
 30
0.0
  0
VERTEX
  5
78
330
76
100
AcDbEntity
  8
Layer 1
 62
     7
420
 16777215
370
    18
100
AcDbVertex
100
AcDb2dVertex
 10
288.1843043984401
 20
106.6446532936513
 30
0.0
  0
VERTEX
  5
79
330
76
100
AcDbEntity
  8
Layer 1
 62
     7
420
 16777215
370
    18
100
AcDbVertex
100
AcDb2dVertex
 10
288.1843043984401
 20
105.6218044440807
 30
0.0
  0
VERTEX
  5
7A
330
76
100
AcDbEntity
  8
Layer 1
 62
     7
420
 16777215
370
    18
100
AcDbVertex
100
AcDb2dVertex
 10
285.1856932880786
 20
106.150971110615
 30
0.0
  0
SEQEND
  5
7B
330
76
100
AcDbEntity
  8
Layer 1
370
    18
  0
POLYLINE
  5
7C
330
1F
100
AcDbEntity
  8
Layer 1
 62
     7
420
 16777215
370
    18
100
AcDb2dPolyline
 66
     1
 10
0.0
 20
0.0
 30
0.0
  0
VERTEX
  5
7D
330
7C
100
AcDbEntity
  8
Layer 1
 62
     7
420
 16777215
370
    18
100
AcDbVertex
100
AcDb2dVertex
 10
320.533751004936
 20
106.150971110615
 30
0.0
  0
VERTEX
  5
7E
330
7C
100
AcDbEntity
  8
Layer 1
 62
     7
420
 16777215
370
    18
100
AcDbVertex
100
AcDb2dVertex
 10
317.5351398945746
 20
105.6218044440807
 30
0.0
  0
VERTEX
  5
7F
330
7C
100
AcDbEntity
  8
Layer 1
 62
     7
420
 16777215
370
    18
100
AcDbVertex
100
AcDb2dVertex
 10
317.5351398945746
 20
106.6446532936513
 30
0.0
  0
VERTEX
  5
80
330
7C
100
AcDbEntity
  8
Layer 1
 62
     7
420
 16777215
370
    18
100
AcDbVertex
100
AcDb2dVertex
 10
320.533751004936
 20
106.150971110615
 30
0.0
  0
SEQEND
  5
81
330
7C
100
AcDbEntity
  8
Layer 1
370
    18
  0
POLYLINE
  5
C2
330
1F
100
AcDbEntity
  8
Layer 1
 62
     7
420
 16777215
370
    18
100
AcDb2dPolyline
 66
     1
 10
0.0
 20
0.0
 30
0.0
  0
VERTEX
  5
C3
330
C2
100
AcDbEntity
  8
Layer 1
 62
     7
420
 16777215
370
    18
100
AcDbVertex
100
AcDb2dVertex
 10
107.9499999730125
 20
128.6226399418027
 30
0.0
  0
VERTEX
  5
C4
330
C2
100
AcDbEntity
  8
Layer 1
 62
     7
420
 16777215
370
    18
100
AcDbVertex
100
AcDb2dVertex
 10
107.4208333064781
 20
131.6212510521641
 30
0.0
  0
VERTEX
  5
C5
330
C2
100
AcDbEntity
  8
Layer 1
 62
     7
420
 16777215
370
    18
100
AcDbVertex
100
AcDb2dVertex
 10
108.4438544108231
 20
131.6212510521641
 30
0.0
  0
VERTEX
  5
C6
330
C2
100
AcDbEntity
  8
Layer 1
 62
     7
420
 16777215
370
    18
100
AcDbVertex
100
AcDb2dVertex
 10
107.9499999730125
 20
128.6226399418027
 30
0.0
  0
SEQEND
  5
C7
330
C2
100
AcDbEntity
  8
Layer 1
370
    18
  0
POLYLINE
  5
C8
330
1F
100
AcDbEntity
  8
Layer 1
 62
     7
420
 16777215
370
    18
100
AcDb2dPolyline
 66
     1
 10
0.0
 20
0.0
 30
0.0
  0
VERTEX
  5
C9
330
C8
100
AcDbEntity
  8
Layer 1
 62
     7
420
 16777215
370
    18
100
AcDbVertex
100
AcDb2dVertex
 10
107.9499999730125
 20
153.281944406124
 30
0.0
  0
VERTEX
  5
CA
330
C8
100
AcDbEntity
  8
Layer 1
 62
     7
420
 16777215
370
    18
100
AcDbVertex
100
AcDb2dVertex
 10
108.4438544108231
 20
150.2833332957625
 30
0.0
  0
VERTEX
  5
CB
330
C8
100
AcDbEntity
  8
Layer 1
 62
     7
420
 16777215
370
    18
100
AcDbVertex
100
AcDb2dVertex
 10
107.4208333064781
 20
150.2833332957625
 30
0.0
  0
VERTEX
  5
CC
330
C8
100
AcDbEntity
  8
Layer 1
 62
     7
420
 16777215
370
    18
100
AcDbVertex
100
AcDb2dVertex
 10
107.9499999730125
 20
153.281944406124
 30
0.0
  0
SEQEND
  5
CD
330
C8
100
AcDbEntity
  8
Layer 1
370
    18
  0
POLYLINE
  5
CE
330
1F
100
AcDbEntity
  8
Layer 1
  6
AI-Linetype-1
 62
     7
420
 16777215
370
    18
100
AcDb2dPolyline
 66
     1
 10
0.0
 20
0.0
 30
0.0
  0
VERTEX
  5
CF
330
CE
100
AcDbEntity
  8
Layer 1
  6
AI-Linetype-1
 62
     7
420
 16777215
370
    18
100
AcDbVertex
100
AcDb2dVertex
 10
229.7988931717169
 20
144.3040255715629
 30
0.0
  0
VERTEX
  5
D0
330
CE
100
AcDbEntity
  8
Layer 1
  6
AI-Linetype-1
 62
     7
420
 16777215
370
    18
100
AcDbVertex
100
AcDb2dVertex
 10
229.7988931717169
 20
152.1376559406982
 30
0.0
  0
SEQEND
  5
D1
330
CE
100
AcDbEntity
  8
Layer 1
  6
AI-Linetype-1
370
    18
  0
POLYLINE
  5
D3
330
1F
100
AcDbEntity
  8
Layer 1
  6
AI-Linetype-2
 62
     7
420
 16777215
370
    18
100
AcDb2dPolyline
 66
     1
 10
0.0
 20
0.0
 30
0.0
  0
VERTEX
  5
D4
330
D3
100
AcDbEntity
  8
Layer 1
  6
AI-Linetype-2
 62
     7
420
 16777215
370
    18
100
AcDbVertex
100
AcDb2dVertex
 10
226.4654187801891
 20
140.9708956895836
 30
0.0
  0
VERTEX
  5
D5
330
D3
100
AcDbEntity
  8
Layer 1
  6
AI-Linetype-2
 62
     7
420
 16777215
370
    18
100
AcDbVertex
100
AcDb2dVertex
 10
218.6323051753766
 20
140.9708956895836
 30
0.0
  0
SEQEND
  5
D6
330
D3
100
AcDbEntity
  8
Layer 1
  6
AI-Linetype-2
370
    18
  0
POLYLINE
  5
D8
330
1F
100
AcDbEntity
  8
Layer 1
  6
AI-Linetype-3
 62
     7
420
 16777215
370
    18
100
AcDb2dPolyline
 66
     1
 10
0.0
 20
0.0
 30
0.0
  0
VERTEX
  5
D9
330
D8
100
AcDbEntity
  8
Layer 1
  6
AI-Linetype-3
 62
     7
420
 16777215
370
    18
100
AcDbVertex
100
AcDb2dVertex
 10
229.7988931717169
 20
137.6374212980559
 30
0.0
  0
VERTEX
  5
DA
330
D8
100
AcDbEntity
  8
Layer 1
  6
AI-Linetype-3
 62
     7
420
 16777215
370
    18
100
AcDbVertex
100
AcDb2dVertex
 10
229.7988931717169
 20
129.8039631836949
 30
0.0
  0
SEQEND
  5
DB
330
D8
100
AcDbEntity
  8
Layer 1
  6
AI-Linetype-3
370
    18
  0
POLYLINE
  5
DD
330
1F
100
AcDbEntity
  8
Layer 1
  6
AI-Linetype-4
 62
     7
420
 16777215
370
    18
100
AcDb2dPolyline
 66
     1
 10
0.0
 20
0.0
 30
0.0
  0
VERTEX
  5
DE
330
DD
100
AcDbEntity
  8
Layer 1
  6
AI-Linetype-4
 62
     7
420
 16777215
370
    18
100
AcDbVertex
100
AcDb2dVertex
 10
233.1323675632447
 20
140.9708956895836
 30
0.0
  0
VERTEX
  5
DF
330
DD
100
AcDbEntity
  8
Layer 1
  6
AI-Linetype-4
 62
     7
420
 16777215
370
    18
100
AcDbVertex
100
AcDb2dVertex
 10
240.9658256776058
 20
140.9708956895836
 30
0.0
  0
SEQEND
  5
E0
330
DD
100
AcDbEntity
  8
Layer 1
  6
AI-Linetype-4
370
    18
  0
POLYLINE
  5
E2
330
1F
100
AcDbEntity
  8
Layer 1
 62
     7
420
 16777215
370
    18
100
AcDb2dPolyline
 66
     1
 10
0.0
 20
0.0
 30
0.0
  0
VERTEX
  5
E3
330
E2
100
AcDbEntity
  8
Layer 1
 62
     7
420
 16777215
370
    18
100
AcDbVertex
100
AcDb2dVertex
 10
229.7640977073159
 20
140.969862160938
 30
0.0
  0
VERTEX
  5
E4
330
E2
100
AcDbEntity
  8
Layer 1
 62
     7
420
 16777215
370
    18
100
AcDbVertex
100
AcDb2dVertex
 10
231.4573621383162
 20
140.969862160938
 30
0.0
  0
SEQEND
  5
E5
330
E2
100
AcDbEntity
  8
Layer 1
370
    18
  0
POLYLINE
  5
E6
330
1F
100
AcDbEntity
  8
Layer 1
 62
     7
420
 16777215
370
    18
100
AcDb2dPolyline
 66
     1
 10
0.0
 20
0.0
 30
0.0
  0
VERTEX
  5
E7
330
E6
100
AcDbEntity
  8
Layer 1
 62
     7
420
 16777215
370
    18
100
AcDbVertex
100
AcDb2dVertex
 10
229.7640977073159
 20
140.969862160938
 30
0.0
  0
VERTEX
  5
E8
330
E6
100
AcDbEntity
  8
Layer 1
 62
     7
420
 16777215
370
    18
100
AcDbVertex
100
AcDb2dVertex
 10
229.7640977073159
 20
139.2765977299378
 30
0.0
  0
SEQEND
  5
E9
330
E6
100
AcDbEntity
  8
Layer 1
370
    18
  0
POLYLINE
  5
EA
330
1F
100
AcDbEntity
  8
Layer 1
 62
     7
420
 16777215
370
    18
100
AcDb2dPolyline
 66
     1
 10
0.0
 20
0.0
 30
0.0
  0
VERTEX
  5
EB
330
EA
100
AcDbEntity
  8
Layer 1
 62
     7
420
 16777215
370
    18
100
AcDbVertex
100
AcDb2dVertex
 10
229.7640977073159
 20
140.969862160938
 30
0.0
  0
VERTEX
  5
EC
330
EA
100
AcDbEntity
  8
Layer 1
 62
     7
420
 16777215
370
    18
100
AcDbVertex
100
AcDb2dVertex
 10
228.1059732502652
 20
140.969862160938
 30
0.0
  0
SEQEND
  5
ED
330
EA
100
AcDbEntity
  8
Layer 1
370
    18
  0
POLYLINE
  5
EE
330
1F
100
AcDbEntity
  8
Layer 1
 62
     7
420
 16777215
370
    18
100
AcDb2dPolyline
 66
     1
 10
0.0
 20
0.0
 30
0.0
  0
VERTEX
  5
EF
330
EE
100
AcDbEntity
  8
Layer 1
 62
     7
420
 16777215
370
    18
100
AcDbVertex
100
AcDb2dVertex
 10
229.7640977073159
 20
140.969862160938
 30
0.0
  0
VERTEX
  5
F0
330
EE
100
AcDbEntity
  8
Layer 1
 62
     7
420
 16777215
370
    18
100
AcDbVertex
100
AcDb2dVertex
 10
229.7640977073159
 20
142.6279866179889
 30
0.0
  0
SEQEND
  5
F1
330
EE
100
AcDbEntity
  8
Layer 1
370
    18
  0
POLYLINE
  5
F2
330
1F
100
AcDbEntity
  8
Layer 1
  6
AI-Linetype-5
 62
     7
420
 16777215
370
    18
100
AcDb2dPolyline
 66
     1
 10
0.0
 20
0.0
 30
0.0
  0
VERTEX
  5
F3
330
F2
100
AcDbEntity
  8
Layer 1
  6
AI-Linetype-5
 62
     7
420
 16777215
370
    18
100
AcDbVertex
100
AcDb2dVertex
 10
134.577487488057
 20
153.964417821752
 30
0.0
  0
VERTEX
  5
F4
330
F2
100
AcDbEntity
  8
Layer 1
  6
AI-Linetype-5
 62
     7
420
 16777215
370
    18
100
AcDbVertex
100
AcDb2dVertex
 10
134.577487488057
 20
128.0483425244115
 30
0.0
  0
SEQEND
  5
F5
330
F2
100
AcDbEntity
  8
Layer 1
  6
AI-Linetype-5
370
    18
  0
POLYLINE
  5
F7
330
1F
100
AcDbEntity
  8
Layer 1
  6
AI-Linetype-6
 62
     7
420
 16777215
370
    18
100
AcDb2dPolyline
 66
     1
 10
0.0
 20
0.0
 30
0.0
  0
VERTEX
  5
F8
330
F7
100
AcDbEntity
  8
Layer 1
  6
AI-Linetype-6
 62
     7
420
 16777215
370
    18
100
AcDbVertex
100
AcDb2dVertex
 10
147.4158080686148
 20
140.9708956895836
 30
0.0
  0
VERTEX
  5
F9
330
F7
100
AcDbEntity
  8
Layer 1
  6
AI-Linetype-6
 62
     7
420
 16777215
370
    18
100
AcDbVertex
100
AcDb2dVertex
 10
121.4444389887361
 20
140.9708956895836
 30
0.0
  0
SEQEND
  5
FA
330
F7
100
AcDbEntity
  8
Layer 1
  6
AI-Linetype-6
370
    18
  0
POLYLINE
  5
FC
330
1F
100
AcDbEntity
  8
Layer 1
 62
     7
420
 16777215
370
    18
100
AcDb2dPolyline
 66
     1
 10
0.0
 20
0.0
 30
0.0
  0
VERTEX
  5
FD
330
FC
100
AcDbEntity
  8
Layer 1
 62
     7
420
 16777215
370
    18
100
AcDbVertex
100
AcDb2dVertex
 10
146.8966321789877
 20
168.9452432845866
 30
0.0
  0
VERTEX
  5
FE
330
FC
100
AcDbEntity
  8
Layer 1
 62
     7
420
 16777215
370
    18
100
AcDbVertex
100
AcDb2dVertex
 10
122.2374999694406
 20
168.9452432845866
 30
0.0
  0
SEQEND
  5
FF
330
FC
100
AcDbEntity
  8
Layer 1
370
    18
  0
POLYLINE
  5
100
330
1F
100
AcDbEntity
  8
Layer 1
 62
     7
420
 16777215
370
    18
100
AcDb2dPolyline
 66
     1
 10
0.0
 20
0.0
 30
0.0
  0
VERTEX
  5
101
330
100
100
AcDbEntity
  8
Layer 1
 62
     7
420
 16777215
370
    18
100
AcDbVertex
100
AcDb2dVertex
 10
122.2374999694406
 20
141.9579155461078
 30
0.0
  0
VERTEX
  5
102
330
100
100
AcDbEntity
  8
Layer 1
 62
     7
420
 16777215
370
    18
100
AcDbVertex
100
AcDb2dVertex
 10
122.2374999694406
 20
169.933124414982
 30
0.0
  0
SEQEND
  5
103
330
100
100
AcDbEntity
  8
Layer 1
370
    18
  0
POLYLINE
  5
104
330
1F
100
AcDbEntity
  8
Layer 1
 62
     7
420
 16777215
370
    18
100
AcDb2dPolyline
 66
     1
 10
0.0
 20
0.0
 30
0.0
  0
VERTEX
  5
105
330
104
100
AcDbEntity
  8
Layer 1
 62
     7
420
 16777215
370
    18
100
AcDbVertex
100
AcDb2dVertex
 10
146.8966321789877
 20
141.9579155461078
 30
0.0
  0
VERTEX
  5
106
330
104
100
AcDbEntity
  8
Layer 1
 62
     7
420
 16777215
370
    18
100
AcDbVertex
100
AcDb2dVertex
 10
146.8966321789877
 20
169.933124414982
 30
0.0
  0
SEQEND
  5
107
330
104
100
AcDbEntity
  8
Layer 1
370
    18
  0
POLYLINE
  5
108
330
1F
100
AcDbEntity
  8
Layer 1
 62
     7
420
 16777215
370
    18
100
AcDb2dPolyline
 66
     1
 10
0.0
 20
0.0
 30
0.0
  0
VERTEX
  5
109
330
108
100
AcDbEntity
  8
Layer 1
 62
     7
420
 16777215
370
    18
100
AcDbVertex
100
AcDb2dVertex
 10
154.5519788567613
 20
176.9533677400499
 30
0.0
  0
VERTEX
  5
10A
330
108
100
AcDbEntity
  8
Layer 1
 62
     7
420
 16777215
370
    18
100
AcDbVertex
100
AcDb2dVertex
 10
114.5470133177174
 20
176.9533677400499
 30
0.0
  0
SEQEND
  5
10B
330
108
100
AcDbEntity
  8
Layer 1
370
    18
  0
POLYLINE
  5
10C
330
1F
100
AcDbEntity
  8
Layer 1
 62
     7
420
 16777215
370
    18
100
AcDb2dPolyline
 66
     1
 10
0.0
 20
0.0
 30
0.0
  0
VERTEX
  5
10D
330
10C
100
AcDbEntity
  8
Layer 1
 62
     7
420
 16777215
370
    18
100
AcDbVertex
100
AcDb2dVertex
 10
114.5470133177174
 20
158.6089233001915
 30
0.0
  0
VERTEX
  5
10E
330
10C
100
AcDbEntity
  8
Layer 1
 62
     7
420
 16777215
370
    18
100
AcDbVertex
100
AcDb2dVertex
 10
114.5470133177174
 20
177.941076615671
 30
0.0
  0
SEQEND
  5
10F
330
10C
100
AcDbEntity
  8
Layer 1
370
    18
  0
POLYLINE
  5
110
330
1F
100
AcDbEntity
  8
Layer 1
 62
     7
420
 16777215
370
    18
100
AcDb2dPolyline
 66
     1
 10
0.0
 20
0.0
 30
0.0
  0
VERTEX
  5
111
330
110
100
AcDbEntity
  8
Layer 1
 62
     7
420
 16777215
370
    18
100
AcDbVertex
100
AcDb2dVertex
 10
154.5519788567613
 20
158.6089233001915
 30
0.0
  0
VERTEX
  5
112
330
110
100
AcDbEntity
  8
Layer 1
 62
     7
420
 16777215
370
    18
100
AcDbVertex
100
AcDb2dVertex
 10
154.5519788567613
 20
177.941076615671
 30
0.0
  0
SEQEND
  5
113
330
110
100
AcDbEntity
  8
Layer 1
370
    18
  0
POLYLINE
  5
114
330
1F
100
AcDbEntity
  8
Layer 1
 62
     7
420
 16777215
370
    18
100
AcDb2dPolyline
 66
     1
 10
0.0
 20
0.0
 30
0.0
  0
VERTEX
  5
115
330
114
100
AcDbEntity
  8
Layer 1
 62
     7
420
 16777215
370
    18
100
AcDbVertex
100
AcDb2dVertex
 10
316.8650688226934
 20
114.2293755139774
 30
0.0
  0
VERTEX
  5
116
330
114
100
AcDbEntity
  8
Layer 1
 62
     7
420
 16777215
370
    18
100
AcDbVertex
100
AcDb2dVertex
 10
300.4960421340773
 20
114.2293755139774
 30
0.0
  0
SEQEND
  5
117
330
114
100
AcDbEntity
  8
Layer 1
370
    18
  0
POLYLINE
  5
118
330
1F
100
AcDbEntity
  8
Layer 1
 62
     7
420
 16777215
370
    18
100
AcDb2dPolyline
 66
     1
 10
0.0
 20
0.0
 30
0.0
  0
VERTEX
  5
119
330
118
100
AcDbEntity
  8
Layer 1
 62
     7
420
 16777215
370
    18
100
AcDbVertex
100
AcDb2dVertex
 10
320.533751004936
 20
114.2293755139774
 30
0.0
  0
VERTEX
  5
11A
330
118
100
AcDbEntity
  8
Layer 1
 62
     7
420
 16777215
370
    18
100
AcDbVertex
100
AcDb2dVertex
 10
316.8650688226934
 20
114.2293755139774
 30
0.0
  0
SEQEND
  5
11B
330
118
100
AcDbEntity
  8
Layer 1
370
    18
  0
POLYLINE
  5
11C
330
1F
100
AcDbEntity
  8
Layer 1
 62
     7
420
 16777215
370
    18
100
AcDb2dPolyline
 66
     1
 10
0.0
 20
0.0
 30
0.0
  0
VERTEX
  5
11D
330
11C
100
AcDbEntity
  8
Layer 1
 62
     7
420
 16777215
370
    18
100
AcDbVertex
100
AcDb2dVertex
 10
320.533751004936
 20
114.2293755139774
 30
0.0
  0
VERTEX
  5
11E
330
11C
100
AcDbEntity
  8
Layer 1
 62
     7
420
 16777215
370
    18
100
AcDbVertex
100
AcDb2dVertex
 10
324.8731932781567
 20
114.2293755139774
 30
0.0
  0
SEQEND
  5
11F
330
11C
100
AcDbEntity
  8
Layer 1
370
    18
  0
POLYLINE
  5
120
330
1F
100
AcDbEntity
  8
Layer 1
 62
     7
420
 16777215
370
    18
100
AcDb2dPolyline
 66
     1
 10
0.0
 20
0.0
 30
0.0
  0
VERTEX
  5
121
330
120
100
AcDbEntity
  8
Layer 1
 62
     7
420
 16777215
370
    18
100
AcDbVertex
100
AcDb2dVertex
 10
316.8650688226934
 20
119.9444444144583
 30
0.0
  0
VERTEX
  5
122
330
120
100
AcDbEntity
  8
Layer 1
 62
     7
420
 16777215
370
    18
100
AcDbVertex
100
AcDb2dVertex
 10
316.8650688226934
 20
113.2416666383563
 30
0.0
  0
SEQEND
  5
123
330
120
100
AcDbEntity
  8
Layer 1
370
    18
  0
POLYLINE
  5
124
330
1F
100
AcDbEntity
  8
Layer 1
 62
     7
420
 16777215
370
    18
100
AcDb2dPolyline
 66
     1
 10
0.0
 20
0.0
 30
0.0
  0
VERTEX
  5
125
330
124
100
AcDbEntity
  8
Layer 1
 62
     7
420
 16777215
370
    18
100
AcDbVertex
100
AcDb2dVertex
 10
320.533751004936
 20
119.9444444144583
 30
0.0
  0
VERTEX
  5
126
330
124
100
AcDbEntity
  8
Layer 1
 62
     7
420
 16777215
370
    18
100
AcDbVertex
100
AcDb2dVertex
 10
320.533751004936
 20
113.2416666383563
 30
0.0
  0
SEQEND
  5
127
330
124
100
AcDbEntity
  8
Layer 1
370
    18
  0
POLYLINE
  5
128
330
1F
100
AcDbEntity
  8
Layer 1
 62
     7
420
 16777215
370
    18
100
AcDb2dPolyline
 66
     1
 10
0.0
 20
0.0
 30
0.0
  0
VERTEX
  5
129
330
128
100
AcDbEntity
  8
Layer 1
 62
     7
420
 16777215
370
    18
100
AcDbVertex
100
AcDb2dVertex
 10
320.533751004936
 20
106.150971110615
 30
0.0
  0
VERTEX
  5
12A
330
128
100
AcDbEntity
  8
Layer 1
 62
     7
420
 16777215
370
    18
100
AcDbVertex
100
AcDb2dVertex
 10
285.1856932880786
 20
106.150971110615
 30
0.0
  0
SEQEND
  5
12B
330
128
100
AcDbEntity
  8
Layer 1
370
    18
  0
POLYLINE
  5
12C
330
1F
100
AcDbEntity
  8
Layer 1
 62
     7
420
 16777215
370
    18
100
AcDb2dPolyline
 66
     1
 10
0.0
 20
0.0
 30
0.0
  0
VERTEX
  5
12D
330
12C
100
AcDbEntity
  8
Layer 1
 62
     7
420
 16777215
370
    18
100
AcDbVertex
100
AcDb2dVertex
 10
285.1856932880786
 20
127.6349310661816
 30
0.0
  0
VERTEX
  5
12E
330
12C
100
AcDbEntity
  8
Layer 1
 62
     7
420
 16777215
370
    18
100
AcDbVertex
100
AcDb2dVertex
 10
285.1856932880786
 20
105.1277777514958
 30
0.0
  0
SEQEND
  5
12F
330
12C
100
AcDbEntity
  8
Layer 1
370
    18
  0
POLYLINE
  5
130
330
1F
100
AcDbEntity
  8
Layer 1
 62
     7
420
 16777215
370
    18
100
AcDb2dPolyline
 66
     1
 10
0.0
 20
0.0
 30
0.0
  0
VERTEX
  5
131
330
130
100
AcDbEntity
  8
Layer 1
 62
     7
420
 16777215
370
    18
100
AcDbVertex
100
AcDb2dVertex
 10
320.533751004936
 20
119.9444444144583
 30
0.0
  0
VERTEX
  5
132
330
130
100
AcDbEntity
  8
Layer 1
 62
     7
420
 16777215
370
    18
100
AcDbVertex
100
AcDb2dVertex
 10
320.533751004936
 20
105.1277777514958
 30
0.0
  0
SEQEND
  5
133
330
130
100
AcDbEntity
  8
Layer 1
370
    18
  0
POLYLINE
  5
134
330
1F
100
AcDbEntity
  8
Layer 1
 62
     7
420
 16777215
370
    18
100
AcDb2dPolyline
 66
     1
 10
0.0
 20
0.0
 30
0.0
  0
VERTEX
  5
135
330
134
100
AcDbEntity
  8
Layer 1
 62
     7
420
 16777215
370
    18
100
AcDbVertex
100
AcDb2dVertex
 10
107.9499999730125
 20
153.281944406124
 30
0.0
  0
VERTEX
  5
136
330
134
100
AcDbEntity
  8
Layer 1
 62
     7
420
 16777215
370
    18
100
AcDbVertex
100
AcDb2dVertex
 10
107.9499999730125
 20
128.6226399418027
 30
0.0
  0
SEQEND
  5
137
330
134
100
AcDbEntity
  8
Layer 1
370
    18
  0
POLYLINE
  5
138
330
1F
100
AcDbEntity
  8
Layer 1
 62
     7
420
 16777215
370
    18
100
AcDb2dPolyline
 66
     1
 10
0.0
 20
0.0
 30
0.0
  0
VERTEX
  5
139
330
138
100
AcDbEntity
  8
Layer 1
 62
     7
420
 16777215
370
    18
100
AcDbVertex
100
AcDb2dVertex
 10
133.5617010842311
 20
128.6226399418027
 30
0.0
  0
VERTEX
  5
13A
330
138
100
AcDbEntity
  8
Layer 1
 62
     7
420
 16777215
370
    18
100
AcDbVertex
100
AcDb2dVertex
 10
106.9269788686676
 20
128.6226399418027
 30
0.0
  0
SEQEND
  5
13B
330
138
100
AcDbEntity
  8
Layer 1
370
    18
  0
POLYLINE
  5
13C
330
1F
100
AcDbEntity
  8
Layer 1
 62
     7
420
 16777215
370
    18
100
AcDb2dPolyline
 66
     1
 10
0.0
 20
0.0
 30
0.0
  0
VERTEX
  5
13D
330
13C
100
AcDbEntity
  8
Layer 1
 62
     7
420
 16777215
370
    18
100
AcDbVertex
100
AcDb2dVertex
 10
133.5617010842311
 20
153.281944406124
 30
0.0
  0
VERTEX
  5
13E
330
13C
100
AcDbEntity
  8
Layer 1
 62
     7
420
 16777215
370
    18
100
AcDbVertex
100
AcDb2dVertex
 10
106.9269788686676
 20
153.281944406124
 30
0.0
  0
SEQEND
  5
13F
330
13C
100
AcDbEntity
  8
Layer 1
370
    18
  0
POLYLINE
  5
140
330
1F
100
AcDbEntity
  8
Layer 1
370
     0
100
AcDb2dPolyline
 66
     1
 10
0.0
 20
0.0
 30
0.0
  0
VERTEX
  5
141
330
140
100
AcDbEntity
  8
Layer 1
370
     0
100
AcDbVertex
100
AcDb2dVertex
 10
122.2374999694406
 20
168.9452432845866
 30
0.0
  0
VERTEX
  5
142
330
140
100
AcDbEntity
  8
Layer 1
370
     0
100
AcDbVertex
100
AcDb2dVertex
 10
125.2361110798021
 20
169.4390977223972
 30
0.0
  0
VERTEX
  5
143
330
140
100
AcDbEntity
  8
Layer 1
370
     0
100
AcDbVertex
100
AcDb2dVertex
 10
125.2361110798021
 20
168.451388846776
 30
0.0
  0
SEQEND
  5
144
330
140
100
AcDbEntity
  8
Layer 1
370
     0
  0
POLYLINE
  5
145
330
1F
100
AcDbEntity
  8
Layer 1
370
     0
100
AcDb2dPolyline
 66
     1
 10
0.0
 20
0.0
 30
0.0
  0
VERTEX
  5
146
330
145
100
AcDbEntity
  8
Layer 1
370
     0
100
AcDbVertex
100
AcDb2dVertex
 10
146.8966321789877
 20
168.9452432845866
 30
0.0
  0
VERTEX
  5
147
330
145
100
AcDbEntity
  8
Layer 1
370
     0
100
AcDbVertex
100
AcDb2dVertex
 10
143.8980210686262
 20
168.451388846776
 30
0.0
  0
VERTEX
  5
148
330
145
100
AcDbEntity
  8
Layer 1
370
     0
100
AcDbVertex
100
AcDb2dVertex
 10
143.8980210686262
 20
169.4390977223972
 30
0.0
  0
SEQEND
  5
149
330
145
100
AcDbEntity
  8
Layer 1
370
     0
  0
HATCH
  5
14A
330
1F
100
AcDbEntity
  8
Layer 1
 62
     7
420
 16777215
100
AcDbHatch
 10
0.0
 20
0.0
 30
0.0
210
0.0
220
0.0
230
1.0
  2
SOLID
 70
     1
 71
     0
 91
        2
 92
        1
 93
        3
 72
     1
 10
122.2374999694406
 20
168.9452432845866
 11
125.2361110798021
 21
169.4390977223972
 72
     1
 10
125.2361110798021
 20
169.4390977223972
 11
125.2361110798021
 21
168.451388846776
 72
     1
 10
125.2361110798021
 20
168.451388846776
 11
122.2374999694406
 21
168.9452432845866
 97
        0
 92
        1
 93
        3
 72
     1
 10
146.8966321789877
 20
168.9452432845866
 11
143.8980210686262
 21
168.451388846776
 72
     1
 10
143.8980210686262
 20
168.451388846776
 11
143.8980210686262
 21
169.4390977223972
 72
     1
 10
143.8980210686262
 20
169.4390977223972
 11
146.8966321789877
 21
168.9452432845866
 97
        0
 75
     2
 76
     1
 98
        0
450
        0
451
        0
460
0.0
461
0.0
452
        0
462
0.0
453
        0
470

  0
POLYLINE
  5
14B
330
1F
100
AcDbEntity
  8
Layer 1
370
     0
100
AcDb2dPolyline
 66
     1
 10
0.0
 20
0.0
 30
0.0
  0
VERTEX
  5
14C
330
14B
100
AcDbEntity
  8
Layer 1
370
     0
100
AcDbVertex
100
AcDb2dVertex
 10
114.5470133177174
 20
176.9533677400499
 30
0.0
  0
VERTEX
  5
14D
330
14B
100
AcDbEntity
  8
Layer 1
370
     0
100
AcDbVertex
100
AcDb2dVertex
 10
117.5456244280789
 20
177.4472221778604
 30
0.0
  0
VERTEX
  5
14E
330
14B
100
AcDbEntity
  8
Layer 1
370
     0
100
AcDbVertex
100
AcDb2dVertex
 10
117.5456244280789
 20
176.4595133022393
 30
0.0
  0
SEQEND
  5
14F
330
14B
100
AcDbEntity
  8
Layer 1
370
     0
  0
POLYLINE
  5
150
330
1F
100
AcDbEntity
  8
Layer 1
370
     0
100
AcDb2dPolyline
 66
     1
 10
0.0
 20
0.0
 30
0.0
  0
VERTEX
  5
151
330
150
100
AcDbEntity
  8
Layer 1
370
     0
100
AcDbVertex
100
AcDb2dVertex
 10
154.5519788567613
 20
176.9533677400499
 30
0.0
  0
VERTEX
  5
152
330
150
100
AcDbEntity
  8
Layer 1
370
     0
100
AcDbVertex
100
AcDb2dVertex
 10
151.5533677463999
 20
176.4595133022393
 30
0.0
  0
VERTEX
  5
153
330
150
100
AcDbEntity
  8
Layer 1
370
     0
100
AcDbVertex
100
AcDb2dVertex
 10
151.5533677463999
 20
177.4472221778604
 30
0.0
  0
SEQEND
  5
154
330
150
100
AcDbEntity
  8
Layer 1
370
     0
  0
POLYLINE
  5
155
330
1F
100
AcDbEntity
  8
Layer 1
370
     0
100
AcDb2dPolyline
 66
     1
 10
0.0
 20
0.0
 30
0.0
  0
VERTEX
  5
156
330
155
100
AcDbEntity
  8
Layer 1
370
     0
100
AcDbVertex
100
AcDb2dVertex
 10
316.8650688226934
 20
114.2293755139774
 30
0.0
  0
VERTEX
  5
157
330
155
100
AcDbEntity
  8
Layer 1
370
     0
100
AcDbVertex
100
AcDb2dVertex
 10
313.866457712332
 20
113.7356933309411
 30
0.0
  0
VERTEX
  5
158
330
155
100
AcDbEntity
  8
Layer 1
370
     0
100
AcDbVertex
100
AcDb2dVertex
 10
313.866457712332
 20
114.7234022065622
 30
0.0
  0
SEQEND
  5
159
330
155
100
AcDbEntity
  8
Layer 1
370
     0
  0
POLYLINE
  5
15A
330
1F
100
AcDbEntity
  8
Layer 1
370
     0
100
AcDb2dPolyline
 66
     1
 10
0.0
 20
0.0
 30
0.0
  0
VERTEX
  5
15B
330
15A
100
AcDbEntity
  8
Layer 1
370
     0
100
AcDbVertex
100
AcDb2dVertex
 10
320.533751004936
 20
114.2293755139774
 30
0.0
  0
VERTEX
  5
15C
330
15A
100
AcDbEntity
  8
Layer 1
370
     0
100
AcDbVertex
100
AcDb2dVertex
 10
323.5323621152975
 20
114.7234022065622
 30
0.0
  0
VERTEX
  5
15D
330
15A
100
AcDbEntity
  8
Layer 1
370
     0
100
AcDbVertex
100
AcDb2dVertex
 10
323.5323621152975
 20
113.7356933309411
 30
0.0
  0
SEQEND
  5
15E
330
15A
100
AcDbEntity
  8
Layer 1
370
     0
  0
POLYLINE
  5
15F
330
1F
100
AcDbEntity
  8
Layer 1
370
     0
100
AcDb2dPolyline
 66
     1
 10
0.0
 20
0.0
 30
0.0
  0
VERTEX
  5
160
330
15F
100
AcDbEntity
  8
Layer 1
370
     0
100
AcDbVertex
100
AcDb2dVertex
 10
285.1856932880786
 20
106.150971110615
 30
0.0
  0
VERTEX
  5
161
330
15F
100
AcDbEntity
  8
Layer 1
370
     0
100
AcDbVertex
100
AcDb2dVertex
 10
288.1843043984401
 20
106.6446532936513
 30
0.0
  0
VERTEX
  5
162
330
15F
100
AcDbEntity
  8
Layer 1
370
     0
100
AcDbVertex
100
AcDb2dVertex
 10
288.1843043984401
 20
105.6218044440807
 30
0.0
  0
SEQEND
  5
163
330
15F
100
AcDbEntity
  8
Layer 1
370
     0
  0
POLYLINE
  5
164
330
1F
100
AcDbEntity
  8
Layer 1
370
     0
100
AcDb2dPolyline
 66
     1
 10
0.0
 20
0.0
 30
0.0
  0
VERTEX
  5
165
330
164
100
AcDbEntity
  8
Layer 1
370
     0
100
AcDbVertex
100
AcDb2dVertex
 10
320.533751004936
 20
106.150971110615
 30
0.0
  0
VERTEX
  5
166
330
164
100
AcDbEntity
  8
Layer 1
370
     0
100
AcDbVertex
100
AcDb2dVertex
 10
317.5351398945746
 20
105.6218044440807
 30
0.0
  0
VERTEX
  5
167
330
164
100
AcDbEntity
  8
Layer 1
370
     0
100
AcDbVertex
100
AcDb2dVertex
 10
317.5351398945746
 20
106.6446532936513
 30
0.0
  0
SEQEND
  5
168
330
164
100
AcDbEntity
  8
Layer 1
370
     0
  0
HATCH
  5
169
330
1F
100
AcDbEntity
  8
Layer 1
 62
     7
420
 16777215
100
AcDbHatch
 10
0.0
 20
0.0
 30
0.0
210
0.0
220
0.0
230
1.0
  2
SOLID
 70
     1
 71
     0
 91
        6
 92
        1
 93
        3
 72
     1
 10
114.5470133177174
 20
176.9533677400499
 11
117.5456244280789
 21
177.4472221778604
 72
     1
 10
117.5456244280789
 20
177.4472221778604
 11
117.5456244280789
 21
176.4595133022393
 72
     1
 10
117.5456244280789
 20
176.4595133022393
 11
114.5470133177174
 21
176.9533677400499
 97
        0
 92
        1
 93
        3
 72
     1
 10
154.5519788567613
 20
176.9533677400499
 11
151.5533677463999
 21
176.4595133022393
 72
     1
 10
151.5533677463999
 20
176.4595133022393
 11
151.5533677463999
 21
177.4472221778604
 72
     1
 10
151.5533677463999
 20
177.4472221778604
 11
154.5519788567613
 21
176.9533677400499
 97
        0
 92
        1
 93
        3
 72
     1
 10
316.8650688226934
 20
114.2293755139774
 11
313.866457712332
 21
113.7356933309411
 72
     1
 10
313.866457712332
 20
113.7356933309411
 11
313.866457712332
 21
114.7234022065622
 72
     1
 10
313.866457712332
 20
114.7234022065622
 11
316.8650688226934
 21
114.2293755139774
 97
        0
 92
        1
 93
        3
 72
     1
 10
320.533751004936
 20
114.2293755139774
 11
323.5323621152975
 21
114.7234022065622
 72
     1
 10
323.5323621152975
 20
114.7234022065622
 11
323.5323621152975
 21
113.7356933309411
 72
     1
 10
323.5323621152975
 20
113.7356933309411
 11
320.533751004936
 21
114.2293755139774
 97
        0
 92
        1
 93
        3
 72
     1
 10
285.1856932880786
 20
106.150971110615
 11
288.1843043984401
 21
106.6446532936513
 72
     1
 10
288.1843043984401
 20
106.6446532936513
 11
288.1843043984401
 21
105.6218044440807
 72
     1
 10
288.1843043984401
 20
105.6218044440807
 11
285.1856932880786
 21
106.150971110615
 97
        0
 92
        1
 93
        3
 72
     1
 10
320.533751004936
 20
106.150971110615
 11
317.5351398945746
 21
105.6218044440807
 72
     1
 10
317.5351398945746
 20
105.6218044440807
 11
317.5351398945746
 21
106.6446532936513
 72
     1
 10
317.5351398945746
 20
106.6446532936513
 11
320.533751004936
 21
106.150971110615
 97
        0
 75
     2
 76
     1
 98
        0
450
        0
451
        0
460
0.0
461
0.0
452
        0
462
0.0
453
        0
470

  0
POLYLINE
  5
16A
330
1F
100
AcDbEntity
  8
Layer 1
370
     0
100
AcDb2dPolyline
 66
     1
 10
0.0
 20
0.0
 30
0.0
  0
VERTEX
  5
16B
330
16A
100
AcDbEntity
  8
Layer 1
370
     0
100
AcDbVertex
100
AcDb2dVertex
 10
107.9499999730125
 20
128.6226399418027
 30
0.0
  0
VERTEX
  5
16C
330
16A
100
AcDbEntity
  8
Layer 1
370
     0
100
AcDbVertex
100
AcDb2dVertex
 10
107.4208333064781
 20
131.6212510521641
 30
0.0
  0
VERTEX
  5
16D
330
16A
100
AcDbEntity
  8
Layer 1
370
     0
100
AcDbVertex
100
AcDb2dVertex
 10
108.4438544108231
 20
131.6212510521641
 30
0.0
  0
SEQEND
  5
16E
330
16A
100
AcDbEntity
  8
Layer 1
370
     0
  0
POLYLINE
  5
16F
330
1F
100
AcDbEntity
  8
Layer 1
370
     0
100
AcDb2dPolyline
 66
     1
 10
0.0
 20
0.0
 30
0.0
  0
VERTEX
  5
170
330
16F
100
AcDbEntity
  8
Layer 1
370
     0
100
AcDbVertex
100
AcDb2dVertex
 10
107.9499999730125
 20
153.281944406124
 30
0.0
  0
VERTEX
  5
171
330
16F
100
AcDbEntity
  8
Layer 1
370
     0
100
AcDbVertex
100
AcDb2dVertex
 10
108.4438544108231
 20
150.2833332957625
 30
0.0
  0
VERTEX
  5
172
330
16F
100
AcDbEntity
  8
Layer 1
370
     0
100
AcDbVertex
100
AcDb2dVertex
 10
107.4208333064781
 20
150.2833332957625
 30
0.0
  0
SEQEND
  5
173
330
16F
100
AcDbEntity
  8
Layer 1
370
     0
  0
HATCH
  5
174
330
1F
100
AcDbEntity
  8
Layer 1
 62
     7
420
 16777215
100
AcDbHatch
 10
0.0
 20
0.0
 30
0.0
210
0.0
220
0.0
230
1.0
  2
SOLID
 70
     1
 71
     0
 91
        2
 92
        1
 93
        3
 72
     1
 10
107.9499999730125
 20
128.6226399418027
 11
107.4208333064781
 21
131.6212510521641
 72
     1
 10
107.4208333064781
 20
131.6212510521641
 11
108.4438544108231
 21
131.6212510521641
 72
     1
 10
108.4438544108231
 20
131.6212510521641
 11
107.9499999730125
 21
128.6226399418027
 97
        0
 92
        1
 93
        3
 72
     1
 10
107.9499999730125
 20
153.281944406124
 11
108.4438544108231
 21
150.2833332957625
 72
     1
 10
108.4438544108231
 20
150.2833332957625
 11
107.4208333064781
 21
150.2833332957625
 72
     1
 10
107.4208333064781
 20
150.2833332957625
 11
107.9499999730125
 21
153.281944406124
 97
        0
 75
     2
 76
     1
 98
        0
450
        0
451
        0
460
0.0
461
0.0
452
        0
462
0.0
453
        0
470

  0
POLYLINE
  5
175
330
1F
100
AcDbEntity
  8
Layer 1
 62
     7
420
 16777215
370
    25
100
AcDb2dPolyline
 66
     1
 10
0.0
 20
0.0
 30
0.0
  0
VERTEX
  5
176
330
175
100
AcDbEntity
  8
Layer 1
 62
     7
420
 16777215
370
    25
100
AcDbVertex
100
AcDb2dVertex
 10
320.533751004936
 20
124.2835421781305
 30
0.0
  0
VERTEX
  5
177
330
175
100
AcDbEntity
  8
Layer 1
 62
     7
420
 16777215
370
    25
100
AcDbVertex
100
AcDb2dVertex
 10
320.533751004936
 20
123.648611080199
 30
0.0
  0
VERTEX
  5
178
330
175
100
AcDbEntity
  8
Layer 1
 62
     7
420
 16777215
370
    25
100
AcDbVertex
100
AcDb2dVertex
 10
320.533751004936
 20
123.0136799822674
 30
0.0
  0
VERTEX
  5
179
330
175
100
AcDbEntity
  8
Layer 1
 62
     7
420
 16777215
370
    25
100
AcDbVertex
100
AcDb2dVertex
 10
320.533751004936
 20
122.449028832235
 30
0.0
  0
VERTEX
  5
17A
330
175
100
AcDbEntity
  8
Layer 1
 62
     7
420
 16777215
370
    25
100
AcDbVertex
100
AcDb2dVertex
 10
320.533751004936
 20
121.9198621657006
 30
0.0
  0
VERTEX
  5
17B
330
175
100
AcDbEntity
  8
Layer 1
 62
     7
420
 16777215
370
    25
100
AcDbVertex
100
AcDb2dVertex
 10
320.533751004936
 20
121.5319444140615
 30
0.0
  0
VERTEX
  5
17C
330
175
100
AcDbEntity
  8
Layer 1
 62
     7
420
 16777215
370
    25
100
AcDbVertex
100
AcDb2dVertex
 10
320.533751004936
 20
121.2143066103214
 30
0.0
  0
VERTEX
  5
17D
330
175
100
AcDbEntity
  8
Layer 1
 62
     7
420
 16777215
370
    25
100
AcDbVertex
100
AcDb2dVertex
 10
320.533751004936
 20
121.0027777475271
 30
0.0
  0
VERTEX
  5
17E
330
175
100
AcDbEntity
  8
Layer 1
 62
     7
420
 16777215
370
    25
100
AcDbVertex
100
AcDb2dVertex
 10
320.533751004936
 20
120.9676377735775
 30
0.0
  0
SEQEND
  5
17F
330
175
100
AcDbEntity
  8
Layer 1
370
    25
  0
POLYLINE
  5
180
330
1F
100
AcDbEntity
  8
Layer 1
 62
     7
420
 16777215
370
    25
100
AcDb2dPolyline
 66
     1
 10
0.0
 20
0.0
 30
0.0
  0
VERTEX
  5
181
330
180
100
AcDbEntity
  8
Layer 1
 62
     7
420
 16777215
370
    25
100
AcDbVertex
100
AcDb2dVertex
 10
316.8650688226934
 20
120.9676377735775
 30
0.0
  0
VERTEX
  5
182
330
180
100
AcDbEntity
  8
Layer 1
 62
     7
420
 16777215
370
    25
100
AcDbVertex
100
AcDb2dVertex
 10
316.8650688226934
 20
121.0027777475271
 30
0.0
  0
VERTEX
  5
183
330
180
100
AcDbEntity
  8
Layer 1
 62
     7
420
 16777215
370
    25
100
AcDbVertex
100
AcDb2dVertex
 10
316.8650688226934
 20
121.2143066103214
 30
0.0
  0
VERTEX
  5
184
330
180
100
AcDbEntity
  8
Layer 1
 62
     7
420
 16777215
370
    25
100
AcDbVertex
100
AcDb2dVertex
 10
316.8650688226934
 20
121.5319444140615
 30
0.0
  0
VERTEX
  5
185
330
180
100
AcDbEntity
  8
Layer 1
 62
     7
420
 16777215
370
    25
100
AcDbVertex
100
AcDb2dVertex
 10
316.8650688226934
 20
121.9198621657006
 30
0.0
  0
VERTEX
  5
186
330
180
100
AcDbEntity
  8
Layer 1
 62
     7
420
 16777215
370
    25
100
AcDbVertex
100
AcDb2dVertex
 10
316.8650688226934
 20
122.449028832235
 30
0.0
  0
VERTEX
  5
187
330
180
100
AcDbEntity
  8
Layer 1
 62
     7
420
 16777215
370
    25
100
AcDbVertex
100
AcDb2dVertex
 10
316.8650688226934
 20
123.0136799822674
 30
0.0
  0
VERTEX
  5
188
330
180
100
AcDbEntity
  8
Layer 1
 62
     7
420
 16777215
370
    25
100
AcDbVertex
100
AcDb2dVertex
 10
316.8650688226934
 20
123.648611080199
 30
0.0
  0
VERTEX
  5
189
330
180
100
AcDbEntity
  8
Layer 1
 62
     7
420
 16777215
370
    25
100
AcDbVertex
100
AcDb2dVertex
 10
316.8650688226934
 20
124.2835421781305
 30
0.0
  0
SEQEND
  5
18A
330
180
100
AcDbEntity
  8
Layer 1
370
    25
  0
POLYLINE
  5
18B
330
1F
100
AcDbEntity
  8
Layer 1
 62
     7
420
 16777215
370
    25
100
AcDb2dPolyline
 66
     1
 10
0.0
 20
0.0
 30
0.0
  0
VERTEX
  5
18C
330
18B
100
AcDbEntity
  8
Layer 1
 62
     7
420
 16777215
370
    25
100
AcDbVertex
100
AcDb2dVertex
 10
320.533751004936
 20
120.9676377735775
 30
0.0
  0
VERTEX
  5
18D
330
18B
100
AcDbEntity
  8
Layer 1
 62
     7
420
 16777215
370
    25
100
AcDbVertex
100
AcDb2dVertex
 10
316.8650688226934
 20
120.9676377735775
 30
0.0
  0
SEQEND
  5
18E
330
18B
100
AcDbEntity
  8
Layer 1
370
    25
  0
POLYLINE
  5
18F
330
1F
100
AcDbEntity
  8
Layer 1
 62
     7
420
 16777215
370
    25
100
AcDb2dPolyline
 66
     1
 10
0.0
 20
0.0
 30
0.0
  0
VERTEX
  5
190
330
18F
100
AcDbEntity
  8
Layer 1
 62
     7
420
 16777215
370
    25
100
AcDbVertex
100
AcDb2dVertex
 10
320.533751004936
 20
124.2835421781305
 30
0.0
  0
VERTEX
  5
191
330
18F
100
AcDbEntity
  8
Layer 1
 62
     7
420
 16777215
370
    25
100
AcDbVertex
100
AcDb2dVertex
 10
320.533751004936
 20
157.6210421697961
 30
0.0
  0
SEQEND
  5
192
330
18F
100
AcDbEntity
  8
Layer 1
370
    25
  0
POLYLINE
  5
193
330
1F
100
AcDbEntity
  8
Layer 1
 62
     7
420
 16777215
370
    25
100
AcDb2dPolyline
 66
     1
 10
0.0
 20
0.0
 30
0.0
  0
VERTEX
  5
194
330
193
100
AcDbEntity
  8
Layer 1
 62
     7
420
 16777215
370
    25
100
AcDbVertex
100
AcDb2dVertex
 10
316.8650688226934
 20
124.2835421781305
 30
0.0
  0
VERTEX
  5
195
330
193
100
AcDbEntity
  8
Layer 1
 62
     7
420
 16777215
370
    25
100
AcDbVertex
100
AcDb2dVertex
 10
316.8650688226934
 20
157.6210421697961
 30
0.0
  0
SEQEND
  5
196
330
193
100
AcDbEntity
  8
Layer 1
370
    25
  0
POLYLINE
  5
197
330
1F
100
AcDbEntity
  8
Layer 1
 62
     7
420
 16777215
370
    25
100
AcDb2dPolyline
 66
     1
 10
0.0
 20
0.0
 30
0.0
  0
VERTEX
  5
198
330
197
100
AcDbEntity
  8
Layer 1
 62
     7
420
 16777215
370
    25
100
AcDbVertex
100
AcDb2dVertex
 10
316.8650688226934
 20
124.2835421781305
 30
0.0
  0
VERTEX
  5
199
330
197
100
AcDbEntity
  8
Layer 1
 62
     7
420
 16777215
370
    25
100
AcDbVertex
100
AcDb2dVertex
 10
320.533751004936
 20
124.2835421781305
 30
0.0
  0
SEQEND
  5
19A
330
197
100
AcDbEntity
  8
Layer 1
370
    25
  0
POLYLINE
  5
19B
330
1F
100
AcDbEntity
  8
Layer 1
 62
     7
420
 16777215
370
    25
100
AcDb2dPolyline
 66
     1
 10
0.0
 20
0.0
 30
0.0
  0
VERTEX
  5
19C
330
19B
100
AcDbEntity
  8
Layer 1
 62
     7
420
 16777215
370
    25
100
AcDbVertex
100
AcDb2dVertex
 10
320.533751004936
 20
160.9372910838976
 30
0.0
  0
VERTEX
  5
19D
330
19B
100
AcDbEntity
  8
Layer 1
 62
     7
420
 16777215
370
    25
100
AcDbVertex
100
AcDb2dVertex
 10
320.533751004936
 20
160.9019788551738
 30
0.0
  0
VERTEX
  5
19E
330
19B
100
AcDbEntity
  8
Layer 1
 62
     7
420
 16777215
370
    25
100
AcDbVertex
100
AcDb2dVertex
 10
320.533751004936
 20
160.6902777376052
 30
0.0
  0
VERTEX
  5
19F
330
19B
100
AcDbEntity
  8
Layer 1
 62
     7
420
 16777215
370
    25
100
AcDbVertex
100
AcDb2dVertex
 10
320.533751004936
 20
160.4081244173632
 30
0.0
  0
VERTEX
  5
1A0
330
19B
100
AcDbEntity
  8
Layer 1
 62
     7
420
 16777215
370
    25
100
AcDbVertex
100
AcDb2dVertex
 10
320.533751004936
 20
159.9847221822261
 30
0.0
  0
VERTEX
  5
1A1
330
19B
100
AcDbEntity
  8
Layer 1
 62
     7
420
 16777215
370
    25
100
AcDbVertex
100
AcDb2dVertex
 10
320.533751004936
 20
159.4555555156917
 30
0.0
  0
VERTEX
  5
1A2
330
19B
100
AcDbEntity
  8
Layer 1
 62
     7
420
 16777215
370
    25
100
AcDbVertex
100
AcDb2dVertex
 10
320.533751004936
 20
158.8910766204335
 30
0.0
  0
VERTEX
  5
1A3
330
19B
100
AcDbEntity
  8
Layer 1
 62
     7
420
 16777215
370
    25
100
AcDbVertex
100
AcDb2dVertex
 10
320.533751004936
 20
158.256145522502
 30
0.0
  0
VERTEX
  5
1A4
330
19B
100
AcDbEntity
  8
Layer 1
 62
     7
420
 16777215
370
    25
100
AcDbVertex
100
AcDb2dVertex
 10
320.533751004936
 20
157.6210421697961
 30
0.0
  0
SEQEND
  5
1A5
330
19B
100
AcDbEntity
  8
Layer 1
370
    25
  0
POLYLINE
  5
1A6
330
1F
100
AcDbEntity
  8
Layer 1
 62
     7
420
 16777215
370
    25
100
AcDb2dPolyline
 66
     1
 10
0.0
 20
0.0
 30
0.0
  0
VERTEX
  5
1A7
330
1A6
100
AcDbEntity
  8
Layer 1
 62
     7
420
 16777215
370
    25
100
AcDbVertex
100
AcDb2dVertex
 10
316.8650688226934
 20
157.6210421697961
 30
0.0
  0
VERTEX
  5
1A8
330
1A6
100
AcDbEntity
  8
Layer 1
 62
     7
420
 16777215
370
    25
100
AcDbVertex
100
AcDb2dVertex
 10
316.8650688226934
 20
158.256145522502
 30
0.0
  0
VERTEX
  5
1A9
330
1A6
100
AcDbEntity
  8
Layer 1
 62
     7
420
 16777215
370
    25
100
AcDbVertex
100
AcDb2dVertex
 10
316.8650688226934
 20
158.8910766204335
 30
0.0
  0
VERTEX
  5
1AA
330
1A6
100
AcDbEntity
  8
Layer 1
 62
     7
420
 16777215
370
    25
100
AcDbVertex
100
AcDb2dVertex
 10
316.8650688226934
 20
159.4555555156917
 30
0.0
  0
VERTEX
  5
1AB
330
1A6
100
AcDbEntity
  8
Layer 1
 62
     7
420
 16777215
370
    25
100
AcDbVertex
100
AcDb2dVertex
 10
316.8650688226934
 20
159.9847221822261
 30
0.0
  0
VERTEX
  5
1AC
330
1A6
100
AcDbEntity
  8
Layer 1
 62
     7
420
 16777215
370
    25
100
AcDbVertex
100
AcDb2dVertex
 10
316.8650688226934
 20
160.4081244173632
 30
0.0
  0
VERTEX
  5
1AD
330
1A6
100
AcDbEntity
  8
Layer 1
 62
     7
420
 16777215
370
    25
100
AcDbVertex
100
AcDb2dVertex
 10
316.8650688226934
 20
160.6902777376052
 30
0.0
  0
VERTEX
  5
1AE
330
1A6
100
AcDbEntity
  8
Layer 1
 62
     7
420
 16777215
370
    25
100
AcDbVertex
100
AcDb2dVertex
 10
316.8650688226934
 20
160.9019788551738
 30
0.0
  0
VERTEX
  5
1AF
330
1A6
100
AcDbEntity
  8
Layer 1
 62
     7
420
 16777215
370
    25
100
AcDbVertex
100
AcDb2dVertex
 10
316.8650688226934
 20
160.9372910838976
 30
0.0
  0
SEQEND
  5
1B0
330
1A6
100
AcDbEntity
  8
Layer 1
370
    25
  0
POLYLINE
  5
1B1
330
1F
100
AcDbEntity
  8
Layer 1
 62
     7
420
 16777215
370
    25
100
AcDb2dPolyline
 66
     1
 10
0.0
 20
0.0
 30
0.0
  0
VERTEX
  5
1B2
330
1B1
100
AcDbEntity
  8
Layer 1
 62
     7
420
 16777215
370
    25
100
AcDbVertex
100
AcDb2dVertex
 10
320.533751004936
 20
157.6210421697961
 30
0.0
  0
VERTEX
  5
1B3
330
1B1
100
AcDbEntity
  8
Layer 1
 62
     7
420
 16777215
370
    25
100
AcDbVertex
100
AcDb2dVertex
 10
316.8650688226934
 20
157.6210421697961
 30
0.0
  0
SEQEND
  5
1B4
330
1B1
100
AcDbEntity
  8
Layer 1
370
    25
  0
POLYLINE
  5
1B5
330
1F
100
AcDbEntity
  8
Layer 1
 62
     7
420
 16777215
370
    25
100
AcDb2dPolyline
 66
     1
 10
0.0
 20
0.0
 30
0.0
  0
VERTEX
  5
1B6
330
1B5
100
AcDbEntity
  8
Layer 1
 62
     7
420
 16777215
370
    25
100
AcDbVertex
100
AcDb2dVertex
 10
316.8650688226934
 20
160.9372910838976
 30
0.0
  0
VERTEX
  5
1B7
330
1B5
100
AcDbEntity
  8
Layer 1
 62
     7
420
 16777215
370
    25
100
AcDbVertex
100
AcDb2dVertex
 10
320.533751004936
 20
160.9372910838976
 30
0.0
  0
SEQEND
  5
1B8
330
1B5
100
AcDbEntity
  8
Layer 1
370
    25
  0
POLYLINE
  5
1B9
330
1F
100
AcDbEntity
  8
Layer 1
 62
     7
420
 16777215
370
    25
100
AcDb2dPolyline
 66
     1
 10
0.0
 20
0.0
 30
0.0
  0
VERTEX
  5
1BA
330
1B9
100
AcDbEntity
  8
Layer 1
 62
     7
420
 16777215
370
    25
100
AcDbVertex
100
AcDb2dVertex
 10
297.9559732328027
 20
128.6226399418027
 30
0.0
  0
VERTEX
  5
1BB
330
1B9
100
AcDbEntity
  8
Layer 1
 62
     7
420
 16777215
370
    25
100
AcDbVertex
100
AcDb2dVertex
 10
297.9208332588531
 20
128.6226399418027
 30
0.0
  0
VERTEX
  5
1BC
330
1B9
100
AcDbEntity
  8
Layer 1
 62
     7
420
 16777215
370
    25
100
AcDbVertex
100
AcDb2dVertex
 10
297.7795843439579
 20
128.6226399418027
 30
0.0
  0
VERTEX
  5
1BD
330
1B9
100
AcDbEntity
  8
Layer 1
 62
     7
420
 16777215
370
    25
100
AcDbVertex
100
AcDb2dVertex
 10
297.532915507214
 20
128.6226399418027
 30
0.0
  0
VERTEX
  5
1BE
330
1B9
100
AcDbEntity
  8
Layer 1
 62
     7
420
 16777215
370
    25
100
AcDbVertex
100
AcDb2dVertex
 10
297.1801377295244
 20
128.6226399418027
 30
0.0
  0
VERTEX
  5
1BF
330
1B9
100
AcDbEntity
  8
Layer 1
 62
     7
420
 16777215
370
    25
100
AcDbVertex
100
AcDb2dVertex
 10
296.7212510108891
 20
128.6226399418027
 30
0.0
  0
VERTEX
  5
1C0
330
1B9
100
AcDbEntity
  8
Layer 1
 62
     7
420
 16777215
370
    25
100
AcDbVertex
100
AcDb2dVertex
 10
296.2627088018024
 20
128.6226399418027
 30
0.0
  0
VERTEX
  5
1C1
330
1B9
100
AcDbEntity
  8
Layer 1
 62
     7
420
 16777215
370
    25
100
AcDbVertex
100
AcDb2dVertex
 10
295.7690266187661
 20
128.6226399418027
 30
0.0
  0
VERTEX
  5
1C2
330
1B9
100
AcDbEntity
  8
Layer 1
 62
     7
420
 16777215
370
    25
100
AcDbVertex
100
AcDb2dVertex
 10
295.3101399001308
 20
128.6226399418027
 30
0.0
  0
VERTEX
  5
1C3
330
1B9
100
AcDbEntity
  8
Layer 1
 62
     7
420
 16777215
370
    25
100
AcDbVertex
100
AcDb2dVertex
 10
294.9222221484916
 20
128.6226399418027
 30
0.0
  0
VERTEX
  5
1C4
330
1B9
100
AcDbEntity
  8
Layer 1
 62
     7
420
 16777215
370
    25
100
AcDbVertex
100
AcDb2dVertex
 10
294.6400688282497
 20
128.6226399418027
 30
0.0
  0
VERTEX
  5
1C5
330
1B9
100
AcDbEntity
  8
Layer 1
 62
     7
420
 16777215
370
    25
100
AcDbVertex
100
AcDb2dVertex
 10
294.4636799394049
 20
128.6226399418027
 30
0.0
  0
VERTEX
  5
1C6
330
1B9
100
AcDbEntity
  8
Layer 1
 62
     7
420
 16777215
370
    25
100
AcDbVertex
100
AcDb2dVertex
 10
294.4281954559069
 20
128.6226399418027
 30
0.0
  0
SEQEND
  5
1C7
330
1B9
100
AcDbEntity
  8
Layer 1
370
    25
  0
POLYLINE
  5
1C8
330
1F
100
AcDbEntity
  8
Layer 1
 62
     7
420
 16777215
370
    25
100
AcDb2dPolyline
 66
     1
 10
0.0
 20
0.0
 30
0.0
  0
VERTEX
  5
1C9
330
1C8
100
AcDbEntity
  8
Layer 1
 62
     7
420
 16777215
370
    25
100
AcDbVertex
100
AcDb2dVertex
 10
285.4678466083205
 20
131.8682643984565
 30
0.0
  0
VERTEX
  5
1CA
330
1C8
100
AcDbEntity
  8
Layer 1
 62
     7
420
 16777215
370
    25
100
AcDbVertex
100
AcDb2dVertex
 10
285.3972221508729
 20
131.8682643984565
 30
0.0
  0
SEQEND
  5
1CB
330
1C8
100
AcDbEntity
  8
Layer 1
370
    25
  0
POLYLINE
  5
1CC
330
1F
100
AcDbEntity
  8
Layer 1
 62
     7
420
 16777215
370
    25
100
AcDb2dPolyline
 66
     1
 10
0.0
 20
0.0
 30
0.0
  0
VERTEX
  5
1CD
330
1CC
100
AcDbEntity
  8
Layer 1
 62
     7
420
 16777215
370
    25
100
AcDbVertex
100
AcDb2dVertex
 10
285.5736110397177
 20
133.1736110778177
 30
0.0
  0
VERTEX
  5
1CE
330
1CC
100
AcDbEntity
  8
Layer 1
 62
     7
420
 16777215
370
    25
100
AcDbVertex
100
AcDb2dVertex
 10
285.5029865822701
 20
133.1736110778177
 30
0.0
  0
SEQEND
  5
1CF
330
1CC
100
AcDbEntity
  8
Layer 1
370
    25
  0
POLYLINE
  5
1D0
330
1F
100
AcDbEntity
  8
Layer 1
 62
     7
420
 16777215
370
    25
100
AcDb2dPolyline
 66
     1
 10
0.0
 20
0.0
 30
0.0
  0
VERTEX
  5
1D1
330
1D0
100
AcDbEntity
  8
Layer 1
 62
     7
420
 16777215
370
    25
100
AcDbVertex
100
AcDb2dVertex
 10
285.5384710657682
 20
132.4680555224386
 30
0.0
  0
VERTEX
  5
1D2
330
1D0
100
AcDbEntity
  8
Layer 1
 62
     7
420
 16777215
370
    25
100
AcDbVertex
100
AcDb2dVertex
 10
285.4678466083205
 20
132.4680555224386
 30
0.0
  0
SEQEND
  5
1D3
330
1D0
100
AcDbEntity
  8
Layer 1
370
    25
  0
POLYLINE
  5
1D4
330
1F
100
AcDbEntity
  8
Layer 1
 62
     7
420
 16777215
370
    25
100
AcDb2dPolyline
 66
     1
 10
0.0
 20
0.0
 30
0.0
  0
VERTEX
  5
1D5
330
1D4
100
AcDbEntity
  8
Layer 1
 62
     7
420
 16777215
370
    25
100
AcDbVertex
100
AcDb2dVertex
 10
285.5029865822701
 20
132.4680555224386
 30
0.0
  0
VERTEX
  5
1D6
330
1D4
100
AcDbEntity
  8
Layer 1
 62
     7
420
 16777215
370
    25
100
AcDbVertex
100
AcDb2dVertex
 10
285.5029865822701
 20
132.7502088426804
 30
0.0
  0
VERTEX
  5
1D7
330
1D4
100
AcDbEntity
  8
Layer 1
 62
     7
420
 16777215
370
    25
100
AcDbVertex
100
AcDb2dVertex
 10
285.5029865822701
 20
132.8914577575758
 30
0.0
  0
VERTEX
  5
1D8
330
1D4
100
AcDbEntity
  8
Layer 1
 62
     7
420
 16777215
370
    25
100
AcDbVertex
100
AcDb2dVertex
 10
285.5384710657682
 20
133.0323621629225
 30
0.0
  0
VERTEX
  5
1D9
330
1D4
100
AcDbEntity
  8
Layer 1
 62
     7
420
 16777215
370
    25
100
AcDbVertex
100
AcDb2dVertex
 10
285.5384710657682
 20
133.0678466464205
 30
0.0
  0
VERTEX
  5
1DA
330
1D4
100
AcDbEntity
  8
Layer 1
 62
     7
420
 16777215
370
    25
100
AcDbVertex
100
AcDb2dVertex
 10
285.5736110397177
 20
133.1029866203701
 30
0.0
  0
SEQEND
  5
1DB
330
1D4
100
AcDbEntity
  8
Layer 1
370
    25
  0
POLYLINE
  5
1DC
330
1F
100
AcDbEntity
  8
Layer 1
 62
     7
420
 16777215
370
    25
100
AcDb2dPolyline
 66
     1
 10
0.0
 20
0.0
 30
0.0
  0
VERTEX
  5
1DD
330
1DC
100
AcDbEntity
  8
Layer 1
 62
     7
420
 16777215
370
    25
100
AcDbVertex
100
AcDb2dVertex
 10
285.5736110397177
 20
131.8682643984565
 30
0.0
  0
VERTEX
  5
1DE
330
1DC
100
AcDbEntity
  8
Layer 1
 62
     7
420
 16777215
370
    25
100
AcDbVertex
100
AcDb2dVertex
 10
285.5384710657682
 20
131.9037488819546
 30
0.0
  0
VERTEX
  5
1DF
330
1DC
100
AcDbEntity
  8
Layer 1
 62
     7
420
 16777215
370
    25
100
AcDbVertex
100
AcDb2dVertex
 10
285.5384710657682
 20
131.9740288298537
 30
0.0
  0
VERTEX
  5
1E0
330
1DC
100
AcDbEntity
  8
Layer 1
 62
     7
420
 16777215
370
    25
100
AcDbVertex
100
AcDb2dVertex
 10
285.5029865822701
 20
132.0801377707994
 30
0.0
  0
VERTEX
  5
1E1
330
1DC
100
AcDbEntity
  8
Layer 1
 62
     7
420
 16777215
370
    25
100
AcDbVertex
100
AcDb2dVertex
 10
285.5029865822701
 20
132.2565266596442
 30
0.0
  0
VERTEX
  5
1E2
330
1DC
100
AcDbEntity
  8
Layer 1
 62
     7
420
 16777215
370
    25
100
AcDbVertex
100
AcDb2dVertex
 10
285.5029865822701
 20
132.4680555224386
 30
0.0
  0
SEQEND
  5
1E3
330
1DC
100
AcDbEntity
  8
Layer 1
370
    25
  0
POLYLINE
  5
1E4
330
1F
100
AcDbEntity
  8
Layer 1
 62
     7
420
 16777215
370
    25
100
AcDb2dPolyline
 66
     1
 10
0.0
 20
0.0
 30
0.0
  0
VERTEX
  5
1E5
330
1E4
100
AcDbEntity
  8
Layer 1
 62
     7
420
 16777215
370
    25
100
AcDbVertex
100
AcDb2dVertex
 10
285.6442354971654
 20
132.4680555224386
 30
0.0
  0
VERTEX
  5
1E6
330
1E4
100
AcDbEntity
  8
Layer 1
 62
     7
420
 16777215
370
    25
100
AcDbVertex
100
AcDb2dVertex
 10
285.6087510136672
 20
132.1859022021966
 30
0.0
  0
VERTEX
  5
1E7
330
1E4
100
AcDbEntity
  8
Layer 1
 62
     7
420
 16777215
370
    25
100
AcDbVertex
100
AcDb2dVertex
 10
285.6087510136672
 20
132.0446532873013
 30
0.0
  0
VERTEX
  5
1E8
330
1E4
100
AcDbEntity
  8
Layer 1
 62
     7
420
 16777215
370
    25
100
AcDbVertex
100
AcDb2dVertex
 10
285.6087510136672
 20
131.9388888559042
 30
0.0
  0
VERTEX
  5
1E9
330
1E4
100
AcDbEntity
  8
Layer 1
 62
     7
420
 16777215
370
    25
100
AcDbVertex
100
AcDb2dVertex
 10
285.5736110397177
 20
131.8682643984565
 30
0.0
  0
SEQEND
  5
1EA
330
1E4
100
AcDbEntity
  8
Layer 1
370
    25
  0
POLYLINE
  5
1EB
330
1F
100
AcDbEntity
  8
Layer 1
 62
     7
420
 16777215
370
    25
100
AcDb2dPolyline
 66
     1
 10
0.0
 20
0.0
 30
0.0
  0
VERTEX
  5
1EC
330
1EB
100
AcDbEntity
  8
Layer 1
 62
     7
420
 16777215
370
    25
100
AcDbVertex
100
AcDb2dVertex
 10
285.6442354971654
 20
131.8682643984565
 30
0.0
  0
VERTEX
  5
1ED
330
1EB
100
AcDbEntity
  8
Layer 1
 62
     7
420
 16777215
370
    25
100
AcDbVertex
100
AcDb2dVertex
 10
285.5736110397177
 20
131.8682643984565
 30
0.0
  0
SEQEND
  5
1EE
330
1EB
100
AcDbEntity
  8
Layer 1
370
    25
  0
POLYLINE
  5
1EF
330
1F
100
AcDbEntity
  8
Layer 1
 62
     7
420
 16777215
370
    25
100
AcDb2dPolyline
 66
     1
 10
0.0
 20
0.0
 30
0.0
  0
VERTEX
  5
1F0
330
1EF
100
AcDbEntity
  8
Layer 1
 62
     7
420
 16777215
370
    25
100
AcDbVertex
100
AcDb2dVertex
 10
285.5736110397177
 20
133.1029866203701
 30
0.0
  0
VERTEX
  5
1F1
330
1EF
100
AcDbEntity
  8
Layer 1
 62
     7
420
 16777215
370
    25
100
AcDbVertex
100
AcDb2dVertex
 10
285.5736110397177
 20
133.0678466464205
 30
0.0
  0
VERTEX
  5
1F2
330
1EF
100
AcDbEntity
  8
Layer 1
 62
     7
420
 16777215
370
    25
100
AcDbVertex
100
AcDb2dVertex
 10
285.6087510136672
 20
132.9620822150234
 30
0.0
  0
VERTEX
  5
1F3
330
1EF
100
AcDbEntity
  8
Layer 1
 62
     7
420
 16777215
370
    25
100
AcDbVertex
100
AcDb2dVertex
 10
285.6087510136672
 20
132.8559732740777
 30
0.0
  0
VERTEX
  5
1F4
330
1EF
100
AcDbEntity
  8
Layer 1
 62
     7
420
 16777215
370
    25
100
AcDbVertex
100
AcDb2dVertex
 10
285.6087510136672
 20
132.715068868731
 30
0.0
  0
VERTEX
  5
1F5
330
1EF
100
AcDbEntity
  8
Layer 1
 62
     7
420
 16777215
370
    25
100
AcDbVertex
100
AcDb2dVertex
 10
285.6442354971654
 20
132.4680555224386
 30
0.0
  0
SEQEND
  5
1F6
330
1EF
100
AcDbEntity
  8
Layer 1
370
    25
  0
POLYLINE
  5
1F7
330
1F
100
AcDbEntity
  8
Layer 1
 62
     7
420
 16777215
370
    25
100
AcDb2dPolyline
 66
     1
 10
0.0
 20
0.0
 30
0.0
  0
VERTEX
  5
1F8
330
1F7
100
AcDbEntity
  8
Layer 1
 62
     7
420
 16777215
370
    25
100
AcDbVertex
100
AcDb2dVertex
 10
285.6442354971654
 20
133.1029866203701
 30
0.0
  0
VERTEX
  5
1F9
330
1F7
100
AcDbEntity
  8
Layer 1
 62
     7
420
 16777215
370
    25
100
AcDbVertex
100
AcDb2dVertex
 10
285.5736110397177
 20
133.1029866203701
 30
0.0
  0
SEQEND
  5
1FA
330
1F7
100
AcDbEntity
  8
Layer 1
370
    25
  0
POLYLINE
  5
1FB
330
1F
100
AcDbEntity
  8
Layer 1
 62
     7
420
 16777215
370
    25
100
AcDb2dPolyline
 66
     1
 10
0.0
 20
0.0
 30
0.0
  0
VERTEX
  5
1FC
330
1FB
100
AcDbEntity
  8
Layer 1
 62
     7
420
 16777215
370
    25
100
AcDbVertex
100
AcDb2dVertex
 10
285.5736110397177
 20
133.1736110778177
 30
0.0
  0
VERTEX
  5
1FD
330
1FB
100
AcDbEntity
  8
Layer 1
 62
     7
420
 16777215
370
    25
100
AcDbVertex
100
AcDb2dVertex
 10
285.5736110397177
 20
133.2442355352653
 30
0.0
  0
VERTEX
  5
1FE
330
1FB
100
AcDbEntity
  8
Layer 1
 62
     7
420
 16777215
370
    25
100
AcDbVertex
100
AcDb2dVertex
 10
285.6087510136672
 20
133.314859992713
 30
0.0
  0
SEQEND
  5
1FF
330
1FB
100
AcDbEntity
  8
Layer 1
370
    25
  0
POLYLINE
  5
200
330
1F
100
AcDbEntity
  8
Layer 1
 62
     7
420
 16777215
370
    25
100
AcDb2dPolyline
 66
     1
 10
0.0
 20
0.0
 30
0.0
  0
VERTEX
  5
201
330
200
100
AcDbEntity
  8
Layer 1
 62
     7
420
 16777215
370
    25
100
AcDbVertex
100
AcDb2dVertex
 10
285.5736110397177
 20
133.0678466464205
 30
0.0
  0
VERTEX
  5
202
330
200
100
AcDbEntity
  8
Layer 1
 62
     7
420
 16777215
370
    25
100
AcDbVertex
100
AcDb2dVertex
 10
285.5736110397177
 20
133.1736110778177
 30
0.0
  0
SEQEND
  5
203
330
200
100
AcDbEntity
  8
Layer 1
370
    25
  0
POLYLINE
  5
204
330
1F
100
AcDbEntity
  8
Layer 1
 62
     7
420
 16777215
370
    25
100
AcDb2dPolyline
 66
     1
 10
0.0
 20
0.0
 30
0.0
  0
VERTEX
  5
205
330
204
100
AcDbEntity
  8
Layer 1
 62
     7
420
 16777215
370
    25
100
AcDbVertex
100
AcDb2dVertex
 10
285.8912488434577
 20
132.4680555224386
 30
0.0
  0
VERTEX
  5
206
330
204
100
AcDbEntity
  8
Layer 1
 62
     7
420
 16777215
370
    25
100
AcDbVertex
100
AcDb2dVertex
 10
285.8206243860101
 20
132.4680555224386
 30
0.0
  0
SEQEND
  5
207
330
204
100
AcDbEntity
  8
Layer 1
370
    25
  0
POLYLINE
  5
208
330
1F
100
AcDbEntity
  8
Layer 1
 62
     7
420
 16777215
370
    25
100
AcDb2dPolyline
 66
     1
 10
0.0
 20
0.0
 30
0.0
  0
VERTEX
  5
209
330
208
100
AcDbEntity
  8
Layer 1
 62
     7
420
 16777215
370
    25
100
AcDbVertex
100
AcDb2dVertex
 10
286.1027777062521
 20
131.8682643984565
 30
0.0
  0
VERTEX
  5
20A
330
208
100
AcDbEntity
  8
Layer 1
 62
     7
420
 16777215
370
    25
100
AcDbVertex
100
AcDb2dVertex
 10
286.0321532488045
 20
131.8682643984565
 30
0.0
  0
SEQEND
  5
20B
330
208
100
AcDbEntity
  8
Layer 1
370
    25
  0
POLYLINE
  5
20C
330
1F
100
AcDbEntity
  8
Layer 1
 62
     7
420
 16777215
370
    25
100
AcDb2dPolyline
 66
     1
 10
0.0
 20
0.0
 30
0.0
  0
VERTEX
  5
20D
330
20C
100
AcDbEntity
  8
Layer 1
 62
     7
420
 16777215
370
    25
100
AcDbVertex
100
AcDb2dVertex
 10
286.1027777062521
 20
133.1029866203701
 30
0.0
  0
VERTEX
  5
20E
330
20C
100
AcDbEntity
  8
Layer 1
 62
     7
420
 16777215
370
    25
100
AcDbVertex
100
AcDb2dVertex
 10
286.0321532488045
 20
133.1029866203701
 30
0.0
  0
SEQEND
  5
20F
330
20C
100
AcDbEntity
  8
Layer 1
370
    25
  0
POLYLINE
  5
210
330
1F
100
AcDbEntity
  8
Layer 1
 62
     7
420
 16777215
370
    25
100
AcDb2dPolyline
 66
     1
 10
0.0
 20
0.0
 30
0.0
  0
VERTEX
  5
211
330
210
100
AcDbEntity
  8
Layer 1
 62
     7
420
 16777215
370
    25
100
AcDbVertex
100
AcDb2dVertex
 10
285.8557643599596
 20
132.4680555224386
 30
0.0
  0
VERTEX
  5
212
330
210
100
AcDbEntity
  8
Layer 1
 62
     7
420
 16777215
370
    25
100
AcDbVertex
100
AcDb2dVertex
 10
285.8912488434577
 20
132.7856933261786
 30
0.0
  0
VERTEX
  5
213
330
210
100
AcDbEntity
  8
Layer 1
 62
     7
420
 16777215
370
    25
100
AcDbVertex
100
AcDb2dVertex
 10
285.8912488434577
 20
132.9265977315253
 30
0.0
  0
VERTEX
  5
214
330
210
100
AcDbEntity
  8
Layer 1
 62
     7
420
 16777215
370
    25
100
AcDbVertex
100
AcDb2dVertex
 10
285.8912488434577
 20
133.0323621629225
 30
0.0
  0
VERTEX
  5
215
330
210
100
AcDbEntity
  8
Layer 1
 62
     7
420
 16777215
370
    25
100
AcDbVertex
100
AcDb2dVertex
 10
285.9263888174073
 20
133.0678466464205
 30
0.0
  0
VERTEX
  5
216
330
210
100
AcDbEntity
  8
Layer 1
 62
     7
420
 16777215
370
    25
100
AcDbVertex
100
AcDb2dVertex
 10
285.9615287913568
 20
133.1029866203701
 30
0.0
  0
SEQEND
  5
217
330
210
100
AcDbEntity
  8
Layer 1
370
    25
  0
POLYLINE
  5
218
330
1F
100
AcDbEntity
  8
Layer 1
 62
     7
420
 16777215
370
    25
100
AcDb2dPolyline
 66
     1
 10
0.0
 20
0.0
 30
0.0
  0
VERTEX
  5
219
330
218
100
AcDbEntity
  8
Layer 1
 62
     7
420
 16777215
370
    25
100
AcDbVertex
100
AcDb2dVertex
 10
285.9615287913568
 20
131.8682643984565
 30
0.0
  0
VERTEX
  5
21A
330
218
100
AcDbEntity
  8
Layer 1
 62
     7
420
 16777215
370
    25
100
AcDbVertex
100
AcDb2dVertex
 10
285.9263888174073
 20
131.8682643984565
 30
0.0
  0
VERTEX
  5
21B
330
218
100
AcDbEntity
  8
Layer 1
 62
     7
420
 16777215
370
    25
100
AcDbVertex
100
AcDb2dVertex
 10
285.8912488434577
 20
131.9388888559042
 30
0.0
  0
VERTEX
  5
21C
330
218
100
AcDbEntity
  8
Layer 1
 62
     7
420
 16777215
370
    25
100
AcDbVertex
100
AcDb2dVertex
 10
285.8912488434577
 20
132.0801377707994
 30
0.0
  0
VERTEX
  5
21D
330
218
100
AcDbEntity
  8
Layer 1
 62
     7
420
 16777215
370
    25
100
AcDbVertex
100
AcDb2dVertex
 10
285.8912488434577
 20
132.2210421761461
 30
0.0
  0
VERTEX
  5
21E
330
218
100
AcDbEntity
  8
Layer 1
 62
     7
420
 16777215
370
    25
100
AcDbVertex
100
AcDb2dVertex
 10
285.8557643599596
 20
132.4680555224386
 30
0.0
  0
SEQEND
  5
21F
330
218
100
AcDbEntity
  8
Layer 1
370
    25
  0
POLYLINE
  5
220
330
1F
100
AcDbEntity
  8
Layer 1
 62
     7
420
 16777215
370
    25
100
AcDb2dPolyline
 66
     1
 10
0.0
 20
0.0
 30
0.0
  0
VERTEX
  5
221
330
220
100
AcDbEntity
  8
Layer 1
 62
     7
420
 16777215
370
    25
100
AcDbVertex
100
AcDb2dVertex
 10
315.8418754635742
 20
129.4694444120771
 30
0.0
  0
VERTEX
  5
222
330
220
100
AcDbEntity
  8
Layer 1
 62
     7
420
 16777215
370
    25
100
AcDbVertex
100
AcDb2dVertex
 10
315.8418754635742
 20
129.081526660438
 30
0.0
  0
VERTEX
  5
223
330
220
100
AcDbEntity
  8
Layer 1
 62
     7
420
 16777215
370
    25
100
AcDbVertex
100
AcDb2dVertex
 10
315.8418754635742
 20
128.8345133141455
 30
0.0
  0
VERTEX
  5
224
330
220
100
AcDbEntity
  8
Layer 1
 62
     7
420
 16777215
370
    25
100
AcDbVertex
100
AcDb2dVertex
 10
315.8418754635742
 20
128.6581244253007
 30
0.0
  0
VERTEX
  5
225
330
220
100
AcDbEntity
  8
Layer 1
 62
     7
420
 16777215
370
    25
100
AcDbVertex
100
AcDb2dVertex
 10
315.8418754635742
 20
128.6226399418027
 30
0.0
  0
SEQEND
  5
226
330
220
100
AcDbEntity
  8
Layer 1
370
    25
  0
POLYLINE
  5
227
330
1F
100
AcDbEntity
  8
Layer 1
 62
     7
420
 16777215
370
    25
100
AcDb2dPolyline
 66
     1
 10
0.0
 20
0.0
 30
0.0
  0
VERTEX
  5
228
330
227
100
AcDbEntity
  8
Layer 1
 62
     7
420
 16777215
370
    25
100
AcDbVertex
100
AcDb2dVertex
 10
297.9914577163008
 20
128.6226399418027
 30
0.0
  0
VERTEX
  5
229
330
227
100
AcDbEntity
  8
Layer 1
 62
     7
420
 16777215
370
    25
100
AcDbVertex
100
AcDb2dVertex
 10
297.9559732328027
 20
128.6226399418027
 30
0.0
  0
VERTEX
  5
22A
330
227
100
AcDbEntity
  8
Layer 1
 62
     7
420
 16777215
370
    25
100
AcDbVertex
100
AcDb2dVertex
 10
297.7444443700084
 20
128.6226399418027
 30
0.0
  0
VERTEX
  5
22B
330
227
100
AcDbEntity
  8
Layer 1
 62
     7
420
 16777215
370
    25
100
AcDbVertex
100
AcDb2dVertex
 10
297.3210421348712
 20
128.6581244253007
 30
0.0
  0
VERTEX
  5
22C
330
227
100
AcDbEntity
  8
Layer 1
 62
     7
420
 16777215
370
    25
100
AcDbVertex
100
AcDb2dVertex
 10
296.7918754683367
 20
128.6581244253007
 30
0.0
  0
VERTEX
  5
22D
330
227
100
AcDbEntity
  8
Layer 1
 62
     7
420
 16777215
370
    25
100
AcDbVertex
100
AcDb2dVertex
 10
296.1569443704052
 20
128.6581244253007
 30
0.0
  0
VERTEX
  5
22E
330
227
100
AcDbEntity
  8
Layer 1
 62
     7
420
 16777215
370
    25
100
AcDbVertex
100
AcDb2dVertex
 10
295.5571532464232
 20
128.6581244253007
 30
0.0
  0
VERTEX
  5
22F
330
227
100
AcDbEntity
  8
Layer 1
 62
     7
420
 16777215
370
    25
100
AcDbVertex
100
AcDb2dVertex
 10
295.0279865798889
 20
128.6581244253007
 30
0.0
  0
VERTEX
  5
230
330
227
100
AcDbEntity
  8
Layer 1
 62
     7
420
 16777215
370
    25
100
AcDbVertex
100
AcDb2dVertex
 10
294.6045843447516
 20
128.6226399418027
 30
0.0
  0
VERTEX
  5
231
330
227
100
AcDbEntity
  8
Layer 1
 62
     7
420
 16777215
370
    25
100
AcDbVertex
100
AcDb2dVertex
 10
294.3930554819573
 20
128.6226399418027
 30
0.0
  0
VERTEX
  5
232
330
227
100
AcDbEntity
  8
Layer 1
 62
     7
420
 16777215
370
    25
100
AcDbVertex
100
AcDb2dVertex
 10
294.3579155080077
 20
128.6226399418027
 30
0.0
  0
SEQEND
  5
233
330
227
100
AcDbEntity
  8
Layer 1
370
    25
  0
POLYLINE
  5
234
330
1F
100
AcDbEntity
  8
Layer 1
 62
     7
420
 16777215
370
    25
100
AcDb2dPolyline
 66
     1
 10
0.0
 20
0.0
 30
0.0
  0
VERTEX
  5
235
330
234
100
AcDbEntity
  8
Layer 1
 62
     7
420
 16777215
370
    25
100
AcDbVertex
100
AcDb2dVertex
 10
285.9615287913568
 20
133.1029866203701
 30
0.0
  0
VERTEX
  5
236
330
234
100
AcDbEntity
  8
Layer 1
 62
     7
420
 16777215
370
    25
100
AcDbVertex
100
AcDb2dVertex
 10
285.9615287913568
 20
133.0678466464205
 30
0.0
  0
VERTEX
  5
237
330
234
100
AcDbEntity
  8
Layer 1
 62
     7
420
 16777215
370
    25
100
AcDbVertex
100
AcDb2dVertex
 10
285.9970132748549
 20
132.9972221889729
 30
0.0
  0
VERTEX
  5
238
330
234
100
AcDbEntity
  8
Layer 1
 62
     7
420
 16777215
370
    25
100
AcDbVertex
100
AcDb2dVertex
 10
285.9970132748549
 20
132.8914577575758
 30
0.0
  0
VERTEX
  5
239
330
234
100
AcDbEntity
  8
Layer 1
 62
     7
420
 16777215
370
    25
100
AcDbVertex
100
AcDb2dVertex
 10
286.0321532488045
 20
132.7502088426804
 30
0.0
  0
VERTEX
  5
23A
330
234
100
AcDbEntity
  8
Layer 1
 62
     7
420
 16777215
370
    25
100
AcDbVertex
100
AcDb2dVertex
 10
286.0321532488045
 20
132.432915548489
 30
0.0
  0
SEQEND
  5
23B
330
234
100
AcDbEntity
  8
Layer 1
370
    25
  0
POLYLINE
  5
23C
330
1F
100
AcDbEntity
  8
Layer 1
 62
     7
420
 16777215
370
    25
100
AcDb2dPolyline
 66
     1
 10
0.0
 20
0.0
 30
0.0
  0
VERTEX
  5
23D
330
23C
100
AcDbEntity
  8
Layer 1
 62
     7
420
 16777215
370
    25
100
AcDbVertex
100
AcDb2dVertex
 10
286.0321532488045
 20
133.1029866203701
 30
0.0
  0
VERTEX
  5
23E
330
23C
100
AcDbEntity
  8
Layer 1
 62
     7
420
 16777215
370
    25
100
AcDbVertex
100
AcDb2dVertex
 10
285.9615287913568
 20
133.1029866203701
 30
0.0
  0
SEQEND
  5
23F
330
23C
100
AcDbEntity
  8
Layer 1
370
    25
  0
POLYLINE
  5
240
330
1F
100
AcDbEntity
  8
Layer 1
 62
     7
420
 16777215
370
    25
100
AcDb2dPolyline
 66
     1
 10
0.0
 20
0.0
 30
0.0
  0
VERTEX
  5
241
330
240
100
AcDbEntity
  8
Layer 1
 62
     7
420
 16777215
370
    25
100
AcDbVertex
100
AcDb2dVertex
 10
286.0321532488045
 20
132.432915548489
 30
0.0
  0
VERTEX
  5
242
330
240
100
AcDbEntity
  8
Layer 1
 62
     7
420
 16777215
370
    25
100
AcDbVertex
100
AcDb2dVertex
 10
286.0321532488045
 20
132.115277744749
 30
0.0
  0
VERTEX
  5
243
330
240
100
AcDbEntity
  8
Layer 1
 62
     7
420
 16777215
370
    25
100
AcDbVertex
100
AcDb2dVertex
 10
285.9970132748549
 20
132.0095133133518
 30
0.0
  0
VERTEX
  5
244
330
240
100
AcDbEntity
  8
Layer 1
 62
     7
420
 16777215
370
    25
100
AcDbVertex
100
AcDb2dVertex
 10
285.9970132748549
 20
131.9037488819546
 30
0.0
  0
VERTEX
  5
245
330
240
100
AcDbEntity
  8
Layer 1
 62
     7
420
 16777215
370
    25
100
AcDbVertex
100
AcDb2dVertex
 10
285.9615287913568
 20
131.8682643984565
 30
0.0
  0
SEQEND
  5
246
330
240
100
AcDbEntity
  8
Layer 1
370
    25
  0
POLYLINE
  5
247
330
1F
100
AcDbEntity
  8
Layer 1
 62
     7
420
 16777215
370
    25
100
AcDb2dPolyline
 66
     1
 10
0.0
 20
0.0
 30
0.0
  0
VERTEX
  5
248
330
247
100
AcDbEntity
  8
Layer 1
 62
     7
420
 16777215
370
    25
100
AcDbVertex
100
AcDb2dVertex
 10
286.0321532488045
 20
131.8682643984565
 30
0.0
  0
VERTEX
  5
249
330
247
100
AcDbEntity
  8
Layer 1
 62
     7
420
 16777215
370
    25
100
AcDbVertex
100
AcDb2dVertex
 10
285.9615287913568
 20
131.8682643984565
 30
0.0
  0
SEQEND
  5
24A
330
247
100
AcDbEntity
  8
Layer 1
370
    25
  0
POLYLINE
  5
24B
330
1F
100
AcDbEntity
  8
Layer 1
 62
     7
420
 16777215
370
    25
100
AcDb2dPolyline
 66
     1
 10
0.0
 20
0.0
 30
0.0
  0
VERTEX
  5
24C
330
24B
100
AcDbEntity
  8
Layer 1
 62
     7
420
 16777215
370
    25
100
AcDbVertex
100
AcDb2dVertex
 10
286.1027777062521
 20
132.432915548489
 30
0.0
  0
VERTEX
  5
24D
330
24B
100
AcDbEntity
  8
Layer 1
 62
     7
420
 16777215
370
    25
100
AcDbVertex
100
AcDb2dVertex
 10
286.0321532488045
 20
132.432915548489
 30
0.0
  0
SEQEND
  5
24E
330
24B
100
AcDbEntity
  8
Layer 1
370
    25
  0
POLYLINE
  5
24F
330
1F
100
AcDbEntity
  8
Layer 1
 62
     7
420
 16777215
370
    25
100
AcDb2dPolyline
 66
     1
 10
0.0
 20
0.0
 30
0.0
  0
VERTEX
  5
250
330
24F
100
AcDbEntity
  8
Layer 1
 62
     7
420
 16777215
370
    25
100
AcDbVertex
100
AcDb2dVertex
 10
286.0321532488045
 20
131.8682643984565
 30
0.0
  0
VERTEX
  5
251
330
24F
100
AcDbEntity
  8
Layer 1
 62
     7
420
 16777215
370
    25
100
AcDbVertex
100
AcDb2dVertex
 10
286.0321532488045
 20
131.8682643984565
 30
0.0
  0
VERTEX
  5
252
330
24F
100
AcDbEntity
  8
Layer 1
 62
     7
420
 16777215
370
    25
100
AcDbVertex
100
AcDb2dVertex
 10
286.0676377323026
 20
131.9388888559042
 30
0.0
  0
VERTEX
  5
253
330
24F
100
AcDbEntity
  8
Layer 1
 62
     7
420
 16777215
370
    25
100
AcDbVertex
100
AcDb2dVertex
 10
286.0676377323026
 20
132.0446532873013
 30
0.0
  0
VERTEX
  5
254
330
24F
100
AcDbEntity
  8
Layer 1
 62
     7
420
 16777215
370
    25
100
AcDbVertex
100
AcDb2dVertex
 10
286.1027777062521
 20
132.1504177186985
 30
0.0
  0
SEQEND
  5
255
330
24F
100
AcDbEntity
  8
Layer 1
370
    25
  0
POLYLINE
  5
256
330
1F
100
AcDbEntity
  8
Layer 1
 62
     7
420
 16777215
370
    25
100
AcDb2dPolyline
 66
     1
 10
0.0
 20
0.0
 30
0.0
  0
VERTEX
  5
257
330
256
100
AcDbEntity
  8
Layer 1
 62
     7
420
 16777215
370
    25
100
AcDbVertex
100
AcDb2dVertex
 10
285.9263888174073
 20
133.0323621629225
 30
0.0
  0
VERTEX
  5
258
330
256
100
AcDbEntity
  8
Layer 1
 62
     7
420
 16777215
370
    25
100
AcDbVertex
100
AcDb2dVertex
 10
285.9263888174073
 20
133.1384711038682
 30
0.0
  0
SEQEND
  5
259
330
256
100
AcDbEntity
  8
Layer 1
370
    25
  0
POLYLINE
  5
25A
330
1F
100
AcDbEntity
  8
Layer 1
 62
     7
420
 16777215
370
    25
100
AcDb2dPolyline
 66
     1
 10
0.0
 20
0.0
 30
0.0
  0
VERTEX
  5
25B
330
25A
100
AcDbEntity
  8
Layer 1
 62
     7
420
 16777215
370
    25
100
AcDbVertex
100
AcDb2dVertex
 10
285.9263888174073
 20
131.833124424507
 30
0.0
  0
VERTEX
  5
25C
330
25A
100
AcDbEntity
  8
Layer 1
 62
     7
420
 16777215
370
    25
100
AcDbVertex
100
AcDb2dVertex
 10
285.9263888174073
 20
131.9388888559042
 30
0.0
  0
SEQEND
  5
25D
330
25A
100
AcDbEntity
  8
Layer 1
370
    25
  0
POLYLINE
  5
25E
330
1F
100
AcDbEntity
  8
Layer 1
 62
     7
420
 16777215
370
    25
100
AcDb2dPolyline
 66
     1
 10
0.0
 20
0.0
 30
0.0
  0
VERTEX
  5
25F
330
25E
100
AcDbEntity
  8
Layer 1
 62
     7
420
 16777215
370
    25
100
AcDbVertex
100
AcDb2dVertex
 10
315.8418754635742
 20
132.115277744749
 30
0.0
  0
VERTEX
  5
260
330
25E
100
AcDbEntity
  8
Layer 1
 62
     7
420
 16777215
370
    25
100
AcDbVertex
100
AcDb2dVertex
 10
315.8418754635742
 20
131.6212510521641
 30
0.0
  0
VERTEX
  5
261
330
25E
100
AcDbEntity
  8
Layer 1
 62
     7
420
 16777215
370
    25
100
AcDbVertex
100
AcDb2dVertex
 10
315.8418754635742
 20
131.1627088430774
 30
0.0
  0
VERTEX
  5
262
330
25E
100
AcDbEntity
  8
Layer 1
 62
     7
420
 16777215
370
    25
100
AcDbVertex
100
AcDb2dVertex
 10
315.8418754635742
 20
130.7747910914383
 30
0.0
  0
VERTEX
  5
263
330
25E
100
AcDbEntity
  8
Layer 1
 62
     7
420
 16777215
370
    25
100
AcDbVertex
100
AcDb2dVertex
 10
315.8418754635742
 20
130.3865288302506
 30
0.0
  0
VERTEX
  5
264
330
25E
100
AcDbEntity
  8
Layer 1
 62
     7
420
 16777215
370
    25
100
AcDbVertex
100
AcDb2dVertex
 10
315.8418754635742
 20
130.0692355360591
 30
0.0
  0
VERTEX
  5
265
330
25E
100
AcDbEntity
  8
Layer 1
 62
     7
420
 16777215
370
    25
100
AcDbVertex
100
AcDb2dVertex
 10
315.8418754635742
 20
129.7870822158171
 30
0.0
  0
VERTEX
  5
266
330
25E
100
AcDbEntity
  8
Layer 1
 62
     7
420
 16777215
370
    25
100
AcDbVertex
100
AcDb2dVertex
 10
315.8418754635742
 20
129.6106933269723
 30
0.0
  0
VERTEX
  5
267
330
25E
100
AcDbEntity
  8
Layer 1
 62
     7
420
 16777215
370
    25
100
AcDbVertex
100
AcDb2dVertex
 10
315.8418754635742
 20
129.4694444120771
 30
0.0
  0
SEQEND
  5
268
330
25E
100
AcDbEntity
  8
Layer 1
370
    25
  0
POLYLINE
  5
269
330
1F
100
AcDbEntity
  8
Layer 1
 62
     7
420
 16777215
370
    25
100
AcDb2dPolyline
 66
     1
 10
0.0
 20
0.0
 30
0.0
  0
VERTEX
  5
26A
330
269
100
AcDbEntity
  8
Layer 1
 62
     7
420
 16777215
370
    25
100
AcDbVertex
100
AcDb2dVertex
 10
315.8418754635742
 20
129.4694444120771
 30
0.0
  0
VERTEX
  5
26B
330
269
100
AcDbEntity
  8
Layer 1
 62
     7
420
 16777215
370
    25
100
AcDbVertex
100
AcDb2dVertex
 10
286.0321532488045
 20
129.4694444120771
 30
0.0
  0
SEQEND
  5
26C
330
269
100
AcDbEntity
  8
Layer 1
370
    25
  0
POLYLINE
  5
26D
330
1F
100
AcDbEntity
  8
Layer 1
 62
     7
420
 16777215
370
    25
100
AcDb2dPolyline
 66
     1
 10
0.0
 20
0.0
 30
0.0
  0
VERTEX
  5
26E
330
26D
100
AcDbEntity
  8
Layer 1
 62
     7
420
 16777215
370
    25
100
AcDbVertex
100
AcDb2dVertex
 10
286.6319443727864
 20
132.115277744749
 30
0.0
  0
VERTEX
  5
26F
330
26D
100
AcDbEntity
  8
Layer 1
 62
     7
420
 16777215
370
    25
100
AcDbVertex
100
AcDb2dVertex
 10
315.8418754635742
 20
132.115277744749
 30
0.0
  0
SEQEND
  5
270
330
26D
100
AcDbEntity
  8
Layer 1
370
    25
  0
POLYLINE
  5
271
330
1F
100
AcDbEntity
  8
Layer 1
 62
     7
420
 16777215
370
    25
100
AcDb2dPolyline
 66
     1
 10
0.0
 20
0.0
 30
0.0
  0
VERTEX
  5
272
330
271
100
AcDbEntity
  8
Layer 1
 62
     7
420
 16777215
370
    25
100
AcDbVertex
100
AcDb2dVertex
 10
315.8418754635742
 20
151.9765977267628
 30
0.0
  0
VERTEX
  5
273
330
271
100
AcDbEntity
  8
Layer 1
 62
     7
420
 16777215
370
    25
100
AcDbVertex
100
AcDb2dVertex
 10
315.8418754635742
 20
149.5071532829357
 30
0.0
  0
VERTEX
  5
274
330
271
100
AcDbEntity
  8
Layer 1
 62
     7
420
 16777215
370
    25
100
AcDbVertex
100
AcDb2dVertex
 10
315.8418754635742
 20
147.0377088391086
 30
0.0
  0
VERTEX
  5
275
330
271
100
AcDbEntity
  8
Layer 1
 62
     7
420
 16777215
370
    25
100
AcDbVertex
100
AcDb2dVertex
 10
315.8418754635742
 20
144.5682643952815
 30
0.0
  0
VERTEX
  5
276
330
271
100
AcDbEntity
  8
Layer 1
 62
     7
420
 16777215
370
    25
100
AcDbVertex
100
AcDb2dVertex
 10
315.8418754635742
 20
142.0636799775049
 30
0.0
  0
VERTEX
  5
277
330
271
100
AcDbEntity
  8
Layer 1
 62
     7
420
 16777215
370
    25
100
AcDbVertex
100
AcDb2dVertex
 10
315.8418754635742
 20
139.5587510501798
 30
0.0
  0
VERTEX
  5
278
330
271
100
AcDbEntity
  8
Layer 1
 62
     7
420
 16777215
370
    25
100
AcDbVertex
100
AcDb2dVertex
 10
315.8418754635742
 20
137.0541666324031
 30
0.0
  0
VERTEX
  5
279
330
271
100
AcDbEntity
  8
Layer 1
 62
     7
420
 16777215
370
    25
100
AcDbVertex
100
AcDb2dVertex
 10
315.8418754635742
 20
134.5847221885761
 30
0.0
  0
VERTEX
  5
27A
330
271
100
AcDbEntity
  8
Layer 1
 62
     7
420
 16777215
370
    25
100
AcDbVertex
100
AcDb2dVertex
 10
315.8418754635742
 20
132.115277744749
 30
0.0
  0
SEQEND
  5
27B
330
271
100
AcDbEntity
  8
Layer 1
370
    25
  0
POLYLINE
  5
27C
330
1F
100
AcDbEntity
  8
Layer 1
 62
     7
420
 16777215
370
    25
100
AcDb2dPolyline
 66
     1
 10
0.0
 20
0.0
 30
0.0
  0
VERTEX
  5
27D
330
27C
100
AcDbEntity
  8
Layer 1
 62
     7
420
 16777215
370
    25
100
AcDbVertex
100
AcDb2dVertex
 10
285.4678466083205
 20
132.4680555224386
 30
0.0
  0
VERTEX
  5
27E
330
27C
100
AcDbEntity
  8
Layer 1
 62
     7
420
 16777215
370
    25
100
AcDbVertex
100
AcDb2dVertex
 10
285.4678466083205
 20
132.0446532873013
 30
0.0
  0
VERTEX
  5
27F
330
27C
100
AcDbEntity
  8
Layer 1
 62
     7
420
 16777215
370
    25
100
AcDbVertex
100
AcDb2dVertex
 10
285.5029865822701
 20
131.833124424507
 30
0.0
  0
VERTEX
  5
280
330
27C
100
AcDbEntity
  8
Layer 1
 62
     7
420
 16777215
370
    25
100
AcDbVertex
100
AcDb2dVertex
 10
285.5029865822701
 20
131.6918755096117
 30
0.0
  0
VERTEX
  5
281
330
27C
100
AcDbEntity
  8
Layer 1
 62
     7
420
 16777215
370
    25
100
AcDbVertex
100
AcDb2dVertex
 10
285.5384710657682
 20
131.5861110782146
 30
0.0
  0
VERTEX
  5
282
330
27C
100
AcDbEntity
  8
Layer 1
 62
     7
420
 16777215
370
    25
100
AcDbVertex
100
AcDb2dVertex
 10
285.5736110397177
 20
131.5861110782146
 30
0.0
  0
SEQEND
  5
283
330
27C
100
AcDbEntity
  8
Layer 1
370
    25
  0
POLYLINE
  5
284
330
1F
100
AcDbEntity
  8
Layer 1
 62
     7
420
 16777215
370
    25
100
AcDb2dPolyline
 66
     1
 10
0.0
 20
0.0
 30
0.0
  0
VERTEX
  5
285
330
284
100
AcDbEntity
  8
Layer 1
 62
     7
420
 16777215
370
    25
100
AcDbVertex
100
AcDb2dVertex
 10
285.5029865822701
 20
133.1736110778177
 30
0.0
  0
VERTEX
  5
286
330
284
100
AcDbEntity
  8
Layer 1
 62
     7
420
 16777215
370
    25
100
AcDbVertex
100
AcDb2dVertex
 10
285.4678466083205
 20
132.9265977315253
 30
0.0
  0
VERTEX
  5
287
330
284
100
AcDbEntity
  8
Layer 1
 62
     7
420
 16777215
370
    25
100
AcDbVertex
100
AcDb2dVertex
 10
285.4678466083205
 20
132.6093044373338
 30
0.0
  0
VERTEX
  5
288
330
284
100
AcDbEntity
  8
Layer 1
 62
     7
420
 16777215
370
    25
100
AcDbVertex
100
AcDb2dVertex
 10
285.4678466083205
 20
132.4680555224386
 30
0.0
  0
SEQEND
  5
289
330
284
100
AcDbEntity
  8
Layer 1
370
    25
  0
POLYLINE
  5
28A
330
1F
100
AcDbEntity
  8
Layer 1
 62
     7
420
 16777215
370
    25
100
AcDb2dPolyline
 66
     1
 10
0.0
 20
0.0
 30
0.0
  0
VERTEX
  5
28B
330
28A
100
AcDbEntity
  8
Layer 1
 62
     7
420
 16777215
370
    25
100
AcDbVertex
100
AcDb2dVertex
 10
285.5736110397177
 20
133.3499999666625
 30
0.0
  0
VERTEX
  5
28C
330
28A
100
AcDbEntity
  8
Layer 1
 62
     7
420
 16777215
370
    25
100
AcDbVertex
100
AcDb2dVertex
 10
285.5384710657682
 20
133.3499999666625
 30
0.0
  0
VERTEX
  5
28D
330
28A
100
AcDbEntity
  8
Layer 1
 62
     7
420
 16777215
370
    25
100
AcDbVertex
100
AcDb2dVertex
 10
285.5029865822701
 20
133.2442355352653
 30
0.0
  0
VERTEX
  5
28E
330
28A
100
AcDbEntity
  8
Layer 1
 62
     7
420
 16777215
370
    25
100
AcDbVertex
100
AcDb2dVertex
 10
285.5029865822701
 20
133.1736110778177
 30
0.0
  0
SEQEND
  5
28F
330
28A
100
AcDbEntity
  8
Layer 1
370
    25
  0
POLYLINE
  5
290
330
1F
100
AcDbEntity
  8
Layer 1
 62
     7
420
 16777215
370
    25
100
AcDb2dPolyline
 66
     1
 10
0.0
 20
0.0
 30
0.0
  0
VERTEX
  5
291
330
290
100
AcDbEntity
  8
Layer 1
 62
     7
420
 16777215
370
    25
100
AcDbVertex
100
AcDb2dVertex
 10
285.6793754711149
 20
132.5031954963881
 30
0.0
  0
VERTEX
  5
292
330
290
100
AcDbEntity
  8
Layer 1
 62
     7
420
 16777215
370
    25
100
AcDbVertex
100
AcDb2dVertex
 10
285.6793754711149
 20
132.8559732740777
 30
0.0
  0
VERTEX
  5
293
330
290
100
AcDbEntity
  8
Layer 1
 62
     7
420
 16777215
370
    25
100
AcDbVertex
100
AcDb2dVertex
 10
285.6442354971654
 20
133.0678466464205
 30
0.0
  0
VERTEX
  5
294
330
290
100
AcDbEntity
  8
Layer 1
 62
     7
420
 16777215
370
    25
100
AcDbVertex
100
AcDb2dVertex
 10
285.6087510136672
 20
133.2442355352653
 30
0.0
  0
VERTEX
  5
295
330
290
100
AcDbEntity
  8
Layer 1
 62
     7
420
 16777215
370
    25
100
AcDbVertex
100
AcDb2dVertex
 10
285.5736110397177
 20
133.3499999666625
 30
0.0
  0
SEQEND
  5
296
330
290
100
AcDbEntity
  8
Layer 1
370
    25
  0
POLYLINE
  5
297
330
1F
100
AcDbEntity
  8
Layer 1
 62
     7
420
 16777215
370
    25
100
AcDb2dPolyline
 66
     1
 10
0.0
 20
0.0
 30
0.0
  0
VERTEX
  5
298
330
297
100
AcDbEntity
  8
Layer 1
 62
     7
420
 16777215
370
    25
100
AcDbVertex
100
AcDb2dVertex
 10
285.5736110397177
 20
131.5861110782146
 30
0.0
  0
VERTEX
  5
299
330
297
100
AcDbEntity
  8
Layer 1
 62
     7
420
 16777215
370
    25
100
AcDbVertex
100
AcDb2dVertex
 10
285.6087510136672
 20
131.6567355356622
 30
0.0
  0
VERTEX
  5
29A
330
297
100
AcDbEntity
  8
Layer 1
 62
     7
420
 16777215
370
    25
100
AcDbVertex
100
AcDb2dVertex
 10
285.6442354971654
 20
131.7976399410089
 30
0.0
  0
VERTEX
  5
29B
330
297
100
AcDbEntity
  8
Layer 1
 62
     7
420
 16777215
370
    25
100
AcDbVertex
100
AcDb2dVertex
 10
285.6442354971654
 20
132.0095133133518
 30
0.0
  0
VERTEX
  5
29C
330
297
100
AcDbEntity
  8
Layer 1
 62
     7
420
 16777215
370
    25
100
AcDbVertex
100
AcDb2dVertex
 10
285.6793754711149
 20
132.2565266596442
 30
0.0
  0
VERTEX
  5
29D
330
297
100
AcDbEntity
  8
Layer 1
 62
     7
420
 16777215
370
    25
100
AcDbVertex
100
AcDb2dVertex
 10
285.6793754711149
 20
132.5031954963881
 30
0.0
  0
SEQEND
  5
29E
330
297
100
AcDbEntity
  8
Layer 1
370
    25
  0
POLYLINE
  5
29F
330
1F
100
AcDbEntity
  8
Layer 1
 62
     7
420
 16777215
370
    25
100
AcDb2dPolyline
 66
     1
 10
0.0
 20
0.0
 30
0.0
  0
VERTEX
  5
2A0
330
29F
100
AcDbEntity
  8
Layer 1
 62
     7
420
 16777215
370
    25
100
AcDbVertex
100
AcDb2dVertex
 10
286.0321532488045
 20
131.6212510521641
 30
0.0
  0
VERTEX
  5
2A1
330
29F
100
AcDbEntity
  8
Layer 1
 62
     7
420
 16777215
370
    25
100
AcDbVertex
100
AcDb2dVertex
 10
286.1027777062521
 20
131.6212510521641
 30
0.0
  0
SEQEND
  5
2A2
330
29F
100
AcDbEntity
  8
Layer 1
370
    25
  0
POLYLINE
  5
2A3
330
1F
100
AcDbEntity
  8
Layer 1
 62
     7
420
 16777215
370
    25
100
AcDb2dPolyline
 66
     1
 10
0.0
 20
0.0
 30
0.0
  0
VERTEX
  5
2A4
330
2A3
100
AcDbEntity
  8
Layer 1
 62
     7
420
 16777215
370
    25
100
AcDbVertex
100
AcDb2dVertex
 10
286.0321532488045
 20
131.8682643984565
 30
0.0
  0
VERTEX
  5
2A5
330
2A3
100
AcDbEntity
  8
Layer 1
 62
     7
420
 16777215
370
    25
100
AcDbVertex
100
AcDb2dVertex
 10
286.0321532488045
 20
131.6212510521641
 30
0.0
  0
SEQEND
  5
2A6
330
2A3
100
AcDbEntity
  8
Layer 1
370
    25
  0
POLYLINE
  5
2A7
330
1F
100
AcDbEntity
  8
Layer 1
 62
     7
420
 16777215
370
    25
100
AcDb2dPolyline
 66
     1
 10
0.0
 20
0.0
 30
0.0
  0
VERTEX
  5
2A8
330
2A7
100
AcDbEntity
  8
Layer 1
 62
     7
420
 16777215
370
    25
100
AcDbVertex
100
AcDb2dVertex
 10
285.9615287913568
 20
131.5861110782146
 30
0.0
  0
VERTEX
  5
2A9
330
2A7
100
AcDbEntity
  8
Layer 1
 62
     7
420
 16777215
370
    25
100
AcDbVertex
100
AcDb2dVertex
 10
285.9970132748549
 20
131.6212510521641
 30
0.0
  0
VERTEX
  5
2AA
330
2A7
100
AcDbEntity
  8
Layer 1
 62
     7
420
 16777215
370
    25
100
AcDbVertex
100
AcDb2dVertex
 10
285.9970132748549
 20
131.7624999670594
 30
0.0
  0
VERTEX
  5
2AB
330
2A7
100
AcDbEntity
  8
Layer 1
 62
     7
420
 16777215
370
    25
100
AcDbVertex
100
AcDb2dVertex
 10
286.0321532488045
 20
131.8682643984565
 30
0.0
  0
SEQEND
  5
2AC
330
2A7
100
AcDbEntity
  8
Layer 1
370
    25
  0
POLYLINE
  5
2AD
330
1F
100
AcDbEntity
  8
Layer 1
 62
     7
420
 16777215
370
    25
100
AcDb2dPolyline
 66
     1
 10
0.0
 20
0.0
 30
0.0
  0
VERTEX
  5
2AE
330
2AD
100
AcDbEntity
  8
Layer 1
 62
     7
420
 16777215
370
    25
100
AcDbVertex
100
AcDb2dVertex
 10
285.8206243860101
 20
132.4680555224386
 30
0.0
  0
VERTEX
  5
2AF
330
2AD
100
AcDbEntity
  8
Layer 1
 62
     7
420
 16777215
370
    25
100
AcDbVertex
100
AcDb2dVertex
 10
285.8206243860101
 20
132.0446532873013
 30
0.0
  0
VERTEX
  5
2B0
330
2AD
100
AcDbEntity
  8
Layer 1
 62
     7
420
 16777215
370
    25
100
AcDbVertex
100
AcDb2dVertex
 10
285.8557643599596
 20
131.833124424507
 30
0.0
  0
VERTEX
  5
2B1
330
2AD
100
AcDbEntity
  8
Layer 1
 62
     7
420
 16777215
370
    25
100
AcDbVertex
100
AcDb2dVertex
 10
285.8912488434577
 20
131.6918755096117
 30
0.0
  0
VERTEX
  5
2B2
330
2AD
100
AcDbEntity
  8
Layer 1
 62
     7
420
 16777215
370
    25
100
AcDbVertex
100
AcDb2dVertex
 10
285.9263888174073
 20
131.5861110782146
 30
0.0
  0
VERTEX
  5
2B3
330
2AD
100
AcDbEntity
  8
Layer 1
 62
     7
420
 16777215
370
    25
100
AcDbVertex
100
AcDb2dVertex
 10
285.9615287913568
 20
131.5861110782146
 30
0.0
  0
SEQEND
  5
2B4
330
2AD
100
AcDbEntity
  8
Layer 1
370
    25
  0
POLYLINE
  5
2B5
330
1F
100
AcDbEntity
  8
Layer 1
 62
     7
420
 16777215
370
    25
100
AcDb2dPolyline
 66
     1
 10
0.0
 20
0.0
 30
0.0
  0
VERTEX
  5
2B6
330
2B5
100
AcDbEntity
  8
Layer 1
 62
     7
420
 16777215
370
    25
100
AcDbVertex
100
AcDb2dVertex
 10
285.9263888174073
 20
133.3499999666625
 30
0.0
  0
VERTEX
  5
2B7
330
2B5
100
AcDbEntity
  8
Layer 1
 62
     7
420
 16777215
370
    25
100
AcDbVertex
100
AcDb2dVertex
 10
285.8912488434577
 20
133.314859992713
 30
0.0
  0
VERTEX
  5
2B8
330
2B5
100
AcDbEntity
  8
Layer 1
 62
     7
420
 16777215
370
    25
100
AcDbVertex
100
AcDb2dVertex
 10
285.8557643599596
 20
133.1736110778177
 30
0.0
  0
VERTEX
  5
2B9
330
2B5
100
AcDbEntity
  8
Layer 1
 62
     7
420
 16777215
370
    25
100
AcDbVertex
100
AcDb2dVertex
 10
285.8557643599596
 20
132.9972221889729
 30
0.0
  0
VERTEX
  5
2BA
330
2B5
100
AcDbEntity
  8
Layer 1
 62
     7
420
 16777215
370
    25
100
AcDbVertex
100
AcDb2dVertex
 10
285.8206243860101
 20
132.715068868731
 30
0.0
  0
VERTEX
  5
2BB
330
2B5
100
AcDbEntity
  8
Layer 1
 62
     7
420
 16777215
370
    25
100
AcDbVertex
100
AcDb2dVertex
 10
285.8206243860101
 20
132.4680555224386
 30
0.0
  0
SEQEND
  5
2BC
330
2B5
100
AcDbEntity
  8
Layer 1
370
    25
  0
POLYLINE
  5
2BD
330
1F
100
AcDbEntity
  8
Layer 1
 62
     7
420
 16777215
370
    25
100
AcDb2dPolyline
 66
     1
 10
0.0
 20
0.0
 30
0.0
  0
VERTEX
  5
2BE
330
2BD
100
AcDbEntity
  8
Layer 1
 62
     7
420
 16777215
370
    25
100
AcDbVertex
100
AcDb2dVertex
 10
286.0321532488045
 20
133.1029866203701
 30
0.0
  0
VERTEX
  5
2BF
330
2BD
100
AcDbEntity
  8
Layer 1
 62
     7
420
 16777215
370
    25
100
AcDbVertex
100
AcDb2dVertex
 10
285.9970132748549
 20
133.2793755092149
 30
0.0
  0
VERTEX
  5
2C0
330
2BD
100
AcDbEntity
  8
Layer 1
 62
     7
420
 16777215
370
    25
100
AcDbVertex
100
AcDb2dVertex
 10
285.9615287913568
 20
133.3499999666625
 30
0.0
  0
VERTEX
  5
2C1
330
2BD
100
AcDbEntity
  8
Layer 1
 62
     7
420
 16777215
370
    25
100
AcDbVertex
100
AcDb2dVertex
 10
285.9263888174073
 20
133.3499999666625
 30
0.0
  0
SEQEND
  5
2C2
330
2BD
100
AcDbEntity
  8
Layer 1
370
    25
  0
POLYLINE
  5
2C3
330
1F
100
AcDbEntity
  8
Layer 1
 62
     7
420
 16777215
370
    25
100
AcDb2dPolyline
 66
     1
 10
0.0
 20
0.0
 30
0.0
  0
VERTEX
  5
2C4
330
2C3
100
AcDbEntity
  8
Layer 1
 62
     7
420
 16777215
370
    25
100
AcDbVertex
100
AcDb2dVertex
 10
286.0321532488045
 20
133.9497910906445
 30
0.0
  0
VERTEX
  5
2C5
330
2C3
100
AcDbEntity
  8
Layer 1
 62
     7
420
 16777215
370
    25
100
AcDbVertex
100
AcDb2dVertex
 10
286.0321532488045
 20
133.1029866203701
 30
0.0
  0
SEQEND
  5
2C6
330
2C3
100
AcDbEntity
  8
Layer 1
370
    25
  0
POLYLINE
  5
2C7
330
1F
100
AcDbEntity
  8
Layer 1
 62
     7
420
 16777215
370
    25
100
AcDb2dPolyline
 66
     1
 10
0.0
 20
0.0
 30
0.0
  0
VERTEX
  5
2C8
330
2C7
100
AcDbEntity
  8
Layer 1
 62
     7
420
 16777215
370
    25
100
AcDbVertex
100
AcDb2dVertex
 10
286.1027777062521
 20
133.9497910906445
 30
0.0
  0
VERTEX
  5
2C9
330
2C7
100
AcDbEntity
  8
Layer 1
 62
     7
420
 16777215
370
    25
100
AcDbVertex
100
AcDb2dVertex
 10
286.0321532488045
 20
133.9497910906445
 30
0.0
  0
SEQEND
  5
2CA
330
2C7
100
AcDbEntity
  8
Layer 1
370
    25
  0
POLYLINE
  5
2CB
330
1F
100
AcDbEntity
  8
Layer 1
 62
     7
420
 16777215
370
    25
100
AcDb2dPolyline
 66
     1
 10
0.0
 20
0.0
 30
0.0
  0
VERTEX
  5
2CC
330
2CB
100
AcDbEntity
  8
Layer 1
 62
     7
420
 16777215
370
    25
100
AcDbVertex
100
AcDb2dVertex
 10
286.1027777062521
 20
131.6212510521641
 30
0.0
  0
VERTEX
  5
2CD
330
2CB
100
AcDbEntity
  8
Layer 1
 62
     7
420
 16777215
370
    25
100
AcDbVertex
100
AcDb2dVertex
 10
286.1027777062521
 20
133.9497910906445
 30
0.0
  0
SEQEND
  5
2CE
330
2CB
100
AcDbEntity
  8
Layer 1
370
    25
  0
POLYLINE
  5
2CF
330
1F
100
AcDbEntity
  8
Layer 1
 62
     7
420
 16777215
370
    25
100
AcDb2dPolyline
 66
     1
 10
0.0
 20
0.0
 30
0.0
  0
VERTEX
  5
2D0
330
2CF
100
AcDbEntity
  8
Layer 1
 62
     7
420
 16777215
370
    25
100
AcDbVertex
100
AcDb2dVertex
 10
285.1856932880786
 20
128.6226399418027
 30
0.0
  0
VERTEX
  5
2D1
330
2CF
100
AcDbEntity
  8
Layer 1
 62
     7
420
 16777215
370
    25
100
AcDbVertex
100
AcDb2dVertex
 10
285.1856932880786
 20
128.6226399418027
 30
0.0
  0
VERTEX
  5
2D2
330
2CF
100
AcDbEntity
  8
Layer 1
 62
     7
420
 16777215
370
    25
100
AcDbVertex
100
AcDb2dVertex
 10
285.2559732359777
 20
128.6932643992503
 30
0.0
  0
VERTEX
  5
2D3
330
2CF
100
AcDbEntity
  8
Layer 1
 62
     7
420
 16777215
370
    25
100
AcDbVertex
100
AcDb2dVertex
 10
285.3972221508729
 20
128.8345133141455
 30
0.0
  0
VERTEX
  5
2D4
330
2CF
100
AcDbEntity
  8
Layer 1
 62
     7
420
 16777215
370
    25
100
AcDbVertex
100
AcDb2dVertex
 10
285.6793754711149
 20
129.1166666343874
 30
0.0
  0
VERTEX
  5
2D5
330
2CF
100
AcDbEntity
  8
Layer 1
 62
     7
420
 16777215
370
    25
100
AcDbVertex
100
AcDb2dVertex
 10
286.0321532488045
 20
129.4694444120771
 30
0.0
  0
SEQEND
  5
2D6
330
2CF
100
AcDbEntity
  8
Layer 1
370
    25
  0
POLYLINE
  5
2D7
330
1F
100
AcDbEntity
  8
Layer 1
 62
     7
420
 16777215
370
    25
100
AcDb2dPolyline
 66
     1
 10
0.0
 20
0.0
 30
0.0
  0
VERTEX
  5
2D8
330
2D7
100
AcDbEntity
  8
Layer 1
 62
     7
420
 16777215
370
    25
100
AcDbVertex
100
AcDb2dVertex
 10
286.0321532488045
 20
129.4694444120771
 30
0.0
  0
VERTEX
  5
2D9
330
2D7
100
AcDbEntity
  8
Layer 1
 62
     7
420
 16777215
370
    25
100
AcDbVertex
100
AcDb2dVertex
 10
286.2440266211473
 20
129.8573621637162
 30
0.0
  0
VERTEX
  5
2DA
330
2D7
100
AcDbEntity
  8
Layer 1
 62
     7
420
 16777215
370
    25
100
AcDbVertex
100
AcDb2dVertex
 10
286.4555554839417
 20
130.5984022025935
 30
0.0
  0
VERTEX
  5
2DB
330
2D7
100
AcDbEntity
  8
Layer 1
 62
     7
420
 16777215
370
    25
100
AcDbVertex
100
AcDb2dVertex
 10
286.5968043988369
 20
131.5861110782146
 30
0.0
  0
VERTEX
  5
2DC
330
2D7
100
AcDbEntity
  8
Layer 1
 62
     7
420
 16777215
370
    25
100
AcDbVertex
100
AcDb2dVertex
 10
286.6319443727864
 20
132.115277744749
 30
0.0
  0
SEQEND
  5
2DD
330
2D7
100
AcDbEntity
  8
Layer 1
370
    25
  0
POLYLINE
  5
2DE
330
1F
100
AcDbEntity
  8
Layer 1
 62
     7
420
 16777215
370
    25
100
AcDb2dPolyline
 66
     1
 10
0.0
 20
0.0
 30
0.0
  0
VERTEX
  5
2DF
330
2DE
100
AcDbEntity
  8
Layer 1
 62
     7
420
 16777215
370
    25
100
AcDbVertex
100
AcDb2dVertex
 10
286.6319443727864
 20
132.115277744749
 30
0.0
  0
VERTEX
  5
2E0
330
2DE
100
AcDbEntity
  8
Layer 1
 62
     7
420
 16777215
370
    25
100
AcDbVertex
100
AcDb2dVertex
 10
286.7731932876817
 20
136.4192355344716
 30
0.0
  0
VERTEX
  5
2E1
330
2DE
100
AcDbEntity
  8
Layer 1
 62
     7
420
 16777215
370
    25
100
AcDbVertex
100
AcDb2dVertex
 10
286.8434732355808
 20
140.7583332981438
 30
0.0
  0
VERTEX
  5
2E2
330
2DE
100
AcDbEntity
  8
Layer 1
 62
     7
420
 16777215
370
    25
100
AcDbVertex
100
AcDb2dVertex
 10
286.8083332616313
 20
145.0974310618159
 30
0.0
  0
VERTEX
  5
2E3
330
2DE
100
AcDbEntity
  8
Layer 1
 62
     7
420
 16777215
370
    25
100
AcDbVertex
100
AcDb2dVertex
 10
286.7731932876817
 20
146.1206244209351
 30
0.0
  0
VERTEX
  5
2E4
330
2DE
100
AcDbEntity
  8
Layer 1
 62
     7
420
 16777215
370
    25
100
AcDbVertex
100
AcDb2dVertex
 10
286.7731932876817
 20
147.1083332965563
 30
0.0
  0
VERTEX
  5
2E5
330
2DE
100
AcDbEntity
  8
Layer 1
 62
     7
420
 16777215
370
    25
100
AcDbVertex
100
AcDb2dVertex
 10
286.9140976930285
 20
148.0609021982278
 30
0.0
  0
VERTEX
  5
2E6
330
2DE
100
AcDbEntity
  8
Layer 1
 62
     7
420
 16777215
370
    25
100
AcDbVertex
100
AcDb2dVertex
 10
287.1962510132704
 20
148.907534413728
 30
0.0
  0
VERTEX
  5
2E7
330
2DE
100
AcDbEntity
  8
Layer 1
 62
     7
420
 16777215
370
    25
100
AcDbVertex
100
AcDb2dVertex
 10
287.6196532484076
 20
149.6835421717805
 30
0.0
  0
VERTEX
  5
2E8
330
2DE
100
AcDbEntity
  8
Layer 1
 62
     7
420
 16777215
370
    25
100
AcDbVertex
100
AcDb2dVertex
 10
288.1843043984401
 20
150.3890977271597
 30
0.0
  0
VERTEX
  5
2E9
330
2DE
100
AcDbEntity
  8
Layer 1
 62
     7
420
 16777215
370
    25
100
AcDbVertex
100
AcDb2dVertex
 10
288.8543754703211
 20
150.9535766224179
 30
0.0
  0
VERTEX
  5
2EA
330
2DE
100
AcDbEntity
  8
Layer 1
 62
     7
420
 16777215
370
    25
100
AcDbVertex
100
AcDb2dVertex
 10
289.5954155091984
 20
151.4122910862789
 30
0.0
  0
VERTEX
  5
2EB
330
2DE
100
AcDbEntity
  8
Layer 1
 62
     7
420
 16777215
370
    25
100
AcDbVertex
100
AcDb2dVertex
 10
290.4067354959747
 20
151.7650688639685
 30
0.0
  0
VERTEX
  5
2EC
330
2DE
100
AcDbEntity
  8
Layer 1
 62
     7
420
 16777215
370
    25
100
AcDbVertex
100
AcDb2dVertex
 10
291.2180554827511
 20
151.9061455240895
 30
0.0
  0
VERTEX
  5
2ED
330
2DE
100
AcDbEntity
  8
Layer 1
 62
     7
420
 16777215
370
    25
100
AcDbVertex
100
AcDb2dVertex
 10
292.099999926975
 20
151.9765977267628
 30
0.0
  0
VERTEX
  5
2EE
330
2DE
100
AcDbEntity
  8
Layer 1
 62
     7
420
 16777215
370
    25
100
AcDbVertex
100
AcDb2dVertex
 10
299.5434732324058
 20
151.9765977267628
 30
0.0
  0
VERTEX
  5
2EF
330
2DE
100
AcDbEntity
  8
Layer 1
 62
     7
420
 16777215
370
    25
100
AcDbVertex
100
AcDb2dVertex
 10
315.8418754635742
 20
151.9765977267628
 30
0.0
  0
SEQEND
  5
2F0
330
2DE
100
AcDbEntity
  8
Layer 1
370
    25
  0
POLYLINE
  5
2F1
330
1F
100
AcDbEntity
  8
Layer 1
 62
     7
420
 16777215
370
    25
100
AcDb2dPolyline
 66
     1
 10
0.0
 20
0.0
 30
0.0
  0
VERTEX
  5
2F2
330
2F1
100
AcDbEntity
  8
Layer 1
 62
     7
420
 16777215
370
    25
100
AcDbVertex
100
AcDb2dVertex
 10
315.8418754635742
 20
153.281944406124
 30
0.0
  0
VERTEX
  5
2F3
330
2F1
100
AcDbEntity
  8
Layer 1
 62
     7
420
 16777215
370
    25
100
AcDbVertex
100
AcDb2dVertex
 10
315.8418754635742
 20
153.140867746003
 30
0.0
  0
VERTEX
  5
2F4
330
2F1
100
AcDbEntity
  8
Layer 1
 62
     7
420
 16777215
370
    25
100
AcDbVertex
100
AcDb2dVertex
 10
315.8418754635742
 20
152.682153282142
 30
0.0
  0
VERTEX
  5
2F5
330
2F1
100
AcDbEntity
  8
Layer 1
 62
     7
420
 16777215
370
    25
100
AcDbVertex
100
AcDb2dVertex
 10
315.8418754635742
 20
151.9765977267628
 30
0.0
  0
SEQEND
  5
2F6
330
2F1
100
AcDbEntity
  8
Layer 1
370
    25
  0
POLYLINE
  5
2F7
330
1F
100
AcDbEntity
  8
Layer 1
 62
     7
420
 16777215
370
    25
100
AcDb2dPolyline
 66
     1
 10
0.0
 20
0.0
 30
0.0
  0
VERTEX
  5
2F8
330
2F7
100
AcDbEntity
  8
Layer 1
 62
     7
420
 16777215
370
    25
100
AcDbVertex
100
AcDb2dVertex
 10
285.714859954613
 20
131.6212510521641
 30
0.0
  0
VERTEX
  5
2F9
330
2F7
100
AcDbEntity
  8
Layer 1
 62
     7
420
 16777215
370
    25
100
AcDbVertex
100
AcDb2dVertex
 10
285.7499999285625
 20
131.6212510521641
 30
0.0
  0
SEQEND
  5
2FA
330
2F7
100
AcDbEntity
  8
Layer 1
370
    25
  0
POLYLINE
  5
2FB
330
1F
100
AcDbEntity
  8
Layer 1
 62
     7
420
 16777215
370
    25
100
AcDb2dPolyline
 66
     1
 10
0.0
 20
0.0
 30
0.0
  0
VERTEX
  5
2FC
330
2FB
100
AcDbEntity
  8
Layer 1
 62
     7
420
 16777215
370
    25
100
AcDbVertex
100
AcDb2dVertex
 10
285.714859954613
 20
133.9497910906445
 30
0.0
  0
VERTEX
  5
2FD
330
2FB
100
AcDbEntity
  8
Layer 1
 62
     7
420
 16777215
370
    25
100
AcDbVertex
100
AcDb2dVertex
 10
285.714859954613
 20
131.6212510521641
 30
0.0
  0
SEQEND
  5
2FE
330
2FB
100
AcDbEntity
  8
Layer 1
370
    25
  0
POLYLINE
  5
2FF
330
1F
100
AcDbEntity
  8
Layer 1
 62
     7
420
 16777215
370
    25
100
AcDb2dPolyline
 66
     1
 10
0.0
 20
0.0
 30
0.0
  0
VERTEX
  5
300
330
2FF
100
AcDbEntity
  8
Layer 1
 62
     7
420
 16777215
370
    25
100
AcDbVertex
100
AcDb2dVertex
 10
285.7499999285625
 20
133.9497910906445
 30
0.0
  0
VERTEX
  5
301
330
2FF
100
AcDbEntity
  8
Layer 1
 62
     7
420
 16777215
370
    25
100
AcDbVertex
100
AcDb2dVertex
 10
285.714859954613
 20
133.9497910906445
 30
0.0
  0
SEQEND
  5
302
330
2FF
100
AcDbEntity
  8
Layer 1
370
    25
  0
POLYLINE
  5
303
330
1F
100
AcDbEntity
  8
Layer 1
 62
     7
420
 16777215
370
    25
100
AcDb2dPolyline
 66
     1
 10
0.0
 20
0.0
 30
0.0
  0
VERTEX
  5
304
330
303
100
AcDbEntity
  8
Layer 1
 62
     7
420
 16777215
370
    25
100
AcDbVertex
100
AcDb2dVertex
 10
285.7499999285625
 20
131.6212510521641
 30
0.0
  0
VERTEX
  5
305
330
303
100
AcDbEntity
  8
Layer 1
 62
     7
420
 16777215
370
    25
100
AcDbVertex
100
AcDb2dVertex
 10
285.7499999285625
 20
133.9497910906445
 30
0.0
  0
SEQEND
  5
306
330
303
100
AcDbEntity
  8
Layer 1
370
    25
  0
POLYLINE
  5
307
330
1F
100
AcDbEntity
  8
Layer 1
 62
     7
420
 16777215
370
    25
100
AcDb2dPolyline
 66
     1
 10
0.0
 20
0.0
 30
0.0
  0
VERTEX
  5
308
330
307
100
AcDbEntity
  8
Layer 1
 62
     7
420
 16777215
370
    25
100
AcDbVertex
100
AcDb2dVertex
 10
285.4323621248225
 20
132.2565266596442
 30
0.0
  0
VERTEX
  5
309
330
307
100
AcDbEntity
  8
Layer 1
 62
     7
420
 16777215
370
    25
100
AcDbVertex
100
AcDb2dVertex
 10
285.4323621248225
 20
132.0801377707994
 30
0.0
  0
VERTEX
  5
30A
330
307
100
AcDbEntity
  8
Layer 1
 62
     7
420
 16777215
370
    25
100
AcDbVertex
100
AcDb2dVertex
 10
285.3972221508729
 20
131.9740288298537
 30
0.0
  0
VERTEX
  5
30B
330
307
100
AcDbEntity
  8
Layer 1
 62
     7
420
 16777215
370
    25
100
AcDbVertex
100
AcDb2dVertex
 10
285.3972221508729
 20
131.9037488819546
 30
0.0
  0
VERTEX
  5
30C
330
307
100
AcDbEntity
  8
Layer 1
 62
     7
420
 16777215
370
    25
100
AcDbVertex
100
AcDb2dVertex
 10
285.3972221508729
 20
131.8682643984565
 30
0.0
  0
SEQEND
  5
30D
330
307
100
AcDbEntity
  8
Layer 1
370
    25
  0
POLYLINE
  5
30E
330
1F
100
AcDbEntity
  8
Layer 1
 62
     7
420
 16777215
370
    25
100
AcDb2dPolyline
 66
     1
 10
0.0
 20
0.0
 30
0.0
  0
VERTEX
  5
30F
330
30E
100
AcDbEntity
  8
Layer 1
 62
     7
420
 16777215
370
    25
100
AcDbVertex
100
AcDb2dVertex
 10
285.4678466083205
 20
132.2210421761461
 30
0.0
  0
VERTEX
  5
310
330
30E
100
AcDbEntity
  8
Layer 1
 62
     7
420
 16777215
370
    25
100
AcDbVertex
100
AcDb2dVertex
 10
285.4323621248225
 20
132.2565266596442
 30
0.0
  0
SEQEND
  5
311
330
30E
100
AcDbEntity
  8
Layer 1
370
    25
  0
POLYLINE
  5
312
330
1F
100
AcDbEntity
  8
Layer 1
 62
     7
420
 16777215
370
    25
100
AcDb2dPolyline
 66
     1
 10
0.0
 20
0.0
 30
0.0
  0
VERTEX
  5
313
330
312
100
AcDbEntity
  8
Layer 1
 62
     7
420
 16777215
370
    25
100
AcDbVertex
100
AcDb2dVertex
 10
285.3972221508729
 20
131.5861110782146
 30
0.0
  0
VERTEX
  5
314
330
312
100
AcDbEntity
  8
Layer 1
 62
     7
420
 16777215
370
    25
100
AcDbVertex
100
AcDb2dVertex
 10
285.3972221508729
 20
131.6212510521641
 30
0.0
  0
VERTEX
  5
315
330
312
100
AcDbEntity
  8
Layer 1
 62
     7
420
 16777215
370
    25
100
AcDbVertex
100
AcDb2dVertex
 10
285.4323621248225
 20
131.7624999670594
 30
0.0
  0
VERTEX
  5
316
330
312
100
AcDbEntity
  8
Layer 1
 62
     7
420
 16777215
370
    25
100
AcDbVertex
100
AcDb2dVertex
 10
285.4323621248225
 20
131.9388888559042
 30
0.0
  0
VERTEX
  5
317
330
312
100
AcDbEntity
  8
Layer 1
 62
     7
420
 16777215
370
    25
100
AcDbVertex
100
AcDb2dVertex
 10
285.4678466083205
 20
132.1504177186985
 30
0.0
  0
VERTEX
  5
318
330
312
100
AcDbEntity
  8
Layer 1
 62
     7
420
 16777215
370
    25
100
AcDbVertex
100
AcDb2dVertex
 10
285.4678466083205
 20
132.2210421761461
 30
0.0
  0
SEQEND
  5
319
330
312
100
AcDbEntity
  8
Layer 1
370
    25
  0
POLYLINE
  5
31A
330
1F
100
AcDbEntity
  8
Layer 1
 62
     7
420
 16777215
370
    25
100
AcDb2dPolyline
 66
     1
 10
0.0
 20
0.0
 30
0.0
  0
VERTEX
  5
31B
330
31A
100
AcDbEntity
  8
Layer 1
 62
     7
420
 16777215
370
    25
100
AcDbVertex
100
AcDb2dVertex
 10
285.3265976934253
 20
132.4680555224386
 30
0.0
  0
VERTEX
  5
31C
330
31A
100
AcDbEntity
  8
Layer 1
 62
     7
420
 16777215
370
    25
100
AcDbVertex
100
AcDb2dVertex
 10
285.3265976934253
 20
132.0801377707994
 30
0.0
  0
VERTEX
  5
31D
330
31A
100
AcDbEntity
  8
Layer 1
 62
     7
420
 16777215
370
    25
100
AcDbVertex
100
AcDb2dVertex
 10
285.3265976934253
 20
131.8682643984565
 30
0.0
  0
VERTEX
  5
31E
330
31A
100
AcDbEntity
  8
Layer 1
 62
     7
420
 16777215
370
    25
100
AcDbVertex
100
AcDb2dVertex
 10
285.3620821769234
 20
131.7273599931098
 30
0.0
  0
VERTEX
  5
31F
330
31A
100
AcDbEntity
  8
Layer 1
 62
     7
420
 16777215
370
    25
100
AcDbVertex
100
AcDb2dVertex
 10
285.3620821769234
 20
131.6212510521641
 30
0.0
  0
VERTEX
  5
320
330
31A
100
AcDbEntity
  8
Layer 1
 62
     7
420
 16777215
370
    25
100
AcDbVertex
100
AcDb2dVertex
 10
285.3972221508729
 20
131.5861110782146
 30
0.0
  0
SEQEND
  5
321
330
31A
100
AcDbEntity
  8
Layer 1
370
    25
  0
POLYLINE
  5
322
330
1F
100
AcDbEntity
  8
Layer 1
 62
     7
420
 16777215
370
    25
100
AcDb2dPolyline
 66
     1
 10
0.0
 20
0.0
 30
0.0
  0
VERTEX
  5
323
330
322
100
AcDbEntity
  8
Layer 1
 62
     7
420
 16777215
370
    25
100
AcDbVertex
100
AcDb2dVertex
 10
285.3972221508729
 20
133.3499999666625
 30
0.0
  0
VERTEX
  5
324
330
322
100
AcDbEntity
  8
Layer 1
 62
     7
420
 16777215
370
    25
100
AcDbVertex
100
AcDb2dVertex
 10
285.3620821769234
 20
133.2793755092149
 30
0.0
  0
VERTEX
  5
325
330
322
100
AcDbEntity
  8
Layer 1
 62
     7
420
 16777215
370
    25
100
AcDbVertex
100
AcDb2dVertex
 10
285.3265976934253
 20
133.1736110778177
 30
0.0
  0
VERTEX
  5
326
330
322
100
AcDbEntity
  8
Layer 1
 62
     7
420
 16777215
370
    25
100
AcDbVertex
100
AcDb2dVertex
 10
285.3265976934253
 20
132.9972221889729
 30
0.0
  0
VERTEX
  5
327
330
322
100
AcDbEntity
  8
Layer 1
 62
     7
420
 16777215
370
    25
100
AcDbVertex
100
AcDb2dVertex
 10
285.3265976934253
 20
132.715068868731
 30
0.0
  0
VERTEX
  5
328
330
322
100
AcDbEntity
  8
Layer 1
 62
     7
420
 16777215
370
    25
100
AcDbVertex
100
AcDb2dVertex
 10
285.3265976934253
 20
132.4680555224386
 30
0.0
  0
SEQEND
  5
329
330
322
100
AcDbEntity
  8
Layer 1
370
    25
  0
POLYLINE
  5
32A
330
1F
100
AcDbEntity
  8
Layer 1
 62
     7
420
 16777215
370
    25
100
AcDb2dPolyline
 66
     1
 10
0.0
 20
0.0
 30
0.0
  0
VERTEX
  5
32B
330
32A
100
AcDbEntity
  8
Layer 1
 62
     7
420
 16777215
370
    25
100
AcDbVertex
100
AcDb2dVertex
 10
285.4678466083205
 20
132.8208333001281
 30
0.0
  0
VERTEX
  5
32C
330
32A
100
AcDbEntity
  8
Layer 1
 62
     7
420
 16777215
370
    25
100
AcDbVertex
100
AcDb2dVertex
 10
285.4323621248225
 20
133.0678466464205
 30
0.0
  0
VERTEX
  5
32D
330
32A
100
AcDbEntity
  8
Layer 1
 62
     7
420
 16777215
370
    25
100
AcDbVertex
100
AcDb2dVertex
 10
285.4323621248225
 20
133.2087510517673
 30
0.0
  0
VERTEX
  5
32E
330
32A
100
AcDbEntity
  8
Layer 1
 62
     7
420
 16777215
370
    25
100
AcDbVertex
100
AcDb2dVertex
 10
285.3972221508729
 20
133.314859992713
 30
0.0
  0
VERTEX
  5
32F
330
32A
100
AcDbEntity
  8
Layer 1
 62
     7
420
 16777215
370
    25
100
AcDbVertex
100
AcDb2dVertex
 10
285.3972221508729
 20
133.3499999666625
 30
0.0
  0
SEQEND
  5
330
330
32A
100
AcDbEntity
  8
Layer 1
370
    25
  0
POLYLINE
  5
331
330
1F
100
AcDbEntity
  8
Layer 1
 62
     7
420
 16777215
370
    25
100
AcDb2dPolyline
 66
     1
 10
0.0
 20
0.0
 30
0.0
  0
VERTEX
  5
332
330
331
100
AcDbEntity
  8
Layer 1
 62
     7
420
 16777215
370
    25
100
AcDbVertex
100
AcDb2dVertex
 10
285.4323621248225
 20
132.7856933261786
 30
0.0
  0
VERTEX
  5
333
330
331
100
AcDbEntity
  8
Layer 1
 62
     7
420
 16777215
370
    25
100
AcDbVertex
100
AcDb2dVertex
 10
285.4678466083205
 20
132.8208333001281
 30
0.0
  0
SEQEND
  5
334
330
331
100
AcDbEntity
  8
Layer 1
370
    25
  0
POLYLINE
  5
335
330
1F
100
AcDbEntity
  8
Layer 1
 62
     7
420
 16777215
370
    25
100
AcDb2dPolyline
 66
     1
 10
0.0
 20
0.0
 30
0.0
  0
VERTEX
  5
336
330
335
100
AcDbEntity
  8
Layer 1
 62
     7
420
 16777215
370
    25
100
AcDbVertex
100
AcDb2dVertex
 10
285.3972221508729
 20
133.1029866203701
 30
0.0
  0
VERTEX
  5
337
330
335
100
AcDbEntity
  8
Layer 1
 62
     7
420
 16777215
370
    25
100
AcDbVertex
100
AcDb2dVertex
 10
285.3972221508729
 20
133.0678466464205
 30
0.0
  0
VERTEX
  5
338
330
335
100
AcDbEntity
  8
Layer 1
 62
     7
420
 16777215
370
    25
100
AcDbVertex
100
AcDb2dVertex
 10
285.3972221508729
 20
132.9972221889729
 30
0.0
  0
VERTEX
  5
339
330
335
100
AcDbEntity
  8
Layer 1
 62
     7
420
 16777215
370
    25
100
AcDbVertex
100
AcDb2dVertex
 10
285.4323621248225
 20
132.8914577575758
 30
0.0
  0
VERTEX
  5
33A
330
335
100
AcDbEntity
  8
Layer 1
 62
     7
420
 16777215
370
    25
100
AcDbVertex
100
AcDb2dVertex
 10
285.4323621248225
 20
132.7856933261786
 30
0.0
  0
SEQEND
  5
33B
330
335
100
AcDbEntity
  8
Layer 1
370
    25
  0
POLYLINE
  5
33C
330
1F
100
AcDbEntity
  8
Layer 1
 62
     7
420
 16777215
370
    25
100
AcDb2dPolyline
 66
     1
 10
0.0
 20
0.0
 30
0.0
  0
VERTEX
  5
33D
330
33C
100
AcDbEntity
  8
Layer 1
 62
     7
420
 16777215
370
    25
100
AcDbVertex
100
AcDb2dVertex
 10
285.3265976934253
 20
132.4680555224386
 30
0.0
  0
VERTEX
  5
33E
330
33C
100
AcDbEntity
  8
Layer 1
 62
     7
420
 16777215
370
    25
100
AcDbVertex
100
AcDb2dVertex
 10
285.3620821769234
 20
132.7502088426804
 30
0.0
  0
VERTEX
  5
33F
330
33C
100
AcDbEntity
  8
Layer 1
 62
     7
420
 16777215
370
    25
100
AcDbVertex
100
AcDb2dVertex
 10
285.3620821769234
 20
132.8914577575758
 30
0.0
  0
VERTEX
  5
340
330
33C
100
AcDbEntity
  8
Layer 1
 62
     7
420
 16777215
370
    25
100
AcDbVertex
100
AcDb2dVertex
 10
285.3620821769234
 20
132.9972221889729
 30
0.0
  0
VERTEX
  5
341
330
33C
100
AcDbEntity
  8
Layer 1
 62
     7
420
 16777215
370
    25
100
AcDbVertex
100
AcDb2dVertex
 10
285.3620821769234
 20
133.0678466464205
 30
0.0
  0
VERTEX
  5
342
330
33C
100
AcDbEntity
  8
Layer 1
 62
     7
420
 16777215
370
    25
100
AcDbVertex
100
AcDb2dVertex
 10
285.3972221508729
 20
133.1029866203701
 30
0.0
  0
SEQEND
  5
343
330
33C
100
AcDbEntity
  8
Layer 1
370
    25
  0
POLYLINE
  5
344
330
1F
100
AcDbEntity
  8
Layer 1
 62
     7
420
 16777215
370
    25
100
AcDb2dPolyline
 66
     1
 10
0.0
 20
0.0
 30
0.0
  0
VERTEX
  5
345
330
344
100
AcDbEntity
  8
Layer 1
 62
     7
420
 16777215
370
    25
100
AcDbVertex
100
AcDb2dVertex
 10
285.3972221508729
 20
131.8682643984565
 30
0.0
  0
VERTEX
  5
346
330
344
100
AcDbEntity
  8
Layer 1
 62
     7
420
 16777215
370
    25
100
AcDbVertex
100
AcDb2dVertex
 10
285.3620821769234
 20
131.8682643984565
 30
0.0
  0
VERTEX
  5
347
330
344
100
AcDbEntity
  8
Layer 1
 62
     7
420
 16777215
370
    25
100
AcDbVertex
100
AcDb2dVertex
 10
285.3620821769234
 20
131.9388888559042
 30
0.0
  0
VERTEX
  5
348
330
344
100
AcDbEntity
  8
Layer 1
 62
     7
420
 16777215
370
    25
100
AcDbVertex
100
AcDb2dVertex
 10
285.3620821769234
 20
132.0446532873013
 30
0.0
  0
VERTEX
  5
349
330
344
100
AcDbEntity
  8
Layer 1
 62
     7
420
 16777215
370
    25
100
AcDbVertex
100
AcDb2dVertex
 10
285.3620821769234
 20
132.2210421761461
 30
0.0
  0
VERTEX
  5
34A
330
344
100
AcDbEntity
  8
Layer 1
 62
     7
420
 16777215
370
    25
100
AcDbVertex
100
AcDb2dVertex
 10
285.3265976934253
 20
132.4680555224386
 30
0.0
  0
SEQEND
  5
34B
330
344
100
AcDbEntity
  8
Layer 1
370
    25
  0
POLYLINE
  5
34C
330
1F
100
AcDbEntity
  8
Layer 1
 62
     7
420
 16777215
370
    25
100
AcDb2dPolyline
 66
     1
 10
0.0
 20
0.0
 30
0.0
  0
VERTEX
  5
34D
330
34C
100
AcDbEntity
  8
Layer 1
 62
     7
420
 16777215
370
    25
100
AcDbVertex
100
AcDb2dVertex
 10
316.8650688226934
 20
151.8708332953656
 30
0.0
  0
VERTEX
  5
34E
330
34C
100
AcDbEntity
  8
Layer 1
 62
     7
420
 16777215
370
    25
100
AcDbVertex
100
AcDb2dVertex
 10
315.8418754635742
 20
151.8708332953656
 30
0.0
  0
SEQEND
  5
34F
330
34C
100
AcDbEntity
  8
Layer 1
370
    25
  0
POLYLINE
  5
350
330
1F
100
AcDbEntity
  8
Layer 1
 62
     7
420
 16777215
370
    25
100
AcDb2dPolyline
 66
     1
 10
0.0
 20
0.0
 30
0.0
  0
VERTEX
  5
351
330
350
100
AcDbEntity
  8
Layer 1
 62
     7
420
 16777215
370
    25
100
AcDbVertex
100
AcDb2dVertex
 10
315.8418754635742
 20
130.033751052561
 30
0.0
  0
VERTEX
  5
352
330
350
100
AcDbEntity
  8
Layer 1
 62
     7
420
 16777215
370
    25
100
AcDbVertex
100
AcDb2dVertex
 10
316.8650688226934
 20
130.033751052561
 30
0.0
  0
SEQEND
  5
353
330
350
100
AcDbEntity
  8
Layer 1
370
    25
  0
POLYLINE
  5
354
330
1F
100
AcDbEntity
  8
Layer 1
 62
     7
420
 16777215
370
    25
100
AcDb2dPolyline
 66
     1
 10
0.0
 20
0.0
 30
0.0
  0
VERTEX
  5
355
330
354
100
AcDbEntity
  8
Layer 1
 62
     7
420
 16777215
370
    25
100
AcDbVertex
100
AcDb2dVertex
 10
285.1856932880786
 20
128.6226399418027
 30
0.0
  0
VERTEX
  5
356
330
354
100
AcDbEntity
  8
Layer 1
 62
     7
420
 16777215
370
    25
100
AcDbVertex
100
AcDb2dVertex
 10
294.3579155080077
 20
128.6226399418027
 30
0.0
  0
SEQEND
  5
357
330
354
100
AcDbEntity
  8
Layer 1
370
    25
  0
POLYLINE
  5
358
330
1F
100
AcDbEntity
  8
Layer 1
 62
     7
420
 16777215
370
    25
100
AcDb2dPolyline
 66
     1
 10
0.0
 20
0.0
 30
0.0
  0
VERTEX
  5
359
330
358
100
AcDbEntity
  8
Layer 1
 62
     7
420
 16777215
370
    25
100
AcDbVertex
100
AcDb2dVertex
 10
297.9914577163008
 20
128.6226399418027
 30
0.0
  0
VERTEX
  5
35A
330
358
100
AcDbEntity
  8
Layer 1
 62
     7
420
 16777215
370
    25
100
AcDbVertex
100
AcDb2dVertex
 10
315.8418754635742
 20
128.6226399418027
 30
0.0
  0
SEQEND
  5
35B
330
358
100
AcDbEntity
  8
Layer 1
370
    25
  0
POLYLINE
  5
35C
330
1F
100
AcDbEntity
  8
Layer 1
 62
     7
420
 16777215
370
    25
100
AcDb2dPolyline
 66
     1
 10
0.0
 20
0.0
 30
0.0
  0
VERTEX
  5
35D
330
35C
100
AcDbEntity
  8
Layer 1
 62
     7
420
 16777215
370
    25
100
AcDbVertex
100
AcDb2dVertex
 10
315.8418754635742
 20
153.281944406124
 30
0.0
  0
VERTEX
  5
35E
330
35C
100
AcDbEntity
  8
Layer 1
 62
     7
420
 16777215
370
    25
100
AcDbVertex
100
AcDb2dVertex
 10
311.7497910461945
 20
153.281944406124
 30
0.0
  0
VERTEX
  5
35F
330
35C
100
AcDbEntity
  8
Layer 1
 62
     7
420
 16777215
370
    25
100
AcDbVertex
100
AcDb2dVertex
 10
307.9749999230062
 20
153.281944406124
 30
0.0
  0
VERTEX
  5
360
330
35C
100
AcDbEntity
  8
Layer 1
 62
     7
420
 16777215
370
    25
100
AcDbVertex
100
AcDb2dVertex
 10
304.5529865775076
 20
153.281944406124
 30
0.0
  0
VERTEX
  5
361
330
35C
100
AcDbEntity
  8
Layer 1
 62
     7
420
 16777215
370
    25
100
AcDbVertex
100
AcDb2dVertex
 10
301.4134710617994
 20
153.281944406124
 30
0.0
  0
VERTEX
  5
362
330
35C
100
AcDbEntity
  8
Layer 1
 62
     7
420
 16777215
370
    25
100
AcDbVertex
100
AcDb2dVertex
 10
298.5912488402827
 20
153.281944406124
 30
0.0
  0
VERTEX
  5
363
330
35C
100
AcDbEntity
  8
Layer 1
 62
     7
420
 16777215
370
    25
100
AcDbVertex
100
AcDb2dVertex
 10
296.4745821741453
 20
153.281944406124
 30
0.0
  0
VERTEX
  5
364
330
35C
100
AcDbEntity
  8
Layer 1
 62
     7
420
 16777215
370
    25
100
AcDbVertex
100
AcDb2dVertex
 10
294.6045843447516
 20
153.281944406124
 30
0.0
  0
VERTEX
  5
365
330
35C
100
AcDbEntity
  8
Layer 1
 62
     7
420
 16777215
370
    25
100
AcDbVertex
100
AcDb2dVertex
 10
292.9819443711989
 20
153.281944406124
 30
0.0
  0
VERTEX
  5
366
330
35C
100
AcDbEntity
  8
Layer 1
 62
     7
420
 16777215
370
    25
100
AcDbVertex
100
AcDb2dVertex
 10
291.8529865806826
 20
153.281944406124
 30
0.0
  0
VERTEX
  5
367
330
35C
100
AcDbEntity
  8
Layer 1
 62
     7
420
 16777215
370
    25
100
AcDbVertex
100
AcDb2dVertex
 10
290.7946532476138
 20
153.2113199486763
 30
0.0
  0
VERTEX
  5
368
330
35C
100
AcDbEntity
  8
Layer 1
 62
     7
420
 16777215
370
    25
100
AcDbVertex
100
AcDb2dVertex
 10
289.8069443719927
 20
152.9644788571582
 30
0.0
  0
VERTEX
  5
369
330
35C
100
AcDbEntity
  8
Layer 1
 62
     7
420
 16777215
370
    25
100
AcDbVertex
100
AcDb2dVertex
 10
288.8898599538192
 20
152.5763888507448
 30
0.0
  0
VERTEX
  5
36A
330
35C
100
AcDbEntity
  8
Layer 1
 62
     7
420
 16777215
370
    25
100
AcDbVertex
100
AcDb2dVertex
 10
288.1136799409924
 20
152.117846641658
 30
0.0
  0
VERTEX
  5
36B
330
35C
100
AcDbEntity
  8
Layer 1
 62
     7
420
 16777215
370
    25
100
AcDbVertex
100
AcDb2dVertex
 10
287.4787488430609
 20
151.6238199490732
 30
0.0
  0
VERTEX
  5
36C
330
35C
100
AcDbEntity
  8
Layer 1
 62
     7
420
 16777215
370
    25
100
AcDbVertex
100
AcDb2dVertex
 10
286.384931026494
 20
150.4244099558835
 30
0.0
  0
VERTEX
  5
36D
330
35C
100
AcDbEntity
  8
Layer 1
 62
     7
420
 16777215
370
    25
100
AcDbVertex
100
AcDb2dVertex
 10
285.9263888174073
 20
149.648402197831
 30
0.0
  0
VERTEX
  5
36E
330
35C
100
AcDbEntity
  8
Layer 1
 62
     7
420
 16777215
370
    25
100
AcDbVertex
100
AcDb2dVertex
 10
285.5736110397177
 20
148.8015977275566
 30
0.0
  0
VERTEX
  5
36F
330
35C
100
AcDbEntity
  8
Layer 1
 62
     7
420
 16777215
370
    25
100
AcDbVertex
100
AcDb2dVertex
 10
285.2914577194758
 20
147.849028825885
 30
0.0
  0
VERTEX
  5
370
330
35C
100
AcDbEntity
  8
Layer 1
 62
     7
420
 16777215
370
    25
100
AcDbVertex
100
AcDb2dVertex
 10
285.1856932880786
 20
146.6849310614191
 30
0.0
  0
VERTEX
  5
371
330
35C
100
AcDbEntity
  8
Layer 1
 62
     7
420
 16777215
370
    25
100
AcDbVertex
100
AcDb2dVertex
 10
285.1856932880786
 20
145.0622910878664
 30
0.0
  0
VERTEX
  5
372
330
35C
100
AcDbEntity
  8
Layer 1
 62
     7
420
 16777215
370
    25
100
AcDbVertex
100
AcDb2dVertex
 10
285.1856932880786
 20
143.1220133105737
 30
0.0
  0
VERTEX
  5
373
330
35C
100
AcDbEntity
  8
Layer 1
 62
     7
420
 16777215
370
    25
100
AcDbVertex
100
AcDb2dVertex
 10
285.1856932880786
 20
140.899582213039
 30
0.0
  0
VERTEX
  5
374
330
35C
100
AcDbEntity
  8
Layer 1
 62
     7
420
 16777215
370
    25
100
AcDbVertex
100
AcDb2dVertex
 10
285.1856932880786
 20
138.3946532857138
 30
0.0
  0
VERTEX
  5
375
330
35C
100
AcDbEntity
  8
Layer 1
 62
     7
420
 16777215
370
    25
100
AcDbVertex
100
AcDb2dVertex
 10
285.1856932880786
 20
135.4666666328
 30
0.0
  0
VERTEX
  5
376
330
35C
100
AcDbEntity
  8
Layer 1
 62
     7
420
 16777215
370
    25
100
AcDbVertex
100
AcDb2dVertex
 10
285.1856932880786
 20
132.2210421761461
 30
0.0
  0
VERTEX
  5
377
330
35C
100
AcDbEntity
  8
Layer 1
 62
     7
420
 16777215
370
    25
100
AcDbVertex
100
AcDb2dVertex
 10
285.1856932880786
 20
128.6226399418027
 30
0.0
  0
SEQEND
  5
378
330
35C
100
AcDbEntity
  8
Layer 1
370
    25
  0
POLYLINE
  5
379
330
1F
100
AcDbEntity
  8
Layer 1
 62
     7
420
 16777215
370
    25
100
AcDb2dPolyline
 66
     1
 10
0.0
 20
0.0
 30
0.0
  0
VERTEX
  5
37A
330
379
100
AcDbEntity
  8
Layer 1
 62
     7
420
 16777215
370
    25
100
AcDbVertex
100
AcDb2dVertex
 10
132.7855210714043
 20
128.6932643992503
 30
0.0
  0
VERTEX
  5
37B
330
379
100
AcDbEntity
  8
Layer 1
 62
     7
420
 16777215
370
    25
100
AcDbVertex
100
AcDb2dVertex
 10
132.7855210714043
 20
128.6932643992503
 30
0.0
  0
VERTEX
  5
37C
330
379
100
AcDbEntity
  8
Layer 1
 62
     7
420
 16777215
370
    25
100
AcDbVertex
100
AcDb2dVertex
 10
132.7502088426804
 20
128.6932643992503
 30
0.0
  0
VERTEX
  5
37D
330
379
100
AcDbEntity
  8
Layer 1
 62
     7
420
 16777215
370
    25
100
AcDbVertex
100
AcDb2dVertex
 10
132.715068868731
 20
128.6932643992503
 30
0.0
  0
SEQEND
  5
37E
330
379
100
AcDbEntity
  8
Layer 1
370
    25
  0
POLYLINE
  5
37F
330
1F
100
AcDbEntity
  8
Layer 1
 62
     7
420
 16777215
370
    25
100
AcDb2dPolyline
 66
     1
 10
0.0
 20
0.0
 30
0.0
  0
VERTEX
  5
380
330
37F
100
AcDbEntity
  8
Layer 1
 62
     7
420
 16777215
370
    25
100
AcDbVertex
100
AcDb2dVertex
 10
132.7855210714043
 20
128.6932643992503
 30
0.0
  0
VERTEX
  5
381
330
37F
100
AcDbEntity
  8
Layer 1
 62
     7
420
 16777215
370
    25
100
AcDbVertex
100
AcDb2dVertex
 10
132.8914577575758
 20
128.6932643992503
 30
0.0
  0
SEQEND
  5
382
330
37F
100
AcDbEntity
  8
Layer 1
370
    25
  0
POLYLINE
  5
383
330
1F
100
AcDbEntity
  8
Layer 1
 62
     7
420
 16777215
370
    25
100
AcDb2dPolyline
 66
     1
 10
0.0
 20
0.0
 30
0.0
  0
VERTEX
  5
384
330
383
100
AcDbEntity
  8
Layer 1
 62
     7
420
 16777215
370
    25
100
AcDbVertex
100
AcDb2dVertex
 10
132.8914577575758
 20
128.6932643992503
 30
0.0
  0
VERTEX
  5
385
330
383
100
AcDbEntity
  8
Layer 1
 62
     7
420
 16777215
370
    25
100
AcDbVertex
100
AcDb2dVertex
 10
132.8914577575758
 20
128.6932643992503
 30
0.0
  0
SEQEND
  5
386
330
383
100
AcDbEntity
  8
Layer 1
370
    25
  0
POLYLINE
  5
387
330
1F
100
AcDbEntity
  8
Layer 1
 62
     7
420
 16777215
370
    25
100
AcDb2dPolyline
 66
     1
 10
0.0
 20
0.0
 30
0.0
  0
VERTEX
  5
388
330
387
100
AcDbEntity
  8
Layer 1
 62
     7
420
 16777215
370
    25
100
AcDbVertex
100
AcDb2dVertex
 10
128.4111110790084
 20
132.4680555224386
 30
0.0
  0
VERTEX
  5
389
330
387
100
AcDbEntity
  8
Layer 1
 62
     7
420
 16777215
370
    25
100
AcDbVertex
100
AcDb2dVertex
 10
128.3757988502845
 20
132.1859022021966
 30
0.0
  0
VERTEX
  5
38A
330
387
100
AcDbEntity
  8
Layer 1
 62
     7
420
 16777215
370
    25
100
AcDbVertex
100
AcDb2dVertex
 10
128.3053466476112
 20
132.0446532873013
 30
0.0
  0
VERTEX
  5
38B
330
387
100
AcDbEntity
  8
Layer 1
 62
     7
420
 16777215
370
    25
100
AcDbVertex
100
AcDb2dVertex
 10
128.1640977327159
 20
131.9388888559042
 30
0.0
  0
VERTEX
  5
38C
330
387
100
AcDbEntity
  8
Layer 1
 62
     7
420
 16777215
370
    25
100
AcDbVertex
100
AcDb2dVertex
 10
128.023021072595
 20
131.8682643984565
 30
0.0
  0
VERTEX
  5
38D
330
387
100
AcDbEntity
  8
Layer 1
 62
     7
420
 16777215
370
    25
100
AcDbVertex
100
AcDb2dVertex
 10
127.9172566411978
 20
131.8682643984565
 30
0.0
  0
SEQEND
  5
38E
330
387
100
AcDbEntity
  8
Layer 1
370
    25
  0
POLYLINE
  5
38F
330
1F
100
AcDbEntity
  8
Layer 1
 62
     7
420
 16777215
370
    25
100
AcDb2dPolyline
 66
     1
 10
0.0
 20
0.0
 30
0.0
  0
VERTEX
  5
390
330
38F
100
AcDbEntity
  8
Layer 1
 62
     7
420
 16777215
370
    25
100
AcDbVertex
100
AcDb2dVertex
 10
127.9172566411978
 20
133.1029866203701
 30
0.0
  0
VERTEX
  5
391
330
38F
100
AcDbEntity
  8
Layer 1
 62
     7
420
 16777215
370
    25
100
AcDbVertex
100
AcDb2dVertex
 10
128.0936455300426
 20
133.0678466464205
 30
0.0
  0
VERTEX
  5
392
330
38F
100
AcDbEntity
  8
Layer 1
 62
     7
420
 16777215
370
    25
100
AcDbVertex
100
AcDb2dVertex
 10
128.1994099614397
 20
132.9620822150234
 30
0.0
  0
VERTEX
  5
393
330
38F
100
AcDbEntity
  8
Layer 1
 62
     7
420
 16777215
370
    25
100
AcDbVertex
100
AcDb2dVertex
 10
128.3053466476112
 20
132.8559732740777
 30
0.0
  0
VERTEX
  5
394
330
38F
100
AcDbEntity
  8
Layer 1
 62
     7
420
 16777215
370
    25
100
AcDbVertex
100
AcDb2dVertex
 10
128.3757988502845
 20
132.715068868731
 30
0.0
  0
VERTEX
  5
395
330
38F
100
AcDbEntity
  8
Layer 1
 62
     7
420
 16777215
370
    25
100
AcDbVertex
100
AcDb2dVertex
 10
128.4111110790084
 20
132.4680555224386
 30
0.0
  0
SEQEND
  5
396
330
38F
100
AcDbEntity
  8
Layer 1
370
    25
  0
POLYLINE
  5
397
330
1F
100
AcDbEntity
  8
Layer 1
 62
     7
420
 16777215
370
    25
100
AcDb2dPolyline
 66
     1
 10
0.0
 20
0.0
 30
0.0
  0
VERTEX
  5
398
330
397
100
AcDbEntity
  8
Layer 1
 62
     7
420
 16777215
370
    25
100
AcDbVertex
100
AcDb2dVertex
 10
127.4234022033872
 20
132.4680555224386
 30
0.0
  0
VERTEX
  5
399
330
397
100
AcDbEntity
  8
Layer 1
 62
     7
420
 16777215
370
    25
100
AcDbVertex
100
AcDb2dVertex
 10
127.4938544060606
 20
132.7502088426804
 30
0.0
  0
VERTEX
  5
39A
330
397
100
AcDbEntity
  8
Layer 1
 62
     7
420
 16777215
370
    25
100
AcDbVertex
100
AcDb2dVertex
 10
127.5644788635082
 20
132.8914577575758
 30
0.0
  0
VERTEX
  5
39B
330
397
100
AcDbEntity
  8
Layer 1
 62
     7
420
 16777215
370
    25
100
AcDbVertex
100
AcDb2dVertex
 10
127.6702432949054
 20
133.0323621629225
 30
0.0
  0
VERTEX
  5
39C
330
397
100
AcDbEntity
  8
Layer 1
 62
     7
420
 16777215
370
    25
100
AcDbVertex
100
AcDb2dVertex
 10
127.8113199550263
 20
133.0678466464205
 30
0.0
  0
VERTEX
  5
39D
330
397
100
AcDbEntity
  8
Layer 1
 62
     7
420
 16777215
370
    25
100
AcDbVertex
100
AcDb2dVertex
 10
127.9172566411978
 20
133.1029866203701
 30
0.0
  0
SEQEND
  5
39E
330
397
100
AcDbEntity
  8
Layer 1
370
    25
  0
POLYLINE
  5
39F
330
1F
100
AcDbEntity
  8
Layer 1
 62
     7
420
 16777215
370
    25
100
AcDb2dPolyline
 66
     1
 10
0.0
 20
0.0
 30
0.0
  0
VERTEX
  5
3A0
330
39F
100
AcDbEntity
  8
Layer 1
 62
     7
420
 16777215
370
    25
100
AcDbVertex
100
AcDb2dVertex
 10
127.9172566411978
 20
131.8682643984565
 30
0.0
  0
VERTEX
  5
3A1
330
39F
100
AcDbEntity
  8
Layer 1
 62
     7
420
 16777215
370
    25
100
AcDbVertex
100
AcDb2dVertex
 10
127.740867752353
 20
131.9037488819546
 30
0.0
  0
VERTEX
  5
3A2
330
39F
100
AcDbEntity
  8
Layer 1
 62
     7
420
 16777215
370
    25
100
AcDbVertex
100
AcDb2dVertex
 10
127.599791092232
 20
131.9740288298537
 30
0.0
  0
VERTEX
  5
3A3
330
39F
100
AcDbEntity
  8
Layer 1
 62
     7
420
 16777215
370
    25
100
AcDbVertex
100
AcDb2dVertex
 10
127.5291666347844
 20
132.0801377707994
 30
0.0
  0
VERTEX
  5
3A4
330
39F
100
AcDbEntity
  8
Layer 1
 62
     7
420
 16777215
370
    25
100
AcDbVertex
100
AcDb2dVertex
 10
127.4585421773368
 20
132.2565266596442
 30
0.0
  0
VERTEX
  5
3A5
330
39F
100
AcDbEntity
  8
Layer 1
 62
     7
420
 16777215
370
    25
100
AcDbVertex
100
AcDb2dVertex
 10
127.4234022033872
 20
132.4680555224386
 30
0.0
  0
SEQEND
  5
3A6
330
39F
100
AcDbEntity
  8
Layer 1
370
    25
  0
POLYLINE
  5
3A7
330
1F
100
AcDbEntity
  8
Layer 1
 62
     7
420
 16777215
370
    25
100
AcDb2dPolyline
 66
     1
 10
0.0
 20
0.0
 30
0.0
  0
VERTEX
  5
3A8
330
3A7
100
AcDbEntity
  8
Layer 1
 62
     7
420
 16777215
370
    25
100
AcDbVertex
100
AcDb2dVertex
 10
125.7299655176127
 20
129.4694444120771
 30
0.0
  0
VERTEX
  5
3A9
330
3A7
100
AcDbEntity
  8
Layer 1
 62
     7
420
 16777215
370
    25
100
AcDbVertex
100
AcDb2dVertex
 10
127.9172566411978
 20
129.081526660438
 30
0.0
  0
VERTEX
  5
3AA
330
3A7
100
AcDbEntity
  8
Layer 1
 62
     7
420
 16777215
370
    25
100
AcDbVertex
100
AcDb2dVertex
 10
130.1749999674562
 20
128.8345133141455
 30
0.0
  0
VERTEX
  5
3AB
330
3A7
100
AcDbEntity
  8
Layer 1
 62
     7
420
 16777215
370
    25
100
AcDbVertex
100
AcDb2dVertex
 10
132.5033677511624
 20
128.6581244253007
 30
0.0
  0
VERTEX
  5
3AC
330
3A7
100
AcDbEntity
  8
Layer 1
 62
     7
420
 16777215
370
    25
100
AcDbVertex
100
AcDb2dVertex
 10
134.8317355348685
 20
128.6226399418027
 30
0.0
  0
VERTEX
  5
3AD
330
3A7
100
AcDbEntity
  8
Layer 1
 62
     7
420
 16777215
370
    25
100
AcDbVertex
100
AcDb2dVertex
 10
136.9835421749555
 20
128.6932643992503
 30
0.0
  0
VERTEX
  5
3AE
330
3A7
100
AcDbEntity
  8
Layer 1
 62
     7
420
 16777215
370
    25
100
AcDbVertex
100
AcDb2dVertex
 10
139.100208841093
 20
128.8345133141455
 30
0.0
  0
VERTEX
  5
3AF
330
3A7
100
AcDbEntity
  8
Layer 1
 62
     7
420
 16777215
370
    25
100
AcDbVertex
100
AcDb2dVertex
 10
141.2874999646781
 20
129.1166666343874
 30
0.0
  0
VERTEX
  5
3B0
330
3A7
100
AcDbEntity
  8
Layer 1
 62
     7
420
 16777215
370
    25
100
AcDbVertex
100
AcDb2dVertex
 10
143.4041666308156
 20
129.4694444120771
 30
0.0
  0
SEQEND
  5
3B1
330
3A7
100
AcDbEntity
  8
Layer 1
370
    25
  0
POLYLINE
  5
3B2
330
1F
100
AcDbEntity
  8
Layer 1
 62
     7
420
 16777215
370
    25
100
AcDb2dPolyline
 66
     1
 10
0.0
 20
0.0
 30
0.0
  0
VERTEX
  5
3B3
330
3B2
100
AcDbEntity
  8
Layer 1
 62
     7
420
 16777215
370
    25
100
AcDbVertex
100
AcDb2dVertex
 10
146.0499999634875
 20
132.115277744749
 30
0.0
  0
VERTEX
  5
3B4
330
3B2
100
AcDbEntity
  8
Layer 1
 62
     7
420
 16777215
370
    25
100
AcDbVertex
100
AcDb2dVertex
 10
146.5438544012981
 20
135.2902777439552
 30
0.0
  0
VERTEX
  5
3B5
330
3B2
100
AcDbEntity
  8
Layer 1
 62
     7
420
 16777215
370
    25
100
AcDbVertex
100
AcDb2dVertex
 10
146.8261799763143
 20
138.500417717111
 30
0.0
  0
VERTEX
  5
3B6
330
3B2
100
AcDbEntity
  8
Layer 1
 62
     7
420
 16777215
370
    25
100
AcDbVertex
100
AcDb2dVertex
 10
146.8966321789877
 20
141.8166666312125
 30
0.0
  0
VERTEX
  5
3B7
330
3B2
100
AcDbEntity
  8
Layer 1
 62
     7
420
 16777215
370
    25
100
AcDbVertex
100
AcDb2dVertex
 10
146.7202432901428
 20
145.0974310618159
 30
0.0
  0
VERTEX
  5
3B8
330
3B2
100
AcDbEntity
  8
Layer 1
 62
     7
420
 16777215
370
    25
100
AcDbVertex
100
AcDb2dVertex
 10
146.5438544012981
 20
146.5791666300219
 30
0.0
  0
VERTEX
  5
3B9
330
3B2
100
AcDbEntity
  8
Layer 1
 62
     7
420
 16777215
370
    25
100
AcDbVertex
100
AcDb2dVertex
 10
146.3321532837295
 20
148.0609021982278
 30
0.0
  0
VERTEX
  5
3BA
330
3B2
100
AcDbEntity
  8
Layer 1
 62
     7
420
 16777215
370
    25
100
AcDbVertex
100
AcDb2dVertex
 10
146.1910766236085
 20
148.907534413728
 30
0.0
  0
VERTEX
  5
3BB
330
3B2
100
AcDbEntity
  8
Layer 1
 62
     7
420
 16777215
370
    25
100
AcDbVertex
100
AcDb2dVertex
 10
146.0499999634875
 20
149.6835421717805
 30
0.0
  0
VERTEX
  5
3BC
330
3B2
100
AcDbEntity
  8
Layer 1
 62
     7
420
 16777215
370
    25
100
AcDbVertex
100
AcDb2dVertex
 10
145.9442355320903
 20
150.3539577532101
 30
0.0
  0
VERTEX
  5
3BD
330
3B2
100
AcDbEntity
  8
Layer 1
 62
     7
420
 16777215
370
    25
100
AcDbVertex
100
AcDb2dVertex
 10
145.8029866171951
 20
150.9535766224179
 30
0.0
  0
VERTEX
  5
3BE
330
3B2
100
AcDbEntity
  8
Layer 1
 62
     7
420
 16777215
370
    25
100
AcDbVertex
100
AcDb2dVertex
 10
145.6972221857979
 20
151.4122910862789
 30
0.0
  0
VERTEX
  5
3BF
330
3B2
100
AcDbEntity
  8
Layer 1
 62
     7
420
 16777215
370
    25
100
AcDbVertex
100
AcDb2dVertex
 10
145.6265977283503
 20
151.7650688639685
 30
0.0
  0
VERTEX
  5
3C0
330
3B2
100
AcDbEntity
  8
Layer 1
 62
     7
420
 16777215
370
    25
100
AcDbVertex
100
AcDb2dVertex
 10
145.5914577544007
 20
151.9414577528132
 30
0.0
  0
VERTEX
  5
3C1
330
3B2
100
AcDbEntity
  8
Layer 1
 62
     7
420
 16777215
370
    25
100
AcDbVertex
100
AcDb2dVertex
 10
145.556145525677
 20
151.9765977267628
 30
0.0
  0
SEQEND
  5
3C2
330
3B2
100
AcDbEntity
  8
Layer 1
370
    25
  0
POLYLINE
  5
3C3
330
1F
100
AcDbEntity
  8
Layer 1
 62
     7
420
 16777215
370
    25
100
AcDb2dPolyline
 66
     1
 10
0.0
 20
0.0
 30
0.0
  0
VERTEX
  5
3C4
330
3C3
100
AcDbEntity
  8
Layer 1
 62
     7
420
 16777215
370
    25
100
AcDbVertex
100
AcDb2dVertex
 10
127.141076628371
 20
132.4680555224386
 30
0.0
  0
VERTEX
  5
3C5
330
3C3
100
AcDbEntity
  8
Layer 1
 62
     7
420
 16777215
370
    25
100
AcDbVertex
100
AcDb2dVertex
 10
127.2117010858186
 20
132.0446532873013
 30
0.0
  0
VERTEX
  5
3C6
330
3C3
100
AcDbEntity
  8
Layer 1
 62
     7
420
 16777215
370
    25
100
AcDbVertex
100
AcDb2dVertex
 10
127.3527777459396
 20
131.833124424507
 30
0.0
  0
VERTEX
  5
3C7
330
3C3
100
AcDbEntity
  8
Layer 1
 62
     7
420
 16777215
370
    25
100
AcDbVertex
100
AcDb2dVertex
 10
127.5291666347844
 20
131.6918755096117
 30
0.0
  0
VERTEX
  5
3C8
330
3C3
100
AcDbEntity
  8
Layer 1
 62
     7
420
 16777215
370
    25
100
AcDbVertex
100
AcDb2dVertex
 10
127.740867752353
 20
131.5861110782146
 30
0.0
  0
VERTEX
  5
3C9
330
3C3
100
AcDbEntity
  8
Layer 1
 62
     7
420
 16777215
370
    25
100
AcDbVertex
100
AcDb2dVertex
 10
127.9172566411978
 20
131.5861110782146
 30
0.0
  0
SEQEND
  5
3CA
330
3C3
100
AcDbEntity
  8
Layer 1
370
    25
  0
POLYLINE
  5
3CB
330
1F
100
AcDbEntity
  8
Layer 1
 62
     7
420
 16777215
370
    25
100
AcDb2dPolyline
 66
     1
 10
0.0
 20
0.0
 30
0.0
  0
VERTEX
  5
3CC
330
3CB
100
AcDbEntity
  8
Layer 1
 62
     7
420
 16777215
370
    25
100
AcDbVertex
100
AcDb2dVertex
 10
127.3880899746634
 20
133.1736110778177
 30
0.0
  0
VERTEX
  5
3CD
330
3CB
100
AcDbEntity
  8
Layer 1
 62
     7
420
 16777215
370
    25
100
AcDbVertex
100
AcDb2dVertex
 10
127.2117010858186
 20
132.9265977315253
 30
0.0
  0
VERTEX
  5
3CE
330
3CB
100
AcDbEntity
  8
Layer 1
 62
     7
420
 16777215
370
    25
100
AcDbVertex
100
AcDb2dVertex
 10
127.141076628371
 20
132.6444444112833
 30
0.0
  0
VERTEX
  5
3CF
330
3CB
100
AcDbEntity
  8
Layer 1
 62
     7
420
 16777215
370
    25
100
AcDbVertex
100
AcDb2dVertex
 10
127.141076628371
 20
132.4680555224386
 30
0.0
  0
SEQEND
  5
3D0
330
3CB
100
AcDbEntity
  8
Layer 1
370
    25
  0
POLYLINE
  5
3D1
330
1F
100
AcDbEntity
  8
Layer 1
 62
     7
420
 16777215
370
    25
100
AcDb2dPolyline
 66
     1
 10
0.0
 20
0.0
 30
0.0
  0
VERTEX
  5
3D2
330
3D1
100
AcDbEntity
  8
Layer 1
 62
     7
420
 16777215
370
    25
100
AcDbVertex
100
AcDb2dVertex
 10
127.9172566411978
 20
133.3499999666625
 30
0.0
  0
VERTEX
  5
3D3
330
3D1
100
AcDbEntity
  8
Layer 1
 62
     7
420
 16777215
370
    25
100
AcDbVertex
100
AcDb2dVertex
 10
127.7761799810768
 20
133.3499999666625
 30
0.0
  0
VERTEX
  5
3D4
330
3D1
100
AcDbEntity
  8
Layer 1
 62
     7
420
 16777215
370
    25
100
AcDbVertex
100
AcDb2dVertex
 10
127.5291666347844
 20
133.2442355352653
 30
0.0
  0
VERTEX
  5
3D5
330
3D1
100
AcDbEntity
  8
Layer 1
 62
     7
420
 16777215
370
    25
100
AcDbVertex
100
AcDb2dVertex
 10
127.3880899746634
 20
133.1736110778177
 30
0.0
  0
SEQEND
  5
3D6
330
3D1
100
AcDbEntity
  8
Layer 1
370
    25
  0
POLYLINE
  5
3D7
330
1F
100
AcDbEntity
  8
Layer 1
 62
     7
420
 16777215
370
    25
100
AcDb2dPolyline
 66
     1
 10
0.0
 20
0.0
 30
0.0
  0
VERTEX
  5
3D8
330
3D7
100
AcDbEntity
  8
Layer 1
 62
     7
420
 16777215
370
    25
100
AcDbVertex
100
AcDb2dVertex
 10
128.6932643992503
 20
132.5031954963881
 30
0.0
  0
VERTEX
  5
3D9
330
3D7
100
AcDbEntity
  8
Layer 1
 62
     7
420
 16777215
370
    25
100
AcDbVertex
100
AcDb2dVertex
 10
128.6581244253007
 20
132.8559732740777
 30
0.0
  0
VERTEX
  5
3DA
330
3D7
100
AcDbEntity
  8
Layer 1
 62
     7
420
 16777215
370
    25
100
AcDbVertex
100
AcDb2dVertex
 10
128.5168755104055
 20
133.0678466464205
 30
0.0
  0
VERTEX
  5
3DB
330
3D7
100
AcDbEntity
  8
Layer 1
 62
     7
420
 16777215
370
    25
100
AcDbVertex
100
AcDb2dVertex
 10
128.3404866215607
 20
133.2442355352653
 30
0.0
  0
VERTEX
  5
3DC
330
3D7
100
AcDbEntity
  8
Layer 1
 62
     7
420
 16777215
370
    25
100
AcDbVertex
100
AcDb2dVertex
 10
128.0936455300426
 20
133.3499999666625
 30
0.0
  0
VERTEX
  5
3DD
330
3D7
100
AcDbEntity
  8
Layer 1
 62
     7
420
 16777215
370
    25
100
AcDbVertex
100
AcDb2dVertex
 10
127.9172566411978
 20
133.3499999666625
 30
0.0
  0
SEQEND
  5
3DE
330
3D7
100
AcDbEntity
  8
Layer 1
370
    25
  0
POLYLINE
  5
3DF
330
1F
100
AcDbEntity
  8
Layer 1
 62
     7
420
 16777215
370
    25
100
AcDb2dPolyline
 66
     1
 10
0.0
 20
0.0
 30
0.0
  0
VERTEX
  5
3E0
330
3DF
100
AcDbEntity
  8
Layer 1
 62
     7
420
 16777215
370
    25
100
AcDbVertex
100
AcDb2dVertex
 10
127.9172566411978
 20
131.5861110782146
 30
0.0
  0
VERTEX
  5
3E1
330
3DF
100
AcDbEntity
  8
Layer 1
 62
     7
420
 16777215
370
    25
100
AcDbVertex
100
AcDb2dVertex
 10
128.2700344188873
 20
131.6567355356622
 30
0.0
  0
VERTEX
  5
3E2
330
3DF
100
AcDbEntity
  8
Layer 1
 62
     7
420
 16777215
370
    25
100
AcDbVertex
100
AcDb2dVertex
 10
128.481735536456
 20
131.7976399410089
 30
0.0
  0
VERTEX
  5
3E3
330
3DF
100
AcDbEntity
  8
Layer 1
 62
     7
420
 16777215
370
    25
100
AcDbVertex
100
AcDb2dVertex
 10
128.6228121965769
 20
132.0095133133518
 30
0.0
  0
VERTEX
  5
3E4
330
3DF
100
AcDbEntity
  8
Layer 1
 62
     7
420
 16777215
370
    25
100
AcDbVertex
100
AcDb2dVertex
 10
128.6932643992503
 20
132.2565266596442
 30
0.0
  0
VERTEX
  5
3E5
330
3DF
100
AcDbEntity
  8
Layer 1
 62
     7
420
 16777215
370
    25
100
AcDbVertex
100
AcDb2dVertex
 10
128.6932643992503
 20
132.5031954963881
 30
0.0
  0
SEQEND
  5
3E6
330
3DF
100
AcDbEntity
  8
Layer 1
370
    25
  0
POLYLINE
  5
3E7
330
1F
100
AcDbEntity
  8
Layer 1
 62
     7
420
 16777215
370
    25
100
AcDb2dPolyline
 66
     1
 10
0.0
 20
0.0
 30
0.0
  0
VERTEX
  5
3E8
330
3E7
100
AcDbEntity
  8
Layer 1
 62
     7
420
 16777215
370
    25
100
AcDbVertex
100
AcDb2dVertex
 10
143.4041666308156
 20
129.4694444120771
 30
0.0
  0
VERTEX
  5
3E9
330
3E7
100
AcDbEntity
  8
Layer 1
 62
     7
420
 16777215
370
    25
100
AcDbVertex
100
AcDb2dVertex
 10
144.4624999638844
 20
129.8573621637162
 30
0.0
  0
VERTEX
  5
3EA
330
3E7
100
AcDbEntity
  8
Layer 1
 62
     7
420
 16777215
370
    25
100
AcDbVertex
100
AcDb2dVertex
 10
145.3444444081083
 20
130.5984022025935
 30
0.0
  0
VERTEX
  5
3EB
330
3E7
100
AcDbEntity
  8
Layer 1
 62
     7
420
 16777215
370
    25
100
AcDbVertex
100
AcDb2dVertex
 10
145.9089233033665
 20
131.5861110782146
 30
0.0
  0
VERTEX
  5
3EC
330
3E7
100
AcDbEntity
  8
Layer 1
 62
     7
420
 16777215
370
    25
100
AcDbVertex
100
AcDb2dVertex
 10
146.0499999634875
 20
132.115277744749
 30
0.0
  0
SEQEND
  5
3ED
330
3E7
100
AcDbEntity
  8
Layer 1
370
    25
  0
POLYLINE
  5
3EE
330
1F
100
AcDbEntity
  8
Layer 1
 62
     7
420
 16777215
370
    25
100
AcDb2dPolyline
 66
     1
 10
0.0
 20
0.0
 30
0.0
  0
VERTEX
  5
3EF
330
3EE
100
AcDbEntity
  8
Layer 1
 62
     7
420
 16777215
370
    25
100
AcDbVertex
100
AcDb2dVertex
 10
134.5494099598522
 20
153.281944406124
 30
0.0
  0
VERTEX
  5
3F0
330
3EE
100
AcDbEntity
  8
Layer 1
 62
     7
420
 16777215
370
    25
100
AcDbVertex
100
AcDb2dVertex
 10
134.6553466460237
 20
153.281944406124
 30
0.0
  0
SEQEND
  5
3F1
330
3EE
100
AcDbEntity
  8
Layer 1
370
    25
  0
POLYLINE
  5
3F2
330
1F
100
AcDbEntity
  8
Layer 1
 62
     7
420
 16777215
370
    25
100
AcDb2dPolyline
 66
     1
 10
0.0
 20
0.0
 30
0.0
  0
VERTEX
  5
3F3
330
3F2
100
AcDbEntity
  8
Layer 1
 62
     7
420
 16777215
370
    25
100
AcDbVertex
100
AcDb2dVertex
 10
134.3730210710075
 20
153.281944406124
 30
0.0
  0
VERTEX
  5
3F4
330
3F2
100
AcDbEntity
  8
Layer 1
 62
     7
420
 16777215
370
    25
100
AcDbVertex
100
AcDb2dVertex
 10
134.5494099598522
 20
153.281944406124
 30
0.0
  0
SEQEND
  5
3F5
330
3F2
100
AcDbEntity
  8
Layer 1
370
    25
  0
POLYLINE
  5
3F6
330
1F
100
AcDbEntity
  8
Layer 1
 62
     7
420
 16777215
370
    25
100
AcDb2dPolyline
 66
     1
 10
0.0
 20
0.0
 30
0.0
  0
VERTEX
  5
3F7
330
3F6
100
AcDbEntity
  8
Layer 1
 62
     7
420
 16777215
370
    25
100
AcDbVertex
100
AcDb2dVertex
 10
123.5428466488018
 20
151.9765977267628
 30
0.0
  0
VERTEX
  5
3F8
330
3F6
100
AcDbEntity
  8
Layer 1
 62
     7
420
 16777215
370
    25
100
AcDbVertex
100
AcDb2dVertex
 10
123.5428466488018
 20
151.9765977267628
 30
0.0
  0
VERTEX
  5
3F9
330
3F6
100
AcDbEntity
  8
Layer 1
 62
     7
420
 16777215
370
    25
100
AcDbVertex
100
AcDb2dVertex
 10
123.5428466488018
 20
151.9061455240895
 30
0.0
  0
VERTEX
  5
3FA
330
3F6
100
AcDbEntity
  8
Layer 1
 62
     7
420
 16777215
370
    25
100
AcDbVertex
100
AcDb2dVertex
 10
123.4722221913542
 20
151.6944444065208
 30
0.0
  0
VERTEX
  5
3FB
330
3F6
100
AcDbEntity
  8
Layer 1
 62
     7
420
 16777215
370
    25
100
AcDbVertex
100
AcDb2dVertex
 10
123.4015977339066
 20
151.3416666288313
 30
0.0
  0
VERTEX
  5
3FC
330
3F6
100
AcDbEntity
  8
Layer 1
 62
     7
420
 16777215
370
    25
100
AcDbVertex
100
AcDb2dVertex
 10
123.2958333025094
 20
150.8831244197445
 30
0.0
  0
VERTEX
  5
3FD
330
3F6
100
AcDbEntity
  8
Layer 1
 62
     7
420
 16777215
370
    25
100
AcDbVertex
100
AcDb2dVertex
 10
123.1900688711122
 20
150.2833332957625
 30
0.0
  0
VERTEX
  5
3FE
330
3F6
100
AcDbEntity
  8
Layer 1
 62
     7
420
 16777215
370
    25
100
AcDbVertex
100
AcDb2dVertex
 10
123.048819956217
 20
149.6130899691072
 30
0.0
  0
VERTEX
  5
3FF
330
3F6
100
AcDbEntity
  8
Layer 1
 62
     7
420
 16777215
370
    25
100
AcDbVertex
100
AcDb2dVertex
 10
122.907743296096
 20
148.8722221850042
 30
0.0
  0
VERTEX
  5
400
330
3F6
100
AcDbEntity
  8
Layer 1
 62
     7
420
 16777215
370
    25
100
AcDbVertex
100
AcDb2dVertex
 10
122.766666635975
 20
148.0254177147298
 30
0.0
  0
VERTEX
  5
401
330
3F6
100
AcDbEntity
  8
Layer 1
 62
     7
420
 16777215
370
    25
100
AcDbVertex
100
AcDb2dVertex
 10
122.625589975854
 20
147.1434732705058
 30
0.0
  0
VERTEX
  5
402
330
3F6
100
AcDbEntity
  8
Layer 1
 62
     7
420
 16777215
370
    25
100
AcDbVertex
100
AcDb2dVertex
 10
122.5196532896826
 20
146.2615288262818
 30
0.0
  0
VERTEX
  5
403
330
3F6
100
AcDbEntity
  8
Layer 1
 62
     7
420
 16777215
370
    25
100
AcDbVertex
100
AcDb2dVertex
 10
122.4492010870092
 20
145.3795843820579
 30
0.0
  0
VERTEX
  5
404
330
3F6
100
AcDbEntity
  8
Layer 1
 62
     7
420
 16777215
370
    25
100
AcDbVertex
100
AcDb2dVertex
 10
122.3081244268883
 20
143.61569549361
 30
0.0
  0
VERTEX
  5
405
330
3F6
100
AcDbEntity
  8
Layer 1
 62
     7
420
 16777215
370
    25
100
AcDbVertex
100
AcDb2dVertex
 10
122.2374999694406
 20
140.0527777427646
 30
0.0
  0
VERTEX
  5
406
330
3F6
100
AcDbEntity
  8
Layer 1
 62
     7
420
 16777215
370
    25
100
AcDbVertex
100
AcDb2dVertex
 10
122.484513315733
 20
136.066457756782
 30
0.0
  0
VERTEX
  5
407
330
3F6
100
AcDbEntity
  8
Layer 1
 62
     7
420
 16777215
370
    25
100
AcDbVertex
100
AcDb2dVertex
 10
123.0841321849408
 20
132.115277744749
 30
0.0
  0
SEQEND
  5
408
330
3F6
100
AcDbEntity
  8
Layer 1
370
    25
  0
POLYLINE
  5
409
330
1F
100
AcDbEntity
  8
Layer 1
 62
     7
420
 16777215
370
    25
100
AcDb2dPolyline
 66
     1
 10
0.0
 20
0.0
 30
0.0
  0
VERTEX
  5
40A
330
409
100
AcDbEntity
  8
Layer 1
 62
     7
420
 16777215
370
    25
100
AcDbVertex
100
AcDb2dVertex
 10
123.0841321849408
 20
132.115277744749
 30
0.0
  0
VERTEX
  5
40B
330
409
100
AcDbEntity
  8
Layer 1
 62
     7
420
 16777215
370
    25
100
AcDbVertex
100
AcDb2dVertex
 10
123.4722221913542
 20
131.0569444116802
 30
0.0
  0
VERTEX
  5
40C
330
409
100
AcDbEntity
  8
Layer 1
 62
     7
420
 16777215
370
    25
100
AcDbVertex
100
AcDb2dVertex
 10
124.1777777467333
 20
130.2101399414058
 30
0.0
  0
VERTEX
  5
40D
330
409
100
AcDbEntity
  8
Layer 1
 62
     7
420
 16777215
370
    25
100
AcDbVertex
100
AcDb2dVertex
 10
125.0950344196811
 20
129.6458333009219
 30
0.0
  0
VERTEX
  5
40E
330
409
100
AcDbEntity
  8
Layer 1
 62
     7
420
 16777215
370
    25
100
AcDbVertex
100
AcDb2dVertex
 10
125.7299655176127
 20
129.4694444120771
 30
0.0
  0
SEQEND
  5
40F
330
409
100
AcDbEntity
  8
Layer 1
370
    25
  0
POLYLINE
  5
410
330
1F
100
AcDbEntity
  8
Layer 1
 62
     7
420
 16777215
370
    25
100
AcDb2dPolyline
 66
     1
 10
0.0
 20
0.0
 30
0.0
  0
VERTEX
  5
411
330
410
100
AcDbEntity
  8
Layer 1
 62
     7
420
 16777215
370
    25
100
AcDbVertex
100
AcDb2dVertex
 10
125.4478121973707
 20
131.6212510521641
 30
0.0
  0
VERTEX
  5
412
330
410
100
AcDbEntity
  8
Layer 1
 62
     7
420
 16777215
370
    25
100
AcDbVertex
100
AcDb2dVertex
 10
125.7299655176127
 20
131.6212510521641
 30
0.0
  0
SEQEND
  5
413
330
410
100
AcDbEntity
  8
Layer 1
370
    25
  0
POLYLINE
  5
414
330
1F
100
AcDbEntity
  8
Layer 1
 62
     7
420
 16777215
370
    25
100
AcDb2dPolyline
 66
     1
 10
0.0
 20
0.0
 30
0.0
  0
VERTEX
  5
415
330
414
100
AcDbEntity
  8
Layer 1
 62
     7
420
 16777215
370
    25
100
AcDbVertex
100
AcDb2dVertex
 10
125.4478121973707
 20
133.9497910906445
 30
0.0
  0
VERTEX
  5
416
330
414
100
AcDbEntity
  8
Layer 1
 62
     7
420
 16777215
370
    25
100
AcDbVertex
100
AcDb2dVertex
 10
125.4478121973707
 20
131.6212510521641
 30
0.0
  0
SEQEND
  5
417
330
414
100
AcDbEntity
  8
Layer 1
370
    25
  0
POLYLINE
  5
418
330
1F
100
AcDbEntity
  8
Layer 1
 62
     7
420
 16777215
370
    25
100
AcDb2dPolyline
 66
     1
 10
0.0
 20
0.0
 30
0.0
  0
VERTEX
  5
419
330
418
100
AcDbEntity
  8
Layer 1
 62
     7
420
 16777215
370
    25
100
AcDbVertex
100
AcDb2dVertex
 10
125.7299655176127
 20
133.9497910906445
 30
0.0
  0
VERTEX
  5
41A
330
418
100
AcDbEntity
  8
Layer 1
 62
     7
420
 16777215
370
    25
100
AcDbVertex
100
AcDb2dVertex
 10
125.4478121973707
 20
133.9497910906445
 30
0.0
  0
SEQEND
  5
41B
330
418
100
AcDbEntity
  8
Layer 1
370
    25
  0
POLYLINE
  5
41C
330
1F
100
AcDbEntity
  8
Layer 1
 62
     7
420
 16777215
370
    25
100
AcDb2dPolyline
 66
     1
 10
0.0
 20
0.0
 30
0.0
  0
VERTEX
  5
41D
330
41C
100
AcDbEntity
  8
Layer 1
 62
     7
420
 16777215
370
    25
100
AcDbVertex
100
AcDb2dVertex
 10
125.7299655176127
 20
133.1029866203701
 30
0.0
  0
VERTEX
  5
41E
330
41C
100
AcDbEntity
  8
Layer 1
 62
     7
420
 16777215
370
    25
100
AcDbVertex
100
AcDb2dVertex
 10
125.7299655176127
 20
133.9497910906445
 30
0.0
  0
SEQEND
  5
41F
330
41C
100
AcDbEntity
  8
Layer 1
370
    25
  0
POLYLINE
  5
420
330
1F
100
AcDbEntity
  8
Layer 1
 62
     7
420
 16777215
370
    25
100
AcDb2dPolyline
 66
     1
 10
0.0
 20
0.0
 30
0.0
  0
VERTEX
  5
421
330
420
100
AcDbEntity
  8
Layer 1
 62
     7
420
 16777215
370
    25
100
AcDbVertex
100
AcDb2dVertex
 10
126.2238199554232
 20
133.3499999666625
 30
0.0
  0
VERTEX
  5
422
330
420
100
AcDbEntity
  8
Layer 1
 62
     7
420
 16777215
370
    25
100
AcDbVertex
100
AcDb2dVertex
 10
126.0122910926289
 20
133.314859992713
 30
0.0
  0
VERTEX
  5
423
330
420
100
AcDbEntity
  8
Layer 1
 62
     7
420
 16777215
370
    25
100
AcDbVertex
100
AcDb2dVertex
 10
125.8359022037841
 20
133.2087510517673
 30
0.0
  0
VERTEX
  5
424
330
420
100
AcDbEntity
  8
Layer 1
 62
     7
420
 16777215
370
    25
100
AcDbVertex
100
AcDb2dVertex
 10
125.7299655176127
 20
133.1029866203701
 30
0.0
  0
SEQEND
  5
425
330
420
100
AcDbEntity
  8
Layer 1
370
    25
  0
POLYLINE
  5
426
330
1F
100
AcDbEntity
  8
Layer 1
 62
     7
420
 16777215
370
    25
100
AcDb2dPolyline
 66
     1
 10
0.0
 20
0.0
 30
0.0
  0
VERTEX
  5
427
330
426
100
AcDbEntity
  8
Layer 1
 62
     7
420
 16777215
370
    25
100
AcDbVertex
100
AcDb2dVertex
 10
126.8236110794052
 20
132.6795843852329
 30
0.0
  0
VERTEX
  5
428
330
426
100
AcDbEntity
  8
Layer 1
 62
     7
420
 16777215
370
    25
100
AcDbVertex
100
AcDb2dVertex
 10
126.7882988506814
 20
132.9620822150234
 30
0.0
  0
VERTEX
  5
429
330
426
100
AcDbEntity
  8
Layer 1
 62
     7
420
 16777215
370
    25
100
AcDbVertex
100
AcDb2dVertex
 10
126.717846648008
 20
133.1029866203701
 30
0.0
  0
VERTEX
  5
42A
330
426
100
AcDbEntity
  8
Layer 1
 62
     7
420
 16777215
370
    25
100
AcDbVertex
100
AcDb2dVertex
 10
126.6119099618366
 20
133.2442355352653
 30
0.0
  0
VERTEX
  5
42B
330
426
100
AcDbEntity
  8
Layer 1
 62
     7
420
 16777215
370
    25
100
AcDbVertex
100
AcDb2dVertex
 10
126.4708333017156
 20
133.314859992713
 30
0.0
  0
VERTEX
  5
42C
330
426
100
AcDbEntity
  8
Layer 1
 62
     7
420
 16777215
370
    25
100
AcDbVertex
100
AcDb2dVertex
 10
126.2238199554232
 20
133.3499999666625
 30
0.0
  0
SEQEND
  5
42D
330
426
100
AcDbEntity
  8
Layer 1
370
    25
  0
POLYLINE
  5
42E
330
1F
100
AcDbEntity
  8
Layer 1
 62
     7
420
 16777215
370
    25
100
AcDb2dPolyline
 66
     1
 10
0.0
 20
0.0
 30
0.0
  0
VERTEX
  5
42F
330
42E
100
AcDbEntity
  8
Layer 1
 62
     7
420
 16777215
370
    25
100
AcDbVertex
100
AcDb2dVertex
 10
126.8236110794052
 20
131.6212510521641
 30
0.0
  0
VERTEX
  5
430
330
42E
100
AcDbEntity
  8
Layer 1
 62
     7
420
 16777215
370
    25
100
AcDbVertex
100
AcDb2dVertex
 10
126.8236110794052
 20
132.6795843852329
 30
0.0
  0
SEQEND
  5
431
330
42E
100
AcDbEntity
  8
Layer 1
370
    25
  0
POLYLINE
  5
432
330
1F
100
AcDbEntity
  8
Layer 1
 62
     7
420
 16777215
370
    25
100
AcDb2dPolyline
 66
     1
 10
0.0
 20
0.0
 30
0.0
  0
VERTEX
  5
433
330
432
100
AcDbEntity
  8
Layer 1
 62
     7
420
 16777215
370
    25
100
AcDbVertex
100
AcDb2dVertex
 10
126.5061455304394
 20
131.6212510521641
 30
0.0
  0
VERTEX
  5
434
330
432
100
AcDbEntity
  8
Layer 1
 62
     7
420
 16777215
370
    25
100
AcDbVertex
100
AcDb2dVertex
 10
126.8236110794052
 20
131.6212510521641
 30
0.0
  0
SEQEND
  5
435
330
432
100
AcDbEntity
  8
Layer 1
370
    25
  0
POLYLINE
  5
436
330
1F
100
AcDbEntity
  8
Layer 1
 62
     7
420
 16777215
370
    25
100
AcDb2dPolyline
 66
     1
 10
0.0
 20
0.0
 30
0.0
  0
VERTEX
  5
437
330
436
100
AcDbEntity
  8
Layer 1
 62
     7
420
 16777215
370
    25
100
AcDbVertex
100
AcDb2dVertex
 10
126.5061455304394
 20
132.6795843852329
 30
0.0
  0
VERTEX
  5
438
330
436
100
AcDbEntity
  8
Layer 1
 62
     7
420
 16777215
370
    25
100
AcDbVertex
100
AcDb2dVertex
 10
126.5061455304394
 20
131.6212510521641
 30
0.0
  0
SEQEND
  5
439
330
436
100
AcDbEntity
  8
Layer 1
370
    25
  0
POLYLINE
  5
43A
330
1F
100
AcDbEntity
  8
Layer 1
 62
     7
420
 16777215
370
    25
100
AcDb2dPolyline
 66
     1
 10
0.0
 20
0.0
 30
0.0
  0
VERTEX
  5
43B
330
43A
100
AcDbEntity
  8
Layer 1
 62
     7
420
 16777215
370
    25
100
AcDbVertex
100
AcDb2dVertex
 10
126.1533677527499
 20
133.1029866203701
 30
0.0
  0
VERTEX
  5
43C
330
43A
100
AcDbEntity
  8
Layer 1
 62
     7
420
 16777215
370
    25
100
AcDbVertex
100
AcDb2dVertex
 10
126.2944444128708
 20
133.0678466464205
 30
0.0
  0
VERTEX
  5
43D
330
43A
100
AcDbEntity
  8
Layer 1
 62
     7
420
 16777215
370
    25
100
AcDbVertex
100
AcDb2dVertex
 10
126.3650688703185
 20
133.0323621629225
 30
0.0
  0
VERTEX
  5
43E
330
43A
100
AcDbEntity
  8
Layer 1
 62
     7
420
 16777215
370
    25
100
AcDbVertex
100
AcDb2dVertex
 10
126.4355210729918
 20
132.9620822150234
 30
0.0
  0
VERTEX
  5
43F
330
43A
100
AcDbEntity
  8
Layer 1
 62
     7
420
 16777215
370
    25
100
AcDbVertex
100
AcDb2dVertex
 10
126.4708333017156
 20
132.8559732740777
 30
0.0
  0
VERTEX
  5
440
330
43A
100
AcDbEntity
  8
Layer 1
 62
     7
420
 16777215
370
    25
100
AcDbVertex
100
AcDb2dVertex
 10
126.5061455304394
 20
132.6795843852329
 30
0.0
  0
SEQEND
  5
441
330
43A
100
AcDbEntity
  8
Layer 1
370
    25
  0
POLYLINE
  5
442
330
1F
100
AcDbEntity
  8
Layer 1
 62
     7
420
 16777215
370
    25
100
AcDb2dPolyline
 66
     1
 10
0.0
 20
0.0
 30
0.0
  0
VERTEX
  5
443
330
442
100
AcDbEntity
  8
Layer 1
 62
     7
420
 16777215
370
    25
100
AcDbVertex
100
AcDb2dVertex
 10
125.7299655176127
 20
132.5386799798862
 30
0.0
  0
VERTEX
  5
444
330
442
100
AcDbEntity
  8
Layer 1
 62
     7
420
 16777215
370
    25
100
AcDbVertex
100
AcDb2dVertex
 10
125.7652777463365
 20
132.7502088426804
 30
0.0
  0
VERTEX
  5
445
330
442
100
AcDbEntity
  8
Layer 1
 62
     7
420
 16777215
370
    25
100
AcDbVertex
100
AcDb2dVertex
 10
125.8005899750603
 20
132.8914577575758
 30
0.0
  0
VERTEX
  5
446
330
442
100
AcDbEntity
  8
Layer 1
 62
     7
420
 16777215
370
    25
100
AcDbVertex
100
AcDb2dVertex
 10
125.9063544064574
 20
132.9972221889729
 30
0.0
  0
VERTEX
  5
447
330
442
100
AcDbEntity
  8
Layer 1
 62
     7
420
 16777215
370
    25
100
AcDbVertex
100
AcDb2dVertex
 10
126.0122910926289
 20
133.0678466464205
 30
0.0
  0
VERTEX
  5
448
330
442
100
AcDbEntity
  8
Layer 1
 62
     7
420
 16777215
370
    25
100
AcDbVertex
100
AcDb2dVertex
 10
126.1533677527499
 20
133.1029866203701
 30
0.0
  0
SEQEND
  5
449
330
442
100
AcDbEntity
  8
Layer 1
370
    25
  0
POLYLINE
  5
44A
330
1F
100
AcDbEntity
  8
Layer 1
 62
     7
420
 16777215
370
    25
100
AcDb2dPolyline
 66
     1
 10
0.0
 20
0.0
 30
0.0
  0
VERTEX
  5
44B
330
44A
100
AcDbEntity
  8
Layer 1
 62
     7
420
 16777215
370
    25
100
AcDbVertex
100
AcDb2dVertex
 10
125.7299655176127
 20
131.6212510521641
 30
0.0
  0
VERTEX
  5
44C
330
44A
100
AcDbEntity
  8
Layer 1
 62
     7
420
 16777215
370
    25
100
AcDbVertex
100
AcDb2dVertex
 10
125.7299655176127
 20
132.5386799798862
 30
0.0
  0
SEQEND
  5
44D
330
44A
100
AcDbEntity
  8
Layer 1
370
    25
  0
POLYLINE
  5
44E
330
1F
100
AcDbEntity
  8
Layer 1
 62
     7
420
 16777215
370
    25
100
AcDb2dPolyline
 66
     1
 10
0.0
 20
0.0
 30
0.0
  0
VERTEX
  5
44F
330
44E
100
AcDbEntity
  8
Layer 1
 62
     7
420
 16777215
370
    25
100
AcDbVertex
100
AcDb2dVertex
 10
129.6458333009219
 20
131.8682643984565
 30
0.0
  0
VERTEX
  5
450
330
44E
100
AcDbEntity
  8
Layer 1
 62
     7
420
 16777215
370
    25
100
AcDbVertex
100
AcDb2dVertex
 10
129.6105210721981
 20
131.8682643984565
 30
0.0
  0
VERTEX
  5
451
330
44E
100
AcDbEntity
  8
Layer 1
 62
     7
420
 16777215
370
    25
100
AcDbVertex
100
AcDb2dVertex
 10
129.5752088434743
 20
131.8682643984565
 30
0.0
  0
VERTEX
  5
452
330
44E
100
AcDbEntity
  8
Layer 1
 62
     7
420
 16777215
370
    25
100
AcDbVertex
100
AcDb2dVertex
 10
129.5400688695247
 20
131.8682643984565
 30
0.0
  0
SEQEND
  5
453
330
44E
100
AcDbEntity
  8
Layer 1
370
    25
  0
POLYLINE
  5
454
330
1F
100
AcDbEntity
  8
Layer 1
 62
     7
420
 16777215
370
    25
100
AcDb2dPolyline
 66
     1
 10
0.0
 20
0.0
 30
0.0
  0
VERTEX
  5
455
330
454
100
AcDbEntity
  8
Layer 1
 62
     7
420
 16777215
370
    25
100
AcDbVertex
100
AcDb2dVertex
 10
129.6811455296457
 20
131.6212510521641
 30
0.0
  0
VERTEX
  5
456
330
454
100
AcDbEntity
  8
Layer 1
 62
     7
420
 16777215
370
    25
100
AcDbVertex
100
AcDb2dVertex
 10
129.6458333009219
 20
131.8682643984565
 30
0.0
  0
SEQEND
  5
457
330
454
100
AcDbEntity
  8
Layer 1
370
    25
  0
POLYLINE
  5
458
330
1F
100
AcDbEntity
  8
Layer 1
 62
     7
420
 16777215
370
    25
100
AcDb2dPolyline
 66
     1
 10
0.0
 20
0.0
 30
0.0
  0
VERTEX
  5
459
330
458
100
AcDbEntity
  8
Layer 1
 62
     7
420
 16777215
370
    25
100
AcDbVertex
100
AcDb2dVertex
 10
129.4694444120771
 20
131.5861110782146
 30
0.0
  0
VERTEX
  5
45A
330
458
100
AcDbEntity
  8
Layer 1
 62
     7
420
 16777215
370
    25
100
AcDbVertex
100
AcDb2dVertex
 10
129.5752088434743
 20
131.5861110782146
 30
0.0
  0
VERTEX
  5
45B
330
458
100
AcDbEntity
  8
Layer 1
 62
     7
420
 16777215
370
    25
100
AcDbVertex
100
AcDb2dVertex
 10
129.6458333009219
 20
131.6212510521641
 30
0.0
  0
VERTEX
  5
45C
330
458
100
AcDbEntity
  8
Layer 1
 62
     7
420
 16777215
370
    25
100
AcDbVertex
100
AcDb2dVertex
 10
129.6811455296457
 20
131.6212510521641
 30
0.0
  0
SEQEND
  5
45D
330
458
100
AcDbEntity
  8
Layer 1
370
    25
  0
POLYLINE
  5
45E
330
1F
100
AcDbEntity
  8
Layer 1
 62
     7
420
 16777215
370
    25
100
AcDb2dPolyline
 66
     1
 10
0.0
 20
0.0
 30
0.0
  0
VERTEX
  5
45F
330
45E
100
AcDbEntity
  8
Layer 1
 62
     7
420
 16777215
370
    25
100
AcDbVertex
100
AcDb2dVertex
 10
129.0813544056637
 20
132.115277744749
 30
0.0
  0
VERTEX
  5
460
330
45E
100
AcDbEntity
  8
Layer 1
 62
     7
420
 16777215
370
    25
100
AcDbVertex
100
AcDb2dVertex
 10
129.1166666343874
 20
131.833124424507
 30
0.0
  0
VERTEX
  5
461
330
45E
100
AcDbEntity
  8
Layer 1
 62
     7
420
 16777215
370
    25
100
AcDbVertex
100
AcDb2dVertex
 10
129.1166666343874
 20
131.7624999670594
 30
0.0
  0
VERTEX
  5
462
330
45E
100
AcDbEntity
  8
Layer 1
 62
     7
420
 16777215
370
    25
100
AcDbVertex
100
AcDb2dVertex
 10
129.1872910918351
 20
131.6918755096117
 30
0.0
  0
VERTEX
  5
463
330
45E
100
AcDbEntity
  8
Layer 1
 62
     7
420
 16777215
370
    25
100
AcDbVertex
100
AcDb2dVertex
 10
129.2577432945085
 20
131.6212510521641
 30
0.0
  0
VERTEX
  5
464
330
45E
100
AcDbEntity
  8
Layer 1
 62
     7
420
 16777215
370
    25
100
AcDbVertex
100
AcDb2dVertex
 10
129.3988199546295
 20
131.5861110782146
 30
0.0
  0
VERTEX
  5
465
330
45E
100
AcDbEntity
  8
Layer 1
 62
     7
420
 16777215
370
    25
100
AcDbVertex
100
AcDb2dVertex
 10
129.4694444120771
 20
131.5861110782146
 30
0.0
  0
SEQEND
  5
466
330
45E
100
AcDbEntity
  8
Layer 1
370
    25
  0
POLYLINE
  5
467
330
1F
100
AcDbEntity
  8
Layer 1
 62
     7
420
 16777215
370
    25
100
AcDb2dPolyline
 66
     1
 10
0.0
 20
0.0
 30
0.0
  0
VERTEX
  5
468
330
467
100
AcDbEntity
  8
Layer 1
 62
     7
420
 16777215
370
    25
100
AcDbVertex
100
AcDb2dVertex
 10
129.0813544056637
 20
133.0678466464205
 30
0.0
  0
VERTEX
  5
469
330
467
100
AcDbEntity
  8
Layer 1
 62
     7
420
 16777215
370
    25
100
AcDbVertex
100
AcDb2dVertex
 10
129.0813544056637
 20
132.115277744749
 30
0.0
  0
SEQEND
  5
46A
330
467
100
AcDbEntity
  8
Layer 1
370
    25
  0
POLYLINE
  5
46B
330
1F
100
AcDbEntity
  8
Layer 1
 62
     7
420
 16777215
370
    25
100
AcDb2dPolyline
 66
     1
 10
0.0
 20
0.0
 30
0.0
  0
VERTEX
  5
46C
330
46B
100
AcDbEntity
  8
Layer 1
 62
     7
420
 16777215
370
    25
100
AcDbVertex
100
AcDb2dVertex
 10
128.8696532880951
 20
133.0678466464205
 30
0.0
  0
VERTEX
  5
46D
330
46B
100
AcDbEntity
  8
Layer 1
 62
     7
420
 16777215
370
    25
100
AcDbVertex
100
AcDb2dVertex
 10
129.0813544056637
 20
133.0678466464205
 30
0.0
  0
SEQEND
  5
46E
330
46B
100
AcDbEntity
  8
Layer 1
370
    25
  0
POLYLINE
  5
46F
330
1F
100
AcDbEntity
  8
Layer 1
 62
     7
420
 16777215
370
    25
100
AcDb2dPolyline
 66
     1
 10
0.0
 20
0.0
 30
0.0
  0
VERTEX
  5
470
330
46F
100
AcDbEntity
  8
Layer 1
 62
     7
420
 16777215
370
    25
100
AcDbVertex
100
AcDb2dVertex
 10
128.8696532880951
 20
133.314859992713
 30
0.0
  0
VERTEX
  5
471
330
46F
100
AcDbEntity
  8
Layer 1
 62
     7
420
 16777215
370
    25
100
AcDbVertex
100
AcDb2dVertex
 10
128.8696532880951
 20
133.0678466464205
 30
0.0
  0
SEQEND
  5
472
330
46F
100
AcDbEntity
  8
Layer 1
370
    25
  0
POLYLINE
  5
473
330
1F
100
AcDbEntity
  8
Layer 1
 62
     7
420
 16777215
370
    25
100
AcDb2dPolyline
 66
     1
 10
0.0
 20
0.0
 30
0.0
  0
VERTEX
  5
474
330
473
100
AcDbEntity
  8
Layer 1
 62
     7
420
 16777215
370
    25
100
AcDbVertex
100
AcDb2dVertex
 10
129.0813544056637
 20
133.314859992713
 30
0.0
  0
VERTEX
  5
475
330
473
100
AcDbEntity
  8
Layer 1
 62
     7
420
 16777215
370
    25
100
AcDbVertex
100
AcDb2dVertex
 10
128.8696532880951
 20
133.314859992713
 30
0.0
  0
SEQEND
  5
476
330
473
100
AcDbEntity
  8
Layer 1
370
    25
  0
POLYLINE
  5
477
330
1F
100
AcDbEntity
  8
Layer 1
 62
     7
420
 16777215
370
    25
100
AcDb2dPolyline
 66
     1
 10
0.0
 20
0.0
 30
0.0
  0
VERTEX
  5
478
330
477
100
AcDbEntity
  8
Layer 1
 62
     7
420
 16777215
370
    25
100
AcDbVertex
100
AcDb2dVertex
 10
129.0813544056637
 20
133.7379177183016
 30
0.0
  0
VERTEX
  5
479
330
477
100
AcDbEntity
  8
Layer 1
 62
     7
420
 16777215
370
    25
100
AcDbVertex
100
AcDb2dVertex
 10
129.0813544056637
 20
133.314859992713
 30
0.0
  0
SEQEND
  5
47A
330
477
100
AcDbEntity
  8
Layer 1
370
    25
  0
POLYLINE
  5
47B
330
1F
100
AcDbEntity
  8
Layer 1
 62
     7
420
 16777215
370
    25
100
AcDb2dPolyline
 66
     1
 10
0.0
 20
0.0
 30
0.0
  0
VERTEX
  5
47C
330
47B
100
AcDbEntity
  8
Layer 1
 62
     7
420
 16777215
370
    25
100
AcDbVertex
100
AcDb2dVertex
 10
129.3988199546295
 20
133.9143066071464
 30
0.0
  0
VERTEX
  5
47D
330
47B
100
AcDbEntity
  8
Layer 1
 62
     7
420
 16777215
370
    25
100
AcDbVertex
100
AcDb2dVertex
 10
129.0813544056637
 20
133.7379177183016
 30
0.0
  0
SEQEND
  5
47E
330
47B
100
AcDbEntity
  8
Layer 1
370
    25
  0
POLYLINE
  5
47F
330
1F
100
AcDbEntity
  8
Layer 1
 62
     7
420
 16777215
370
    25
100
AcDb2dPolyline
 66
     1
 10
0.0
 20
0.0
 30
0.0
  0
VERTEX
  5
480
330
47F
100
AcDbEntity
  8
Layer 1
 62
     7
420
 16777215
370
    25
100
AcDbVertex
100
AcDb2dVertex
 10
129.3988199546295
 20
133.314859992713
 30
0.0
  0
VERTEX
  5
481
330
47F
100
AcDbEntity
  8
Layer 1
 62
     7
420
 16777215
370
    25
100
AcDbVertex
100
AcDb2dVertex
 10
129.3988199546295
 20
133.9143066071464
 30
0.0
  0
SEQEND
  5
482
330
47F
100
AcDbEntity
  8
Layer 1
370
    25
  0
POLYLINE
  5
483
330
1F
100
AcDbEntity
  8
Layer 1
 62
     7
420
 16777215
370
    25
100
AcDb2dPolyline
 66
     1
 10
0.0
 20
0.0
 30
0.0
  0
VERTEX
  5
484
330
483
100
AcDbEntity
  8
Layer 1
 62
     7
420
 16777215
370
    25
100
AcDbVertex
100
AcDb2dVertex
 10
129.6458333009219
 20
133.314859992713
 30
0.0
  0
VERTEX
  5
485
330
483
100
AcDbEntity
  8
Layer 1
 62
     7
420
 16777215
370
    25
100
AcDbVertex
100
AcDb2dVertex
 10
129.3988199546295
 20
133.314859992713
 30
0.0
  0
SEQEND
  5
486
330
483
100
AcDbEntity
  8
Layer 1
370
    25
  0
POLYLINE
  5
487
330
1F
100
AcDbEntity
  8
Layer 1
 62
     7
420
 16777215
370
    25
100
AcDb2dPolyline
 66
     1
 10
0.0
 20
0.0
 30
0.0
  0
VERTEX
  5
488
330
487
100
AcDbEntity
  8
Layer 1
 62
     7
420
 16777215
370
    25
100
AcDbVertex
100
AcDb2dVertex
 10
129.6458333009219
 20
133.0678466464205
 30
0.0
  0
VERTEX
  5
489
330
487
100
AcDbEntity
  8
Layer 1
 62
     7
420
 16777215
370
    25
100
AcDbVertex
100
AcDb2dVertex
 10
129.6458333009219
 20
133.314859992713
 30
0.0
  0
SEQEND
  5
48A
330
487
100
AcDbEntity
  8
Layer 1
370
    25
  0
POLYLINE
  5
48B
330
1F
100
AcDbEntity
  8
Layer 1
 62
     7
420
 16777215
370
    25
100
AcDb2dPolyline
 66
     1
 10
0.0
 20
0.0
 30
0.0
  0
VERTEX
  5
48C
330
48B
100
AcDbEntity
  8
Layer 1
 62
     7
420
 16777215
370
    25
100
AcDbVertex
100
AcDb2dVertex
 10
129.3988199546295
 20
133.0678466464205
 30
0.0
  0
VERTEX
  5
48D
330
48B
100
AcDbEntity
  8
Layer 1
 62
     7
420
 16777215
370
    25
100
AcDbVertex
100
AcDb2dVertex
 10
129.6458333009219
 20
133.0678466464205
 30
0.0
  0
SEQEND
  5
48E
330
48B
100
AcDbEntity
  8
Layer 1
370
    25
  0
POLYLINE
  5
48F
330
1F
100
AcDbEntity
  8
Layer 1
 62
     7
420
 16777215
370
    25
100
AcDb2dPolyline
 66
     1
 10
0.0
 20
0.0
 30
0.0
  0
VERTEX
  5
490
330
48F
100
AcDbEntity
  8
Layer 1
 62
     7
420
 16777215
370
    25
100
AcDbVertex
100
AcDb2dVertex
 10
129.3988199546295
 20
132.0801377707994
 30
0.0
  0
VERTEX
  5
491
330
48F
100
AcDbEntity
  8
Layer 1
 62
     7
420
 16777215
370
    25
100
AcDbVertex
100
AcDb2dVertex
 10
129.3988199546295
 20
133.0678466464205
 30
0.0
  0
SEQEND
  5
492
330
48F
100
AcDbEntity
  8
Layer 1
370
    25
  0
POLYLINE
  5
493
330
1F
100
AcDbEntity
  8
Layer 1
 62
     7
420
 16777215
370
    25
100
AcDb2dPolyline
 66
     1
 10
0.0
 20
0.0
 30
0.0
  0
VERTEX
  5
494
330
493
100
AcDbEntity
  8
Layer 1
 62
     7
420
 16777215
370
    25
100
AcDbVertex
100
AcDb2dVertex
 10
129.5400688695247
 20
131.8682643984565
 30
0.0
  0
VERTEX
  5
495
330
493
100
AcDbEntity
  8
Layer 1
 62
     7
420
 16777215
370
    25
100
AcDbVertex
100
AcDb2dVertex
 10
129.4694444120771
 20
131.8682643984565
 30
0.0
  0
VERTEX
  5
496
330
493
100
AcDbEntity
  8
Layer 1
 62
     7
420
 16777215
370
    25
100
AcDbVertex
100
AcDb2dVertex
 10
129.4341321833533
 20
131.8682643984565
 30
0.0
  0
VERTEX
  5
497
330
493
100
AcDbEntity
  8
Layer 1
 62
     7
420
 16777215
370
    25
100
AcDbVertex
100
AcDb2dVertex
 10
129.3988199546295
 20
131.9037488819546
 30
0.0
  0
VERTEX
  5
498
330
493
100
AcDbEntity
  8
Layer 1
 62
     7
420
 16777215
370
    25
100
AcDbVertex
100
AcDb2dVertex
 10
129.3988199546295
 20
131.9388888559042
 30
0.0
  0
VERTEX
  5
499
330
493
100
AcDbEntity
  8
Layer 1
 62
     7
420
 16777215
370
    25
100
AcDbVertex
100
AcDb2dVertex
 10
129.3988199546295
 20
132.0801377707994
 30
0.0
  0
SEQEND
  5
49A
330
493
100
AcDbEntity
  8
Layer 1
370
    25
  0
POLYLINE
  5
49B
330
1F
100
AcDbEntity
  8
Layer 1
 62
     7
420
 16777215
370
    25
100
AcDb2dPolyline
 66
     1
 10
0.0
 20
0.0
 30
0.0
  0
VERTEX
  5
49C
330
49B
100
AcDbEntity
  8
Layer 1
 62
     7
420
 16777215
370
    25
100
AcDbVertex
100
AcDb2dVertex
 10
114.5470133177174
 20
157.6210421697961
 30
0.0
  0
VERTEX
  5
49D
330
49B
100
AcDbEntity
  8
Layer 1
 62
     7
420
 16777215
370
    25
100
AcDbVertex
100
AcDb2dVertex
 10
114.5470133177174
 20
124.2835421781305
 30
0.0
  0
SEQEND
  5
49E
330
49B
100
AcDbEntity
  8
Layer 1
370
    25
  0
POLYLINE
  5
49F
330
1F
100
AcDbEntity
  8
Layer 1
 62
     7
420
 16777215
370
    25
100
AcDb2dPolyline
 66
     1
 10
0.0
 20
0.0
 30
0.0
  0
VERTEX
  5
4A0
330
49F
100
AcDbEntity
  8
Layer 1
 62
     7
420
 16777215
370
    25
100
AcDbVertex
100
AcDb2dVertex
 10
114.5470133177174
 20
124.2835421781305
 30
0.0
  0
VERTEX
  5
4A1
330
49F
100
AcDbEntity
  8
Layer 1
 62
     7
420
 16777215
370
    25
100
AcDbVertex
100
AcDb2dVertex
 10
114.6174655203908
 20
123.648611080199
 30
0.0
  0
VERTEX
  5
4A2
330
49F
100
AcDbEntity
  8
Layer 1
 62
     7
420
 16777215
370
    25
100
AcDbVertex
100
AcDb2dVertex
 10
114.8291666379594
 20
123.0136799822674
 30
0.0
  0
VERTEX
  5
4A3
330
49F
100
AcDbEntity
  8
Layer 1
 62
     7
420
 16777215
370
    25
100
AcDbVertex
100
AcDb2dVertex
 10
115.1113199582013
 20
122.449028832235
 30
0.0
  0
VERTEX
  5
4A4
330
49F
100
AcDbEntity
  8
Layer 1
 62
     7
420
 16777215
370
    25
100
AcDbVertex
100
AcDb2dVertex
 10
115.5347221933386
 20
121.9198621657006
 30
0.0
  0
VERTEX
  5
4A5
330
49F
100
AcDbEntity
  8
Layer 1
 62
     7
420
 16777215
370
    25
100
AcDbVertex
100
AcDb2dVertex
 10
116.0285766311491
 20
121.5319444140615
 30
0.0
  0
VERTEX
  5
4A6
330
49F
100
AcDbEntity
  8
Layer 1
 62
     7
420
 16777215
370
    25
100
AcDbVertex
100
AcDb2dVertex
 10
116.6283677551311
 20
121.2143066103214
 30
0.0
  0
VERTEX
  5
4A7
330
49F
100
AcDbEntity
  8
Layer 1
 62
     7
420
 16777215
370
    25
100
AcDbVertex
100
AcDb2dVertex
 10
117.2279866243388
 20
121.0027777475271
 30
0.0
  0
VERTEX
  5
4A8
330
49F
100
AcDbEntity
  8
Layer 1
 62
     7
420
 16777215
370
    25
100
AcDbVertex
100
AcDb2dVertex
 10
117.8984022057685
 20
120.9676377735775
 30
0.0
  0
SEQEND
  5
4A9
330
49F
100
AcDbEntity
  8
Layer 1
370
    25
  0
POLYLINE
  5
4AA
330
1F
100
AcDbEntity
  8
Layer 1
 62
     7
420
 16777215
370
    25
100
AcDb2dPolyline
 66
     1
 10
0.0
 20
0.0
 30
0.0
  0
VERTEX
  5
4AB
330
4AA
100
AcDbEntity
  8
Layer 1
 62
     7
420
 16777215
370
    25
100
AcDbVertex
100
AcDb2dVertex
 10
117.8984022057685
 20
120.9676377735775
 30
0.0
  0
VERTEX
  5
4AC
330
4AA
100
AcDbEntity
  8
Layer 1
 62
     7
420
 16777215
370
    25
100
AcDbVertex
100
AcDb2dVertex
 10
151.2359021974341
 20
120.9676377735775
 30
0.0
  0
SEQEND
  5
4AD
330
4AA
100
AcDbEntity
  8
Layer 1
370
    25
  0
POLYLINE
  5
4AE
330
1F
100
AcDbEntity
  8
Layer 1
 62
     7
420
 16777215
370
    25
100
AcDb2dPolyline
 66
     1
 10
0.0
 20
0.0
 30
0.0
  0
VERTEX
  5
4AF
330
4AE
100
AcDbEntity
  8
Layer 1
 62
     7
420
 16777215
370
    25
100
AcDbVertex
100
AcDb2dVertex
 10
151.2359021974341
 20
120.9676377735775
 30
0.0
  0
VERTEX
  5
4B0
330
4AE
100
AcDbEntity
  8
Layer 1
 62
     7
420
 16777215
370
    25
100
AcDbVertex
100
AcDb2dVertex
 10
151.8708332953656
 20
121.0027777475271
 30
0.0
  0
VERTEX
  5
4B1
330
4AE
100
AcDbEntity
  8
Layer 1
 62
     7
420
 16777215
370
    25
100
AcDbVertex
100
AcDb2dVertex
 10
152.5057643932972
 20
121.2143066103214
 30
0.0
  0
VERTEX
  5
4B2
330
4AE
100
AcDbEntity
  8
Layer 1
 62
     7
420
 16777215
370
    25
100
AcDbVertex
100
AcDb2dVertex
 10
153.0702432885554
 20
121.5319444140615
 30
0.0
  0
VERTEX
  5
4B3
330
4AE
100
AcDbEntity
  8
Layer 1
 62
     7
420
 16777215
370
    25
100
AcDbVertex
100
AcDb2dVertex
 10
153.5994099550897
 20
121.9198621657006
 30
0.0
  0
VERTEX
  5
4B4
330
4AE
100
AcDbEntity
  8
Layer 1
 62
     7
420
 16777215
370
    25
100
AcDbVertex
100
AcDb2dVertex
 10
153.9874999615031
 20
122.449028832235
 30
0.0
  0
VERTEX
  5
4B5
330
4AE
100
AcDbEntity
  8
Layer 1
 62
     7
420
 16777215
370
    25
100
AcDbVertex
100
AcDb2dVertex
 10
154.3049655104689
 20
123.0136799822674
 30
0.0
  0
VERTEX
  5
4B6
330
4AE
100
AcDbEntity
  8
Layer 1
 62
     7
420
 16777215
370
    25
100
AcDbVertex
100
AcDb2dVertex
 10
154.4813543993137
 20
123.648611080199
 30
0.0
  0
VERTEX
  5
4B7
330
4AE
100
AcDbEntity
  8
Layer 1
 62
     7
420
 16777215
370
    25
100
AcDbVertex
100
AcDb2dVertex
 10
154.5519788567613
 20
124.2835421781305
 30
0.0
  0
SEQEND
  5
4B8
330
4AE
100
AcDbEntity
  8
Layer 1
370
    25
  0
POLYLINE
  5
4B9
330
1F
100
AcDbEntity
  8
Layer 1
 62
     7
420
 16777215
370
    25
100
AcDb2dPolyline
 66
     1
 10
0.0
 20
0.0
 30
0.0
  0
VERTEX
  5
4BA
330
4B9
100
AcDbEntity
  8
Layer 1
 62
     7
420
 16777215
370
    25
100
AcDbVertex
100
AcDb2dVertex
 10
154.5519788567613
 20
124.2835421781305
 30
0.0
  0
VERTEX
  5
4BB
330
4B9
100
AcDbEntity
  8
Layer 1
 62
     7
420
 16777215
370
    25
100
AcDbVertex
100
AcDb2dVertex
 10
154.5519788567613
 20
157.6210421697961
 30
0.0
  0
SEQEND
  5
4BC
330
4B9
100
AcDbEntity
  8
Layer 1
370
    25
  0
POLYLINE
  5
4BD
330
1F
100
AcDbEntity
  8
Layer 1
 62
     7
420
 16777215
370
    25
100
AcDb2dPolyline
 66
     1
 10
0.0
 20
0.0
 30
0.0
  0
VERTEX
  5
4BE
330
4BD
100
AcDbEntity
  8
Layer 1
 62
     7
420
 16777215
370
    25
100
AcDbVertex
100
AcDb2dVertex
 10
154.5519788567613
 20
157.6210421697961
 30
0.0
  0
VERTEX
  5
4BF
330
4BD
100
AcDbEntity
  8
Layer 1
 62
     7
420
 16777215
370
    25
100
AcDbVertex
100
AcDb2dVertex
 10
154.4813543993137
 20
158.256145522502
 30
0.0
  0
VERTEX
  5
4C0
330
4BD
100
AcDbEntity
  8
Layer 1
 62
     7
420
 16777215
370
    25
100
AcDbVertex
100
AcDb2dVertex
 10
154.3049655104689
 20
158.8910766204335
 30
0.0
  0
VERTEX
  5
4C1
330
4BD
100
AcDbEntity
  8
Layer 1
 62
     7
420
 16777215
370
    25
100
AcDbVertex
100
AcDb2dVertex
 10
153.9874999615031
 20
159.4555555156917
 30
0.0
  0
VERTEX
  5
4C2
330
4BD
100
AcDbEntity
  8
Layer 1
 62
     7
420
 16777215
370
    25
100
AcDbVertex
100
AcDb2dVertex
 10
153.5994099550897
 20
159.9847221822261
 30
0.0
  0
VERTEX
  5
4C3
330
4BD
100
AcDbEntity
  8
Layer 1
 62
     7
420
 16777215
370
    25
100
AcDbVertex
100
AcDb2dVertex
 10
153.0702432885554
 20
160.4081244173632
 30
0.0
  0
VERTEX
  5
4C4
330
4BD
100
AcDbEntity
  8
Layer 1
 62
     7
420
 16777215
370
    25
100
AcDbVertex
100
AcDb2dVertex
 10
152.5057643932972
 20
160.6902777376052
 30
0.0
  0
VERTEX
  5
4C5
330
4BD
100
AcDbEntity
  8
Layer 1
 62
     7
420
 16777215
370
    25
100
AcDbVertex
100
AcDb2dVertex
 10
151.8708332953656
 20
160.9019788551738
 30
0.0
  0
VERTEX
  5
4C6
330
4BD
100
AcDbEntity
  8
Layer 1
 62
     7
420
 16777215
370
    25
100
AcDbVertex
100
AcDb2dVertex
 10
151.2359021974341
 20
160.9372910838976
 30
0.0
  0
SEQEND
  5
4C7
330
4BD
100
AcDbEntity
  8
Layer 1
370
    25
  0
POLYLINE
  5
4C8
330
1F
100
AcDbEntity
  8
Layer 1
 62
     7
420
 16777215
370
    25
100
AcDb2dPolyline
 66
     1
 10
0.0
 20
0.0
 30
0.0
  0
VERTEX
  5
4C9
330
4C8
100
AcDbEntity
  8
Layer 1
 62
     7
420
 16777215
370
    25
100
AcDbVertex
100
AcDb2dVertex
 10
151.2359021974341
 20
160.9372910838976
 30
0.0
  0
VERTEX
  5
4CA
330
4C8
100
AcDbEntity
  8
Layer 1
 62
     7
420
 16777215
370
    25
100
AcDbVertex
100
AcDb2dVertex
 10
117.8984022057685
 20
160.9372910838976
 30
0.0
  0
SEQEND
  5
4CB
330
4C8
100
AcDbEntity
  8
Layer 1
370
    25
  0
POLYLINE
  5
4CC
330
1F
100
AcDbEntity
  8
Layer 1
 62
     7
420
 16777215
370
    25
100
AcDb2dPolyline
 66
     1
 10
0.0
 20
0.0
 30
0.0
  0
VERTEX
  5
4CD
330
4CC
100
AcDbEntity
  8
Layer 1
 62
     7
420
 16777215
370
    25
100
AcDbVertex
100
AcDb2dVertex
 10
117.8984022057685
 20
160.9372910838976
 30
0.0
  0
VERTEX
  5
4CE
330
4CC
100
AcDbEntity
  8
Layer 1
 62
     7
420
 16777215
370
    25
100
AcDbVertex
100
AcDb2dVertex
 10
117.2279866243388
 20
160.9019788551738
 30
0.0
  0
VERTEX
  5
4CF
330
4CC
100
AcDbEntity
  8
Layer 1
 62
     7
420
 16777215
370
    25
100
AcDbVertex
100
AcDb2dVertex
 10
116.6283677551311
 20
160.6902777376052
 30
0.0
  0
VERTEX
  5
4D0
330
4CC
100
AcDbEntity
  8
Layer 1
 62
     7
420
 16777215
370
    25
100
AcDbVertex
100
AcDb2dVertex
 10
116.0285766311491
 20
160.4081244173632
 30
0.0
  0
VERTEX
  5
4D1
330
4CC
100
AcDbEntity
  8
Layer 1
 62
     7
420
 16777215
370
    25
100
AcDbVertex
100
AcDb2dVertex
 10
115.5347221933386
 20
159.9847221822261
 30
0.0
  0
VERTEX
  5
4D2
330
4CC
100
AcDbEntity
  8
Layer 1
 62
     7
420
 16777215
370
    25
100
AcDbVertex
100
AcDb2dVertex
 10
115.1113199582013
 20
159.4555555156917
 30
0.0
  0
VERTEX
  5
4D3
330
4CC
100
AcDbEntity
  8
Layer 1
 62
     7
420
 16777215
370
    25
100
AcDbVertex
100
AcDb2dVertex
 10
114.8291666379594
 20
158.8910766204335
 30
0.0
  0
VERTEX
  5
4D4
330
4CC
100
AcDbEntity
  8
Layer 1
 62
     7
420
 16777215
370
    25
100
AcDbVertex
100
AcDb2dVertex
 10
114.6174655203908
 20
158.256145522502
 30
0.0
  0
VERTEX
  5
4D5
330
4CC
100
AcDbEntity
  8
Layer 1
 62
     7
420
 16777215
370
    25
100
AcDbVertex
100
AcDb2dVertex
 10
114.5470133177174
 20
157.6210421697961
 30
0.0
  0
SEQEND
  5
4D6
330
4CC
100
AcDbEntity
  8
Layer 1
370
    25
  0
POLYLINE
  5
4D7
330
1F
100
AcDbEntity
  8
Layer 1
 62
     7
420
 16777215
370
    25
100
AcDb2dPolyline
 66
     1
 10
0.0
 20
0.0
 30
0.0
  0
VERTEX
  5
4D8
330
4D7
100
AcDbEntity
  8
Layer 1
 62
     7
420
 16777215
370
    25
100
AcDbVertex
100
AcDb2dVertex
 10
132.9619099602491
 20
128.6226399418027
 30
0.0
  0
VERTEX
  5
4D9
330
4D7
100
AcDbEntity
  8
Layer 1
 62
     7
420
 16777215
370
    25
100
AcDbVertex
100
AcDb2dVertex
 10
132.9619099602491
 20
128.6226399418027
 30
0.0
  0
VERTEX
  5
4DA
330
4D7
100
AcDbEntity
  8
Layer 1
 62
     7
420
 16777215
370
    25
100
AcDbVertex
100
AcDb2dVertex
 10
132.7855210714043
 20
128.6226399418027
 30
0.0
  0
SEQEND
  5
4DB
330
4D7
100
AcDbEntity
  8
Layer 1
370
    25
  0
POLYLINE
  5
4DC
330
1F
100
AcDbEntity
  8
Layer 1
 62
     7
420
 16777215
370
    25
100
AcDb2dPolyline
 66
     1
 10
0.0
 20
0.0
 30
0.0
  0
VERTEX
  5
4DD
330
4DC
100
AcDbEntity
  8
Layer 1
 62
     7
420
 16777215
370
    25
100
AcDbVertex
100
AcDb2dVertex
 10
136.3132988483001
 20
128.6226399418027
 30
0.0
  0
VERTEX
  5
4DE
330
4DC
100
AcDbEntity
  8
Layer 1
 62
     7
420
 16777215
370
    25
100
AcDbVertex
100
AcDb2dVertex
 10
136.2779866195764
 20
128.6226399418027
 30
0.0
  0
VERTEX
  5
4DF
330
4DC
100
AcDbEntity
  8
Layer 1
 62
     7
420
 16777215
370
    25
100
AcDbVertex
100
AcDb2dVertex
 10
136.1015977307316
 20
128.6226399418027
 30
0.0
  0
VERTEX
  5
4E0
330
4DC
100
AcDbEntity
  8
Layer 1
 62
     7
420
 16777215
370
    25
100
AcDbVertex
100
AcDb2dVertex
 10
135.8194444104896
 20
128.6226399418027
 30
0.0
  0
VERTEX
  5
4E1
330
4DC
100
AcDbEntity
  8
Layer 1
 62
     7
420
 16777215
370
    25
100
AcDbVertex
100
AcDb2dVertex
 10
135.4313544040762
 20
128.6226399418027
 30
0.0
  0
VERTEX
  5
4E2
330
4DC
100
AcDbEntity
  8
Layer 1
 62
     7
420
 16777215
370
    25
100
AcDbVertex
100
AcDb2dVertex
 10
134.9728121949894
 20
128.6226399418027
 30
0.0
  0
VERTEX
  5
4E3
330
4DC
100
AcDbEntity
  8
Layer 1
 62
     7
420
 16777215
370
    25
100
AcDbVertex
100
AcDb2dVertex
 10
134.4789577571789
 20
128.6226399418027
 30
0.0
  0
VERTEX
  5
4E4
330
4DC
100
AcDbEntity
  8
Layer 1
 62
     7
420
 16777215
370
    25
100
AcDbVertex
100
AcDb2dVertex
 10
134.0202432933179
 20
128.6226399418027
 30
0.0
  0
VERTEX
  5
4E5
330
4DC
100
AcDbEntity
  8
Layer 1
 62
     7
420
 16777215
370
    25
100
AcDbVertex
100
AcDb2dVertex
 10
133.5970133129549
 20
128.6226399418027
 30
0.0
  0
VERTEX
  5
4E6
330
4DC
100
AcDbEntity
  8
Layer 1
 62
     7
420
 16777215
370
    25
100
AcDbVertex
100
AcDb2dVertex
 10
133.2089233065415
 20
128.6226399418027
 30
0.0
  0
VERTEX
  5
4E7
330
4DC
100
AcDbEntity
  8
Layer 1
 62
     7
420
 16777215
370
    25
100
AcDbVertex
100
AcDb2dVertex
 10
132.9619099602491
 20
128.6226399418027
 30
0.0
  0
SEQEND
  5
4E8
330
4DC
100
AcDbEntity
  8
Layer 1
370
    25
  0
POLYLINE
  5
4E9
330
1F
100
AcDbEntity
  8
Layer 1
 62
     7
420
 16777215
370
    25
100
AcDb2dPolyline
 66
     1
 10
0.0
 20
0.0
 30
0.0
  0
VERTEX
  5
4EA
330
4E9
100
AcDbEntity
  8
Layer 1
 62
     7
420
 16777215
370
    25
100
AcDbVertex
100
AcDb2dVertex
 10
127.4234022033872
 20
132.5738199538357
 30
0.0
  0
VERTEX
  5
4EB
330
4E9
100
AcDbEntity
  8
Layer 1
 62
     7
420
 16777215
370
    25
100
AcDbVertex
100
AcDb2dVertex
 10
127.5291666347844
 20
132.5031954963881
 30
0.0
  0
SEQEND
  5
4EC
330
4E9
100
AcDbEntity
  8
Layer 1
370
    25
  0
POLYLINE
  5
4ED
330
1F
100
AcDbEntity
  8
Layer 1
 62
     7
420
 16777215
370
    25
100
AcDb2dPolyline
 66
     1
 10
0.0
 20
0.0
 30
0.0
  0
VERTEX
  5
4EE
330
4ED
100
AcDbEntity
  8
Layer 1
 62
     7
420
 16777215
370
    25
100
AcDbVertex
100
AcDb2dVertex
 10
145.556145525677
 20
151.9765977267628
 30
0.0
  0
VERTEX
  5
4EF
330
4ED
100
AcDbEntity
  8
Layer 1
 62
     7
420
 16777215
370
    25
100
AcDbVertex
100
AcDb2dVertex
 10
145.2386799767112
 20
152.0472221842104
 30
0.0
  0
VERTEX
  5
4F0
330
4ED
100
AcDbEntity
  8
Layer 1
 62
     7
420
 16777215
370
    25
100
AcDbVertex
100
AcDb2dVertex
 10
144.7446532841263
 20
152.1529866156076
 30
0.0
  0
VERTEX
  5
4F1
330
4ED
100
AcDbEntity
  8
Layer 1
 62
     7
420
 16777215
370
    25
100
AcDbVertex
100
AcDb2dVertex
 10
143.7216321797814
 20
152.3646877331762
 30
0.0
  0
VERTEX
  5
4F2
330
4ED
100
AcDbEntity
  8
Layer 1
 62
     7
420
 16777215
370
    25
100
AcDbVertex
100
AcDb2dVertex
 10
142.6279866179889
 20
152.5763888507448
 30
0.0
  0
VERTEX
  5
4F3
330
4ED
100
AcDbEntity
  8
Layer 1
 62
     7
420
 16777215
370
    25
100
AcDbVertex
100
AcDb2dVertex
 10
141.5696532849201
 20
152.7527777395896
 30
0.0
  0
VERTEX
  5
4F4
330
4ED
100
AcDbEntity
  8
Layer 1
 62
     7
420
 16777215
370
    25
100
AcDbVertex
100
AcDb2dVertex
 10
140.3702432917304
 20
152.9291666284344
 30
0.0
  0
VERTEX
  5
4F5
330
4ED
100
AcDbEntity
  8
Layer 1
 62
     7
420
 16777215
370
    25
100
AcDbVertex
100
AcDb2dVertex
 10
139.1708332985406
 20
153.0702432885554
 30
0.0
  0
VERTEX
  5
4F6
330
4ED
100
AcDbEntity
  8
Layer 1
 62
     7
420
 16777215
370
    25
100
AcDbVertex
100
AcDb2dVertex
 10
137.1247910898508
 20
153.2113199486763
 30
0.0
  0
VERTEX
  5
4F7
330
4ED
100
AcDbEntity
  8
Layer 1
 62
     7
420
 16777215
370
    25
100
AcDbVertex
100
AcDb2dVertex
 10
134.9728121949894
 20
153.281944406124
 30
0.0
  0
VERTEX
  5
4F8
330
4ED
100
AcDbEntity
  8
Layer 1
 62
     7
420
 16777215
370
    25
100
AcDbVertex
100
AcDb2dVertex
 10
133.3853121953863
 20
153.281944406124
 30
0.0
  0
VERTEX
  5
4F9
330
4ED
100
AcDbEntity
  8
Layer 1
 62
     7
420
 16777215
370
    25
100
AcDbVertex
100
AcDb2dVertex
 10
131.7978121957832
 20
153.2113199486763
 30
0.0
  0
VERTEX
  5
4FA
330
4ED
100
AcDbEntity
  8
Layer 1
 62
     7
420
 16777215
370
    25
100
AcDbVertex
100
AcDb2dVertex
 10
130.1749999674562
 20
153.0702432885554
 30
0.0
  0
VERTEX
  5
4FB
330
4ED
100
AcDbEntity
  8
Layer 1
 62
     7
420
 16777215
370
    25
100
AcDbVertex
100
AcDb2dVertex
 10
128.8345133141455
 20
152.9291666284344
 30
0.0
  0
VERTEX
  5
4FC
330
4ED
100
AcDbEntity
  8
Layer 1
 62
     7
420
 16777215
370
    25
100
AcDbVertex
100
AcDb2dVertex
 10
127.4585421773368
 20
152.7527777395896
 30
0.0
  0
VERTEX
  5
4FD
330
4ED
100
AcDbEntity
  8
Layer 1
 62
     7
420
 16777215
370
    25
100
AcDbVertex
100
AcDb2dVertex
 10
126.1886799814737
 20
152.541076622021
 30
0.0
  0
VERTEX
  5
4FE
330
4ED
100
AcDbEntity
  8
Layer 1
 62
     7
420
 16777215
370
    25
100
AcDbVertex
100
AcDb2dVertex
 10
125.2007988510783
 20
152.3293755044524
 30
0.0
  0
VERTEX
  5
4FF
330
4ED
100
AcDbEntity
  8
Layer 1
 62
     7
420
 16777215
370
    25
100
AcDbVertex
100
AcDb2dVertex
 10
124.7422566419915
 20
152.2236110730552
 30
0.0
  0
VERTEX
  5
500
330
4ED
100
AcDbEntity
  8
Layer 1
 62
     7
420
 16777215
370
    25
100
AcDbVertex
100
AcDb2dVertex
 10
124.3541666355781
 20
152.1529866156076
 30
0.0
  0
VERTEX
  5
501
330
4ED
100
AcDbEntity
  8
Layer 1
 62
     7
420
 16777215
370
    25
100
AcDbVertex
100
AcDb2dVertex
 10
124.0013888578885
 20
152.0825344129342
 30
0.0
  0
VERTEX
  5
502
330
4ED
100
AcDbEntity
  8
Layer 1
 62
     7
420
 16777215
370
    25
100
AcDbVertex
100
AcDb2dVertex
 10
123.7192355376466
 20
152.0119099554866
 30
0.0
  0
VERTEX
  5
503
330
4ED
100
AcDbEntity
  8
Layer 1
 62
     7
420
 16777215
370
    25
100
AcDbVertex
100
AcDb2dVertex
 10
123.5428466488018
 20
151.9765977267628
 30
0.0
  0
SEQEND
  5
504
330
4ED
100
AcDbEntity
  8
Layer 1
370
    25
  0
POLYLINE
  5
505
330
1F
100
AcDbEntity
  8
Layer 1
 62
     7
420
 16777215
370
    25
100
AcDb2dPolyline
 66
     1
 10
0.0
 20
0.0
 30
0.0
  0
VERTEX
  5
506
330
505
100
AcDbEntity
  8
Layer 1
 62
     7
420
 16777215
370
    25
100
AcDbVertex
100
AcDb2dVertex
 10
228.000208818868
 20
128.6932643992503
 30
0.0
  0
VERTEX
  5
507
330
505
100
AcDbEntity
  8
Layer 1
 62
     7
420
 16777215
370
    25
100
AcDbVertex
100
AcDb2dVertex
 10
228.000208818868
 20
128.6932643992503
 30
0.0
  0
VERTEX
  5
508
330
505
100
AcDbEntity
  8
Layer 1
 62
     7
420
 16777215
370
    25
100
AcDbVertex
100
AcDb2dVertex
 10
227.9650688449185
 20
128.6932643992503
 30
0.0
  0
SEQEND
  5
509
330
505
100
AcDbEntity
  8
Layer 1
370
    25
  0
POLYLINE
  5
50A
330
1F
100
AcDbEntity
  8
Layer 1
 62
     7
420
 16777215
370
    25
100
AcDb2dPolyline
 66
     1
 10
0.0
 20
0.0
 30
0.0
  0
VERTEX
  5
50B
330
50A
100
AcDbEntity
  8
Layer 1
 62
     7
420
 16777215
370
    25
100
AcDbVertex
100
AcDb2dVertex
 10
228.000208818868
 20
128.6932643992503
 30
0.0
  0
VERTEX
  5
50C
330
50A
100
AcDbEntity
  8
Layer 1
 62
     7
420
 16777215
370
    25
100
AcDbVertex
100
AcDb2dVertex
 10
228.1059732502652
 20
128.6932643992503
 30
0.0
  0
SEQEND
  5
50D
330
50A
100
AcDbEntity
  8
Layer 1
370
    25
  0
POLYLINE
  5
50E
330
1F
100
AcDbEntity
  8
Layer 1
 62
     7
420
 16777215
370
    25
100
AcDb2dPolyline
 66
     1
 10
0.0
 20
0.0
 30
0.0
  0
VERTEX
  5
50F
330
50E
100
AcDbEntity
  8
Layer 1
 62
     7
420
 16777215
370
    25
100
AcDbVertex
100
AcDb2dVertex
 10
228.1059732502652
 20
128.6932643992503
 30
0.0
  0
VERTEX
  5
510
330
50E
100
AcDbEntity
  8
Layer 1
 62
     7
420
 16777215
370
    25
100
AcDbVertex
100
AcDb2dVertex
 10
228.1059732502652
 20
128.6932643992503
 30
0.0
  0
SEQEND
  5
511
330
50E
100
AcDbEntity
  8
Layer 1
370
    25
  0
POLYLINE
  5
512
330
1F
100
AcDbEntity
  8
Layer 1
 62
     7
420
 16777215
370
    25
100
AcDb2dPolyline
 66
     1
 10
0.0
 20
0.0
 30
0.0
  0
VERTEX
  5
513
330
512
100
AcDbEntity
  8
Layer 1
 62
     7
420
 16777215
370
    25
100
AcDbVertex
100
AcDb2dVertex
 10
209.7970132939049
 20
157.6210421697961
 30
0.0
  0
VERTEX
  5
514
330
512
100
AcDbEntity
  8
Layer 1
 62
     7
420
 16777215
370
    25
100
AcDbVertex
100
AcDb2dVertex
 10
209.7970132939049
 20
124.2835421781305
 30
0.0
  0
SEQEND
  5
515
330
512
100
AcDbEntity
  8
Layer 1
370
    25
  0
POLYLINE
  5
516
330
1F
100
AcDbEntity
  8
Layer 1
 62
     7
420
 16777215
370
    25
100
AcDb2dPolyline
 66
     1
 10
0.0
 20
0.0
 30
0.0
  0
VERTEX
  5
517
330
516
100
AcDbEntity
  8
Layer 1
 62
     7
420
 16777215
370
    25
100
AcDbVertex
100
AcDb2dVertex
 10
209.7970132939049
 20
124.2835421781305
 30
0.0
  0
VERTEX
  5
518
330
516
100
AcDbEntity
  8
Layer 1
 62
     7
420
 16777215
370
    25
100
AcDbVertex
100
AcDb2dVertex
 10
209.8321532678545
 20
123.648611080199
 30
0.0
  0
VERTEX
  5
519
330
516
100
AcDbEntity
  8
Layer 1
 62
     7
420
 16777215
370
    25
100
AcDbVertex
100
AcDb2dVertex
 10
210.0440266401973
 20
123.0136799822674
 30
0.0
  0
VERTEX
  5
51A
330
516
100
AcDbEntity
  8
Layer 1
 62
     7
420
 16777215
370
    25
100
AcDbVertex
100
AcDb2dVertex
 10
210.3261799604393
 20
122.449028832235
 30
0.0
  0
VERTEX
  5
51B
330
516
100
AcDbEntity
  8
Layer 1
 62
     7
420
 16777215
370
    25
100
AcDbVertex
100
AcDb2dVertex
 10
210.7495821955765
 20
121.9198621657006
 30
0.0
  0
VERTEX
  5
51C
330
516
100
AcDbEntity
  8
Layer 1
 62
     7
420
 16777215
370
    25
100
AcDbVertex
100
AcDb2dVertex
 10
211.2787488621109
 20
121.5319444140615
 30
0.0
  0
VERTEX
  5
51D
330
516
100
AcDbEntity
  8
Layer 1
 62
     7
420
 16777215
370
    25
100
AcDbVertex
100
AcDb2dVertex
 10
211.8430555025948
 20
121.2143066103214
 30
0.0
  0
VERTEX
  5
51E
330
516
100
AcDbEntity
  8
Layer 1
 62
     7
420
 16777215
370
    25
100
AcDbVertex
100
AcDb2dVertex
 10
212.4779866005264
 20
121.0027777475271
 30
0.0
  0
VERTEX
  5
51F
330
516
100
AcDbEntity
  8
Layer 1
 62
     7
420
 16777215
370
    25
100
AcDbVertex
100
AcDb2dVertex
 10
213.1129176984579
 20
120.9676377735775
 30
0.0
  0
SEQEND
  5
520
330
516
100
AcDbEntity
  8
Layer 1
370
    25
  0
POLYLINE
  5
521
330
1F
100
AcDbEntity
  8
Layer 1
 62
     7
420
 16777215
370
    25
100
AcDb2dPolyline
 66
     1
 10
0.0
 20
0.0
 30
0.0
  0
VERTEX
  5
522
330
521
100
AcDbEntity
  8
Layer 1
 62
     7
420
 16777215
370
    25
100
AcDbVertex
100
AcDb2dVertex
 10
213.1129176984579
 20
120.9676377735775
 30
0.0
  0
VERTEX
  5
523
330
521
100
AcDbEntity
  8
Layer 1
 62
     7
420
 16777215
370
    25
100
AcDbVertex
100
AcDb2dVertex
 10
246.4504176901235
 20
120.9676377735775
 30
0.0
  0
SEQEND
  5
524
330
521
100
AcDbEntity
  8
Layer 1
370
    25
  0
POLYLINE
  5
525
330
1F
100
AcDbEntity
  8
Layer 1
 62
     7
420
 16777215
370
    25
100
AcDb2dPolyline
 66
     1
 10
0.0
 20
0.0
 30
0.0
  0
VERTEX
  5
526
330
525
100
AcDbEntity
  8
Layer 1
 62
     7
420
 16777215
370
    25
100
AcDbVertex
100
AcDb2dVertex
 10
246.4504176901235
 20
120.9676377735775
 30
0.0
  0
VERTEX
  5
527
330
525
100
AcDbEntity
  8
Layer 1
 62
     7
420
 16777215
370
    25
100
AcDbVertex
100
AcDb2dVertex
 10
247.0856932976036
 20
121.0027777475271
 30
0.0
  0
VERTEX
  5
528
330
525
100
AcDbEntity
  8
Layer 1
 62
     7
420
 16777215
370
    25
100
AcDbVertex
100
AcDb2dVertex
 10
247.7206243955351
 20
121.2143066103214
 30
0.0
  0
VERTEX
  5
529
330
525
100
AcDbEntity
  8
Layer 1
 62
     7
420
 16777215
370
    25
100
AcDbVertex
100
AcDb2dVertex
 10
248.2849310360191
 20
121.5319444140615
 30
0.0
  0
VERTEX
  5
52A
330
525
100
AcDbEntity
  8
Layer 1
 62
     7
420
 16777215
370
    25
100
AcDbVertex
100
AcDb2dVertex
 10
248.8140977025534
 20
121.9198621657006
 30
0.0
  0
VERTEX
  5
52B
330
525
100
AcDbEntity
  8
Layer 1
 62
     7
420
 16777215
370
    25
100
AcDbVertex
100
AcDb2dVertex
 10
249.2023599637411
 20
122.449028832235
 30
0.0
  0
VERTEX
  5
52C
330
525
100
AcDbEntity
  8
Layer 1
 62
     7
420
 16777215
370
    25
100
AcDbVertex
100
AcDb2dVertex
 10
249.5196532579326
 20
123.0136799822674
 30
0.0
  0
VERTEX
  5
52D
330
525
100
AcDbEntity
  8
Layer 1
 62
     7
420
 16777215
370
    25
100
AcDbVertex
100
AcDb2dVertex
 10
249.7315266302755
 20
123.648611080199
 30
0.0
  0
VERTEX
  5
52E
330
525
100
AcDbEntity
  8
Layer 1
 62
     7
420
 16777215
370
    25
100
AcDbVertex
100
AcDb2dVertex
 10
249.766666604225
 20
124.2835421781305
 30
0.0
  0
SEQEND
  5
52F
330
525
100
AcDbEntity
  8
Layer 1
370
    25
  0
POLYLINE
  5
530
330
1F
100
AcDbEntity
  8
Layer 1
 62
     7
420
 16777215
370
    25
100
AcDb2dPolyline
 66
     1
 10
0.0
 20
0.0
 30
0.0
  0
VERTEX
  5
531
330
530
100
AcDbEntity
  8
Layer 1
 62
     7
420
 16777215
370
    25
100
AcDbVertex
100
AcDb2dVertex
 10
249.766666604225
 20
124.2835421781305
 30
0.0
  0
VERTEX
  5
532
330
530
100
AcDbEntity
  8
Layer 1
 62
     7
420
 16777215
370
    25
100
AcDbVertex
100
AcDb2dVertex
 10
249.766666604225
 20
157.6210421697961
 30
0.0
  0
SEQEND
  5
533
330
530
100
AcDbEntity
  8
Layer 1
370
    25
  0
POLYLINE
  5
534
330
1F
100
AcDbEntity
  8
Layer 1
 62
     7
420
 16777215
370
    25
100
AcDb2dPolyline
 66
     1
 10
0.0
 20
0.0
 30
0.0
  0
VERTEX
  5
535
330
534
100
AcDbEntity
  8
Layer 1
 62
     7
420
 16777215
370
    25
100
AcDbVertex
100
AcDb2dVertex
 10
249.766666604225
 20
157.6210421697961
 30
0.0
  0
VERTEX
  5
536
330
534
100
AcDbEntity
  8
Layer 1
 62
     7
420
 16777215
370
    25
100
AcDbVertex
100
AcDb2dVertex
 10
249.7315266302755
 20
158.256145522502
 30
0.0
  0
VERTEX
  5
537
330
534
100
AcDbEntity
  8
Layer 1
 62
     7
420
 16777215
370
    25
100
AcDbVertex
100
AcDb2dVertex
 10
249.5196532579326
 20
158.8910766204335
 30
0.0
  0
VERTEX
  5
538
330
534
100
AcDbEntity
  8
Layer 1
 62
     7
420
 16777215
370
    25
100
AcDbVertex
100
AcDb2dVertex
 10
249.2023599637411
 20
159.4555555156917
 30
0.0
  0
VERTEX
  5
539
330
534
100
AcDbEntity
  8
Layer 1
 62
     7
420
 16777215
370
    25
100
AcDbVertex
100
AcDb2dVertex
 10
248.8140977025534
 20
159.9847221822261
 30
0.0
  0
VERTEX
  5
53A
330
534
100
AcDbEntity
  8
Layer 1
 62
     7
420
 16777215
370
    25
100
AcDbVertex
100
AcDb2dVertex
 10
248.2849310360191
 20
160.4081244173632
 30
0.0
  0
VERTEX
  5
53B
330
534
100
AcDbEntity
  8
Layer 1
 62
     7
420
 16777215
370
    25
100
AcDbVertex
100
AcDb2dVertex
 10
247.7206243955351
 20
160.6902777376052
 30
0.0
  0
VERTEX
  5
53C
330
534
100
AcDbEntity
  8
Layer 1
 62
     7
420
 16777215
370
    25
100
AcDbVertex
100
AcDb2dVertex
 10
247.0856932976036
 20
160.9019788551738
 30
0.0
  0
VERTEX
  5
53D
330
534
100
AcDbEntity
  8
Layer 1
 62
     7
420
 16777215
370
    25
100
AcDbVertex
100
AcDb2dVertex
 10
246.4504176901235
 20
160.9372910838976
 30
0.0
  0
SEQEND
  5
53E
330
534
100
AcDbEntity
  8
Layer 1
370
    25
  0
POLYLINE
  5
53F
330
1F
100
AcDbEntity
  8
Layer 1
 62
     7
420
 16777215
370
    25
100
AcDb2dPolyline
 66
     1
 10
0.0
 20
0.0
 30
0.0
  0
VERTEX
  5
540
330
53F
100
AcDbEntity
  8
Layer 1
 62
     7
420
 16777215
370
    25
100
AcDbVertex
100
AcDb2dVertex
 10
246.4504176901235
 20
160.9372910838976
 30
0.0
  0
VERTEX
  5
541
330
53F
100
AcDbEntity
  8
Layer 1
 62
     7
420
 16777215
370
    25
100
AcDbVertex
100
AcDb2dVertex
 10
213.1129176984579
 20
160.9372910838976
 30
0.0
  0
SEQEND
  5
542
330
53F
100
AcDbEntity
  8
Layer 1
370
    25
  0
POLYLINE
  5
543
330
1F
100
AcDbEntity
  8
Layer 1
 62
     7
420
 16777215
370
    25
100
AcDb2dPolyline
 66
     1
 10
0.0
 20
0.0
 30
0.0
  0
VERTEX
  5
544
330
543
100
AcDbEntity
  8
Layer 1
 62
     7
420
 16777215
370
    25
100
AcDbVertex
100
AcDb2dVertex
 10
213.1129176984579
 20
160.9372910838976
 30
0.0
  0
VERTEX
  5
545
330
543
100
AcDbEntity
  8
Layer 1
 62
     7
420
 16777215
370
    25
100
AcDbVertex
100
AcDb2dVertex
 10
212.4779866005264
 20
160.9019788551738
 30
0.0
  0
VERTEX
  5
546
330
543
100
AcDbEntity
  8
Layer 1
 62
     7
420
 16777215
370
    25
100
AcDbVertex
100
AcDb2dVertex
 10
211.8430555025948
 20
160.6902777376052
 30
0.0
  0
VERTEX
  5
547
330
543
100
AcDbEntity
  8
Layer 1
 62
     7
420
 16777215
370
    25
100
AcDbVertex
100
AcDb2dVertex
 10
211.2787488621109
 20
160.4081244173632
 30
0.0
  0
VERTEX
  5
548
330
543
100
AcDbEntity
  8
Layer 1
 62
     7
420
 16777215
370
    25
100
AcDbVertex
100
AcDb2dVertex
 10
210.7495821955765
 20
159.9847221822261
 30
0.0
  0
VERTEX
  5
549
330
543
100
AcDbEntity
  8
Layer 1
 62
     7
420
 16777215
370
    25
100
AcDbVertex
100
AcDb2dVertex
 10
210.3261799604393
 20
159.4555555156917
 30
0.0
  0
VERTEX
  5
54A
330
543
100
AcDbEntity
  8
Layer 1
 62
     7
420
 16777215
370
    25
100
AcDbVertex
100
AcDb2dVertex
 10
210.0440266401973
 20
158.8910766204335
 30
0.0
  0
VERTEX
  5
54B
330
543
100
AcDbEntity
  8
Layer 1
 62
     7
420
 16777215
370
    25
100
AcDbVertex
100
AcDb2dVertex
 10
209.8321532678545
 20
158.256145522502
 30
0.0
  0
VERTEX
  5
54C
330
543
100
AcDbEntity
  8
Layer 1
 62
     7
420
 16777215
370
    25
100
AcDbVertex
100
AcDb2dVertex
 10
209.7970132939049
 20
157.6210421697961
 30
0.0
  0
SEQEND
  5
54D
330
543
100
AcDbEntity
  8
Layer 1
370
    25
  0
POLYLINE
  5
54E
330
1F
100
AcDbEntity
  8
Layer 1
 62
     7
420
 16777215
370
    25
100
AcDb2dPolyline
 66
     1
 10
0.0
 20
0.0
 30
0.0
  0
VERTEX
  5
54F
330
54E
100
AcDbEntity
  8
Layer 1
 62
     7
420
 16777215
370
    25
100
AcDbVertex
100
AcDb2dVertex
 10
228.1765977077128
 20
128.6226399418027
 30
0.0
  0
VERTEX
  5
550
330
54E
100
AcDbEntity
  8
Layer 1
 62
     7
420
 16777215
370
    25
100
AcDbVertex
100
AcDb2dVertex
 10
228.1765977077128
 20
128.6226399418027
 30
0.0
  0
VERTEX
  5
551
330
54E
100
AcDbEntity
  8
Layer 1
 62
     7
420
 16777215
370
    25
100
AcDbVertex
100
AcDb2dVertex
 10
228.0356933023661
 20
128.6226399418027
 30
0.0
  0
SEQEND
  5
552
330
54E
100
AcDbEntity
  8
Layer 1
370
    25
  0
POLYLINE
  5
553
330
1F
100
AcDbEntity
  8
Layer 1
 62
     7
420
 16777215
370
    25
100
AcDb2dPolyline
 66
     1
 10
0.0
 20
0.0
 30
0.0
  0
VERTEX
  5
554
330
553
100
AcDbEntity
  8
Layer 1
 62
     7
420
 16777215
370
    25
100
AcDbVertex
100
AcDb2dVertex
 10
231.5634710792619
 20
128.6226399418027
 30
0.0
  0
VERTEX
  5
555
330
553
100
AcDbEntity
  8
Layer 1
 62
     7
420
 16777215
370
    25
100
AcDbVertex
100
AcDb2dVertex
 10
231.4928466218143
 20
128.6226399418027
 30
0.0
  0
VERTEX
  5
556
330
553
100
AcDbEntity
  8
Layer 1
 62
     7
420
 16777215
370
    25
100
AcDbVertex
100
AcDb2dVertex
 10
231.3164577329695
 20
128.6226399418027
 30
0.0
  0
VERTEX
  5
557
330
553
100
AcDbEntity
  8
Layer 1
 62
     7
420
 16777215
370
    25
100
AcDbVertex
100
AcDb2dVertex
 10
231.0343044127276
 20
128.6226399418027
 30
0.0
  0
VERTEX
  5
558
330
553
100
AcDbEntity
  8
Layer 1
 62
     7
420
 16777215
370
    25
100
AcDbVertex
100
AcDb2dVertex
 10
230.6460421515399
 20
128.6226399418027
 30
0.0
  0
VERTEX
  5
559
330
553
100
AcDbEntity
  8
Layer 1
 62
     7
420
 16777215
370
    25
100
AcDbVertex
100
AcDb2dVertex
 10
230.1874999424531
 20
128.6226399418027
 30
0.0
  0
VERTEX
  5
55A
330
553
100
AcDbEntity
  8
Layer 1
 62
     7
420
 16777215
370
    25
100
AcDbVertex
100
AcDb2dVertex
 10
229.7289577333664
 20
128.6226399418027
 30
0.0
  0
VERTEX
  5
55B
330
553
100
AcDbEntity
  8
Layer 1
 62
     7
420
 16777215
370
    25
100
AcDbVertex
100
AcDb2dVertex
 10
229.2349310407816
 20
128.6226399418027
 30
0.0
  0
VERTEX
  5
55C
330
553
100
AcDbEntity
  8
Layer 1
 62
     7
420
 16777215
370
    25
100
AcDbVertex
100
AcDb2dVertex
 10
228.8115288056443
 20
128.6226399418027
 30
0.0
  0
VERTEX
  5
55D
330
553
100
AcDbEntity
  8
Layer 1
 62
     7
420
 16777215
370
    25
100
AcDbVertex
100
AcDb2dVertex
 10
228.4236110540052
 20
128.6226399418027
 30
0.0
  0
VERTEX
  5
55E
330
553
100
AcDbEntity
  8
Layer 1
 62
     7
420
 16777215
370
    25
100
AcDbVertex
100
AcDb2dVertex
 10
228.1765977077128
 20
128.6226399418027
 30
0.0
  0
SEQEND
  5
55F
330
553
100
AcDbEntity
  8
Layer 1
370
    25
  0
POLYLINE
  5
560
330
1F
100
AcDbEntity
  8
Layer 1
 62
     7
420
 16777215
370
    25
100
AcDb2dPolyline
 66
     1
 10
0.0
 20
0.0
 30
0.0
  0
VERTEX
  5
561
330
560
100
AcDbEntity
  8
Layer 1
 62
     7
420
 16777215
370
    25
100
AcDbVertex
100
AcDb2dVertex
 10
235.0557643726597
 20
133.0678466464205
 30
0.0
  0
VERTEX
  5
562
330
560
100
AcDbEntity
  8
Layer 1
 62
     7
420
 16777215
370
    25
100
AcDbVertex
100
AcDb2dVertex
 10
235.2676377450026
 20
133.2087510517673
 30
0.0
  0
SEQEND
  5
563
330
560
100
AcDbEntity
  8
Layer 1
370
    25
  0
POLYLINE
  5
564
330
1F
100
AcDbEntity
  8
Layer 1
 62
     7
420
 16777215
370
    25
100
AcDb2dPolyline
 66
     1
 10
0.0
 20
0.0
 30
0.0
  0
VERTEX
  5
565
330
564
100
AcDbEntity
  8
Layer 1
 62
     7
420
 16777215
370
    25
100
AcDbVertex
100
AcDb2dVertex
 10
237.7370821888296
 20
132.4680555224386
 30
0.0
  0
VERTEX
  5
566
330
564
100
AcDbEntity
  8
Layer 1
 62
     7
420
 16777215
370
    25
100
AcDbVertex
100
AcDb2dVertex
 10
237.7722221627792
 20
132.7856933261786
 30
0.0
  0
VERTEX
  5
567
330
564
100
AcDbEntity
  8
Layer 1
 62
     7
420
 16777215
370
    25
100
AcDbVertex
100
AcDb2dVertex
 10
237.8428466202268
 20
132.9265977315253
 30
0.0
  0
VERTEX
  5
568
330
564
100
AcDbEntity
  8
Layer 1
 62
     7
420
 16777215
370
    25
100
AcDbVertex
100
AcDb2dVertex
 10
237.948611051624
 20
133.0323621629225
 30
0.0
  0
VERTEX
  5
569
330
564
100
AcDbEntity
  8
Layer 1
 62
     7
420
 16777215
370
    25
100
AcDbVertex
100
AcDb2dVertex
 10
238.0543754830211
 20
133.0678466464205
 30
0.0
  0
VERTEX
  5
56A
330
564
100
AcDbEntity
  8
Layer 1
 62
     7
420
 16777215
370
    25
100
AcDbVertex
100
AcDb2dVertex
 10
238.1601399144183
 20
133.1029866203701
 30
0.0
  0
SEQEND
  5
56B
330
564
100
AcDbEntity
  8
Layer 1
370
    25
  0
POLYLINE
  5
56C
330
1F
100
AcDbEntity
  8
Layer 1
 62
     7
420
 16777215
370
    25
100
AcDb2dPolyline
 66
     1
 10
0.0
 20
0.0
 30
0.0
  0
VERTEX
  5
56D
330
56C
100
AcDbEntity
  8
Layer 1
 62
     7
420
 16777215
370
    25
100
AcDbVertex
100
AcDb2dVertex
 10
238.1601399144183
 20
131.8682643984565
 30
0.0
  0
VERTEX
  5
56E
330
56C
100
AcDbEntity
  8
Layer 1
 62
     7
420
 16777215
370
    25
100
AcDbVertex
100
AcDb2dVertex
 10
238.0543754830211
 20
131.8682643984565
 30
0.0
  0
VERTEX
  5
56F
330
56C
100
AcDbEntity
  8
Layer 1
 62
     7
420
 16777215
370
    25
100
AcDbVertex
100
AcDb2dVertex
 10
237.9134710776744
 20
131.9388888559042
 30
0.0
  0
VERTEX
  5
570
330
56C
100
AcDbEntity
  8
Layer 1
 62
     7
420
 16777215
370
    25
100
AcDbVertex
100
AcDb2dVertex
 10
237.8073621367287
 20
132.0801377707994
 30
0.0
  0
VERTEX
  5
571
330
56C
100
AcDbEntity
  8
Layer 1
 62
     7
420
 16777215
370
    25
100
AcDbVertex
100
AcDb2dVertex
 10
237.7722221627792
 20
132.2210421761461
 30
0.0
  0
VERTEX
  5
572
330
56C
100
AcDbEntity
  8
Layer 1
 62
     7
420
 16777215
370
    25
100
AcDbVertex
100
AcDb2dVertex
 10
237.7370821888296
 20
132.4680555224386
 30
0.0
  0
SEQEND
  5
573
330
56C
100
AcDbEntity
  8
Layer 1
370
    25
  0
POLYLINE
  5
574
330
1F
100
AcDbEntity
  8
Layer 1
 62
     7
420
 16777215
370
    25
100
AcDb2dPolyline
 66
     1
 10
0.0
 20
0.0
 30
0.0
  0
VERTEX
  5
575
330
574
100
AcDbEntity
  8
Layer 1
 62
     7
420
 16777215
370
    25
100
AcDbVertex
100
AcDb2dVertex
 10
238.6190266330536
 20
132.432915548489
 30
0.0
  0
VERTEX
  5
576
330
574
100
AcDbEntity
  8
Layer 1
 62
     7
420
 16777215
370
    25
100
AcDbVertex
100
AcDb2dVertex
 10
238.548402175606
 20
132.115277744749
 30
0.0
  0
VERTEX
  5
577
330
574
100
AcDbEntity
  8
Layer 1
 62
     7
420
 16777215
370
    25
100
AcDbVertex
100
AcDb2dVertex
 10
238.4777777181583
 20
132.0095133133518
 30
0.0
  0
VERTEX
  5
578
330
574
100
AcDbEntity
  8
Layer 1
 62
     7
420
 16777215
370
    25
100
AcDbVertex
100
AcDb2dVertex
 10
238.3720132867612
 20
131.9037488819546
 30
0.0
  0
VERTEX
  5
579
330
574
100
AcDbEntity
  8
Layer 1
 62
     7
420
 16777215
370
    25
100
AcDbVertex
100
AcDb2dVertex
 10
238.2307643718659
 20
131.8682643984565
 30
0.0
  0
VERTEX
  5
57A
330
574
100
AcDbEntity
  8
Layer 1
 62
     7
420
 16777215
370
    25
100
AcDbVertex
100
AcDb2dVertex
 10
238.1601399144183
 20
131.8682643984565
 30
0.0
  0
SEQEND
  5
57B
330
574
100
AcDbEntity
  8
Layer 1
370
    25
  0
POLYLINE
  5
57C
330
1F
100
AcDbEntity
  8
Layer 1
 62
     7
420
 16777215
370
    25
100
AcDb2dPolyline
 66
     1
 10
0.0
 20
0.0
 30
0.0
  0
VERTEX
  5
57D
330
57C
100
AcDbEntity
  8
Layer 1
 62
     7
420
 16777215
370
    25
100
AcDbVertex
100
AcDb2dVertex
 10
238.1601399144183
 20
133.1029866203701
 30
0.0
  0
VERTEX
  5
57E
330
57C
100
AcDbEntity
  8
Layer 1
 62
     7
420
 16777215
370
    25
100
AcDbVertex
100
AcDb2dVertex
 10
238.3013888293136
 20
133.0678466464205
 30
0.0
  0
VERTEX
  5
57F
330
57C
100
AcDbEntity
  8
Layer 1
 62
     7
420
 16777215
370
    25
100
AcDbVertex
100
AcDb2dVertex
 10
238.4071532607107
 20
132.9972221889729
 30
0.0
  0
VERTEX
  5
580
330
57C
100
AcDbEntity
  8
Layer 1
 62
     7
420
 16777215
370
    25
100
AcDbVertex
100
AcDb2dVertex
 10
238.5129176921079
 20
132.8914577575758
 30
0.0
  0
VERTEX
  5
581
330
57C
100
AcDbEntity
  8
Layer 1
 62
     7
420
 16777215
370
    25
100
AcDbVertex
100
AcDb2dVertex
 10
238.5835421495555
 20
132.7502088426804
 30
0.0
  0
VERTEX
  5
582
330
57C
100
AcDbEntity
  8
Layer 1
 62
     7
420
 16777215
370
    25
100
AcDbVertex
100
AcDb2dVertex
 10
238.6190266330536
 20
132.432915548489
 30
0.0
  0
SEQEND
  5
583
330
57C
100
AcDbEntity
  8
Layer 1
370
    25
  0
POLYLINE
  5
584
330
1F
100
AcDbEntity
  8
Layer 1
 62
     7
420
 16777215
370
    25
100
AcDb2dPolyline
 66
     1
 10
0.0
 20
0.0
 30
0.0
  0
VERTEX
  5
585
330
584
100
AcDbEntity
  8
Layer 1
 62
     7
420
 16777215
370
    25
100
AcDbVertex
100
AcDb2dVertex
 10
235.2321532615045
 20
132.4680555224386
 30
0.0
  0
VERTEX
  5
586
330
584
100
AcDbEntity
  8
Layer 1
 62
     7
420
 16777215
370
    25
100
AcDbVertex
100
AcDb2dVertex
 10
235.2676377450026
 20
132.7502088426804
 30
0.0
  0
VERTEX
  5
587
330
584
100
AcDbEntity
  8
Layer 1
 62
     7
420
 16777215
370
    25
100
AcDbVertex
100
AcDb2dVertex
 10
235.3379176929016
 20
132.8914577575758
 30
0.0
  0
VERTEX
  5
588
330
584
100
AcDbEntity
  8
Layer 1
 62
     7
420
 16777215
370
    25
100
AcDbVertex
100
AcDb2dVertex
 10
235.4440266338473
 20
133.0323621629225
 30
0.0
  0
VERTEX
  5
589
330
584
100
AcDbEntity
  8
Layer 1
 62
     7
420
 16777215
370
    25
100
AcDbVertex
100
AcDb2dVertex
 10
235.5849310391941
 20
133.0678466464205
 30
0.0
  0
VERTEX
  5
58A
330
584
100
AcDbEntity
  8
Layer 1
 62
     7
420
 16777215
370
    25
100
AcDbVertex
100
AcDb2dVertex
 10
235.6906954705912
 20
133.1029866203701
 30
0.0
  0
SEQEND
  5
58B
330
584
100
AcDbEntity
  8
Layer 1
370
    25
  0
POLYLINE
  5
58C
330
1F
100
AcDbEntity
  8
Layer 1
 62
     7
420
 16777215
370
    25
100
AcDb2dPolyline
 66
     1
 10
0.0
 20
0.0
 30
0.0
  0
VERTEX
  5
58D
330
58C
100
AcDbEntity
  8
Layer 1
 62
     7
420
 16777215
370
    25
100
AcDbVertex
100
AcDb2dVertex
 10
235.6906954705912
 20
131.8682643984565
 30
0.0
  0
VERTEX
  5
58E
330
58C
100
AcDbEntity
  8
Layer 1
 62
     7
420
 16777215
370
    25
100
AcDbVertex
100
AcDb2dVertex
 10
235.5497910652445
 20
131.9037488819546
 30
0.0
  0
VERTEX
  5
58F
330
58C
100
AcDbEntity
  8
Layer 1
 62
     7
420
 16777215
370
    25
100
AcDbVertex
100
AcDb2dVertex
 10
235.4085421503493
 20
131.9740288298537
 30
0.0
  0
VERTEX
  5
590
330
58C
100
AcDbEntity
  8
Layer 1
 62
     7
420
 16777215
370
    25
100
AcDbVertex
100
AcDb2dVertex
 10
235.3027777189521
 20
132.0801377707994
 30
0.0
  0
VERTEX
  5
591
330
58C
100
AcDbEntity
  8
Layer 1
 62
     7
420
 16777215
370
    25
100
AcDbVertex
100
AcDb2dVertex
 10
235.2321532615045
 20
132.2565266596442
 30
0.0
  0
VERTEX
  5
592
330
58C
100
AcDbEntity
  8
Layer 1
 62
     7
420
 16777215
370
    25
100
AcDbVertex
100
AcDb2dVertex
 10
235.2321532615045
 20
132.4680555224386
 30
0.0
  0
SEQEND
  5
593
330
58C
100
AcDbEntity
  8
Layer 1
370
    25
  0
POLYLINE
  5
594
330
1F
100
AcDbEntity
  8
Layer 1
 62
     7
420
 16777215
370
    25
100
AcDb2dPolyline
 66
     1
 10
0.0
 20
0.0
 30
0.0
  0
VERTEX
  5
595
330
594
100
AcDbEntity
  8
Layer 1
 62
     7
420
 16777215
370
    25
100
AcDbVertex
100
AcDb2dVertex
 10
236.184722163176
 20
132.4680555224386
 30
0.0
  0
VERTEX
  5
596
330
594
100
AcDbEntity
  8
Layer 1
 62
     7
420
 16777215
370
    25
100
AcDbVertex
100
AcDb2dVertex
 10
236.1495821892265
 20
132.1859022021966
 30
0.0
  0
VERTEX
  5
597
330
594
100
AcDbEntity
  8
Layer 1
 62
     7
420
 16777215
370
    25
100
AcDbVertex
100
AcDb2dVertex
 10
236.0789577317789
 20
132.0446532873013
 30
0.0
  0
VERTEX
  5
598
330
594
100
AcDbEntity
  8
Layer 1
 62
     7
420
 16777215
370
    25
100
AcDbVertex
100
AcDb2dVertex
 10
235.9731933003817
 20
131.9388888559042
 30
0.0
  0
VERTEX
  5
599
330
594
100
AcDbEntity
  8
Layer 1
 62
     7
420
 16777215
370
    25
100
AcDbVertex
100
AcDb2dVertex
 10
235.8319443854865
 20
131.8682643984565
 30
0.0
  0
VERTEX
  5
59A
330
594
100
AcDbEntity
  8
Layer 1
 62
     7
420
 16777215
370
    25
100
AcDbVertex
100
AcDb2dVertex
 10
235.6906954705912
 20
131.8682643984565
 30
0.0
  0
SEQEND
  5
59B
330
594
100
AcDbEntity
  8
Layer 1
370
    25
  0
POLYLINE
  5
59C
330
1F
100
AcDbEntity
  8
Layer 1
 62
     7
420
 16777215
370
    25
100
AcDb2dPolyline
 66
     1
 10
0.0
 20
0.0
 30
0.0
  0
VERTEX
  5
59D
330
59C
100
AcDbEntity
  8
Layer 1
 62
     7
420
 16777215
370
    25
100
AcDbVertex
100
AcDb2dVertex
 10
235.6906954705912
 20
133.1029866203701
 30
0.0
  0
VERTEX
  5
59E
330
59C
100
AcDbEntity
  8
Layer 1
 62
     7
420
 16777215
370
    25
100
AcDbVertex
100
AcDb2dVertex
 10
235.867084359436
 20
133.0678466464205
 30
0.0
  0
VERTEX
  5
59F
330
59C
100
AcDbEntity
  8
Layer 1
 62
     7
420
 16777215
370
    25
100
AcDbVertex
100
AcDb2dVertex
 10
236.0083332743311
 20
132.9620822150234
 30
0.0
  0
VERTEX
  5
5A0
330
59C
100
AcDbEntity
  8
Layer 1
 62
     7
420
 16777215
370
    25
100
AcDbVertex
100
AcDb2dVertex
 10
236.0789577317789
 20
132.8559732740777
 30
0.0
  0
VERTEX
  5
5A1
330
59C
100
AcDbEntity
  8
Layer 1
 62
     7
420
 16777215
370
    25
100
AcDbVertex
100
AcDb2dVertex
 10
236.1495821892265
 20
132.715068868731
 30
0.0
  0
VERTEX
  5
5A2
330
59C
100
AcDbEntity
  8
Layer 1
 62
     7
420
 16777215
370
    25
100
AcDbVertex
100
AcDb2dVertex
 10
236.184722163176
 20
132.4680555224386
 30
0.0
  0
SEQEND
  5
5A3
330
59C
100
AcDbEntity
  8
Layer 1
370
    25
  0
POLYLINE
  5
5A4
330
1F
100
AcDbEntity
  8
Layer 1
 62
     7
420
 16777215
370
    25
100
AcDb2dPolyline
 66
     1
 10
0.0
 20
0.0
 30
0.0
  0
VERTEX
  5
5A5
330
5A4
100
AcDbEntity
  8
Layer 1
 62
     7
420
 16777215
370
    25
100
AcDbVertex
100
AcDb2dVertex
 10
220.9446532650763
 20
129.4694444120771
 30
0.0
  0
VERTEX
  5
5A6
330
5A4
100
AcDbEntity
  8
Layer 1
 62
     7
420
 16777215
370
    25
100
AcDbVertex
100
AcDb2dVertex
 10
223.167084362611
 20
129.081526660438
 30
0.0
  0
VERTEX
  5
5A7
330
5A4
100
AcDbEntity
  8
Layer 1
 62
     7
420
 16777215
370
    25
100
AcDbVertex
100
AcDb2dVertex
 10
225.3898599696942
 20
128.8345133141455
 30
0.0
  0
VERTEX
  5
5A8
330
5A4
100
AcDbEntity
  8
Layer 1
 62
     7
420
 16777215
370
    25
100
AcDbVertex
100
AcDb2dVertex
 10
227.7180554986261
 20
128.6581244253007
 30
0.0
  0
VERTEX
  5
5A9
330
5A4
100
AcDbEntity
  8
Layer 1
 62
     7
420
 16777215
370
    25
100
AcDbVertex
100
AcDb2dVertex
 10
230.0462510275579
 20
128.6226399418027
 30
0.0
  0
VERTEX
  5
5AA
330
5A4
100
AcDbEntity
  8
Layer 1
 62
     7
420
 16777215
370
    25
100
AcDbVertex
100
AcDb2dVertex
 10
232.1984021771935
 20
128.6932643992503
 30
0.0
  0
VERTEX
  5
5AB
330
5A4
100
AcDbEntity
  8
Layer 1
 62
     7
420
 16777215
370
    25
100
AcDbVertex
100
AcDb2dVertex
 10
234.3502088172805
 20
128.8345133141455
 30
0.0
  0
VERTEX
  5
5AC
330
5A4
100
AcDbEntity
  8
Layer 1
 62
     7
420
 16777215
370
    25
100
AcDbVertex
100
AcDb2dVertex
 10
236.5023599669161
 20
129.1166666343874
 30
0.0
  0
VERTEX
  5
5AD
330
5A4
100
AcDbEntity
  8
Layer 1
 62
     7
420
 16777215
370
    25
100
AcDbVertex
100
AcDb2dVertex
 10
238.6190266330536
 20
129.4694444120771
 30
0.0
  0
SEQEND
  5
5AE
330
5A4
100
AcDbEntity
  8
Layer 1
370
    25
  0
POLYLINE
  5
5AF
330
1F
100
AcDbEntity
  8
Layer 1
 62
     7
420
 16777215
370
    25
100
AcDb2dPolyline
 66
     1
 10
0.0
 20
0.0
 30
0.0
  0
VERTEX
  5
5B0
330
5AF
100
AcDbEntity
  8
Layer 1
 62
     7
420
 16777215
370
    25
100
AcDbVertex
100
AcDb2dVertex
 10
241.2648599657255
 20
132.115277744749
 30
0.0
  0
VERTEX
  5
5B1
330
5AF
100
AcDbEntity
  8
Layer 1
 62
     7
420
 16777215
370
    25
100
AcDbVertex
100
AcDb2dVertex
 10
241.7585421487618
 20
135.2902777439552
 30
0.0
  0
VERTEX
  5
5B2
330
5AF
100
AcDbEntity
  8
Layer 1
 62
     7
420
 16777215
370
    25
100
AcDbVertex
100
AcDb2dVertex
 10
242.0406954690037
 20
138.500417717111
 30
0.0
  0
VERTEX
  5
5B3
330
5AF
100
AcDbEntity
  8
Layer 1
 62
     7
420
 16777215
370
    25
100
AcDbVertex
100
AcDb2dVertex
 10
242.1113199264514
 20
141.8166666312125
 30
0.0
  0
VERTEX
  5
5B4
330
5AF
100
AcDbEntity
  8
Layer 1
 62
     7
420
 16777215
370
    25
100
AcDbVertex
100
AcDb2dVertex
 10
241.9349310376066
 20
145.0974310618159
 30
0.0
  0
VERTEX
  5
5B5
330
5AF
100
AcDbEntity
  8
Layer 1
 62
     7
420
 16777215
370
    25
100
AcDbVertex
100
AcDb2dVertex
 10
241.7585421487618
 20
146.5791666300219
 30
0.0
  0
VERTEX
  5
5B6
330
5AF
100
AcDbEntity
  8
Layer 1
 62
     7
420
 16777215
370
    25
100
AcDbVertex
100
AcDb2dVertex
 10
241.582153259917
 20
148.0609021982278
 30
0.0
  0
VERTEX
  5
5B7
330
5AF
100
AcDbEntity
  8
Layer 1
 62
     7
420
 16777215
370
    25
100
AcDbVertex
100
AcDb2dVertex
 10
241.4412488545703
 20
148.907534413728
 30
0.0
  0
VERTEX
  5
5B8
330
5AF
100
AcDbEntity
  8
Layer 1
 62
     7
420
 16777215
370
    25
100
AcDbVertex
100
AcDb2dVertex
 10
241.299999939675
 20
149.6835421717805
 30
0.0
  0
VERTEX
  5
5B9
330
5AF
100
AcDbEntity
  8
Layer 1
 62
     7
420
 16777215
370
    25
100
AcDbVertex
100
AcDb2dVertex
 10
241.1587510247798
 20
150.3539577532101
 30
0.0
  0
VERTEX
  5
5BA
330
5AF
100
AcDbEntity
  8
Layer 1
 62
     7
420
 16777215
370
    25
100
AcDbVertex
100
AcDb2dVertex
 10
241.017846619433
 20
150.9535766224179
 30
0.0
  0
VERTEX
  5
5BB
330
5AF
100
AcDbEntity
  8
Layer 1
 62
     7
420
 16777215
370
    25
100
AcDbVertex
100
AcDb2dVertex
 10
240.9120821880359
 20
151.4122910862789
 30
0.0
  0
VERTEX
  5
5BC
330
5AF
100
AcDbEntity
  8
Layer 1
 62
     7
420
 16777215
370
    25
100
AcDbVertex
100
AcDb2dVertex
 10
240.8414577305882
 20
151.7650688639685
 30
0.0
  0
VERTEX
  5
5BD
330
5AF
100
AcDbEntity
  8
Layer 1
 62
     7
420
 16777215
370
    25
100
AcDbVertex
100
AcDb2dVertex
 10
240.8059732470902
 20
151.9414577528132
 30
0.0
  0
VERTEX
  5
5BE
330
5AF
100
AcDbEntity
  8
Layer 1
 62
     7
420
 16777215
370
    25
100
AcDbVertex
100
AcDb2dVertex
 10
240.8059732470902
 20
151.9765977267628
 30
0.0
  0
SEQEND
  5
5BF
330
5AF
100
AcDbEntity
  8
Layer 1
370
    25
  0
POLYLINE
  5
5C0
330
1F
100
AcDbEntity
  8
Layer 1
 62
     7
420
 16777215
370
    25
100
AcDb2dPolyline
 66
     1
 10
0.0
 20
0.0
 30
0.0
  0
VERTEX
  5
5C1
330
5C0
100
AcDbEntity
  8
Layer 1
 62
     7
420
 16777215
370
    25
100
AcDbVertex
100
AcDb2dVertex
 10
234.914859967313
 20
132.4680555224386
 30
0.0
  0
VERTEX
  5
5C2
330
5C0
100
AcDbEntity
  8
Layer 1
 62
     7
420
 16777215
370
    25
100
AcDbVertex
100
AcDb2dVertex
 10
234.985139915212
 20
132.0446532873013
 30
0.0
  0
VERTEX
  5
5C3
330
5C0
100
AcDbEntity
  8
Layer 1
 62
     7
420
 16777215
370
    25
100
AcDbVertex
100
AcDb2dVertex
 10
235.1263888301073
 20
131.833124424507
 30
0.0
  0
VERTEX
  5
5C4
330
5C0
100
AcDbEntity
  8
Layer 1
 62
     7
420
 16777215
370
    25
100
AcDbVertex
100
AcDb2dVertex
 10
235.3027777189521
 20
131.6918755096117
 30
0.0
  0
VERTEX
  5
5C5
330
5C0
100
AcDbEntity
  8
Layer 1
 62
     7
420
 16777215
370
    25
100
AcDbVertex
100
AcDb2dVertex
 10
235.5497910652445
 20
131.5861110782146
 30
0.0
  0
VERTEX
  5
5C6
330
5C0
100
AcDbEntity
  8
Layer 1
 62
     7
420
 16777215
370
    25
100
AcDbVertex
100
AcDb2dVertex
 10
235.6906954705912
 20
131.5861110782146
 30
0.0
  0
SEQEND
  5
5C7
330
5C0
100
AcDbEntity
  8
Layer 1
370
    25
  0
POLYLINE
  5
5C8
330
1F
100
AcDbEntity
  8
Layer 1
 62
     7
420
 16777215
370
    25
100
AcDb2dPolyline
 66
     1
 10
0.0
 20
0.0
 30
0.0
  0
VERTEX
  5
5C9
330
5C8
100
AcDbEntity
  8
Layer 1
 62
     7
420
 16777215
370
    25
100
AcDbVertex
100
AcDb2dVertex
 10
235.1970132875549
 20
133.1736110778177
 30
0.0
  0
VERTEX
  5
5CA
330
5C8
100
AcDbEntity
  8
Layer 1
 62
     7
420
 16777215
370
    25
100
AcDbVertex
100
AcDb2dVertex
 10
235.0206243987101
 20
132.9265977315253
 30
0.0
  0
VERTEX
  5
5CB
330
5C8
100
AcDbEntity
  8
Layer 1
 62
     7
420
 16777215
370
    25
100
AcDbVertex
100
AcDb2dVertex
 10
234.9499999412625
 20
132.6093044373338
 30
0.0
  0
VERTEX
  5
5CC
330
5C8
100
AcDbEntity
  8
Layer 1
 62
     7
420
 16777215
370
    25
100
AcDbVertex
100
AcDb2dVertex
 10
234.914859967313
 20
132.4680555224386
 30
0.0
  0
SEQEND
  5
5CD
330
5C8
100
AcDbEntity
  8
Layer 1
370
    25
  0
POLYLINE
  5
5CE
330
1F
100
AcDbEntity
  8
Layer 1
 62
     7
420
 16777215
370
    25
100
AcDb2dPolyline
 66
     1
 10
0.0
 20
0.0
 30
0.0
  0
VERTEX
  5
5CF
330
5CE
100
AcDbEntity
  8
Layer 1
 62
     7
420
 16777215
370
    25
100
AcDbVertex
100
AcDb2dVertex
 10
235.6906954705912
 20
133.3499999666625
 30
0.0
  0
VERTEX
  5
5D0
330
5CE
100
AcDbEntity
  8
Layer 1
 62
     7
420
 16777215
370
    25
100
AcDbVertex
100
AcDb2dVertex
 10
235.5497910652445
 20
133.3499999666625
 30
0.0
  0
VERTEX
  5
5D1
330
5CE
100
AcDbEntity
  8
Layer 1
 62
     7
420
 16777215
370
    25
100
AcDbVertex
100
AcDb2dVertex
 10
235.3027777189521
 20
133.2442355352653
 30
0.0
  0
VERTEX
  5
5D2
330
5CE
100
AcDbEntity
  8
Layer 1
 62
     7
420
 16777215
370
    25
100
AcDbVertex
100
AcDb2dVertex
 10
235.1970132875549
 20
133.1736110778177
 30
0.0
  0
SEQEND
  5
5D3
330
5CE
100
AcDbEntity
  8
Layer 1
370
    25
  0
POLYLINE
  5
5D4
330
1F
100
AcDbEntity
  8
Layer 1
 62
     7
420
 16777215
370
    25
100
AcDb2dPolyline
 66
     1
 10
0.0
 20
0.0
 30
0.0
  0
VERTEX
  5
5D5
330
5D4
100
AcDbEntity
  8
Layer 1
 62
     7
420
 16777215
370
    25
100
AcDbVertex
100
AcDb2dVertex
 10
236.466875483418
 20
132.5031954963881
 30
0.0
  0
VERTEX
  5
5D6
330
5D4
100
AcDbEntity
  8
Layer 1
 62
     7
420
 16777215
370
    25
100
AcDbVertex
100
AcDb2dVertex
 10
236.4317355094685
 20
132.8559732740777
 30
0.0
  0
VERTEX
  5
5D7
330
5D4
100
AcDbEntity
  8
Layer 1
 62
     7
420
 16777215
370
    25
100
AcDbVertex
100
AcDb2dVertex
 10
236.3259710780713
 20
133.0678466464205
 30
0.0
  0
VERTEX
  5
5D8
330
5D4
100
AcDbEntity
  8
Layer 1
 62
     7
420
 16777215
370
    25
100
AcDbVertex
100
AcDb2dVertex
 10
236.1140977057284
 20
133.2442355352653
 30
0.0
  0
VERTEX
  5
5D9
330
5D4
100
AcDbEntity
  8
Layer 1
 62
     7
420
 16777215
370
    25
100
AcDbVertex
100
AcDb2dVertex
 10
235.9025688429341
 20
133.3499999666625
 30
0.0
  0
VERTEX
  5
5DA
330
5D4
100
AcDbEntity
  8
Layer 1
 62
     7
420
 16777215
370
    25
100
AcDbVertex
100
AcDb2dVertex
 10
235.6906954705912
 20
133.3499999666625
 30
0.0
  0
SEQEND
  5
5DB
330
5D4
100
AcDbEntity
  8
Layer 1
370
    25
  0
POLYLINE
  5
5DC
330
1F
100
AcDbEntity
  8
Layer 1
 62
     7
420
 16777215
370
    25
100
AcDb2dPolyline
 66
     1
 10
0.0
 20
0.0
 30
0.0
  0
VERTEX
  5
5DD
330
5DC
100
AcDbEntity
  8
Layer 1
 62
     7
420
 16777215
370
    25
100
AcDbVertex
100
AcDb2dVertex
 10
235.6906954705912
 20
131.5861110782146
 30
0.0
  0
VERTEX
  5
5DE
330
5DC
100
AcDbEntity
  8
Layer 1
 62
     7
420
 16777215
370
    25
100
AcDbVertex
100
AcDb2dVertex
 10
236.0434732482808
 20
131.6567355356622
 30
0.0
  0
VERTEX
  5
5DF
330
5DC
100
AcDbEntity
  8
Layer 1
 62
     7
420
 16777215
370
    25
100
AcDbVertex
100
AcDb2dVertex
 10
236.2553466206237
 20
131.7976399410089
 30
0.0
  0
VERTEX
  5
5E0
330
5DC
100
AcDbEntity
  8
Layer 1
 62
     7
420
 16777215
370
    25
100
AcDbVertex
100
AcDb2dVertex
 10
236.3962510259704
 20
132.0095133133518
 30
0.0
  0
VERTEX
  5
5E1
330
5DC
100
AcDbEntity
  8
Layer 1
 62
     7
420
 16777215
370
    25
100
AcDbVertex
100
AcDb2dVertex
 10
236.466875483418
 20
132.2565266596442
 30
0.0
  0
VERTEX
  5
5E2
330
5DC
100
AcDbEntity
  8
Layer 1
 62
     7
420
 16777215
370
    25
100
AcDbVertex
100
AcDb2dVertex
 10
236.466875483418
 20
132.5031954963881
 30
0.0
  0
SEQEND
  5
5E3
330
5DC
100
AcDbEntity
  8
Layer 1
370
    25
  0
POLYLINE
  5
5E4
330
1F
100
AcDbEntity
  8
Layer 1
 62
     7
420
 16777215
370
    25
100
AcDb2dPolyline
 66
     1
 10
0.0
 20
0.0
 30
0.0
  0
VERTEX
  5
5E5
330
5E4
100
AcDbEntity
  8
Layer 1
 62
     7
420
 16777215
370
    25
100
AcDbVertex
100
AcDb2dVertex
 10
238.6190266330536
 20
131.6212510521641
 30
0.0
  0
VERTEX
  5
5E6
330
5E4
100
AcDbEntity
  8
Layer 1
 62
     7
420
 16777215
370
    25
100
AcDbVertex
100
AcDb2dVertex
 10
238.9011799532956
 20
131.6212510521641
 30
0.0
  0
SEQEND
  5
5E7
330
5E4
100
AcDbEntity
  8
Layer 1
370
    25
  0
POLYLINE
  5
5E8
330
1F
100
AcDbEntity
  8
Layer 1
 62
     7
420
 16777215
370
    25
100
AcDb2dPolyline
 66
     1
 10
0.0
 20
0.0
 30
0.0
  0
VERTEX
  5
5E9
330
5E8
100
AcDbEntity
  8
Layer 1
 62
     7
420
 16777215
370
    25
100
AcDbVertex
100
AcDb2dVertex
 10
238.6190266330536
 20
131.8682643984565
 30
0.0
  0
VERTEX
  5
5EA
330
5E8
100
AcDbEntity
  8
Layer 1
 62
     7
420
 16777215
370
    25
100
AcDbVertex
100
AcDb2dVertex
 10
238.6190266330536
 20
131.6212510521641
 30
0.0
  0
SEQEND
  5
5EB
330
5E8
100
AcDbEntity
  8
Layer 1
370
    25
  0
POLYLINE
  5
5EC
330
1F
100
AcDbEntity
  8
Layer 1
 62
     7
420
 16777215
370
    25
100
AcDb2dPolyline
 66
     1
 10
0.0
 20
0.0
 30
0.0
  0
VERTEX
  5
5ED
330
5EC
100
AcDbEntity
  8
Layer 1
 62
     7
420
 16777215
370
    25
100
AcDbVertex
100
AcDb2dVertex
 10
238.1601399144183
 20
131.5861110782146
 30
0.0
  0
VERTEX
  5
5EE
330
5EC
100
AcDbEntity
  8
Layer 1
 62
     7
420
 16777215
370
    25
100
AcDbVertex
100
AcDb2dVertex
 10
238.3720132867612
 20
131.6212510521641
 30
0.0
  0
VERTEX
  5
5EF
330
5EC
100
AcDbEntity
  8
Layer 1
 62
     7
420
 16777215
370
    25
100
AcDbVertex
100
AcDb2dVertex
 10
238.5129176921079
 20
131.7624999670594
 30
0.0
  0
VERTEX
  5
5F0
330
5EC
100
AcDbEntity
  8
Layer 1
 62
     7
420
 16777215
370
    25
100
AcDbVertex
100
AcDb2dVertex
 10
238.6190266330536
 20
131.8682643984565
 30
0.0
  0
SEQEND
  5
5F1
330
5EC
100
AcDbEntity
  8
Layer 1
370
    25
  0
POLYLINE
  5
5F2
330
1F
100
AcDbEntity
  8
Layer 1
 62
     7
420
 16777215
370
    25
100
AcDb2dPolyline
 66
     1
 10
0.0
 20
0.0
 30
0.0
  0
VERTEX
  5
5F3
330
5F2
100
AcDbEntity
  8
Layer 1
 62
     7
420
 16777215
370
    25
100
AcDbVertex
100
AcDb2dVertex
 10
237.4545843590391
 20
132.4680555224386
 30
0.0
  0
VERTEX
  5
5F4
330
5F2
100
AcDbEntity
  8
Layer 1
 62
     7
420
 16777215
370
    25
100
AcDbVertex
100
AcDb2dVertex
 10
237.5252088164868
 20
132.0446532873013
 30
0.0
  0
VERTEX
  5
5F5
330
5F2
100
AcDbEntity
  8
Layer 1
 62
     7
420
 16777215
370
    25
100
AcDbVertex
100
AcDb2dVertex
 10
237.6309732478839
 20
131.833124424507
 30
0.0
  0
VERTEX
  5
5F6
330
5F2
100
AcDbEntity
  8
Layer 1
 62
     7
420
 16777215
370
    25
100
AcDbVertex
100
AcDb2dVertex
 10
237.8428466202268
 20
131.6918755096117
 30
0.0
  0
VERTEX
  5
5F7
330
5F2
100
AcDbEntity
  8
Layer 1
 62
     7
420
 16777215
370
    25
100
AcDbVertex
100
AcDb2dVertex
 10
238.0543754830211
 20
131.5861110782146
 30
0.0
  0
VERTEX
  5
5F8
330
5F2
100
AcDbEntity
  8
Layer 1
 62
     7
420
 16777215
370
    25
100
AcDbVertex
100
AcDb2dVertex
 10
238.1601399144183
 20
131.5861110782146
 30
0.0
  0
SEQEND
  5
5F9
330
5F2
100
AcDbEntity
  8
Layer 1
370
    25
  0
POLYLINE
  5
5FA
330
1F
100
AcDbEntity
  8
Layer 1
 62
     7
420
 16777215
370
    25
100
AcDb2dPolyline
 66
     1
 10
0.0
 20
0.0
 30
0.0
  0
VERTEX
  5
5FB
330
5FA
100
AcDbEntity
  8
Layer 1
 62
     7
420
 16777215
370
    25
100
AcDbVertex
100
AcDb2dVertex
 10
238.1601399144183
 20
133.3499999666625
 30
0.0
  0
VERTEX
  5
5FC
330
5FA
100
AcDbEntity
  8
Layer 1
 62
     7
420
 16777215
370
    25
100
AcDbVertex
100
AcDb2dVertex
 10
237.9134710776744
 20
133.314859992713
 30
0.0
  0
VERTEX
  5
5FD
330
5FA
100
AcDbEntity
  8
Layer 1
 62
     7
420
 16777215
370
    25
100
AcDbVertex
100
AcDb2dVertex
 10
237.7015977053316
 20
133.1736110778177
 30
0.0
  0
VERTEX
  5
5FE
330
5FA
100
AcDbEntity
  8
Layer 1
 62
     7
420
 16777215
370
    25
100
AcDbVertex
100
AcDb2dVertex
 10
237.5606932999848
 20
132.9972221889729
 30
0.0
  0
VERTEX
  5
5FF
330
5FA
100
AcDbEntity
  8
Layer 1
 62
     7
420
 16777215
370
    25
100
AcDbVertex
100
AcDb2dVertex
 10
237.4545843590391
 20
132.715068868731
 30
0.0
  0
VERTEX
  5
600
330
5FA
100
AcDbEntity
  8
Layer 1
 62
     7
420
 16777215
370
    25
100
AcDbVertex
100
AcDb2dVertex
 10
237.4545843590391
 20
132.4680555224386
 30
0.0
  0
SEQEND
  5
601
330
5FA
100
AcDbEntity
  8
Layer 1
370
    25
  0
POLYLINE
  5
602
330
1F
100
AcDbEntity
  8
Layer 1
 62
     7
420
 16777215
370
    25
100
AcDb2dPolyline
 66
     1
 10
0.0
 20
0.0
 30
0.0
  0
VERTEX
  5
603
330
602
100
AcDbEntity
  8
Layer 1
 62
     7
420
 16777215
370
    25
100
AcDbVertex
100
AcDb2dVertex
 10
238.6190266330536
 20
133.1029866203701
 30
0.0
  0
VERTEX
  5
604
330
602
100
AcDbEntity
  8
Layer 1
 62
     7
420
 16777215
370
    25
100
AcDbVertex
100
AcDb2dVertex
 10
238.4426377442088
 20
133.2793755092149
 30
0.0
  0
VERTEX
  5
605
330
602
100
AcDbEntity
  8
Layer 1
 62
     7
420
 16777215
370
    25
100
AcDbVertex
100
AcDb2dVertex
 10
238.266248855364
 20
133.3499999666625
 30
0.0
  0
VERTEX
  5
606
330
602
100
AcDbEntity
  8
Layer 1
 62
     7
420
 16777215
370
    25
100
AcDbVertex
100
AcDb2dVertex
 10
238.1601399144183
 20
133.3499999666625
 30
0.0
  0
SEQEND
  5
607
330
602
100
AcDbEntity
  8
Layer 1
370
    25
  0
POLYLINE
  5
608
330
1F
100
AcDbEntity
  8
Layer 1
 62
     7
420
 16777215
370
    25
100
AcDb2dPolyline
 66
     1
 10
0.0
 20
0.0
 30
0.0
  0
VERTEX
  5
609
330
608
100
AcDbEntity
  8
Layer 1
 62
     7
420
 16777215
370
    25
100
AcDbVertex
100
AcDb2dVertex
 10
238.6190266330536
 20
133.9497910906445
 30
0.0
  0
VERTEX
  5
60A
330
608
100
AcDbEntity
  8
Layer 1
 62
     7
420
 16777215
370
    25
100
AcDbVertex
100
AcDb2dVertex
 10
238.6190266330536
 20
133.1029866203701
 30
0.0
  0
SEQEND
  5
60B
330
608
100
AcDbEntity
  8
Layer 1
370
    25
  0
POLYLINE
  5
60C
330
1F
100
AcDbEntity
  8
Layer 1
 62
     7
420
 16777215
370
    25
100
AcDb2dPolyline
 66
     1
 10
0.0
 20
0.0
 30
0.0
  0
VERTEX
  5
60D
330
60C
100
AcDbEntity
  8
Layer 1
 62
     7
420
 16777215
370
    25
100
AcDbVertex
100
AcDb2dVertex
 10
238.9011799532956
 20
133.9497910906445
 30
0.0
  0
VERTEX
  5
60E
330
60C
100
AcDbEntity
  8
Layer 1
 62
     7
420
 16777215
370
    25
100
AcDbVertex
100
AcDb2dVertex
 10
238.6190266330536
 20
133.9497910906445
 30
0.0
  0
SEQEND
  5
60F
330
60C
100
AcDbEntity
  8
Layer 1
370
    25
  0
POLYLINE
  5
610
330
1F
100
AcDbEntity
  8
Layer 1
 62
     7
420
 16777215
370
    25
100
AcDb2dPolyline
 66
     1
 10
0.0
 20
0.0
 30
0.0
  0
VERTEX
  5
611
330
610
100
AcDbEntity
  8
Layer 1
 62
     7
420
 16777215
370
    25
100
AcDbVertex
100
AcDb2dVertex
 10
238.9011799532956
 20
131.6212510521641
 30
0.0
  0
VERTEX
  5
612
330
610
100
AcDbEntity
  8
Layer 1
 62
     7
420
 16777215
370
    25
100
AcDbVertex
100
AcDb2dVertex
 10
238.9011799532956
 20
133.9497910906445
 30
0.0
  0
SEQEND
  5
613
330
610
100
AcDbEntity
  8
Layer 1
370
    25
  0
POLYLINE
  5
614
330
1F
100
AcDbEntity
  8
Layer 1
 62
     7
420
 16777215
370
    25
100
AcDb2dPolyline
 66
     1
 10
0.0
 20
0.0
 30
0.0
  0
VERTEX
  5
615
330
614
100
AcDbEntity
  8
Layer 1
 62
     7
420
 16777215
370
    25
100
AcDbVertex
100
AcDb2dVertex
 10
238.6190266330536
 20
129.4694444120771
 30
0.0
  0
VERTEX
  5
616
330
614
100
AcDbEntity
  8
Layer 1
 62
     7
420
 16777215
370
    25
100
AcDbVertex
100
AcDb2dVertex
 10
239.6773599661223
 20
129.8573621637162
 30
0.0
  0
VERTEX
  5
617
330
614
100
AcDbEntity
  8
Layer 1
 62
     7
420
 16777215
370
    25
100
AcDbVertex
100
AcDb2dVertex
 10
240.5593044103463
 20
130.5984022025935
 30
0.0
  0
VERTEX
  5
618
330
614
100
AcDbEntity
  8
Layer 1
 62
     7
420
 16777215
370
    25
100
AcDbVertex
100
AcDb2dVertex
 10
241.1236110508302
 20
131.5861110782146
 30
0.0
  0
VERTEX
  5
619
330
614
100
AcDbEntity
  8
Layer 1
 62
     7
420
 16777215
370
    25
100
AcDbVertex
100
AcDb2dVertex
 10
241.2648599657255
 20
132.115277744749
 30
0.0
  0
SEQEND
  5
61A
330
614
100
AcDbEntity
  8
Layer 1
370
    25
  0
POLYLINE
  5
61B
330
1F
100
AcDbEntity
  8
Layer 1
 62
     7
420
 16777215
370
    25
100
AcDb2dPolyline
 66
     1
 10
0.0
 20
0.0
 30
0.0
  0
VERTEX
  5
61C
330
61B
100
AcDbEntity
  8
Layer 1
 62
     7
420
 16777215
370
    25
100
AcDbVertex
100
AcDb2dVertex
 10
229.7640977073159
 20
153.281944406124
 30
0.0
  0
VERTEX
  5
61D
330
61B
100
AcDbEntity
  8
Layer 1
 62
     7
420
 16777215
370
    25
100
AcDbVertex
100
AcDb2dVertex
 10
229.9053466222112
 20
153.281944406124
 30
0.0
  0
SEQEND
  5
61E
330
61B
100
AcDbEntity
  8
Layer 1
370
    25
  0
POLYLINE
  5
61F
330
1F
100
AcDbEntity
  8
Layer 1
 62
     7
420
 16777215
370
    25
100
AcDb2dPolyline
 66
     1
 10
0.0
 20
0.0
 30
0.0
  0
VERTEX
  5
620
330
61F
100
AcDbEntity
  8
Layer 1
 62
     7
420
 16777215
370
    25
100
AcDbVertex
100
AcDb2dVertex
 10
229.6231933019692
 20
153.281944406124
 30
0.0
  0
VERTEX
  5
621
330
61F
100
AcDbEntity
  8
Layer 1
 62
     7
420
 16777215
370
    25
100
AcDbVertex
100
AcDb2dVertex
 10
229.7640977073159
 20
153.281944406124
 30
0.0
  0
SEQEND
  5
622
330
61F
100
AcDbEntity
  8
Layer 1
370
    25
  0
POLYLINE
  5
623
330
1F
100
AcDbEntity
  8
Layer 1
 62
     7
420
 16777215
370
    25
100
AcDb2dPolyline
 66
     1
 10
0.0
 20
0.0
 30
0.0
  0
VERTEX
  5
624
330
623
100
AcDbEntity
  8
Layer 1
 62
     7
420
 16777215
370
    25
100
AcDbVertex
100
AcDb2dVertex
 10
218.7573621414912
 20
151.9765977267628
 30
0.0
  0
VERTEX
  5
625
330
623
100
AcDbEntity
  8
Layer 1
 62
     7
420
 16777215
370
    25
100
AcDbVertex
100
AcDb2dVertex
 10
218.7573621414912
 20
151.9765977267628
 30
0.0
  0
VERTEX
  5
626
330
623
100
AcDbEntity
  8
Layer 1
 62
     7
420
 16777215
370
    25
100
AcDbVertex
100
AcDb2dVertex
 10
218.7573621414912
 20
151.9061455240895
 30
0.0
  0
VERTEX
  5
627
330
623
100
AcDbEntity
  8
Layer 1
 62
     7
420
 16777215
370
    25
100
AcDbVertex
100
AcDb2dVertex
 10
218.6870821935921
 20
151.6944444065208
 30
0.0
  0
VERTEX
  5
628
330
623
100
AcDbEntity
  8
Layer 1
 62
     7
420
 16777215
370
    25
100
AcDbVertex
100
AcDb2dVertex
 10
218.6164577361445
 20
151.3416666288313
 30
0.0
  0
VERTEX
  5
629
330
623
100
AcDbEntity
  8
Layer 1
 62
     7
420
 16777215
370
    25
100
AcDbVertex
100
AcDb2dVertex
 10
218.5106933047473
 20
150.8831244197445
 30
0.0
  0
VERTEX
  5
62A
330
623
100
AcDbEntity
  8
Layer 1
 62
     7
420
 16777215
370
    25
100
AcDbVertex
100
AcDb2dVertex
 10
218.4045843638016
 20
150.2833332957625
 30
0.0
  0
VERTEX
  5
62B
330
623
100
AcDbEntity
  8
Layer 1
 62
     7
420
 16777215
370
    25
100
AcDbVertex
100
AcDb2dVertex
 10
218.2636799584549
 20
149.6130899691072
 30
0.0
  0
VERTEX
  5
62C
330
623
100
AcDbEntity
  8
Layer 1
 62
     7
420
 16777215
370
    25
100
AcDbVertex
100
AcDb2dVertex
 10
218.1224310435597
 20
148.8722221850042
 30
0.0
  0
VERTEX
  5
62D
330
623
100
AcDbEntity
  8
Layer 1
 62
     7
420
 16777215
370
    25
100
AcDbVertex
100
AcDb2dVertex
 10
217.981526638213
 20
148.0254177147298
 30
0.0
  0
VERTEX
  5
62E
330
623
100
AcDbEntity
  8
Layer 1
 62
     7
420
 16777215
370
    25
100
AcDbVertex
100
AcDb2dVertex
 10
217.8754176972673
 20
147.1434732705058
 30
0.0
  0
VERTEX
  5
62F
330
623
100
AcDbEntity
  8
Layer 1
 62
     7
420
 16777215
370
    25
100
AcDbVertex
100
AcDb2dVertex
 10
217.7696532658701
 20
146.2615288262818
 30
0.0
  0
VERTEX
  5
630
330
623
100
AcDbEntity
  8
Layer 1
 62
     7
420
 16777215
370
    25
100
AcDbVertex
100
AcDb2dVertex
 10
217.6638888344729
 20
145.3795843820579
 30
0.0
  0
VERTEX
  5
631
330
623
100
AcDbEntity
  8
Layer 1
 62
     7
420
 16777215
370
    25
100
AcDbVertex
100
AcDb2dVertex
 10
217.5226399195777
 20
143.61569549361
 30
0.0
  0
VERTEX
  5
632
330
623
100
AcDbEntity
  8
Layer 1
 62
     7
420
 16777215
370
    25
100
AcDbVertex
100
AcDb2dVertex
 10
217.4523599716786
 20
140.0527777427646
 30
0.0
  0
VERTEX
  5
633
330
623
100
AcDbEntity
  8
Layer 1
 62
     7
420
 16777215
370
    25
100
AcDbVertex
100
AcDb2dVertex
 10
217.6990288084225
 20
136.066457756782
 30
0.0
  0
VERTEX
  5
634
330
623
100
AcDbEntity
  8
Layer 1
 62
     7
420
 16777215
370
    25
100
AcDbVertex
100
AcDb2dVertex
 10
218.2988199324045
 20
132.115277744749
 30
0.0
  0
SEQEND
  5
635
330
623
100
AcDbEntity
  8
Layer 1
370
    25
  0
POLYLINE
  5
636
330
1F
100
AcDbEntity
  8
Layer 1
 62
     7
420
 16777215
370
    25
100
AcDb2dPolyline
 66
     1
 10
0.0
 20
0.0
 30
0.0
  0
VERTEX
  5
637
330
636
100
AcDbEntity
  8
Layer 1
 62
     7
420
 16777215
370
    25
100
AcDbVertex
100
AcDb2dVertex
 10
218.2988199324045
 20
132.115277744749
 30
0.0
  0
VERTEX
  5
638
330
636
100
AcDbEntity
  8
Layer 1
 62
     7
420
 16777215
370
    25
100
AcDbVertex
100
AcDb2dVertex
 10
218.6870821935921
 20
131.0569444116802
 30
0.0
  0
VERTEX
  5
639
330
636
100
AcDbEntity
  8
Layer 1
 62
     7
420
 16777215
370
    25
100
AcDbVertex
100
AcDb2dVertex
 10
219.3926377489713
 20
130.2101399414058
 30
0.0
  0
VERTEX
  5
63A
330
636
100
AcDbEntity
  8
Layer 1
 62
     7
420
 16777215
370
    25
100
AcDbVertex
100
AcDb2dVertex
 10
220.3448621410944
 20
129.6458333009219
 30
0.0
  0
VERTEX
  5
63B
330
636
100
AcDbEntity
  8
Layer 1
 62
     7
420
 16777215
370
    25
100
AcDbVertex
100
AcDb2dVertex
 10
220.9446532650763
 20
129.4694444120771
 30
0.0
  0
SEQEND
  5
63C
330
636
100
AcDbEntity
  8
Layer 1
370
    25
  0
POLYLINE
  5
63D
330
1F
100
AcDbEntity
  8
Layer 1
 62
     7
420
 16777215
370
    25
100
AcDb2dPolyline
 66
     1
 10
0.0
 20
0.0
 30
0.0
  0
VERTEX
  5
63E
330
63D
100
AcDbEntity
  8
Layer 1
 62
     7
420
 16777215
370
    25
100
AcDbVertex
100
AcDb2dVertex
 10
236.8196532611076
 20
131.6212510521641
 30
0.0
  0
VERTEX
  5
63F
330
63D
100
AcDbEntity
  8
Layer 1
 62
     7
420
 16777215
370
    25
100
AcDbVertex
100
AcDb2dVertex
 10
237.1018065813496
 20
131.6212510521641
 30
0.0
  0
SEQEND
  5
640
330
63D
100
AcDbEntity
  8
Layer 1
370
    25
  0
POLYLINE
  5
641
330
1F
100
AcDbEntity
  8
Layer 1
 62
     7
420
 16777215
370
    25
100
AcDb2dPolyline
 66
     1
 10
0.0
 20
0.0
 30
0.0
  0
VERTEX
  5
642
330
641
100
AcDbEntity
  8
Layer 1
 62
     7
420
 16777215
370
    25
100
AcDbVertex
100
AcDb2dVertex
 10
236.8196532611076
 20
133.9497910906445
 30
0.0
  0
VERTEX
  5
643
330
641
100
AcDbEntity
  8
Layer 1
 62
     7
420
 16777215
370
    25
100
AcDbVertex
100
AcDb2dVertex
 10
236.8196532611076
 20
131.6212510521641
 30
0.0
  0
SEQEND
  5
644
330
641
100
AcDbEntity
  8
Layer 1
370
    25
  0
POLYLINE
  5
645
330
1F
100
AcDbEntity
  8
Layer 1
 62
     7
420
 16777215
370
    25
100
AcDb2dPolyline
 66
     1
 10
0.0
 20
0.0
 30
0.0
  0
VERTEX
  5
646
330
645
100
AcDbEntity
  8
Layer 1
 62
     7
420
 16777215
370
    25
100
AcDbVertex
100
AcDb2dVertex
 10
237.1018065813496
 20
133.9497910906445
 30
0.0
  0
VERTEX
  5
647
330
645
100
AcDbEntity
  8
Layer 1
 62
     7
420
 16777215
370
    25
100
AcDbVertex
100
AcDb2dVertex
 10
236.8196532611076
 20
133.9497910906445
 30
0.0
  0
SEQEND
  5
648
330
645
100
AcDbEntity
  8
Layer 1
370
    25
  0
POLYLINE
  5
649
330
1F
100
AcDbEntity
  8
Layer 1
 62
     7
420
 16777215
370
    25
100
AcDb2dPolyline
 66
     1
 10
0.0
 20
0.0
 30
0.0
  0
VERTEX
  5
64A
330
649
100
AcDbEntity
  8
Layer 1
 62
     7
420
 16777215
370
    25
100
AcDbVertex
100
AcDb2dVertex
 10
237.1018065813496
 20
131.6212510521641
 30
0.0
  0
VERTEX
  5
64B
330
649
100
AcDbEntity
  8
Layer 1
 62
     7
420
 16777215
370
    25
100
AcDbVertex
100
AcDb2dVertex
 10
237.1018065813496
 20
133.9497910906445
 30
0.0
  0
SEQEND
  5
64C
330
649
100
AcDbEntity
  8
Layer 1
370
    25
  0
POLYLINE
  5
64D
330
1F
100
AcDbEntity
  8
Layer 1
 62
     7
420
 16777215
370
    25
100
AcDb2dPolyline
 66
     1
 10
0.0
 20
0.0
 30
0.0
  0
VERTEX
  5
64E
330
64D
100
AcDbEntity
  8
Layer 1
 62
     7
420
 16777215
370
    25
100
AcDbVertex
100
AcDb2dVertex
 10
234.4914577321757
 20
132.2565266596442
 30
0.0
  0
VERTEX
  5
64F
330
64D
100
AcDbEntity
  8
Layer 1
 62
     7
420
 16777215
370
    25
100
AcDbVertex
100
AcDb2dVertex
 10
234.4208332747281
 20
132.0801377707994
 30
0.0
  0
VERTEX
  5
650
330
64D
100
AcDbEntity
  8
Layer 1
 62
     7
420
 16777215
370
    25
100
AcDbVertex
100
AcDb2dVertex
 10
234.3502088172805
 20
131.9740288298537
 30
0.0
  0
VERTEX
  5
651
330
64D
100
AcDbEntity
  8
Layer 1
 62
     7
420
 16777215
370
    25
100
AcDbVertex
100
AcDb2dVertex
 10
234.2444443858834
 20
131.9037488819546
 30
0.0
  0
VERTEX
  5
652
330
64D
100
AcDbEntity
  8
Layer 1
 62
     7
420
 16777215
370
    25
100
AcDbVertex
100
AcDb2dVertex
 10
234.1386799544862
 20
131.8682643984565
 30
0.0
  0
VERTEX
  5
653
330
64D
100
AcDbEntity
  8
Layer 1
 62
     7
420
 16777215
370
    25
100
AcDbVertex
100
AcDb2dVertex
 10
234.0680554970386
 20
131.8682643984565
 30
0.0
  0
SEQEND
  5
654
330
64D
100
AcDbEntity
  8
Layer 1
370
    25
  0
POLYLINE
  5
655
330
1F
100
AcDbEntity
  8
Layer 1
 62
     7
420
 16777215
370
    25
100
AcDb2dPolyline
 66
     1
 10
0.0
 20
0.0
 30
0.0
  0
VERTEX
  5
656
330
655
100
AcDbEntity
  8
Layer 1
 62
     7
420
 16777215
370
    25
100
AcDbVertex
100
AcDb2dVertex
 10
234.7736110524177
 20
132.2210421761461
 30
0.0
  0
VERTEX
  5
657
330
655
100
AcDbEntity
  8
Layer 1
 62
     7
420
 16777215
370
    25
100
AcDbVertex
100
AcDb2dVertex
 10
234.4914577321757
 20
132.2565266596442
 30
0.0
  0
SEQEND
  5
658
330
655
100
AcDbEntity
  8
Layer 1
370
    25
  0
POLYLINE
  5
659
330
1F
100
AcDbEntity
  8
Layer 1
 62
     7
420
 16777215
370
    25
100
AcDb2dPolyline
 66
     1
 10
0.0
 20
0.0
 30
0.0
  0
VERTEX
  5
65A
330
659
100
AcDbEntity
  8
Layer 1
 62
     7
420
 16777215
370
    25
100
AcDbVertex
100
AcDb2dVertex
 10
234.0680554970386
 20
131.5861110782146
 30
0.0
  0
VERTEX
  5
65B
330
659
100
AcDbEntity
  8
Layer 1
 62
     7
420
 16777215
370
    25
100
AcDbVertex
100
AcDb2dVertex
 10
234.3502088172805
 20
131.6212510521641
 30
0.0
  0
VERTEX
  5
65C
330
659
100
AcDbEntity
  8
Layer 1
 62
     7
420
 16777215
370
    25
100
AcDbVertex
100
AcDb2dVertex
 10
234.5620821896234
 20
131.7624999670594
 30
0.0
  0
VERTEX
  5
65D
330
659
100
AcDbEntity
  8
Layer 1
 62
     7
420
 16777215
370
    25
100
AcDbVertex
100
AcDb2dVertex
 10
234.7029865949701
 20
131.9388888559042
 30
0.0
  0
VERTEX
  5
65E
330
659
100
AcDbEntity
  8
Layer 1
 62
     7
420
 16777215
370
    25
100
AcDbVertex
100
AcDb2dVertex
 10
234.7736110524177
 20
132.1504177186985
 30
0.0
  0
VERTEX
  5
65F
330
659
100
AcDbEntity
  8
Layer 1
 62
     7
420
 16777215
370
    25
100
AcDbVertex
100
AcDb2dVertex
 10
234.7736110524177
 20
132.2210421761461
 30
0.0
  0
SEQEND
  5
660
330
659
100
AcDbEntity
  8
Layer 1
370
    25
  0
POLYLINE
  5
661
330
1F
100
AcDbEntity
  8
Layer 1
 62
     7
420
 16777215
370
    25
100
AcDb2dPolyline
 66
     1
 10
0.0
 20
0.0
 30
0.0
  0
VERTEX
  5
662
330
661
100
AcDbEntity
  8
Layer 1
 62
     7
420
 16777215
370
    25
100
AcDbVertex
100
AcDb2dVertex
 10
233.3273599677098
 20
132.4680555224386
 30
0.0
  0
VERTEX
  5
663
330
661
100
AcDbEntity
  8
Layer 1
 62
     7
420
 16777215
370
    25
100
AcDbVertex
100
AcDb2dVertex
 10
233.3624999416594
 20
132.0801377707994
 30
0.0
  0
VERTEX
  5
664
330
661
100
AcDbEntity
  8
Layer 1
 62
     7
420
 16777215
370
    25
100
AcDbVertex
100
AcDb2dVertex
 10
233.4682643730565
 20
131.8682643984565
 30
0.0
  0
VERTEX
  5
665
330
661
100
AcDbEntity
  8
Layer 1
 62
     7
420
 16777215
370
    25
100
AcDbVertex
100
AcDb2dVertex
 10
233.6446532619013
 20
131.7273599931098
 30
0.0
  0
VERTEX
  5
666
330
661
100
AcDbEntity
  8
Layer 1
 62
     7
420
 16777215
370
    25
100
AcDbVertex
100
AcDb2dVertex
 10
233.8565266342442
 20
131.6212510521641
 30
0.0
  0
VERTEX
  5
667
330
661
100
AcDbEntity
  8
Layer 1
 62
     7
420
 16777215
370
    25
100
AcDbVertex
100
AcDb2dVertex
 10
234.0680554970386
 20
131.5861110782146
 30
0.0
  0
SEQEND
  5
668
330
661
100
AcDbEntity
  8
Layer 1
370
    25
  0
POLYLINE
  5
669
330
1F
100
AcDbEntity
  8
Layer 1
 62
     7
420
 16777215
370
    25
100
AcDb2dPolyline
 66
     1
 10
0.0
 20
0.0
 30
0.0
  0
VERTEX
  5
66A
330
669
100
AcDbEntity
  8
Layer 1
 62
     7
420
 16777215
370
    25
100
AcDbVertex
100
AcDb2dVertex
 10
234.0680554970386
 20
133.3499999666625
 30
0.0
  0
VERTEX
  5
66B
330
669
100
AcDbEntity
  8
Layer 1
 62
     7
420
 16777215
370
    25
100
AcDbVertex
100
AcDb2dVertex
 10
233.7504176932985
 20
133.2793755092149
 30
0.0
  0
VERTEX
  5
66C
330
669
100
AcDbEntity
  8
Layer 1
 62
     7
420
 16777215
370
    25
100
AcDbVertex
100
AcDb2dVertex
 10
233.5740288044537
 20
133.1736110778177
 30
0.0
  0
VERTEX
  5
66D
330
669
100
AcDbEntity
  8
Layer 1
 62
     7
420
 16777215
370
    25
100
AcDbVertex
100
AcDb2dVertex
 10
233.433124399107
 20
132.9972221889729
 30
0.0
  0
VERTEX
  5
66E
330
669
100
AcDbEntity
  8
Layer 1
 62
     7
420
 16777215
370
    25
100
AcDbVertex
100
AcDb2dVertex
 10
233.3273599677098
 20
132.715068868731
 30
0.0
  0
VERTEX
  5
66F
330
669
100
AcDbEntity
  8
Layer 1
 62
     7
420
 16777215
370
    25
100
AcDbVertex
100
AcDb2dVertex
 10
233.3273599677098
 20
132.4680555224386
 30
0.0
  0
SEQEND
  5
670
330
669
100
AcDbEntity
  8
Layer 1
370
    25
  0
POLYLINE
  5
671
330
1F
100
AcDbEntity
  8
Layer 1
 62
     7
420
 16777215
370
    25
100
AcDb2dPolyline
 66
     1
 10
0.0
 20
0.0
 30
0.0
  0
VERTEX
  5
672
330
671
100
AcDbEntity
  8
Layer 1
 62
     7
420
 16777215
370
    25
100
AcDbVertex
100
AcDb2dVertex
 10
234.7384710784682
 20
132.8208333001281
 30
0.0
  0
VERTEX
  5
673
330
671
100
AcDbEntity
  8
Layer 1
 62
     7
420
 16777215
370
    25
100
AcDbVertex
100
AcDb2dVertex
 10
234.6323621375225
 20
133.0678466464205
 30
0.0
  0
VERTEX
  5
674
330
671
100
AcDbEntity
  8
Layer 1
 62
     7
420
 16777215
370
    25
100
AcDbVertex
100
AcDb2dVertex
 10
234.5265977061253
 20
133.2087510517673
 30
0.0
  0
VERTEX
  5
675
330
671
100
AcDbEntity
  8
Layer 1
 62
     7
420
 16777215
370
    25
100
AcDbVertex
100
AcDb2dVertex
 10
234.3502088172805
 20
133.314859992713
 30
0.0
  0
VERTEX
  5
676
330
671
100
AcDbEntity
  8
Layer 1
 62
     7
420
 16777215
370
    25
100
AcDbVertex
100
AcDb2dVertex
 10
234.0680554970386
 20
133.3499999666625
 30
0.0
  0
SEQEND
  5
677
330
671
100
AcDbEntity
  8
Layer 1
370
    25
  0
POLYLINE
  5
678
330
1F
100
AcDbEntity
  8
Layer 1
 62
     7
420
 16777215
370
    25
100
AcDb2dPolyline
 66
     1
 10
0.0
 20
0.0
 30
0.0
  0
VERTEX
  5
679
330
678
100
AcDbEntity
  8
Layer 1
 62
     7
420
 16777215
370
    25
100
AcDbVertex
100
AcDb2dVertex
 10
234.4559732486777
 20
132.7856933261786
 30
0.0
  0
VERTEX
  5
67A
330
678
100
AcDbEntity
  8
Layer 1
 62
     7
420
 16777215
370
    25
100
AcDbVertex
100
AcDb2dVertex
 10
234.7384710784682
 20
132.8208333001281
 30
0.0
  0
SEQEND
  5
67B
330
678
100
AcDbEntity
  8
Layer 1
370
    25
  0
POLYLINE
  5
67C
330
1F
100
AcDbEntity
  8
Layer 1
 62
     7
420
 16777215
370
    25
100
AcDb2dPolyline
 66
     1
 10
0.0
 20
0.0
 30
0.0
  0
VERTEX
  5
67D
330
67C
100
AcDbEntity
  8
Layer 1
 62
     7
420
 16777215
370
    25
100
AcDbVertex
100
AcDb2dVertex
 10
234.0680554970386
 20
133.1029866203701
 30
0.0
  0
VERTEX
  5
67E
330
67C
100
AcDbEntity
  8
Layer 1
 62
     7
420
 16777215
370
    25
100
AcDbVertex
100
AcDb2dVertex
 10
234.2444443858834
 20
133.0678466464205
 30
0.0
  0
VERTEX
  5
67F
330
67C
100
AcDbEntity
  8
Layer 1
 62
     7
420
 16777215
370
    25
100
AcDbVertex
100
AcDb2dVertex
 10
234.3502088172805
 20
132.9972221889729
 30
0.0
  0
VERTEX
  5
680
330
67C
100
AcDbEntity
  8
Layer 1
 62
     7
420
 16777215
370
    25
100
AcDbVertex
100
AcDb2dVertex
 10
234.4208332747281
 20
132.8914577575758
 30
0.0
  0
VERTEX
  5
681
330
67C
100
AcDbEntity
  8
Layer 1
 62
     7
420
 16777215
370
    25
100
AcDbVertex
100
AcDb2dVertex
 10
234.4559732486777
 20
132.7856933261786
 30
0.0
  0
SEQEND
  5
682
330
67C
100
AcDbEntity
  8
Layer 1
370
    25
  0
POLYLINE
  5
683
330
1F
100
AcDbEntity
  8
Layer 1
 62
     7
420
 16777215
370
    25
100
AcDb2dPolyline
 66
     1
 10
0.0
 20
0.0
 30
0.0
  0
VERTEX
  5
684
330
683
100
AcDbEntity
  8
Layer 1
 62
     7
420
 16777215
370
    25
100
AcDbVertex
100
AcDb2dVertex
 10
233.6095132879518
 20
132.4680555224386
 30
0.0
  0
VERTEX
  5
685
330
683
100
AcDbEntity
  8
Layer 1
 62
     7
420
 16777215
370
    25
100
AcDbVertex
100
AcDb2dVertex
 10
233.6446532619013
 20
132.7502088426804
 30
0.0
  0
VERTEX
  5
686
330
683
100
AcDbEntity
  8
Layer 1
 62
     7
420
 16777215
370
    25
100
AcDbVertex
100
AcDb2dVertex
 10
233.715277719349
 20
132.8914577575758
 30
0.0
  0
VERTEX
  5
687
330
683
100
AcDbEntity
  8
Layer 1
 62
     7
420
 16777215
370
    25
100
AcDbVertex
100
AcDb2dVertex
 10
233.8210421507461
 20
132.9972221889729
 30
0.0
  0
VERTEX
  5
688
330
683
100
AcDbEntity
  8
Layer 1
 62
     7
420
 16777215
370
    25
100
AcDbVertex
100
AcDb2dVertex
 10
233.9622910656414
 20
133.0678466464205
 30
0.0
  0
VERTEX
  5
689
330
683
100
AcDbEntity
  8
Layer 1
 62
     7
420
 16777215
370
    25
100
AcDbVertex
100
AcDb2dVertex
 10
234.0680554970386
 20
133.1029866203701
 30
0.0
  0
SEQEND
  5
68A
330
683
100
AcDbEntity
  8
Layer 1
370
    25
  0
POLYLINE
  5
68B
330
1F
100
AcDbEntity
  8
Layer 1
 62
     7
420
 16777215
370
    25
100
AcDb2dPolyline
 66
     1
 10
0.0
 20
0.0
 30
0.0
  0
VERTEX
  5
68C
330
68B
100
AcDbEntity
  8
Layer 1
 62
     7
420
 16777215
370
    25
100
AcDbVertex
100
AcDb2dVertex
 10
234.0680554970386
 20
131.8682643984565
 30
0.0
  0
VERTEX
  5
68D
330
68B
100
AcDbEntity
  8
Layer 1
 62
     7
420
 16777215
370
    25
100
AcDbVertex
100
AcDb2dVertex
 10
233.8916666081938
 20
131.8682643984565
 30
0.0
  0
VERTEX
  5
68E
330
68B
100
AcDbEntity
  8
Layer 1
 62
     7
420
 16777215
370
    25
100
AcDbVertex
100
AcDb2dVertex
 10
233.7859021767966
 20
131.9388888559042
 30
0.0
  0
VERTEX
  5
68F
330
68B
100
AcDbEntity
  8
Layer 1
 62
     7
420
 16777215
370
    25
100
AcDbVertex
100
AcDb2dVertex
 10
233.715277719349
 20
132.0446532873013
 30
0.0
  0
VERTEX
  5
690
330
68B
100
AcDbEntity
  8
Layer 1
 62
     7
420
 16777215
370
    25
100
AcDbVertex
100
AcDb2dVertex
 10
233.6446532619013
 20
132.2210421761461
 30
0.0
  0
VERTEX
  5
691
330
68B
100
AcDbEntity
  8
Layer 1
 62
     7
420
 16777215
370
    25
100
AcDbVertex
100
AcDb2dVertex
 10
233.6095132879518
 20
132.4680555224386
 30
0.0
  0
SEQEND
  5
692
330
68B
100
AcDbEntity
  8
Layer 1
370
    25
  0
POLYLINE
  5
693
330
1F
100
AcDbEntity
  8
Layer 1
 62
     7
420
 16777215
370
    25
100
AcDb2dPolyline
 66
     1
 10
0.0
 20
0.0
 30
0.0
  0
VERTEX
  5
694
330
693
100
AcDbEntity
  8
Layer 1
 62
     7
420
 16777215
370
    25
100
AcDbVertex
100
AcDb2dVertex
 10
240.8059732470902
 20
151.9765977267628
 30
0.0
  0
VERTEX
  5
695
330
693
100
AcDbEntity
  8
Layer 1
 62
     7
420
 16777215
370
    25
100
AcDbVertex
100
AcDb2dVertex
 10
240.4531954694006
 20
152.0472221842104
 30
0.0
  0
VERTEX
  5
696
330
693
100
AcDbEntity
  8
Layer 1
 62
     7
420
 16777215
370
    25
100
AcDbVertex
100
AcDb2dVertex
 10
239.9946532603138
 20
152.1529866156076
 30
0.0
  0
VERTEX
  5
697
330
693
100
AcDbEntity
  8
Layer 1
 62
     7
420
 16777215
370
    25
100
AcDbVertex
100
AcDb2dVertex
 10
238.9718044107432
 20
152.3646877331762
 30
0.0
  0
VERTEX
  5
698
330
693
100
AcDbEntity
  8
Layer 1
 62
     7
420
 16777215
370
    25
100
AcDbVertex
100
AcDb2dVertex
 10
237.8779865941763
 20
152.5763888507448
 30
0.0
  0
VERTEX
  5
699
330
693
100
AcDbEntity
  8
Layer 1
 62
     7
420
 16777215
370
    25
100
AcDbVertex
100
AcDb2dVertex
 10
236.7845132871581
 20
152.7527777395896
 30
0.0
  0
VERTEX
  5
69A
330
693
100
AcDbEntity
  8
Layer 1
 62
     7
420
 16777215
370
    25
100
AcDbVertex
100
AcDb2dVertex
 10
235.5849310391941
 20
152.9291666284344
 30
0.0
  0
VERTEX
  5
69B
330
693
100
AcDbEntity
  8
Layer 1
 62
     7
420
 16777215
370
    25
100
AcDbVertex
100
AcDb2dVertex
 10
234.4208332747281
 20
153.0702432885554
 30
0.0
  0
VERTEX
  5
69C
330
693
100
AcDbEntity
  8
Layer 1
 62
     7
420
 16777215
370
    25
100
AcDbVertex
100
AcDb2dVertex
 10
232.3393065825402
 20
153.2113199486763
 30
0.0
  0
VERTEX
  5
69D
330
693
100
AcDbEntity
  8
Layer 1
 62
     7
420
 16777215
370
    25
100
AcDbVertex
100
AcDb2dVertex
 10
230.2226399164027
 20
153.281944406124
 30
0.0
  0
VERTEX
  5
69E
330
693
100
AcDbEntity
  8
Layer 1
 62
     7
420
 16777215
370
    25
100
AcDbVertex
100
AcDb2dVertex
 10
228.59999994285
 20
153.281944406124
 30
0.0
  0
VERTEX
  5
69F
330
693
100
AcDbEntity
  8
Layer 1
 62
     7
420
 16777215
370
    25
100
AcDbVertex
100
AcDb2dVertex
 10
227.0124999432469
 20
153.2113199486763
 30
0.0
  0
VERTEX
  5
6A0
330
693
100
AcDbEntity
  8
Layer 1
 62
     7
420
 16777215
370
    25
100
AcDbVertex
100
AcDb2dVertex
 10
225.3898599696942
 20
153.0702432885554
 30
0.0
  0
VERTEX
  5
6A1
330
693
100
AcDbEntity
  8
Layer 1
 62
     7
420
 16777215
370
    25
100
AcDbVertex
100
AcDb2dVertex
 10
224.049028806835
 20
152.9291666284344
 30
0.0
  0
VERTEX
  5
6A2
330
693
100
AcDbEntity
  8
Layer 1
 62
     7
420
 16777215
370
    25
100
AcDbVertex
100
AcDb2dVertex
 10
222.7085421535243
 20
152.7527777395896
 30
0.0
  0
VERTEX
  5
6A3
330
693
100
AcDbEntity
  8
Layer 1
 62
     7
420
 16777215
370
    25
100
AcDbVertex
100
AcDb2dVertex
 10
221.4031954741631
 20
152.541076622021
 30
0.0
  0
VERTEX
  5
6A4
330
693
100
AcDbEntity
  8
Layer 1
 62
     7
420
 16777215
370
    25
100
AcDbVertex
100
AcDb2dVertex
 10
220.415486598542
 20
152.3293755044524
 30
0.0
  0
VERTEX
  5
6A5
330
693
100
AcDbEntity
  8
Layer 1
 62
     7
420
 16777215
370
    25
100
AcDbVertex
100
AcDb2dVertex
 10
219.9569443894552
 20
152.2236110730552
 30
0.0
  0
VERTEX
  5
6A6
330
693
100
AcDbEntity
  8
Layer 1
 62
     7
420
 16777215
370
    25
100
AcDbVertex
100
AcDb2dVertex
 10
219.5690266378161
 20
152.1529866156076
 30
0.0
  0
VERTEX
  5
6A7
330
693
100
AcDbEntity
  8
Layer 1
 62
     7
420
 16777215
370
    25
100
AcDbVertex
100
AcDb2dVertex
 10
219.2162488601265
 20
152.0825344129342
 30
0.0
  0
VERTEX
  5
6A8
330
693
100
AcDbEntity
  8
Layer 1
 62
     7
420
 16777215
370
    25
100
AcDbVertex
100
AcDb2dVertex
 10
218.933751030336
 20
152.0119099554866
 30
0.0
  0
VERTEX
  5
6A9
330
693
100
AcDbEntity
  8
Layer 1
 62
     7
420
 16777215
370
    25
100
AcDbVertex
100
AcDb2dVertex
 10
218.7573621414912
 20
151.9765977267628
 30
0.0
  0
SEQEND
  5
6AA
330
693
100
AcDbEntity
  8
Layer 1
370
    25
  0
ENDSEC
  0
SECTION
  2
OBJECTS
  0
DICTIONARY
  5
C
330
0
100
AcDbDictionary
281
     1
  3
ACAD_CIP_PREVIOUS_PRODUCT_INFO
350
6EE
  3
ACAD_COLOR
350
6D1
  3
ACAD_DETAILVIEWSTYLE
350
6E9
  3
ACAD_GROUP
350
D
  3
ACAD_LAYOUT
350
1A
  3
ACAD_MATERIAL
350
6AE
  3
ACAD_MLEADERSTYLE
350
6E5
  3
ACAD_MLINESTYLE
350
17
  3
ACAD_PLOTSETTINGS
350
19
  3
ACAD_PLOTSTYLENAME
350
E
  3
ACAD_SCALELIST
350
6D3
  3
ACAD_SECTIONVIEWSTYLE
350
6E7
  3
ACAD_TABLESTYLE
350
6AB
  3
ACAD_VISUALSTYLE
350
2A
  3
ACDB_RECOMPOSE_DATA
350
713
  3
AcDbVariableDictionary
350
703
  0
DICTIONARY
  5
6FF
330
10
100
AcDbDictionary
280
     1
281
     1
  3
ADSK_XREC_LAYER_RECONCILED
360
700
  0
DICTIONARY
  5
701
330
3B
100
AcDbDictionary
280
     1
281
     1
  3
ADSK_XREC_LAYER_RECONCILED
360
702
  0
XRECORD
  5
6EE
102
{ACAD_REACTORS
330
C
102
}
330
C
100
AcDbXrecord
280
     1
300
ACD
300
2017
300
ACD_F_S
  0
DICTIONARY
  5
6D1
102
{ACAD_REACTORS
330
C
102
}
330
C
100
AcDbDictionary
281
     1
  0
DICTIONARY
  5
6E9
102
{ACAD_REACTORS
330
C
102
}
330
C
100
AcDbDictionary
281
     1
  3
Imperial24
350
6EA
  0
DICTIONARY
  5
D
102
{ACAD_REACTORS
330
C
102
}
330
C
100
AcDbDictionary
281
     1
  0
DICTIONARY
  5
1A
102
{ACAD_REACTORS
330
C
102
}
330
C
100
AcDbDictionary
281
     1
  3
Layout1
350
1E
  3
Layout2
350
26
  3
Model
350
22
  0
DICTIONARY
  5
6AE
102
{ACAD_REACTORS
330
C
102
}
330
C
100
AcDbDictionary
281
     1
  3
ByBlock
350
6B7
  3
ByLayer
350
6AF
  3
Global
350
6BF
  0
DICTIONARY
  5
6E5
102
{ACAD_REACTORS
330
C
102
}
330
C
100
AcDbDictionary
281
     1
  3
Standard
350
6E6
  0
DICTIONARY
  5
17
102
{ACAD_REACTORS
330
C
102
}
330
C
100
AcDbDictionary
281
     1
  3
Standard
350
18
  0
DICTIONARY
  5
19
102
{ACAD_REACTORS
330
C
102
}
330
C
100
AcDbDictionary
281
     1
  0
ACDBDICTIONARYWDFLT
  5
E
102
{ACAD_REACTORS
330
C
102
}
330
C
100
AcDbDictionary
281
     1
  3
Normal
350
F
100
AcDbDictionaryWithDefault
340
F
  0
DICTIONARY
  5
6D3
102
{ACAD_REACTORS
330
C
102
}
330
C
100
AcDbDictionary
281
     1
  3
A0
350
6D4
  3
A1
350
6D5
  3
A2
350
6D6
  3
A3
350
6D7
  3
A4
350
6D8
  3
A5
350
6D9
  3
A6
350
6DA
  3
A7
350
6DB
  3
A8
350
6DC
  3
A9
350
6DD
  3
B0
350
6DE
  3
B1
350
6DF
  3
B2
350
6E0
  3
B3
350
6E1
  3
B4
350
6E2
  3
B5
350
6E3
  3
B6
350
6E4
  0
DICTIONARY
  5
6E7
102
{ACAD_REACTORS
330
C
102
}
330
C
100
AcDbDictionary
281
     1
  3
Imperial24
350
6E8
  0
DICTIONARY
  5
6AB
102
{ACAD_REACTORS
330
C
102
}
330
C
100
AcDbDictionary
281
     1
  3
Standard
350
6D2
  0
DICTIONARY
  5
2A
102
{ACAD_REACTORS
330
C
102
}
330
C
100
AcDbDictionary
281
     1
  3
2dWireframe
350
2F
  3
3D Hidden
350
31
  3
3dWireframe
350
30
  3
Basic
350
32
  3
Brighten
350
36
  3
ColorChange
350
3A
  3
Conceptual
350
34
  3
Dim
350
35
  3
EdgeColorOff
350
6D0
  3
Facepattern
350
39
  3
Flat
350
2B
  3
FlatWithEdges
350
2C
  3
Gouraud
350
2D
  3
GouraudWithEdges
350
2E
  3
Hidden
350
6C8
  3
JitterOff
350
6CE
  3
Linepattern
350
38
  3
OverhangOff
350
6CF
  3
Realistic
350
33
  3
Shaded
350
6CD
  3
Shaded with edges
350
6CC
  3
Shades of Gray
350
6C9
  3
Sketchy
350
6CA
  3
Thicken
350
37
  3
Wireframe
350
6C7
  3
X-Ray
350
6CB
  0
XRECORD
  5
713
102
{ACAD_REACTORS
330
C
102
}
330
C
100
AcDbXrecord
280
     1
 90
        1
330
6D2
330
6E8
330
6EA
  0
DICTIONARY
  5
703
102
{ACAD_REACTORS
330
C
102
}
330
C
100
AcDbDictionary
281
     1
  3
CANNOSCALE
350
709
  3
CMLEADERSTYLE
350
705
  3
CTABLESTYLE
350
704
  3
CVIEWDETAILSTYLE
350
706
  3
CVIEWSECTIONSTYLE
350
707
  3
LAYEREVAL
350
70B
  3
LAYERNOTIFY
350
70C
  3
LIGHTINGUNITS
350
70A
  3
MSLTSCALE
350
708
  0
XRECORD
  5
700
102
{ACAD_REACTORS
330
6FF
102
}
330
6FF
100
AcDbXrecord
280
     1
290
     1
  0
XRECORD
  5
702
102
{ACAD_REACTORS
330
701
102
}
330
701
100
AcDbXrecord
280
     1
290
     1
  0
ACDBDETAILVIEWSTYLE
  5
6EA
102
{ACAD_XDICTIONARY
360
711
102
}
102
{ACAD_REACTORS
330
6E9
102
}
330
6E9
100
AcDbModelDocViewStyle
 70
     0
  3
Imperial24
290
     0
100
AcDbDetailViewStyle
 70
     0
 71
     0
 90
        3
 71
     1
340
11
 62
   256
 40
0.24
340
0
 62
   256
 40
0.24
300

 40
0.36
280
     3
 71
     2
340
16
 90
       25
 62
   256
 71
     3
340
11
 62
   256
 40
0.24
 90
        1
 40
0.75
 90
        1
300
%<\AcVar ViewType \f "%tc1">% %<\AcVar ViewDetailId>%\PSCALE %<\AcVar ViewScale \f "%sn">%
 71
     4
340
16
 90
       25
 62
   256
340
16
 90
       25
 62
   256
280
     0
  0
LAYOUT
  5
1E
102
{ACAD_REACTORS
330
1A
102
}
330
1A
100
AcDbPlotSettings
  1

  2
none_device
  4

  6

 40
0.0
 41
0.0
 42
0.0
 43
0.0
 44
0.0
 45
0.0
 46
0.0
 47
0.0
 48
0.0
 49
0.0
140
0.0
141
0.0
142
1.0
143
1.0
 70
   688
 72
     0
 73
     0
 74
     5
  7

 75
    16
147
1.0
 76
     0
 77
     2
 78
   300
148
0.0
149
0.0
100
AcDbLayout
  1
Layout1
 70
     1
 71
     1
 10
0.0
 20
0.0
 11
12.0
 21
9.0
 12
0.0
 22
0.0
 32
0.0
 14
1.000000000000000E+20
 24
1.000000000000000E+20
 34
1.000000000000000E+20
 15
-1.000000000000000E+20
 25
-1.000000000000000E+20
 35
-1.000000000000000E+20
146
0.0
 13
0.0
 23
0.0
 33
0.0
 16
1.0
 26
0.0
 36
0.0
 17
0.0
 27
1.0
 37
0.0
 76
     0
330
1B
  0
LAYOUT
  5
26
102
{ACAD_REACTORS
330
1A
102
}
330
1A
100
AcDbPlotSettings
  1

  2
none_device
  4

  6

 40
0.0
 41
0.0
 42
0.0
 43
0.0
 44
0.0
 45
0.0
 46
0.0
 47
0.0
 48
0.0
 49
0.0
140
0.0
141
0.0
142
1.0
143
1.0
 70
   688
 72
     0
 73
     0
 74
     5
  7

 75
    16
147
1.0
 76
     0
 77
     2
 78
   300
148
0.0
149
0.0
100
AcDbLayout
  1
Layout2
 70
     1
 71
     2
 10
0.0
 20
0.0
 11
0.0
 21
0.0
 12
0.0
 22
0.0
 32
0.0
 14
0.0
 24
0.0
 34
0.0
 15
0.0
 25
0.0
 35
0.0
146
0.0
 13
0.0
 23
0.0
 33
0.0
 16
1.0
 26
0.0
 36
0.0
 17
0.0
 27
1.0
 37
0.0
 76
     0
330
23
  0
LAYOUT
  5
22
102
{ACAD_REACTORS
330
1A
102
}
330
1A
100
AcDbPlotSettings
  1

  2
none_device
  4

  6

 40
0.0
 41
0.0
 42
0.0
 43
0.0
 44
0.0
 45
0.0
 46
0.0
 47
0.0
 48
0.0
 49
0.0
140
0.0
141
0.0
142
1.0
143
1.0
 70
  1712
 72
     0
 73
     0
 74
     0
  7

 75
     0
147
1.0
 76
     0
 77
     2
 78
   300
148
0.0
149
0.0
100
AcDbLayout
  1
Model
 70
     1
 71
     0
 10
0.0
 20
0.0
 11
12.0
 21
9.0
 12
0.0
 22
0.0
 32
0.0
 14
1.000000000000000E+20
 24
1.000000000000000E+20
 34
1.000000000000000E+20
 15
-1.000000000000000E+20
 25
-1.000000000000000E+20
 35
-1.000000000000000E+20
146
0.0
 13
0.0
 23
0.0
 33
0.0
 16
1.0
 26
0.0
 36
0.0
 17
0.0
 27
1.0
 37
0.0
 76
     0
330
1F
331
29
  0
MATERIAL
  5
6B7
102
{ACAD_XDICTIONARY
360
6B8
102
}
102
{ACAD_REACTORS
330
6AE
102
}
330
6AE
100
AcDbMaterial
  1
ByBlock
 72
     0
 43
0.0208333333333333
 43
0.0
 43
0.0
 43
0.0
 43
0.0
 43
0.0208333333333333
 43
0.0
 43
0.0
 43
0.0
 43
0.0
 43
1.0
 43
0.0
 43
0.0
 43
0.0
 43
0.0
 43
1.0
 77
     0
 47
0.0208333333333333
 47
0.0
 47
0.0
 47
0.0
 47
0.0
 47
0.0208333333333333
 47
0.0
 47
0.0
 47
0.0
 47
0.0
 47
1.0
 47
0.0
 47
0.0
 47
0.0
 47
0.0
 47
1.0
171
     0
 49
0.0208333333333333
 49
0.0
 49
0.0
 49
0.0
 49
0.0
 49
0.0208333333333333
 49
0.0
 49
0.0
 49
0.0
 49
0.0
 49
1.0
 49
0.0
 49
0.0
 49
0.0
 49
0.0
 49
1.0
175
     0
142
0.0208333333333333
142
0.0
142
0.0
142
0.0
142
0.0
142
0.0208333333333333
142
0.0
142
0.0
142
0.0
142
0.0
142
1.0
142
0.0
142
0.0
142
0.0
142
0.0
142
1.0
179
     0
144
0.0208333333333333
144
0.0
144
0.0
144
0.0
144
0.0
144
0.0208333333333333
144
0.0
144
0.0
144
0.0
144
0.0
144
1.0
144
0.0
144
0.0
144
0.0
144
0.0
144
1.0
147
0.0208333333333333
147
0.0
147
0.0
147
0.0
147
0.0
147
0.0208333333333333
147
0.0
147
0.0
147
0.0
147
0.0
147
1.0
147
0.0
147
0.0
147
0.0
147
0.0
147
1.0
  0
MATERIAL
  5
6AF
102
{ACAD_XDICTIONARY
360
6B0
102
}
102
{ACAD_REACTORS
330
6AE
102
}
330
6AE
100
AcDbMaterial
  1
ByLayer
 72
     0
 43
0.0208333333333333
 43
0.0
 43
0.0
 43
0.0
 43
0.0
 43
0.0208333333333333
 43
0.0
 43
0.0
 43
0.0
 43
0.0
 43
1.0
 43
0.0
 43
0.0
 43
0.0
 43
0.0
 43
1.0
 77
     0
 47
0.0208333333333333
 47
0.0
 47
0.0
 47
0.0
 47
0.0
 47
0.0208333333333333
 47
0.0
 47
0.0
 47
0.0
 47
0.0
 47
1.0
 47
0.0
 47
0.0
 47
0.0
 47
0.0
 47
1.0
171
     0
 49
0.0208333333333333
 49
0.0
 49
0.0
 49
0.0
 49
0.0
 49
0.0208333333333333
 49
0.0
 49
0.0
 49
0.0
 49
0.0
 49
1.0
 49
0.0
 49
0.0
 49
0.0
 49
0.0
 49
1.0
175
     0
142
0.0208333333333333
142
0.0
142
0.0
142
0.0
142
0.0
142
0.0208333333333333
142
0.0
142
0.0
142
0.0
142
0.0
142
1.0
142
0.0
142
0.0
142
0.0
142
0.0
142
1.0
179
     0
144
0.0208333333333333
144
0.0
144
0.0
144
0.0
144
0.0
144
0.0208333333333333
144
0.0
144
0.0
144
0.0
144
0.0
144
1.0
144
0.0
144
0.0
144
0.0
144
0.0
144
1.0
147
0.0208333333333333
147
0.0
147
0.0
147
0.0
147
0.0
147
0.0208333333333333
147
0.0
147
0.0
147
0.0
147
0.0
147
1.0
147
0.0
147
0.0
147
0.0
147
0.0
147
1.0
  0
MATERIAL
  5
6BF
102
{ACAD_XDICTIONARY
360
6C0
102
}
102
{ACAD_REACTORS
330
6AE
102
}
330
6AE
100
AcDbMaterial
  1
Global
 72
     0
 43
0.0208333333333333
 43
0.0
 43
0.0
 43
0.0
 43
0.0
 43
0.0208333333333333
 43
0.0
 43
0.0
 43
0.0
 43
0.0
 43
1.0
 43
0.0
 43
0.0
 43
0.0
 43
0.0
 43
1.0
 77
     0
 47
0.0208333333333333
 47
0.0
 47
0.0
 47
0.0
 47
0.0
 47
0.0208333333333333
 47
0.0
 47
0.0
 47
0.0
 47
0.0
 47
1.0
 47
0.0
 47
0.0
 47
0.0
 47
0.0
 47
1.0
171
     0
 49
0.0208333333333333
 49
0.0
 49
0.0
 49
0.0
 49
0.0
 49
0.0208333333333333
 49
0.0
 49
0.0
 49
0.0
 49
0.0
 49
1.0
 49
0.0
 49
0.0
 49
0.0
 49
0.0
 49
1.0
175
     0
142
0.0208333333333333
142
0.0
142
0.0
142
0.0
142
0.0
142
0.0208333333333333
142
0.0
142
0.0
142
0.0
142
0.0
142
1.0
142
0.0
142
0.0
142
0.0
142
0.0
142
1.0
179
     0
144
0.0208333333333333
144
0.0
144
0.0
144
0.0
144
0.0
144
0.0208333333333333
144
0.0
144
0.0
144
0.0
144
0.0
144
1.0
144
0.0
144
0.0
144
0.0
144
0.0
144
1.0
147
0.0208333333333333
147
0.0
147
0.0
147
0.0
147
0.0
147
0.0208333333333333
147
0.0
147
0.0
147
0.0
147
0.0
147
1.0
147
0.0
147
0.0
147
0.0
147
0.0
147
1.0
  0
MLEADERSTYLE
  5
6E6
102
{ACAD_REACTORS
330
6E5
102
}
330
6E5
100
AcDbMLeaderStyle
179
     2
170
     2
171
     1
172
     0
 90
        2
 40
0.0
 41
0.0
173
     1
 91
-1056964608
340
14
 92
       -2
290
     1
 42
0.09
291
     1
 43
0.36
  3
Standard
 44
0.18
300

342
11
174
     1
178
     6
175
     1
176
     0
 93
-1056964608
 45
0.18
292
     0
297
     0
 46
0.18
 94
-1056964608
 47
1.0
 49
1.0
140
1.0
293
     1
141
0.0
294
     1
177
     0
142
1.0
295
     0
296
     0
143
0.125
271
     0
272
     9
273
     9
298
     0
  0
MLINESTYLE
  5
18
102
{ACAD_REACTORS
330
17
102
}
330
17
100
AcDbMlineStyle
  2
STANDARD
 70
     0
  3

 62
   256
 51
90.0
 52
90.0
 71
     2
 49
0.5
 62
   256
  6
BYLAYER
 49
-0.5
 62
   256
  6
BYLAYER
  0
ACDBPLACEHOLDER
  5
F
102
{ACAD_REACTORS
330
E
102
}
330
E
  0
SCALE
  5
6D4
102
{ACAD_REACTORS
330
6D3
102
}
330
6D3
100
AcDbScale
 70
     0
300
1:1
140
1.0
141
1.0
290
     1
  0
SCALE
  5
6D5
102
{ACAD_REACTORS
330
6D3
102
}
330
6D3
100
AcDbScale
 70
     0
300
1/128" = 1'-0"
140
0.0078125
141
12.0
290
     0
  0
SCALE
  5
6D6
102
{ACAD_REACTORS
330
6D3
102
}
330
6D3
100
AcDbScale
 70
     0
300
1/64" = 1'-0"
140
0.015625
141
12.0
290
     0
  0
SCALE
  5
6D7
102
{ACAD_REACTORS
330
6D3
102
}
330
6D3
100
AcDbScale
 70
     0
300
1/32" = 1'-0"
140
0.03125
141
12.0
290
     0
  0
SCALE
  5
6D8
102
{ACAD_REACTORS
330
6D3
102
}
330
6D3
100
AcDbScale
 70
     0
300
1/16" = 1'-0"
140
0.0625
141
12.0
290
     0
  0
SCALE
  5
6D9
102
{ACAD_REACTORS
330
6D3
102
}
330
6D3
100
AcDbScale
 70
     0
300
3/32" = 1'-0"
140
0.09375
141
12.0
290
     0
  0
SCALE
  5
6DA
102
{ACAD_REACTORS
330
6D3
102
}
330
6D3
100
AcDbScale
 70
     0
300
1/8" = 1'-0"
140
0.125
141
12.0
290
     0
  0
SCALE
  5
6DB
102
{ACAD_REACTORS
330
6D3
102
}
330
6D3
100
AcDbScale
 70
     0
300
3/16" = 1'-0"
140
0.1875
141
12.0
290
     0
  0
SCALE
  5
6DC
102
{ACAD_REACTORS
330
6D3
102
}
330
6D3
100
AcDbScale
 70
     0
300
1/4" = 1'-0"
140
0.25
141
12.0
290
     0
  0
SCALE
  5
6DD
102
{ACAD_REACTORS
330
6D3
102
}
330
6D3
100
AcDbScale
 70
     0
300
3/8" = 1'-0"
140
0.375
141
12.0
290
     0
  0
SCALE
  5
6DE
102
{ACAD_REACTORS
330
6D3
102
}
330
6D3
100
AcDbScale
 70
     0
300
1/2" = 1'-0"
140
0.5
141
12.0
290
     0
  0
SCALE
  5
6DF
102
{ACAD_REACTORS
330
6D3
102
}
330
6D3
100
AcDbScale
 70
     0
300
3/4" = 1'-0"
140
0.75
141
12.0
290
     0
  0
SCALE
  5
6E0
102
{ACAD_REACTORS
330
6D3
102
}
330
6D3
100
AcDbScale
 70
     0
300
1" = 1'-0"
140
1.0
141
12.0
290
     0
  0
SCALE
  5
6E1
102
{ACAD_REACTORS
330
6D3
102
}
330
6D3
100
AcDbScale
 70
     0
300
1-1/2" = 1'-0"
140
1.5
141
12.0
290
     0
  0
SCALE
  5
6E2
102
{ACAD_REACTORS
330
6D3
102
}
330
6D3
100
AcDbScale
 70
     0
300
3" = 1'-0"
140
3.0
141
12.0
290
     0
  0
SCALE
  5
6E3
102
{ACAD_REACTORS
330
6D3
102
}
330
6D3
100
AcDbScale
 70
     0
300
6" = 1'-0"
140
6.0
141
12.0
290
     0
  0
SCALE
  5
6E4
102
{ACAD_REACTORS
330
6D3
102
}
330
6D3
100
AcDbScale
 70
     0
300
1'-0" = 1'-0"
140
12.0
141
12.0
290
     0
  0
ACDBSECTIONVIEWSTYLE
  5
6E8
102
{ACAD_XDICTIONARY
360
70F
102
}
102
{ACAD_REACTORS
330
6E7
102
}
330
6E7
100
AcDbModelDocViewStyle
 70
     0
  3
Imperial24
290
     0
100
AcDbSectionViewStyle
 70
     0
 71
     0
 90
       78
 71
     1
340
11
 62
   256
 40
0.24
340
0
340
0
 62
   256
 40
0.24
300
I, O, Q, S, X, Z
 40
0.48
 90
        3
 40
0.18
 90
        1
 71
     2
340
16
 90
       25
 62
   256
340
16
 90
       50
 62
   256
 40
0.24
 40
0.0
 40
0.24
 71
     3
340
11
 62
   256
 40
0.24
 90
        1
 40
0.75
 90
        1
300
%<\AcVar ViewType \f "%tc1">% %<\AcVar ViewSectionStartId>%-%<\AcVar ViewSectionEndId>%\PSCALE %<\AcVar ViewScale \f "%sn">%
 71
     4
 62
   256
 62
   257
300
ANSI31
 40
1.0
 90
        0
290
     0
290
     0
 90
        6
 40
0.0
 40
1.570796326794896
 40
0.2617993877991494
 40
1.308996938995747
 40
-0.2617993877991494
 40
1.832595714594046
  0
TABLESTYLE
  5
6D2
102
{ACAD_XDICTIONARY
360
70D
102
}
102
{ACAD_REACTORS
330
6AB
102
}
330
6AB
100
AcDbTableStyle
280
     0
  3
Standard
 70
     0
 71
     0
 40
0.06
 41
0.06
280
     0
281
     0
  7
Standard
140
0.18
170
     2
 62
     0
 63
     7
283
     0
 90
      512
 91
        0
  1

274
    -2
284
     1
 64
     0
275
    -2
285
     1
 65
     0
276
    -2
286
     1
 66
     0
277
    -2
287
     1
 67
     0
278
    -2
288
     1
 68
     0
279
    -2
289
     1
 69
     0
  7
Standard
140
0.25
170
     5
 62
     0
 63
     7
283
     0
 90
      512
 91
        0
  1

274
    -2
284
     1
 64
     0
275
    -2
285
     1
 65
     0
276
    -2
286
     1
 66
     0
277
    -2
287
     1
 67
     0
278
    -2
288
     1
 68
     0
279
    -2
289
     1
 69
     0
  7
Standard
140
0.18
170
     5
 62
     0
 63
     7
283
     0
 90
      512
 91
        0
  1

274
    -2
284
     1
 64
     0
275
    -2
285
     1
 65
     0
276
    -2
286
     1
 66
     0
277
    -2
287
     1
 67
     0
278
    -2
288
     1
 68
     0
279
    -2
289
     1
 69
     0
  0
VISUALSTYLE
  5
2F
102
{ACAD_REACTORS
330
2A
102
}
330
2A
100
AcDbVisualStyle
  2

 70
     4
177
     3
291
     0
 70
    58
 90
        0
176
     1
 90
        2
176
     1
 90
        0
176
     1
 90
        0
176
     1
 40
0.6
176
     1
 40
30.0
176
     1
 62
     7
420
 16777215
176
     1
 90
        1
176
     1
 90
        4
176
     1
 62
     7
176
     1
 62
   257
176
     1
 90
        1
176
     1
 90
        1
176
     1
 40
1.0
176
     1
 90
        0
176
     1
 62
   257
176
     1
 40
1.0
176
     1
 90
        1
176
     1
 90
        6
176
     1
 90
        2
176
     1
 62
     7
176
     1
 90
        5
176
     1
 90
        0
176
     1
 90
        0
176
     1
290
     0
176
     1
 90
        1
176
     1
 40
0.0
176
     1
 90
        0
176
     1
290
     1
176
     1
290
     1
176
     1
290
     0
176
     1
290
     0
176
     1
290
     0
176
     1
290
     0
176
     1
290
     0
176
     1
290
     0
176
     1
290
     0
176
     1
 90
       50
176
     1
 40
0.0
176
     1
 40
1.0
176
     1
 90
        0
176
     1
 62
    18
420
        0
176
     1
 90
       50
176
     1
 90
        3
176
     1
 62
     5
420
      255
176
     1
290
     0
176
     1
 90
       50
176
     1
 90
       50
176
     1
 90
       50
176
     1
290
     0
176
     1
 90
       50
176
     1
 62
   256
176
     0
 40
1.0
176
     0
 90
        2
176
     1
  1
strokes_ogs.tif
176
     1
290
     0
176
     1
 40
1.0
176
     1
 40
1.0
176
     1
1001
ACAD
1000
AcDbSavedByObjectVersion
1070
     0
  0
VISUALSTYLE
  5
31
102
{ACAD_REACTORS
330
2A
102
}
330
2A
100
AcDbVisualStyle
  2

 70
     6
177
     3
291
     0
 70
    58
 90
        1
176
     1
 90
        2
176
     1
 90
        2
176
     1
 90
        0
176
     1
 40
0.6
176
     1
 40
30.0
176
     1
 62
     7
420
 16777215
176
     1
 90
        2
176
     1
 90
        2
176
     1
 62
     7
176
     1
 62
   257
176
     1
 90
        2
176
     1
 90
        1
176
     1
 40
40.0
176
     1
 90
        0
176
     1
 62
   257
176
     1
 40
1.0
176
     1
 90
        1
176
     1
 90
        6
176
     1
 90
        2
176
     1
 62
     7
176
     1
 90
        3
176
     1
 90
        0
176
     1
 90
        0
176
     1
290
     0
176
     1
 90
        1
176
     1
 40
0.0
176
     1
 90
        0
176
     1
290
     0
176
     1
290
     1
176
     1
290
     1
176
     1
290
     0
176
     1
290
     0
176
     1
290
     0
176
     1
290
     0
176
     1
290
     0
176
     1
290
     0
176
     1
 90
       50
176
     1
 40
0.0
176
     1
 40
1.0
176
     1
 90
        0
176
     1
 62
    18
420
        0
176
     1
 90
       50
176
     1
 90
        3
176
     1
 62
     5
420
      255
176
     1
290
     0
176
     1
 90
       50
176
     1
 90
       50
176
     1
 90
       50
176
     1
290
     0
176
     1
 90
       50
176
     1
 62
   256
176
     0
 40
1.0
176
     0
 90
        2
176
     1
  1
strokes_ogs.tif
176
     1
290
     0
176
     1
 40
1.0
176
     1
 40
1.0
176
     1
1001
ACAD
1000
AcDbSavedByObjectVersion
1070
     0
  0
VISUALSTYLE
  5
30
102
{ACAD_REACTORS
330
2A
102
}
330
2A
100
AcDbVisualStyle
  2

 70
     5
177
     3
291
     0
 70
    58
 90
        0
176
     1
 90
        2
176
     1
 90
        0
176
     1
 90
        0
176
     1
 40
0.6
176
     1
 40
30.0
176
     1
 62
     7
420
 16777215
176
     1
 90
        1
176
     1
 90
        4
176
     1
 62
     7
176
     1
 62
   257
176
     1
 90
        1
176
     1
 90
        1
176
     1
 40
1.0
176
     1
 90
        0
176
     1
 62
   257
176
     1
 40
1.0
176
     1
 90
        1
176
     1
 90
        6
176
     1
 90
        2
176
     1
 62
     7
176
     1
 90
        5
176
     1
 90
        0
176
     1
 90
        0
176
     1
290
     0
176
     1
 90
        1
176
     1
 40
0.0
176
     1
 90
        0
176
     1
290
     0
176
     1
290
     1
176
     1
290
     1
176
     1
290
     0
176
     1
290
     0
176
     1
290
     0
176
     1
290
     0
176
     1
290
     0
176
     1
290
     0
176
     1
 90
       50
176
     1
 40
0.0
176
     1
 40
1.0
176
     1
 90
        0
176
     1
 62
    18
420
        0
176
     1
 90
       50
176
     1
 90
        3
176
     1
 62
     5
420
      255
176
     1
290
     0
176
     1
 90
       50
176
     1
 90
       50
176
     1
 90
       50
176
     1
290
     0
176
     1
 90
       50
176
     1
 62
   256
176
     0
 40
1.0
176
     0
 90
        2
176
     1
  1
strokes_ogs.tif
176
     1
290
     0
176
     1
 40
1.0
176
     1
 40
1.0
176
     1
1001
ACAD
1000
AcDbSavedByObjectVersion
1070
     0
  0
VISUALSTYLE
  5
32
102
{ACAD_REACTORS
330
2A
102
}
330
2A
100
AcDbVisualStyle
  2

 70
     7
177
     3
291
     1
 70
    58
 90
        1
176
     1
 90
        0
176
     1
 90
        1
176
     1
 90
        0
176
     1
 40
0.6
176
     1
 40
30.0
176
     1
 62
     7
420
 16777215
176
     1
 90
        0
176
     1
 90
        4
176
     1
 62
     7
176
     1
 62
   257
176
     1
 90
        1
176
     1
 90
        1
176
     1
 40
1.0
176
     1
 90
        8
176
     1
 62
     7
176
     1
 40
1.0
176
     1
 90
        1
176
     1
 90
        6
176
     1
 90
        2
176
     1
 62
     7
176
     1
 90
        5
176
     1
 90
        0
176
     1
 90
        0
176
     1
290
     0
176
     1
 90
        1
176
     1
 40
0.0
176
     1
 90
        0
176
     1
290
     0
176
     1
290
     1
176
     1
290
     1
176
     1
290
     0
176
     1
290
     0
176
     1
290
     0
176
     1
290
     0
176
     1
290
     0
176
     1
290
     0
176
     1
 90
       50
176
     1
 40
0.0
176
     1
 40
1.0
176
     1
 90
        0
176
     1
 62
    18
420
        0
176
     1
 90
       50
176
     1
 90
        3
176
     1
 62
     5
420
      255
176
     1
290
     0
176
     1
 90
       50
176
     1
 90
       50
176
     1
 90
       50
176
     1
290
     0
176
     1
 90
       50
176
     1
 62
   256
176
     0
 40
1.0
176
     0
 90
        2
176
     1
  1
strokes_ogs.tif
176
     1
290
     0
176
     1
 40
1.0
176
     1
 40
1.0
176
     1
1001
ACAD
1000
AcDbSavedByObjectVersion
1070
     0
  0
VISUALSTYLE
  5
36
102
{ACAD_REACTORS
330
2A
102
}
330
2A
100
AcDbVisualStyle
  2

 70
    12
177
     3
291
     1
 70
    58
 90
        2
176
     1
 90
        2
176
     1
 90
        0
176
     1
 90
        0
176
     1
 40
0.6
176
     1
 40
30.0
176
     1
 62
     7
420
 16777215
176
     1
 90
        1
176
     1
 90
        4
176
     1
 62
     7
176
     1
 62
   257
176
     1
 90
        1
176
     1
 90
        1
176
     1
 40
1.0
176
     1
 90
        8
176
     1
 62
     7
176
     1
 40
1.0
176
     1
 90
        1
176
     1
 90
        6
176
     1
 90
        2
176
     1
 62
     7
176
     1
 90
        5
176
     1
 90
        0
176
     1
 90
        0
176
     1
290
     0
176
     1
 90
        1
176
     1
 40
50.0
176
     1
 90
        0
176
     1
290
     0
176
     1
290
     1
176
     1
290
     1
176
     1
290
     0
176
     1
290
     0
176
     1
290
     0
176
     1
290
     0
176
     1
290
     0
176
     1
290
     0
176
     1
 90
       50
176
     1
 40
0.0
176
     1
 40
1.0
176
     1
 90
        0
176
     1
 62
    18
420
        0
176
     1
 90
       50
176
     1
 90
        3
176
     1
 62
     5
420
      255
176
     1
290
     0
176
     1
 90
       50
176
     1
 90
       50
176
     1
 90
       50
176
     1
290
     0
176
     1
 90
       50
176
     1
 62
   256
176
     0
 40
1.0
176
     0
 90
        2
176
     1
  1
strokes_ogs.tif
176
     1
290
     0
176
     1
 40
1.0
176
     1
 40
1.0
176
     1
1001
ACAD
1000
AcDbSavedByObjectVersion
1070
     0
  0
VISUALSTYLE
  5
3A
102
{ACAD_REACTORS
330
2A
102
}
330
2A
100
AcDbVisualStyle
  2

 70
    16
177
     3
291
     1
 70
    58
 90
        2
176
     1
 90
        2
176
     1
 90
        3
176
     1
 90
        0
176
     1
 40
0.6
176
     1
 40
30.0
176
     1
 62
     8
420
  8421504
176
     1
 90
        1
176
     1
 90
        4
176
     1
 62
     7
176
     1
 62
   257
176
     1
 90
        1
176
     1
 90
        1
176
     1
 40
1.0
176
     1
 90
        8
176
     1
 62
     8
420
  8421504
176
     1
 40
1.0
176
     1
 90
        1
176
     1
 90
        6
176
     1
 90
        2
176
     1
 62
     7
176
     1
 90
        5
176
     1
 90
        0
176
     1
 90
        0
176
     1
290
     0
176
     1
 90
        1
176
     1
 40
0.0
176
     1
 90
        0
176
     1
290
     0
176
     1
290
     1
176
     1
290
     1
176
     1
290
     0
176
     1
290
     0
176
     1
290
     0
176
     1
290
     0
176
     1
290
     0
176
     1
290
     0
176
     1
 90
       50
176
     1
 40
0.0
176
     1
 40
1.0
176
     1
 90
        0
176
     1
 62
    18
420
        0
176
     1
 90
       50
176
     1
 90
        3
176
     1
 62
     5
420
      255
176
     1
290
     0
176
     1
 90
       50
176
     1
 90
       50
176
     1
 90
       50
176
     1
290
     0
176
     1
 90
       50
176
     1
 62
   256
176
     0
 40
1.0
176
     0
 90
        2
176
     1
  1
strokes_ogs.tif
176
     1
290
     0
176
     1
 40
1.0
176
     1
 40
1.0
176
     1
1001
ACAD
1000
AcDbSavedByObjectVersion
1070
     0
  0
VISUALSTYLE
  5
34
102
{ACAD_REACTORS
330
2A
102
}
330
2A
100
AcDbVisualStyle
  2

 70
     9
177
     3
291
     0
 70
    58
 90
        3
176
     1
 90
        2
176
     1
 90
        0
176
     1
 90
        0
176
     1
 40
0.6
176
     1
 40
30.0
176
     1
 62
     7
420
 16777215
176
     1
 90
        2
176
     1
 90
        2
176
     1
 62
     7
176
     1
 62
   257
176
     1
 90
        1
176
     1
 90
        1
176
     1
 40
40.0
176
     1
 90
        8
176
     1
 62
     7
176
     1
 40
1.0
176
     1
 90
        1
176
     1
 90
        6
176
     1
 90
        2
176
     1
 62
     7
176
     1
 90
        3
176
     1
 90
        0
176
     1
 90
        0
176
     1
290
     0
176
     1
 90
        1
176
     1
 40
0.0
176
     1
 90
        0
176
     1
290
     0
176
     1
290
     1
176
     1
290
     1
176
     1
290
     0
176
     1
290
     0
176
     1
290
     0
176
     1
290
     0
176
     1
290
     0
176
     1
290
     0
176
     1
 90
       50
176
     1
 40
0.0
176
     1
 40
1.0
176
     1
 90
        0
176
     1
 62
    18
420
        0
176
     1
 90
       50
176
     1
 90
        3
176
     1
 62
     5
420
      255
176
     1
290
     0
176
     1
 90
       50
176
     1
 90
       50
176
     1
 90
       50
176
     1
290
     0
176
     1
 90
       50
176
     1
 62
   256
176
     0
 40
1.0
176
     0
 90
        2
176
     1
  1
strokes_ogs.tif
176
     1
290
     0
176
     1
 40
1.0
176
     1
 40
1.0
176
     1
1001
ACAD
1000
AcDbSavedByObjectVersion
1070
     0
  0
VISUALSTYLE
  5
35
102
{ACAD_REACTORS
330
2A
102
}
330
2A
100
AcDbVisualStyle
  2

 70
    11
177
     3
291
     1
 70
    58
 90
        2
176
     1
 90
        2
176
     1
 90
        0
176
     1
 90
        0
176
     1
 40
0.6
176
     1
 40
30.0
176
     1
 62
     7
420
 16777215
176
     1
 90
        1
176
     1
 90
        4
176
     1
 62
     7
176
     1
 62
   257
176
     1
 90
        1
176
     1
 90
        1
176
     1
 40
1.0
176
     1
 90
        8
176
     1
 62
     7
176
     1
 40
1.0
176
     1
 90
        1
176
     1
 90
        6
176
     1
 90
        2
176
     1
 62
     7
176
     1
 90
        5
176
     1
 90
        0
176
     1
 90
        0
176
     1
290
     0
176
     1
 90
        1
176
     1
 40
-50.0
176
     1
 90
        0
176
     1
290
     0
176
     1
290
     1
176
     1
290
     1
176
     1
290
     0
176
     1
290
     0
176
     1
290
     0
176
     1
290
     0
176
     1
290
     0
176
     1
290
     0
176
     1
 90
       50
176
     1
 40
0.0
176
     1
 40
1.0
176
     1
 90
        0
176
     1
 62
    18
420
        0
176
     1
 90
       50
176
     1
 90
        3
176
     1
 62
     5
420
      255
176
     1
290
     0
176
     1
 90
       50
176
     1
 90
       50
176
     1
 90
       50
176
     1
290
     0
176
     1
 90
       50
176
     1
 62
   256
176
     0
 40
1.0
176
     0
 90
        2
176
     1
  1
strokes_ogs.tif
176
     1
290
     0
176
     1
 40
1.0
176
     1
 40
1.0
176
     1
1001
ACAD
1000
AcDbSavedByObjectVersion
1070
     0
  0
VISUALSTYLE
  5
6D0
102
{ACAD_REACTORS
330
2A
102
}
330
2A
100
AcDbVisualStyle
  2
EdgeColorOff
 70
    22
177
     3
291
     1
 70
    58
 90
        2
176
     0
 90
        2
176
     0
 90
        0
176
     0
 90
        0
176
     0
 40
0.6
176
     0
 40
30.0
176
     0
 62
     7
420
 16777215
176
     0
 90
        1
176
     0
 90
        4
176
     0
 62
     7
176
     0
 62
   257
176
     0
 90
        1
176
     0
 90
        1
176
     0
 40
1.0
176
     0
 90
        8
176
     2
 62
     7
176
     0
 40
1.0
176
     0
 90
        1
176
     0
 90
        6
176
     0
 90
        2
176
     0
 62
     7
176
     0
 90
        5
176
     0
 90
        0
176
     0
 90
        0
176
     0
290
     0
176
     0
 90
        1
176
     0
 40
0.0
176
     0
 90
        0
176
     0
290
     0
176
     1
290
     1
176
     1
290
     1
176
     1
290
     0
176
     1
290
     0
176
     1
290
     0
176
     1
290
     0
176
     1
290
     0
176
     1
290
     0
176
     1
 90
       50
176
     0
 40
0.0
176
     0
 40
1.0
176
     0
 90
        0
176
     0
 62
    18
420
        0
176
     0
 90
       50
176
     0
 90
        3
176
     0
 62
     5
420
      255
176
     0
290
     0
176
     1
 90
       50
176
     0
 90
       50
176
     0
 90
       50
176
     0
290
     0
176
     1
 90
       50
176
     0
 62
   256
176
     0
 40
1.0
176
     0
 90
        2
176
     0
  1
strokes_ogs.tif
176
     0
290
     0
176
     1
 40
1.0
176
     0
 40
1.0
176
     0
  0
VISUALSTYLE
  5
39
102
{ACAD_REACTORS
330
2A
102
}
330
2A
100
AcDbVisualStyle
  2

 70
    15
177
     3
291
     1
 70
    58
 90
        2
176
     1
 90
        2
176
     1
 90
        0
176
     1
 90
        0
176
     1
 40
0.6
176
     1
 40
30.0
176
     1
 62
     7
420
 16777215
176
     1
 90
        1
176
     1
 90
        4
176
     1
 62
     7
176
     1
 62
   257
176
     1
 90
        1
176
     1
 90
        1
176
     1
 40
1.0
176
     1
 90
        8
176
     1
 62
     7
176
     1
 40
1.0
176
     1
 90
        1
176
     1
 90
        6
176
     1
 90
        2
176
     1
 62
     7
176
     1
 90
        5
176
     1
 90
        0
176
     1
 90
        0
176
     1
290
     0
176
     1
 90
        1
176
     1
 40
0.0
176
     1
 90
        0
176
     1
290
     0
176
     1
290
     1
176
     1
290
     1
176
     1
290
     0
176
     1
290
     0
176
     1
290
     0
176
     1
290
     0
176
     1
290
     0
176
     1
290
     0
176
     1
 90
       50
176
     1
 40
0.0
176
     1
 40
1.0
176
     1
 90
        0
176
     1
 62
    18
420
        0
176
     1
 90
       50
176
     1
 90
        3
176
     1
 62
     5
420
      255
176
     1
290
     0
176
     1
 90
       50
176
     1
 90
       50
176
     1
 90
       50
176
     1
290
     0
176
     1
 90
       50
176
     1
 62
   256
176
     0
 40
1.0
176
     0
 90
        2
176
     1
  1
strokes_ogs.tif
176
     1
290
     0
176
     1
 40
1.0
176
     1
 40
1.0
176
     1
1001
ACAD
1000
AcDbSavedByObjectVersion
1070
     0
  0
VISUALSTYLE
  5
2B
102
{ACAD_REACTORS
330
2A
102
}
330
2A
100
AcDbVisualStyle
  2

 70
     0
177
     3
291
     1
 70
    58
 90
        2
176
     1
 90
        1
176
     1
 90
        1
176
     1
 90
        2
176
     1
 40
0.6
176
     1
 40
30.0
176
     1
 62
     7
420
 16777215
176
     1
 90
        0
176
     1
 90
        4
176
     1
 62
     7
176
     1
 62
   257
176
     1
 90
        1
176
     1
 90
        1
176
     1
 40
1.0
176
     1
 90
        8
176
     1
 62
     7
176
     1
 40
1.0
176
     1
 90
        1
176
     1
 90
        6
176
     1
 90
        2
176
     1
 62
     7
176
     1
 90
        5
176
     1
 90
        0
176
     1
 90
        0
176
     1
290
     0
176
     1
 90
       13
176
     1
 40
0.0
176
     1
 90
        0
176
     1
290
     0
176
     1
290
     1
176
     1
290
     1
176
     1
290
     0
176
     1
290
     0
176
     1
290
     0
176
     1
290
     0
176
     1
290
     0
176
     1
290
     0
176
     1
 90
       50
176
     1
 40
0.0
176
     1
 40
1.0
176
     1
 90
        0
176
     1
 62
    18
420
        0
176
     1
 90
       50
176
     1
 90
        3
176
     1
 62
     5
420
      255
176
     1
290
     0
176
     1
 90
       50
176
     1
 90
       50
176
     1
 90
       50
176
     1
290
     0
176
     1
 90
       50
176
     1
 62
   256
176
     0
 40
1.0
176
     0
 90
        2
176
     1
  1
strokes_ogs.tif
176
     1
290
     0
176
     1
 40
1.0
176
     1
 40
1.0
176
     1
1001
ACAD
1000
AcDbSavedByObjectVersion
1070
     0
  0
VISUALSTYLE
  5
2C
102
{ACAD_REACTORS
330
2A
102
}
330
2A
100
AcDbVisualStyle
  2

 70
     1
177
     3
291
     1
 70
    58
 90
        2
176
     1
 90
        1
176
     1
 90
        1
176
     1
 90
        2
176
     1
 40
0.6
176
     1
 40
30.0
176
     1
 62
     7
420
 16777215
176
     1
 90
        1
176
     1
 90
        4
176
     1
 62
     7
176
     1
 62
   257
176
     1
 90
        1
176
     1
 90
        1
176
     1
 40
1.0
176
     1
 90
        0
176
     1
 62
   257
176
     1
 40
1.0
176
     1
 90
        1
176
     1
 90
        6
176
     1
 90
        2
176
     1
 62
     7
176
     1
 90
        5
176
     1
 90
        0
176
     1
 90
        0
176
     1
290
     0
176
     1
 90
       13
176
     1
 40
0.0
176
     1
 90
        0
176
     1
290
     0
176
     1
290
     1
176
     1
290
     1
176
     1
290
     0
176
     1
290
     0
176
     1
290
     0
176
     1
290
     0
176
     1
290
     0
176
     1
290
     0
176
     1
 90
       50
176
     1
 40
0.0
176
     1
 40
1.0
176
     1
 90
        0
176
     1
 62
    18
420
        0
176
     1
 90
       50
176
     1
 90
        3
176
     1
 62
     5
420
      255
176
     1
290
     0
176
     1
 90
       50
176
     1
 90
       50
176
     1
 90
       50
176
     1
290
     0
176
     1
 90
       50
176
     1
 62
   256
176
     0
 40
1.0
176
     0
 90
        2
176
     1
  1
strokes_ogs.tif
176
     1
290
     0
176
     1
 40
1.0
176
     1
 40
1.0
176
     1
1001
ACAD
1000
AcDbSavedByObjectVersion
1070
     0
  0
VISUALSTYLE
  5
2D
102
{ACAD_REACTORS
330
2A
102
}
330
2A
100
AcDbVisualStyle
  2

 70
     2
177
     3
291
     1
 70
    58
 90
        2
176
     1
 90
        2
176
     1
 90
        1
176
     1
 90
        2
176
     1
 40
0.6
176
     1
 40
30.0
176
     1
 62
     7
420
 16777215
176
     1
 90
        0
176
     1
 90
        4
176
     1
 62
     7
176
     1
 62
   257
176
     1
 90
        1
176
     1
 90
        1
176
     1
 40
1.0
176
     1
 90
        0
176
     1
 62
     7
176
     1
 40
1.0
176
     1
 90
        1
176
     1
 90
        6
176
     1
 90
        2
176
     1
 62
     7
176
     1
 90
        5
176
     1
 90
        0
176
     1
 90
        0
176
     1
290
     0
176
     1
 90
       13
176
     1
 40
0.0
176
     1
 90
        0
176
     1
290
     0
176
     1
290
     1
176
     1
290
     1
176
     1
290
     0
176
     1
290
     0
176
     1
290
     0
176
     1
290
     0
176
     1
290
     0
176
     1
290
     0
176
     1
 90
       50
176
     1
 40
0.0
176
     1
 40
1.0
176
     1
 90
        0
176
     1
 62
    18
420
        0
176
     1
 90
       50
176
     1
 90
        3
176
     1
 62
     5
420
      255
176
     1
290
     0
176
     1
 90
       50
176
     1
 90
       50
176
     1
 90
       50
176
     1
290
     0
176
     1
 90
       50
176
     1
 62
   256
176
     0
 40
1.0
176
     0
 90
        2
176
     1
  1
strokes_ogs.tif
176
     1
290
     0
176
     1
 40
1.0
176
     1
 40
1.0
176
     1
1001
ACAD
1000
AcDbSavedByObjectVersion
1070
     0
  0
VISUALSTYLE
  5
2E
102
{ACAD_REACTORS
330
2A
102
}
330
2A
100
AcDbVisualStyle
  2

 70
     3
177
     3
291
     1
 70
    58
 90
        2
176
     1
 90
        2
176
     1
 90
        1
176
     1
 90
        2
176
     1
 40
0.6
176
     1
 40
30.0
176
     1
 62
     7
420
 16777215
176
     1
 90
        1
176
     1
 90
        4
176
     1
 62
     7
176
     1
 62
   257
176
     1
 90
        1
176
     1
 90
        1
176
     1
 40
1.0
176
     1
 90
        0
176
     1
 62
   257
176
     1
 40
1.0
176
     1
 90
        1
176
     1
 90
        6
176
     1
 90
        2
176
     1
 62
     7
176
     1
 90
        5
176
     1
 90
        0
176
     1
 90
        0
176
     1
290
     0
176
     1
 90
       13
176
     1
 40
0.0
176
     1
 90
        0
176
     1
290
     0
176
     1
290
     1
176
     1
290
     1
176
     1
290
     0
176
     1
290
     0
176
     1
290
     0
176
     1
290
     0
176
     1
290
     0
176
     1
290
     0
176
     1
 90
       50
176
     1
 40
0.0
176
     1
 40
1.0
176
     1
 90
        0
176
     1
 62
    18
420
        0
176
     1
 90
       50
176
     1
 90
        3
176
     1
 62
     5
420
      255
176
     1
290
     0
176
     1
 90
       50
176
     1
 90
       50
176
     1
 90
       50
176
     1
290
     0
176
     1
 90
       50
176
     1
 62
   256
176
     0
 40
1.0
176
     0
 90
        2
176
     1
  1
strokes_ogs.tif
176
     1
290
     0
176
     1
 40
1.0
176
     1
 40
1.0
176
     1
1001
ACAD
1000
AcDbSavedByObjectVersion
1070
     0
  0
VISUALSTYLE
  5
6C8
102
{ACAD_REACTORS
330
2A
102
}
330
2A
100
AcDbVisualStyle
  2
Hidden
 70
     6
177
     3
291
     0
 70
    58
 90
        1
176
     1
 90
        2
176
     1
 90
        2
176
     1
 90
        0
176
     1
 40
0.6
176
     1
 40
30.0
176
     1
 62
     7
420
 16777215
176
     1
 90
        2
176
     1
 90
        2
176
     1
 62
     7
176
     1
 62
   257
176
     1
 90
        2
176
     1
 90
        1
176
     1
 40
40.0
176
     1
 90
        0
176
     1
 62
   257
176
     1
 40
1.0
176
     1
 90
        1
176
     1
 90
        6
176
     1
 90
        2
176
     1
 62
     7
176
     1
 90
        3
176
     1
 90
        0
176
     1
 90
        0
176
     1
290
     0
176
     1
 90
        1
176
     1
 40
0.0
176
     1
 90
        0
176
     1
290
     0
176
     1
290
     1
176
     1
290
     1
176
     1
290
     0
176
     1
290
     0
176
     1
290
     0
176
     1
290
     0
176
     1
290
     0
176
     1
290
     0
176
     1
 90
       50
176
     1
 40
0.0
176
     1
 40
1.0
176
     1
 90
        0
176
     1
 62
    18
420
        0
176
     1
 90
       50
176
     1
 90
        3
176
     1
 62
     5
420
      255
176
     1
290
     0
176
     1
 90
       50
176
     1
 90
       50
176
     1
 90
       50
176
     1
290
     0
176
     1
 90
       50
176
     1
 62
   256
176
     0
 40
1.0
176
     0
 90
        2
176
     1
  1
strokes_ogs.tif
176
     1
290
     0
176
     1
 40
1.0
176
     1
 40
1.0
176
     1
  0
VISUALSTYLE
  5
6CE
102
{ACAD_REACTORS
330
2A
102
}
330
2A
100
AcDbVisualStyle
  2
JitterOff
 70
    20
177
     3
291
     1
 70
    58
 90
        2
176
     0
 90
        2
176
     0
 90
        0
176
     0
 90
        0
176
     0
 40
0.6
176
     0
 40
30.0
176
     0
 62
     7
420
 16777215
176
     0
 90
        1
176
     0
 90
        4
176
     0
 62
     7
176
     0
 62
   257
176
     0
 90
        1
176
     0
 90
        1
176
     0
 40
1.0
176
     0
 90
       10
176
     2
 62
     7
176
     0
 40
1.0
176
     0
 90
        1
176
     0
 90
        6
176
     0
 90
        2
176
     0
 62
     7
176
     0
 90
        5
176
     0
 90
        0
176
     0
 90
        0
176
     0
290
     0
176
     0
 90
        1
176
     0
 40
0.0
176
     0
 90
        0
176
     0
290
     0
176
     1
290
     1
176
     1
290
     1
176
     1
290
     0
176
     1
290
     0
176
     1
290
     0
176
     1
290
     0
176
     1
290
     0
176
     1
290
     0
176
     1
 90
       50
176
     0
 40
0.0
176
     0
 40
1.0
176
     0
 90
        0
176
     0
 62
    18
420
        0
176
     0
 90
       50
176
     0
 90
        3
176
     0
 62
     5
420
      255
176
     0
290
     0
176
     1
 90
       50
176
     0
 90
       50
176
     0
 90
       50
176
     0
290
     0
176
     1
 90
       50
176
     0
 62
   256
176
     0
 40
1.0
176
     0
 90
        2
176
     0
  1
strokes_ogs.tif
176
     0
290
     0
176
     1
 40
1.0
176
     0
 40
1.0
176
     0
  0
VISUALSTYLE
  5
38
102
{ACAD_REACTORS
330
2A
102
}
330
2A
100
AcDbVisualStyle
  2

 70
    14
177
     3
291
     1
 70
    58
 90
        2
176
     1
 90
        2
176
     1
 90
        0
176
     1
 90
        0
176
     1
 40
0.6
176
     1
 40
30.0
176
     1
 62
     7
420
 16777215
176
     1
 90
        1
176
     1
 90
        4
176
     1
 62
     7
176
     1
 62
   257
176
     1
 90
        7
176
     1
 90
        7
176
     1
 40
1.0
176
     1
 90
        8
176
     1
 62
     7
176
     1
 40
1.0
176
     1
 90
        1
176
     1
 90
        6
176
     1
 90
        2
176
     1
 62
     7
176
     1
 90
        5
176
     1
 90
        0
176
     1
 90
        0
176
     1
290
     0
176
     1
 90
        1
176
     1
 40
0.0
176
     1
 90
        0
176
     1
290
     0
176
     1
290
     1
176
     1
290
     1
176
     1
290
     0
176
     1
290
     0
176
     1
290
     0
176
     1
290
     0
176
     1
290
     0
176
     1
290
     0
176
     1
 90
       50
176
     1
 40
0.0
176
     1
 40
1.0
176
     1
 90
        0
176
     1
 62
    18
420
        0
176
     1
 90
       50
176
     1
 90
        3
176
     1
 62
     5
420
      255
176
     1
290
     0
176
     1
 90
       50
176
     1
 90
       50
176
     1
 90
       50
176
     1
290
     0
176
     1
 90
       50
176
     1
 62
   256
176
     0
 40
1.0
176
     0
 90
        2
176
     1
  1
strokes_ogs.tif
176
     1
290
     0
176
     1
 40
1.0
176
     1
 40
1.0
176
     1
1001
ACAD
1000
AcDbSavedByObjectVersion
1070
     0
  0
VISUALSTYLE
  5
6CF
102
{ACAD_REACTORS
330
2A
102
}
330
2A
100
AcDbVisualStyle
  2
OverhangOff
 70
    21
177
     3
291
     1
 70
    58
 90
        2
176
     0
 90
        2
176
     0
 90
        0
176
     0
 90
        0
176
     0
 40
0.6
176
     0
 40
30.0
176
     0
 62
     7
420
 16777215
176
     0
 90
        1
176
     0
 90
        4
176
     0
 62
     7
176
     0
 62
   257
176
     0
 90
        1
176
     0
 90
        1
176
     0
 40
1.0
176
     0
 90
        9
176
     2
 62
     7
176
     0
 40
1.0
176
     0
 90
        1
176
     0
 90
        6
176
     0
 90
        2
176
     0
 62
     7
176
     0
 90
        5
176
     0
 90
        0
176
     0
 90
        0
176
     0
290
     0
176
     0
 90
        1
176
     0
 40
0.0
176
     0
 90
        0
176
     0
290
     0
176
     1
290
     1
176
     1
290
     1
176
     1
290
     0
176
     1
290
     0
176
     1
290
     0
176
     1
290
     0
176
     1
290
     0
176
     1
290
     0
176
     1
 90
       50
176
     0
 40
0.0
176
     0
 40
1.0
176
     0
 90
        0
176
     0
 62
    18
420
        0
176
     0
 90
       50
176
     0
 90
        3
176
     0
 62
     5
420
      255
176
     0
290
     0
176
     1
 90
       50
176
     0
 90
       50
176
     0
 90
       50
176
     0
290
     0
176
     1
 90
       50
176
     0
 62
   256
176
     0
 40
1.0
176
     0
 90
        2
176
     0
  1
strokes_ogs.tif
176
     0
290
     0
176
     1
 40
1.0
176
     0
 40
1.0
176
     0
  0
VISUALSTYLE
  5
33
102
{ACAD_REACTORS
330
2A
102
}
330
2A
100
AcDbVisualStyle
  2

 70
     8
177
     3
291
     0
 70
    58
 90
        2
176
     1
 90
        2
176
     1
 90
        0
176
     1
 90
        0
176
     1
 40
0.6
176
     1
 40
30.0
176
     1
 62
     7
420
 16777215
176
     1
 90
        1
176
     1
 90
        0
176
     1
 62
     7
176
     1
 62
   257
176
     1
 90
        1
176
     1
 90
        1
176
     1
 40
1.0
176
     1
 90
        8
176
     1
 62
     8
420
  7895160
176
     1
 40
1.0
176
     1
 90
        1
176
     1
 90
        6
176
     1
 90
        2
176
     1
 62
     7
176
     1
 90
        5
176
     1
 90
        0
176
     1
 90
        0
176
     1
290
     0
176
     1
 90
       13
176
     1
 40
0.0
176
     1
 90
        0
176
     1
290
     0
176
     1
290
     1
176
     1
290
     1
176
     1
290
     0
176
     1
290
     0
176
     1
290
     0
176
     1
290
     0
176
     1
290
     0
176
     1
290
     0
176
     1
 90
       50
176
     1
 40
0.0
176
     1
 40
1.0
176
     1
 90
        0
176
     1
 62
    18
420
        0
176
     1
 90
       50
176
     1
 90
        3
176
     1
 62
     5
420
      255
176
     1
290
     0
176
     1
 90
       50
176
     1
 90
       50
176
     1
 90
       50
176
     1
290
     0
176
     1
 90
       50
176
     1
 62
   256
176
     0
 40
1.0
176
     0
 90
        2
176
     1
  1
strokes_ogs.tif
176
     1
290
     0
176
     1
 40
1.0
176
     1
 40
1.0
176
     1
1001
ACAD
1000
AcDbSavedByObjectVersion
1070
     0
  0
VISUALSTYLE
  5
6CD
102
{ACAD_REACTORS
330
2A
102
}
330
2A
100
AcDbVisualStyle
  2
Shaded
 70
    27
177
     3
291
     0
 70
    58
 90
        2
176
     1
 90
        2
176
     1
 90
        1
176
     1
 90
        2
176
     1
 40
0.6
176
     1
 40
30.0
176
     1
 62
     7
420
 16777215
176
     1
 90
        0
176
     1
 90
        4
176
     1
 62
     7
176
     1
 62
   257
176
     1
 90
        1
176
     1
 90
        1
176
     1
 40
1.0
176
     1
 90
        8
176
     1
 62
   257
176
     1
 40
1.0
176
     1
 90
        1
176
     1
 90
        6
176
     1
 90
        2
176
     1
 62
     8
420
  7895160
176
     1
 90
        3
176
     1
 90
        0
176
     1
 90
        0
176
     1
290
     0
176
     1
 90
        5
176
     1
 40
0.0
176
     1
 90
        0
176
     1
290
     0
176
     1
290
     1
176
     1
290
     1
176
     1
290
     0
176
     1
290
     0
176
     1
290
     0
176
     1
290
     0
176
     1
290
     0
176
     1
290
     0
176
     1
 90
       50
176
     1
 40
0.0
176
     1
 40
1.0
176
     1
 90
        0
176
     1
 62
    18
420
        0
176
     1
 90
       50
176
     1
 90
        3
176
     1
 62
     5
420
      255
176
     1
290
     0
176
     1
 90
       50
176
     1
 90
       50
176
     1
 90
       50
176
     1
290
     0
176
     1
 90
       50
176
     1
 62
   256
176
     0
 40
1.0
176
     0
 90
        2
176
     1
  1
strokes_ogs.tif
176
     1
290
     0
176
     1
 40
1.0
176
     1
 40
1.0
176
     1
  0
VISUALSTYLE
  5
6CC
102
{ACAD_REACTORS
330
2A
102
}
330
2A
100
AcDbVisualStyle
  2
Shaded with edges
 70
    26
177
     3
291
     0
 70
    58
 90
        2
176
     1
 90
        2
176
     1
 90
        1
176
     1
 90
        2
176
     1
 40
0.6
176
     1
 40
30.0
176
     1
 62
     7
420
 16777215
176
     1
 90
        1
176
     1
 90
        2
176
     1
 62
     7
176
     1
 62
   257
176
     1
 90
        2
176
     1
 90
        1
176
     1
 40
1.0
176
     1
 90
        8
176
     1
 62
   257
176
     1
 40
1.0
176
     1
 90
        1
176
     1
 90
        6
176
     1
 90
        2
176
     1
 62
     7
176
     1
 90
        3
176
     1
 90
        0
176
     1
 90
        0
176
     1
290
     0
176
     1
 90
        5
176
     1
 40
0.0
176
     1
 90
        0
176
     1
290
     0
176
     1
290
     1
176
     1
290
     1
176
     1
290
     0
176
     1
290
     0
176
     1
290
     0
176
     1
290
     0
176
     1
290
     0
176
     1
290
     0
176
     1
 90
       50
176
     1
 40
0.0
176
     1
 40
1.0
176
     1
 90
        0
176
     1
 62
    18
420
        0
176
     1
 90
       50
176
     1
 90
        3
176
     1
 62
     5
420
      255
176
     1
290
     0
176
     1
 90
       50
176
     1
 90
       50
176
     1
 90
       50
176
     1
290
     0
176
     1
 90
       50
176
     1
 62
   256
176
     0
 40
1.0
176
     0
 90
        2
176
     1
  1
strokes_ogs.tif
176
     1
290
     0
176
     1
 40
1.0
176
     1
 40
1.0
176
     1
  0
VISUALSTYLE
  5
6C9
102
{ACAD_REACTORS
330
2A
102
}
330
2A
100
AcDbVisualStyle
  2
Shades of Gray
 70
    23
177
     3
291
     0
 70
    58
 90
        2
176
     1
 90
        2
176
     1
 90
        3
176
     1
 90
        0
176
     1
 40
0.6
176
     1
 40
30.0
176
     1
 62
     7
420
 16777215
176
     1
 90
        2
176
     1
 90
        2
176
     1
 62
     7
176
     1
 62
     7
176
     1
 90
        1
176
     1
 90
        1
176
     1
 40
40.0
176
     1
 90
        8
176
     1
 62
     7
176
     1
 40
1.0
176
     1
 90
        1
176
     1
 90
        6
176
     1
 90
        2
176
     1
 62
     7
176
     1
 90
        3
176
     1
 90
        0
176
     1
 90
        0
176
     1
290
     0
176
     1
 90
        1
176
     1
 40
0.0
176
     1
 90
        0
176
     1
290
     0
176
     1
290
     1
176
     1
290
     1
176
     1
290
     0
176
     1
290
     0
176
     1
290
     0
176
     1
290
     0
176
     1
290
     0
176
     1
290
     0
176
     1
 90
       50
176
     1
 40
0.0
176
     1
 40
1.0
176
     1
 90
        0
176
     1
 62
    18
420
        0
176
     1
 90
       50
176
     1
 90
        3
176
     1
 62
     5
420
      255
176
     1
290
     0
176
     1
 90
       50
176
     1
 90
       50
176
     1
 90
       50
176
     1
290
     0
176
     1
 90
       50
176
     1
 62
   256
176
     0
 40
1.0
176
     0
 90
        2
176
     1
  1
strokes_ogs.tif
176
     1
290
     0
176
     1
 40
1.0
176
     1
 40
1.0
176
     1
  0
VISUALSTYLE
  5
6CA
102
{ACAD_REACTORS
330
2A
102
}
330
2A
100
AcDbVisualStyle
  2
Sketchy
 70
    24
177
     3
291
     0
 70
    58
 90
        1
176
     1
 90
        2
176
     1
 90
        2
176
     1
 90
        0
176
     1
 40
0.6
176
     1
 40
30.0
176
     1
 62
     7
420
 16777215
176
     1
 90
        2
176
     1
 90
        2
176
     1
 62
     7
176
     1
 62
     7
176
     1
 90
        1
176
     1
 90
        1
176
     1
 40
40.0
176
     1
 90
       11
176
     1
 62
     7
176
     1
 40
1.0
176
     1
 90
        1
176
     1
 90
        6
176
     1
 90
        2
176
     1
 62
     7
176
     1
 90
        6
176
     1
 90
        0
176
     1
 90
        0
176
     1
290
     0
176
     1
 90
        1
176
     1
 40
0.0
176
     1
 90
        0
176
     1
290
     0
176
     1
290
     1
176
     1
290
     1
176
     1
290
     0
176
     1
290
     0
176
     1
290
     0
176
     1
290
     0
176
     1
290
     0
176
     1
290
     0
176
     1
 90
       50
176
     1
 40
0.0
176
     1
 40
1.0
176
     1
 90
        0
176
     1
 62
    18
420
        0
176
     1
 90
       50
176
     1
 90
        3
176
     1
 62
     5
420
      255
176
     1
290
     0
176
     1
 90
       50
176
     1
 90
       50
176
     1
 90
       50
176
     1
290
     0
176
     1
 90
       50
176
     1
 62
   256
176
     0
 40
1.0
176
     0
 90
        2
176
     1
  1
strokes_ogs.tif
176
     1
290
     0
176
     1
 40
1.0
176
     1
 40
1.0
176
     1
  0
VISUALSTYLE
  5
37
102
{ACAD_REACTORS
330
2A
102
}
330
2A
100
AcDbVisualStyle
  2

 70
    13
177
     3
291
     1
 70
    58
 90
        2
176
     1
 90
        2
176
     1
 90
        0
176
     1
 90
        0
176
     1
 40
0.6
176
     1
 40
30.0
176
     1
 62
     7
420
 16777215
176
     1
 90
        1
176
     1
 90
        4
176
     1
 62
     7
176
     1
 62
   257
176
     1
 90
        1
176
     1
 90
        1
176
     1
 40
1.0
176
     1
 90
       12
176
     1
 62
     7
176
     1
 40
1.0
176
     1
 90
        1
176
     1
 90
        6
176
     1
 90
        2
176
     1
 62
     7
176
     1
 90
        5
176
     1
 90
        0
176
     1
 90
        0
176
     1
290
     0
176
     1
 90
        1
176
     1
 40
0.0
176
     1
 90
        0
176
     1
290
     0
176
     1
290
     1
176
     1
290
     1
176
     1
290
     0
176
     1
290
     0
176
     1
290
     0
176
     1
290
     0
176
     1
290
     0
176
     1
290
     0
176
     1
 90
       50
176
     1
 40
0.0
176
     1
 40
1.0
176
     1
 90
        0
176
     1
 62
    18
420
        0
176
     1
 90
       50
176
     1
 90
        3
176
     1
 62
     5
420
      255
176
     1
290
     0
176
     1
 90
       50
176
     1
 90
       50
176
     1
 90
       50
176
     1
290
     0
176
     1
 90
       50
176
     1
 62
   256
176
     0
 40
1.0
176
     0
 90
        2
176
     1
  1
strokes_ogs.tif
176
     1
290
     0
176
     1
 40
1.0
176
     1
 40
1.0
176
     1
1001
ACAD
1000
AcDbSavedByObjectVersion
1070
     0
  0
VISUALSTYLE
  5
6C7
102
{ACAD_REACTORS
330
2A
102
}
330
2A
100
AcDbVisualStyle
  2
Wireframe
 70
     5
177
     3
291
     0
 70
    58
 90
        0
176
     1
 90
        2
176
     1
 90
        0
176
     1
 90
        0
176
     1
 40
0.6
176
     1
 40
30.0
176
     1
 62
     7
420
 16777215
176
     1
 90
        1
176
     1
 90
        4
176
     1
 62
     7
176
     1
 62
   257
176
     1
 90
        1
176
     1
 90
        1
176
     1
 40
1.0
176
     1
 90
        0
176
     1
 62
   257
176
     1
 40
1.0
176
     1
 90
        1
176
     1
 90
        6
176
     1
 90
        2
176
     1
 62
     7
176
     1
 90
        3
176
     1
 90
        0
176
     1
 90
        0
176
     1
290
     0
176
     1
 90
        1
176
     1
 40
0.0
176
     1
 90
        0
176
     1
290
     0
176
     1
290
     1
176
     1
290
     1
176
     1
290
     0
176
     1
290
     0
176
     1
290
     0
176
     1
290
     0
176
     1
290
     0
176
     1
290
     0
176
     1
 90
       50
176
     1
 40
0.0
176
     1
 40
1.0
176
     1
 90
        0
176
     1
 62
    18
420
        0
176
     1
 90
       50
176
     1
 90
        3
176
     1
 62
     5
420
      255
176
     1
290
     0
176
     1
 90
       50
176
     1
 90
       50
176
     1
 90
       50
176
     1
290
     0
176
     1
 90
       50
176
     1
 62
   256
176
     0
 40
1.0
176
     0
 90
        2
176
     1
  1
strokes_ogs.tif
176
     1
290
     0
176
     1
 40
1.0
176
     1
 40
1.0
176
     1
  0
VISUALSTYLE
  5
6CB
102
{ACAD_REACTORS
330
2A
102
}
330
2A
100
AcDbVisualStyle
  2
X-Ray
 70
    25
177
     3
291
     0
 70
    58
 90
        2
176
     1
 90
        2
176
     1
 90
        1
176
     1
 90
        1
176
     1
 40
0.5
176
     1
 40
30.0
176
     1
 62
     7
420
 16777215
176
     1
 90
        1
176
     1
 90
        0
176
     1
 62
     7
176
     1
 62
   257
176
     1
 90
        1
176
     1
 90
        1
176
     1
 40
1.0
176
     1
 90
        8
176
     1
 62
     7
176
     1
 40
1.0
176
     1
 90
        1
176
     1
 90
        6
176
     1
 90
        2
176
     1
 62
     7
176
     1
 90
        3
176
     1
 90
        0
176
     1
 90
        0
176
     1
290
     0
176
     1
 90
       13
176
     1
 40
0.0
176
     1
 90
        0
176
     1
290
     0
176
     1
290
     1
176
     1
290
     1
176
     1
290
     0
176
     1
290
     0
176
     1
290
     0
176
     1
290
     0
176
     1
290
     0
176
     1
290
     0
176
     1
 90
       50
176
     1
 40
0.0
176
     1
 40
1.0
176
     1
 90
        0
176
     1
 62
    18
420
        0
176
     1
 90
       50
176
     1
 90
        3
176
     1
 62
     5
420
      255
176
     1
290
     0
176
     1
 90
       50
176
     1
 90
       50
176
     1
 90
       50
176
     1
290
     0
176
     1
 90
       50
176
     1
 62
   256
176
     0
 40
1.0
176
     0
 90
        2
176
     1
  1
strokes_ogs.tif
176
     1
290
     0
176
     1
 40
1.0
176
     1
 40
1.0
176
     1
  0
DICTIONARYVAR
  5
709
102
{ACAD_REACTORS
330
703
102
}
330
703
100
DictionaryVariables
280
     0
  1
1:1
  0
DICTIONARYVAR
  5
705
102
{ACAD_REACTORS
330
703
102
}
330
703
100
DictionaryVariables
280
     0
  1
STANDARD
  0
DICTIONARYVAR
  5
704
102
{ACAD_REACTORS
330
703
102
}
330
703
100
DictionaryVariables
280
     0
  1
STANDARD
  0
DICTIONARYVAR
  5
706
102
{ACAD_REACTORS
330
703
102
}
330
703
100
DictionaryVariables
280
     0
  1
Imperial24
  0
DICTIONARYVAR
  5
707
102
{ACAD_REACTORS
330
703
102
}
330
703
100
DictionaryVariables
280
     0
  1
Imperial24
  0
DICTIONARYVAR
  5
70B
102
{ACAD_REACTORS
330
703
102
}
330
703
100
DictionaryVariables
280
     0
  1
1
  0
DICTIONARYVAR
  5
70C
102
{ACAD_REACTORS
330
703
102
}
330
703
100
DictionaryVariables
280
     0
  1
15
  0
DICTIONARYVAR
  5
70A
102
{ACAD_REACTORS
330
703
102
}
330
703
100
DictionaryVariables
280
     0
  1
0
  0
DICTIONARYVAR
  5
708
102
{ACAD_REACTORS
330
703
102
}
330
703
100
DictionaryVariables
280
     0
  1
0
  0
DICTIONARY
  5
711
330
6EA
100
AcDbDictionary
280
     1
281
     1
  3
ACAD_XREC_ROUNDTRIP
360
712
  0
DICTIONARY
  5
6B8
330
6B7
100
AcDbDictionary
280
     1
281
     1
  3
BUMPTILE
360
6BA
  3
DIFFUSETILE
360
6B9
  3
OPACITYTILE
360
6BD
  3
REFLECTIONTILE
360
6BC
  3
REFRACTIONTILE
360
6BE
  3
SPECULARTILE
360
6BB
  0
DICTIONARY
  5
6B0
330
6AF
100
AcDbDictionary
280
     1
281
     1
  3
BUMPTILE
360
6B2
  3
DIFFUSETILE
360
6B1
  3
OPACITYTILE
360
6B5
  3
REFLECTIONTILE
360
6B4
  3
REFRACTIONTILE
360
6B6
  3
SPECULARTILE
360
6B3
  0
DICTIONARY
  5
6C0
330
6BF
100
AcDbDictionary
280
     1
281
     1
  3
BUMPTILE
360
6C2
  3
DIFFUSETILE
360
6C1
  3
OPACITYTILE
360
6C5
  3
REFLECTIONTILE
360
6C4
  3
REFRACTIONTILE
360
6C6
  3
SPECULARTILE
360
6C3
  0
DICTIONARY
  5
70F
330
6E8
100
AcDbDictionary
280
     1
281
     1
  3
ACAD_XREC_ROUNDTRIP
360
710
  0
DICTIONARY
  5
70D
330
6D2
100
AcDbDictionary
280
     1
281
     1
  3
ACAD_ROUNDTRIP_2008_TABLESTYLE_CELLSTYLEMAP
360
70E
  0
XRECORD
  5
712
102
{ACAD_REACTORS
330
711
102
}
330
711
100
AcDbXrecord
280
     1
102
DISPLAYNAME
  1
Imperial24
102
FLAGS
 90
        0
  0
XRECORD
  5
6BA
102
{ACAD_REACTORS
330
6B8
102
}
330
6B8
100
AcDbXrecord
280
     1
270
     1
271
     1
  0
XRECORD
  5
6B9
102
{ACAD_REACTORS
330
6B8
102
}
330
6B8
100
AcDbXrecord
280
     1
270
     1
271
     1
  0
XRECORD
  5
6BD
102
{ACAD_REACTORS
330
6B8
102
}
330
6B8
100
AcDbXrecord
280
     1
270
     1
271
     1
  0
XRECORD
  5
6BC
102
{ACAD_REACTORS
330
6B8
102
}
330
6B8
100
AcDbXrecord
280
     1
270
     1
271
     1
  0
XRECORD
  5
6BE
102
{ACAD_REACTORS
330
6B8
102
}
330
6B8
100
AcDbXrecord
280
     1
270
     1
271
     1
  0
XRECORD
  5
6BB
102
{ACAD_REACTORS
330
6B8
102
}
330
6B8
100
AcDbXrecord
280
     1
270
     1
271
     1
  0
XRECORD
  5
6B2
102
{ACAD_REACTORS
330
6B0
102
}
330
6B0
100
AcDbXrecord
280
     1
270
     1
271
     1
  0
XRECORD
  5
6B1
102
{ACAD_REACTORS
330
6B0
102
}
330
6B0
100
AcDbXrecord
280
     1
270
     1
271
     1
  0
XRECORD
  5
6B5
102
{ACAD_REACTORS
330
6B0
102
}
330
6B0
100
AcDbXrecord
280
     1
270
     1
271
     1
  0
XRECORD
  5
6B4
102
{ACAD_REACTORS
330
6B0
102
}
330
6B0
100
AcDbXrecord
280
     1
270
     1
271
     1
  0
XRECORD
  5
6B6
102
{ACAD_REACTORS
330
6B0
102
}
330
6B0
100
AcDbXrecord
280
     1
270
     1
271
     1
  0
XRECORD
  5
6B3
102
{ACAD_REACTORS
330
6B0
102
}
330
6B0
100
AcDbXrecord
280
     1
270
     1
271
     1
  0
XRECORD
  5
6C2
102
{ACAD_REACTORS
330
6C0
102
}
330
6C0
100
AcDbXrecord
280
     1
270
     1
271
     1
  0
XRECORD
  5
6C1
102
{ACAD_REACTORS
330
6C0
102
}
330
6C0
100
AcDbXrecord
280
     1
270
     1
271
     1
  0
XRECORD
  5
6C5
102
{ACAD_REACTORS
330
6C0
102
}
330
6C0
100
AcDbXrecord
280
     1
270
     1
271
     1
  0
XRECORD
  5
6C4
102
{ACAD_REACTORS
330
6C0
102
}
330
6C0
100
AcDbXrecord
280
     1
270
     1
271
     1
  0
XRECORD
  5
6C6
102
{ACAD_REACTORS
330
6C0
102
}
330
6C0
100
AcDbXrecord
280
     1
270
     1
271
     1
  0
XRECORD
  5
6C3
102
{ACAD_REACTORS
330
6C0
102
}
330
6C0
100
AcDbXrecord
280
     1
270
     1
271
     1
  0
XRECORD
  5
710
102
{ACAD_REACTORS
330
70F
102
}
330
70F
100
AcDbXrecord
280
     1
102
DISPLAYNAME
  1
Imperial24
102
FLAGS
 90
        0
  0
CELLSTYLEMAP
  5
70E
102
{ACAD_REACTORS
330
70D
102
}
330
70D
100
AcDbCellStyleMap
 90
        3
300
CELLSTYLE
  1
TABLEFORMAT_BEGIN
 90
        5
170
     1
 91
        0
 92
    32768
 62
   257
 93
        1
300
CONTENTFORMAT
  1
CONTENTFORMAT_BEGIN
 90
        0
 91
        0
 92
      512
 93
        0
300

 40
0.0
140
1.0
 94
        5
 62
     0
340
11
144
0.25
309
CONTENTFORMAT_END
171
     0
 94
        0
309
TABLEFORMAT_END
  1
CELLSTYLE_BEGIN
 90
        1
 91
        1
300
_TITLE
309
CELLSTYLE_END
300
CELLSTYLE
  1
TABLEFORMAT_BEGIN
 90
        5
170
     1
 91
        0
 92
        0
 62
   257
 93
        1
300
CONTENTFORMAT
  1
CONTENTFORMAT_BEGIN
 90
        0
 91
        0
 92
      512
 93
        0
300

 40
0.0
140
1.0
 94
        5
 62
     0
340
11
144
0.18
309
CONTENTFORMAT_END
171
     0
 94
        0
309
TABLEFORMAT_END
  1
CELLSTYLE_BEGIN
 90
        2
 91
        1
300
_HEADER
309
CELLSTYLE_END
300
CELLSTYLE
  1
TABLEFORMAT_BEGIN
 90
        5
170
     1
 91
        0
 92
        0
 62
   257
 93
        1
300
CONTENTFORMAT
  1
CONTENTFORMAT_BEGIN
 90
        0
 91
        0
 92
      512
 93
        0
300

 40
0.0
140
1.0
 94
        2
 62
     0
340
11
144
0.18
309
CONTENTFORMAT_END
171
     0
 94
        0
309
TABLEFORMAT_END
  1
CELLSTYLE_BEGIN
 90
        3
 91
        2
300
_DATA
309
CELLSTYLE_END
  0
ENDSEC
  0
EOF
