  0
SECTION
  2
HEADER
  9
$ACADVER
  1
AC1012
  9
$DWGCODEPAGE
  3
ANSI_1252
  9
$INSBASE
 10
0.0
 20
0.0
 30
0.0
  9
$EXTMIN
 10
-332.4699697995309
 20
549.5150466524223
 30
-0.00000001
  9
$EXTMAX
 10
367.7570256326937
 20
903.0344264264853
 30
0.00000001
  9
$LIMMIN
 10
0.0
 20
0.0
  9
$LIMMAX
 10
420.0
 20
297.0
  9
$ORTHOMODE
 70
     0
  9
$REGENMODE
 70
     1
  9
$FILLMODE
 70
     1
  9
$QTEXTMODE
 70
     0
  9
$MIRRTEXT
 70
     1
  9
$DRAGMODE
 70
     2
  9
$LTSCALE
 40
1.0
  9
$OSMODE
 70
   547
  9
$ATTMODE
 70
     1
  9
$TEXTSIZE
 40
2.5
  9
$TRACEWID
 40
1.0
  9
$TEXTSTYLE
  7
STANDARD
  9
$CLAYER
  8
0
  9
$CELTYPE
  6
BYLAYER
  9
$CECOLOR
 62
   256
  9
$CELTSCALE
 40
1.0
  9
$DELOBJ
 70
     1
  9
$DISPSILH
 70
     0
  9
$DIMSCALE
 40
1.0
  9
$DIMASZ
 40
2.5
  9
$DIMEXO
 40
0.625
  9
$DIMDLI
 40
3.75
  9
$DIMRND
 40
0.0
  9
$DIMDLE
 40
0.0
  9
$DIMEXE
 40
1.25
  9
$DIMTP
 40
0.0
  9
$DIMTM
 40
0.0
  9
$DIMTXT
 40
2.5
  9
$DIMCEN
 40
2.5
  9
$DIMTSZ
 40
0.0
  9
$DIMTOL
 70
     0
  9
$DIMLIM
 70
     0
  9
$DIMTIH
 70
     0
  9
$DIMTOH
 70
     0
  9
$DIMSE1
 70
     0
  9
$DIMSE2
 70
     0
  9
$DIMTAD
 70
     1
  9
$DIMZIN
 70
     8
  9
$DIMBLK
  1

  9
$DIMASO
 70
     1
  9
$DIMSHO
 70
     1
  9
$DIMPOST
  1

  9
$DIMAPOST
  1

  9
$DIMALT
 70
     0
  9
$DIMALTD
 70
     3
  9
$DIMALTF
 40
0.03937007874016
  9
$DIMLFAC
 40
1.0
  9
$DIMTOFL
 70
     1
  9
$DIMTVP
 40
0.0
  9
$DIMTIX
 70
     0
  9
$DIMSOXD
 70
     0
  9
$DIMSAH
 70
     0
  9
$DIMBLK1
  1

  9
$DIMBLK2
  1

  9
$DIMSTYLE
  2
ISO-25
  9
$DIMCLRD
 70
     0
  9
$DIMCLRE
 70
     0
  9
$DIMCLRT
 70
     0
  9
$DIMTFAC
 40
1.0
  9
$DIMGAP
 40
0.625
  9
$DIMJUST
 70
     0
  9
$DIMSD1
 70
     0
  9
$DIMSD2
 70
     0
  9
$DIMTOLJ
 70
     0
  9
$DIMTZIN
 70
     8
  9
$DIMALTZ
 70
     0
  9
$DIMALTTZ
 70
     0
  9
$DIMFIT
 70
     3
  9
$DIMUPT
 70
     0
  9
$DIMUNIT
 70
     2
  9
$DIMDEC
 70
     2
  9
$DIMTDEC
 70
     2
  9
$DIMALTU
 70
     2
  9
$DIMALTTD
 70
     3
  9
$DIMTXSTY
  7
STANDARD
  9
$DIMAUNIT
 70
     0
  9
$LUNITS
 70
     2
  9
$LUPREC
 70
     4
  9
$SKETCHINC
 40
1.0
  9
$FILLETRAD
 40
10.0
  9
$AUNITS
 70
     0
  9
$AUPREC
 70
     0
  9
$MENU
  1
.
  9
$ELEVATION
 40
0.0
  9
$PELEVATION
 40
0.0
  9
$THICKNESS
 40
0.0
  9
$LIMCHECK
 70
     0
  9
$BLIPMODE
 70
     0
  9
$CHAMFERA
 40
10.0
  9
$CHAMFERB
 40
10.0
  9
$CHAMFERC
 40
20.0
  9
$CHAMFERD
 40
0.0
  9
$SKPOLY
 70
     0
  9
$TDCREATE
 40
2455513.610001261
  9
$TDUPDATE
 40
2455513.610745799
  9
$TDINDWG
 40
0.0007447222
  9
$TDUSRTIMER
 40
0.0007447222
  9
$USRTIMER
 70
     1
  9
$ANGBASE
 50
0.0
  9
$ANGDIR
 70
     0
  9
$PDMODE
 70
     0
  9
$PDSIZE
 40
0.0
  9
$PLINEWID
 40
0.0
  9
$COORDS
 70
     1
  9
$SPLFRAME
 70
     0
  9
$SPLINETYPE
 70
     6
  9
$SPLINESEGS
 70
     8
  9
$ATTDIA
 70
     0
  9
$ATTREQ
 70
     1
  9
$HANDLING
 70
 10241
  9
$HANDSEED
  5
73
  9
$SURFTAB1
 70
     6
  9
$SURFTAB2
 70
     6
  9
$SURFTYPE
 70
     6
  9
$SURFU
 70
     6
  9
$SURFV
 70
     6
  9
$UCSNAME
  2

  9
$UCSORG
 10
0.0
 20
0.0
 30
0.0
  9
$UCSXDIR
 10
1.0
 20
0.0
 30
0.0
  9
$UCSYDIR
 10
0.0
 20
1.0
 30
0.0
  9
$PUCSNAME
  2

  9
$PUCSORG
 10
0.0
 20
0.0
 30
0.0
  9
$PUCSXDIR
 10
1.0
 20
0.0
 30
0.0
  9
$PUCSYDIR
 10
0.0
 20
1.0
 30
0.0
  9
$USERI1
 70
     0
  9
$USERI2
 70
     0
  9
$USERI3
 70
     0
  9
$USERI4
 70
     0
  9
$USERI5
 70
     0
  9
$USERR1
 40
0.0
  9
$USERR2
 40
0.0
  9
$USERR3
 40
0.0
  9
$USERR4
 40
0.0
  9
$USERR5
 40
0.0
  9
$WORLDVIEW
 70
     1
  9
$SHADEDGE
 70
     3
  9
$SHADEDIF
 70
    70
  9
$TILEMODE
 70
     1
  9
$MAXACTVP
 70
    64
  9
$PINSBASE
 10
0.0
 20
0.0
 30
0.0
  9
$PLIMCHECK
 70
     0
  9
$PEXTMIN
 10
1.000000000000000E+20
 20
1.000000000000000E+20
 30
1.000000000000000E+20
  9
$PEXTMAX
 10
-1.000000000000000E+20
 20
-1.000000000000000E+20
 30
-1.000000000000000E+20
  9
$PLIMMIN
 10
0.0
 20
0.0
  9
$PLIMMAX
 10
420.0
 20
297.0
  9
$UNITMODE
 70
     0
  9
$VISRETAIN
 70
     1
  9
$PLINEGEN
 70
     0
  9
$PSLTSCALE
 70
     1
  9
$TREEDEPTH
 70
  3020
  9
$PICKSTYLE
 70
     1
  9
$CMLSTYLE
  2
STANDARD
  9
$CMLJUST
 70
     0
  9
$CMLSCALE
 40
20.0
  9
$SAVEIMAGES
 70
     1
  0
ENDSEC
  0
SECTION
  2
CLASSES
  0
CLASS
  1
ACDBDICTIONARYWDFLT
  2
AcDbDictionaryWithDefault
  3
AutoCAD 2000
 90
    32768
280
     0
281
     0
  0
CLASS
  1
ACDBPLACEHOLDER
  2
AcDbPlaceHolder
  3
AutoCAD 2000
 90
    32768
280
     0
281
     0
  0
CLASS
  1
LAYOUT
  2
AcDbLayout
  3
AutoCAD 2000
 90
    32768
280
     0
281
     0
  0
CLASS
  1
LONG_TRANSACTION
  2
AcDbLongTransaction
  3
AutoCAD 2000
 90
    32768
280
     0
281
     0
  0
CLASS
  1
LWPOLYLINE
  2
AcDbPolyline
  3
AutoCAD 2000
 90
    32768
280
     0
281
     1
  0
CLASS
  1
HATCH
  2
AcDbHatch
  3
AutoCAD 2000
 90
    32768
280
     0
281
     1
  0
CLASS
  1
XRECORD
  2
AcDbXrecord
  3
AutoCAD 2000
 90
    32768
280
     0
281
     0
  0
ENDSEC
  0
SECTION
  2
TABLES
  0
TABLE
  2
VPORT
  5
8
330
0
100
AcDbSymbolTable
 70
     3
  0
VPORT
  5
6C
330
8
100
AcDbSymbolTableRecord
100
AcDbViewportTableRecord
  2
*ACTIVE
 70
     0
 10
0.0
 20
0.0
 11
1.0
 21
1.0
 12
287.0414201183431
 22
148.5
 13
0.0
 23
0.0
 14
10.0
 24
10.0
 15
10.0
 25
10.0
 16
0.0
 26
0.0
 36
1.0
 17
0.0
 27
0.0
 37
0.0
 40
2376.0
 41
1.932938856015779
 42
50.0
 43
0.0
 44
0.0
 50
0.0
 51
0.0
 71
     0
 72
   100
 73
     1
 74
     3
 75
     0
 76
     0
 77
     0
 78
     0
  0
ENDTAB
  0
TABLE
  2
LTYPE
  5
5
330
0
100
AcDbSymbolTable
 70
     1
  0
LTYPE
  5
14
330
5
100
AcDbSymbolTableRecord
100
AcDbLinetypeTableRecord
  2
BYBLOCK
 70
     0
  3

 72
    65
 73
     0
 40
0.0
  0
LTYPE
  5
15
330
5
100
AcDbSymbolTableRecord
100
AcDbLinetypeTableRecord
  2
BYLAYER
 70
     0
  3

 72
    65
 73
     0
 40
0.0
  0
LTYPE
  5
16
330
5
100
AcDbSymbolTableRecord
100
AcDbLinetypeTableRecord
  2
CONTINUOUS
 70
     0
  3
Solid line
 72
    65
 73
     0
 40
0.0
  0
ENDTAB
  0
TABLE
  2
LAYER
  5
2
330
0
100
AcDbSymbolTable
 70
     1
  0
LAYER
  5
10
330
2
100
AcDbSymbolTableRecord
100
AcDbLayerTableRecord
  2
0
 70
     0
 62
     7
  6
CONTINUOUS
  0
ENDTAB
  0
TABLE
  2
STYLE
  5
3
330
0
100
AcDbSymbolTable
 70
     1
  0
STYLE
  5
11
330
3
100
AcDbSymbolTableRecord
100
AcDbTextStyleTableRecord
  2
STANDARD
 70
     0
 40
0.0
 41
1.0
 50
0.0
 71
     0
 42
2.5
  3
txt
  4

  0
ENDTAB
  0
TABLE
  2
VIEW
  5
6
330
0
100
AcDbSymbolTable
 70
     0
  0
ENDTAB
  0
TABLE
  2
UCS
  5
7
330
0
100
AcDbSymbolTable
 70
     0
  0
ENDTAB
  0
TABLE
  2
APPID
  5
9
330
0
100
AcDbSymbolTable
 70
     1
  0
APPID
  5
12
330
9
100
AcDbSymbolTableRecord
100
AcDbRegAppTableRecord
  2
ACAD
 70
     0
  0
ENDTAB
  0
TABLE
  2
DIMSTYLE
  5
A
330
0
100
AcDbSymbolTable
 70
     2
  0
DIMSTYLE
105
27
330
A
100
AcDbSymbolTableRecord
100
AcDbDimStyleTableRecord
  2
ISO-25
 70
     0
  3

  4

  5

  6

  7

 40
1.0
 41
2.5
 42
0.625
 43
3.75
 44
1.25
 45
0.0
 46
0.0
 47
0.0
 48
0.0
140
2.5
141
2.5
142
0.0
143
0.03937007874016
144
1.0
145
0.0
146
1.0
147
0.625
 71
     0
 72
     0
 73
     0
 74
     0
 75
     0
 76
     0
 77
     1
 78
     8
170
     0
171
     3
172
     1
173
     0
174
     0
175
     0
176
     0
177
     0
178
     0
270
     2
271
     2
272
     2
273
     2
274
     3
340
11
275
     0
280
     0
281
     0
282
     0
283
     0
284
     8
285
     0
286
     0
287
     3
288
     0
  0
DIMSTYLE
105
2B
330
A
100
AcDbSymbolTableRecord
100
AcDbDimStyleTableRecord
  2
STANDARD
 70
     0
  3

  4

  5

  6

  7

 40
1.0
 41
0.18
 42
0.0625
 43
0.38
 44
0.18
 45
0.0
 46
0.0
 47
0.0
 48
0.0
140
0.18
141
0.09
142
0.0
143
25.4
144
1.0
145
0.0
146
1.0
147
0.09
 71
     0
 72
     0
 73
     1
 74
     1
 75
     0
 76
     0
 77
     0
 78
     0
170
     0
171
     2
172
     0
173
     0
174
     0
175
     0
176
     0
177
     0
178
     0
270
     2
271
     4
272
     4
273
     2
274
     2
340
11
275
     0
280
     0
281
     0
282
     0
283
     1
284
     0
285
     0
286
     0
287
     3
288
     0
  0
ENDTAB
  0
TABLE
  2
BLOCK_RECORD
  5
1
330
0
100
AcDbSymbolTable
 70
     2
  0
BLOCK_RECORD
  5
1F
102
{ACAD_XDICTIONARY
360
6F
102
}
330
1
100
AcDbSymbolTableRecord
100
AcDbBlockTableRecord
  2
*MODEL_SPACE
  0
BLOCK_RECORD
  5
1B
102
{ACAD_XDICTIONARY
360
6D
102
}
330
1
100
AcDbSymbolTableRecord
100
AcDbBlockTableRecord
  2
*PAPER_SPACE
  0
BLOCK_RECORD
  5
2C
330
1
100
AcDbSymbolTableRecord
100
AcDbBlockTableRecord
  2
817953V
  0
ENDTAB
  0
ENDSEC
  0
SECTION
  2
BLOCKS
  0
BLOCK
  5
20
330
1F
100
AcDbEntity
  8
0
100
AcDbBlockBegin
  2
*MODEL_SPACE
 70
     0
 10
0.0
 20
0.0
 30
0.0
  3
*MODEL_SPACE
  1

  0
ENDBLK
  5
21
330
1F
100
AcDbEntity
  8
0
100
AcDbBlockEnd
  0
BLOCK
  5
1C
330
1B
100
AcDbEntity
 67
     1
  8
0
100
AcDbBlockBegin
  2
*PAPER_SPACE
 70
     0
 10
0.0
 20
0.0
 30
0.0
  3
*PAPER_SPACE
  1

  0
ENDBLK
  5
1D
330
1B
100
AcDbEntity
 67
     1
  8
0
100
AcDbBlockEnd
  0
BLOCK
  5
68
330
2C
100
AcDbEntity
  8
0
100
AcDbBlockBegin
  2
817953V
 70
     0
 10
0.0
 20
0.0
 30
0.0
  3
817953V
  1

  0
SPLINE
  5
2D
330
2C
100
AcDbEntity
  8
0
 62
     7
100
AcDbSpline
210
0.0
220
0.0
230
1.0
 70
     8
 71
     3
 72
    23
 73
    19
 74
     0
 42
0.0000000001
 43
0.0000000001
 40
0.0
 40
0.0
 40
0.0
 40
0.0
 40
1.0
 40
1.0
 40
1.0
 40
2.0
 40
2.0
 40
2.0
 40
3.0
 40
3.0
 40
3.0
 40
4.0
 40
4.0
 40
4.0
 40
5.0
 40
5.0
 40
5.0
 40
6.0
 40
6.0
 40
6.0
 40
6.0
 10
-257.1955561468489
 20
784.9998807610325
 30
0.0
 10
-257.1955561468489
 20
784.9998807610325
 30
0.0
 10
-199.8691294543665
 20
754.7381420550969
 30
0.0
 10
-199.8691294543665
 20
754.7381420550969
 30
0.0
 10
-197.7193884533983
 20
753.6081499904855
 30
0.0
 10
-195.3105761010315
 20
753.007324941497
 30
0.0
 10
-192.8686908101883
 20
753.007324941497
 30
0.0
 10
-192.8686908101883
 20
753.007324941497
 30
0.0
 10
-0.5826265082114759
 20
753.007324941497
 30
0.0
 10
-0.5826265082114759
 20
753.007324941497
 30
0.0
 10
-0.5826265082114759
 20
753.007324941497
 30
0.0
 10
191.6869013245271
 20
753.007324941497
 30
0.0
 10
191.6869013245271
 20
753.007324941497
 30
0.0
 10
194.1232744589576
 20
753.007324941497
 30
0.0
 10
196.5265746549117
 20
753.6081499904855
 30
0.0
 10
198.6873399687053
 20
754.7381420550969
 30
0.0
 10
198.6873399687053
 20
754.7381420550969
 30
0.0
 10
255.9586450970604
 20
784.9998807610325
 30
0.0
 10
255.9586450970604
 20
784.9998807610325
 30
0.0
  0
SPLINE
  5
2E
330
2C
100
AcDbEntity
  8
0
 62
     7
100
AcDbSpline
210
0.0
220
0.0
230
1.0
 70
    11
 71
     3
 72
    50
 73
    46
 74
     0
 42
0.0000000001
 43
0.0000000001
 40
0.0
 40
0.0
 40
0.0
 40
0.0
 40
1.0
 40
1.0
 40
1.0
 40
2.0
 40
2.0
 40
2.0
 40
3.0
 40
3.0
 40
3.0
 40
4.0
 40
4.0
 40
4.0
 40
5.0
 40
5.0
 40
5.0
 40
6.0
 40
6.0
 40
6.0
 40
7.0
 40
7.0
 40
7.0
 40
8.0
 40
8.0
 40
8.0
 40
9.0
 40
9.0
 40
9.0
 40
10.0
 40
10.0
 40
10.0
 40
11.0
 40
11.0
 40
11.0
 40
12.0
 40
12.0
 40
12.0
 40
13.0
 40
13.0
 40
13.0
 40
14.0
 40
14.0
 40
14.0
 40
15.0
 40
15.0
 40
15.0
 40
15.0
 10
-1.293694685454767
 20
784.9998807610325
 30
0.0
 10
-1.293694685454767
 20
784.9998807610325
 30
0.0
 10
-300.7415918074847
 20
784.9998807610325
 30
0.0
 10
-300.7415918074847
 20
784.9998807610325
 30
0.0
 10
-302.9464543725802
 20
784.9998807610325
 30
0.0
 10
-304.8922455862769
 20
786.44406574117
 30
0.0
 10
-305.5316557301546
 20
788.5607338036615
 30
0.0
 10
-318.876586405395
 20
821.5675264031411
 30
0.0
 10
-325.5738564468726
 20
856.3988427752368
 30
0.0
 10
-325.5738564468726
 20
892.0018610451162
 30
0.0
 10
-325.5738564468726
 20
892.0018610451162
 30
0.0
 10
-325.5793686032853
 20
892.0018610451162
 30
0.0
 10
-325.5793686032853
 20
892.0018610451162
 30
0.0
 10
-325.5793686032853
 20
896.4170983317199
 30
0.0
 10
-321.9964669350051
 20
900.0
 30
0.0
 10
-317.5812296484014
 20
900.0
 30
0.0
 10
-317.5812296484014
 20
900.0
 30
0.0
 10
-317.5812296484014
 20
900.0
 30
0.0
 10
-317.5812296484014
 20
900.0
 30
0.0
 10
-317.5812296484014
 20
900.0
 30
0.0
 10
-0.5826265082114759
 20
900.0
 30
0.0
 10
-0.5826265082114759
 20
900.0
 30
0.0
 10
-0.5826265082114759
 20
900.0
 30
0.0
 10
316.3057335037237
 20
900.0
 30
0.0
 10
316.3057335037237
 20
900.0
 30
0.0
 10
316.3057335037237
 20
900.0
 30
0.0
 10
316.3057335037237
 20
900.0
 30
0.0
 10
316.3057335037237
 20
900.0
 30
0.0
 10
320.7264829467401
 20
900.0
 30
0.0
 10
324.2983603021948
 20
896.4170983317199
 30
0.0
 10
324.2983603021948
 20
892.0018610451162
 30
0.0
 10
324.2983603021948
 20
892.0018610451162
 30
0.0
 10
324.2983603021948
 20
892.0018610451162
 30
0.0
 10
324.2983603021948
 20
892.0018610451162
 30
0.0
 10
324.2983603021948
 20
856.3988427752368
 30
0.0
 10
317.5955781043045
 20
821.5675264031411
 30
0.0
 10
304.2561595854769
 20
788.5607338036615
 30
0.0
 10
303.6277737544247
 20
786.44406574117
 30
0.0
 10
301.6819825407279
 20
784.9998807610325
 30
0.0
 10
299.4771199756324
 20
784.9998807610325
 30
0.0
 10
299.4771199756324
 20
784.9998807610325
 30
0.0
 10
0.1284416690318153
 20
784.9998807610325
 30
0.0
 10
0.1284416690318153
 20
784.9998807610325
 30
0.0
 10
0.1284416690318153
 20
784.9998807610325
 30
0.0
 10
-1.293694685454767
 20
784.9998807610325
 30
0.0
 10
-1.293694685454767
 20
784.9998807610325
 30
0.0
  0
SPLINE
  5
2F
330
2C
100
AcDbEntity
  8
0
 62
     7
100
AcDbSpline
210
0.0
220
0.0
230
1.0
 70
     8
 71
     3
 72
    11
 73
     7
 74
     0
 42
0.0000000001
 43
0.0000000001
 40
0.0
 40
0.0
 40
0.0
 40
0.0
 40
1.0
 40
1.0
 40
1.0
 40
2.0
 40
2.0
 40
2.0
 40
2.0
 10
-317.5812296484014
 20
900.0
 30
0.0
 10
-211.924215529026
 20
902.0009127778241
 30
0.0
 10
-106.2561770968251
 20
903.0041252449425
 30
0.0
 10
-0.5826265082114759
 20
903.0041252449425
 30
0.0
 10
105.0964362368149
 20
903.0041252449425
 30
0.0
 10
210.7148652613011
 20
902.0009127778241
 30
0.0
 10
316.3057335037237
 20
900.0
 30
0.0
  0
SPLINE
  5
30
330
2C
100
AcDbEntity
  8
0
 62
     7
100
AcDbSpline
210
0.0
220
0.0
230
1.0
 70
     8
 71
     3
 72
    23
 73
    19
 74
     0
 42
0.0000000001
 43
0.0000000001
 40
0.0
 40
0.0
 40
0.0
 40
0.0
 40
1.0
 40
1.0
 40
1.0
 40
2.0
 40
2.0
 40
2.0
 40
3.0
 40
3.0
 40
3.0
 40
4.0
 40
4.0
 40
4.0
 40
5.0
 40
5.0
 40
5.0
 40
6.0
 40
6.0
 40
6.0
 40
6.0
 10
-36.92427373739774
 20
751.5907007434232
 30
0.0
 10
-36.92427373739774
 20
751.5907007434232
 30
0.0
 10
-35.8659397061519
 20
731.4327447420378
 30
0.0
 10
-35.8659397061519
 20
731.4327447420378
 30
0.0
 10
-35.78876951637356
 20
729.8342193823436
 30
0.0
 10
-34.47136413372902
 20
728.5884720330646
 30
0.0
 10
-32.87283877403479
 20
728.5884720330646
 30
0.0
 10
-32.87283877403479
 20
728.5884720330646
 30
0.0
 10
-0.5826265082114759
 20
728.5884720330646
 30
0.0
 10
-0.5826265082114759
 20
728.5884720330646
 30
0.0
 10
-0.5826265082114759
 20
728.5884720330646
 30
0.0
 10
31.69656144478636
 20
728.5884720330646
 30
0.0
 10
31.69656144478636
 20
728.5884720330646
 30
0.0
 10
33.29508680448057
 20
728.5884720330646
 30
0.0
 10
34.61249218712513
 20
729.8342193823436
 30
0.0
 10
34.69517453331622
 20
731.4327447420378
 30
0.0
 10
34.69517453331622
 20
731.4327447420378
 30
0.0
 10
35.7479964081493
 20
751.5907007434232
 30
0.0
 10
35.7479964081493
 20
751.5907007434232
 30
0.0
  0
POLYLINE
  5
31
330
2C
100
AcDbEntity
  8
0
 62
     7
100
AcDb2dPolyline
 66
     1
 10
0.0
 20
0.0
 30
0.0
  0
VERTEX
  5
32
330
31
100
AcDbEntity
  8
0
 62
     7
100
AcDbVertex
100
AcDb2dVertex
 10
-0.5826265082114759
 20
715.2711021398879
 30
0.0
  0
VERTEX
  5
33
330
31
100
AcDbEntity
  8
0
 62
     7
100
AcDbVertex
100
AcDb2dVertex
 10
-0.5826265082114759
 20
751.5907007434232
 30
0.0
  0
SEQEND
  5
34
330
31
100
AcDbEntity
  8
0
  0
POLYLINE
  5
35
330
2C
100
AcDbEntity
  8
0
 62
     7
100
AcDb2dPolyline
 66
     1
 10
0.0
 20
0.0
 30
0.0
  0
VERTEX
  5
36
330
35
100
AcDbEntity
  8
0
 62
     7
100
AcDbVertex
100
AcDb2dVertex
 10
29.85550120293163
 20
579.9972716148674
 30
0.0
  0
VERTEX
  5
37
330
35
100
AcDbEntity
  8
0
 62
     7
100
AcDbVertex
100
AcDb2dVertex
 10
-0.5716021953860065
 20
579.9972716148674
 30
0.0
  0
VERTEX
  5
38
330
35
100
AcDbEntity
  8
0
 62
     7
100
AcDbVertex
100
AcDb2dVertex
 10
-31.00972990652911
 20
579.9972716148674
 30
0.0
  0
SEQEND
  5
39
330
35
100
AcDbEntity
  8
0
  0
SPLINE
  5
3A
330
2C
100
AcDbEntity
  8
0
 62
     7
100
AcDbSpline
210
0.0
220
0.0
230
1.0
 70
    11
 71
     3
 72
    17
 73
    13
 74
     0
 42
0.0000000001
 43
0.0000000001
 40
0.0
 40
0.0
 40
0.0
 40
0.0
 40
1.0
 40
1.0
 40
1.0
 40
2.0
 40
2.0
 40
2.0
 40
3.0
 40
3.0
 40
3.0
 40
4.0
 40
4.0
 40
4.0
 40
4.0
 10
69.31151680531525
 20
650.0016580566489
 30
0.0
 10
69.31151680531525
 20
655.5138144693876
 30
0.0
 10
64.84667011099691
 20
659.9896854765314
 30
0.0
 10
59.33451369825821
 20
659.9896854765314
 30
0.0
 10
53.8223572855195
 20
659.9896854765314
 30
0.0
 10
49.35751059120116
 20
655.5138144693876
 30
0.0
 10
49.35751059120116
 20
650.0016580566489
 30
0.0
 10
49.35751059120116
 20
644.4895016439102
 30
0.0
 10
53.8223572855195
 20
640.0081184803537
 30
0.0
 10
59.33451369825821
 20
640.0081184803537
 30
0.0
 10
64.84667011099691
 20
640.0081184803537
 30
0.0
 10
69.31151680531525
 20
644.4895016439102
 30
0.0
 10
69.31151680531525
 20
650.0016580566489
 30
0.0
  0
POLYLINE
  5
3B
330
2C
100
AcDbEntity
  8
0
 62
     7
100
AcDb2dPolyline
 66
     1
 10
0.0
 20
0.0
 30
0.0
  0
VERTEX
  5
3C
330
3B
100
AcDbEntity
  8
0
 62
     7
100
AcDbVertex
100
AcDb2dVertex
 10
44.11544984268664
 20
650.0016580566489
 30
0.0
  0
VERTEX
  5
3D
330
3B
100
AcDbEntity
  8
0
 62
     7
100
AcDbVertex
100
AcDb2dVertex
 10
59.33451369825821
 20
650.0016580566489
 30
0.0
  0
VERTEX
  5
3E
330
3B
100
AcDbEntity
  8
0
 62
     7
100
AcDbVertex
100
AcDb2dVertex
 10
74.54806539741702
 20
650.0016580566489
 30
0.0
  0
SEQEND
  5
3F
330
3B
100
AcDbEntity
  8
0
  0
POLYLINE
  5
40
330
2C
100
AcDbEntity
  8
0
 62
     7
100
AcDb2dPolyline
 66
     1
 10
0.0
 20
0.0
 30
0.0
  0
VERTEX
  5
41
330
40
100
AcDbEntity
  8
0
 62
     7
100
AcDbVertex
100
AcDb2dVertex
 10
59.33451369825821
 20
634.7605455754265
 30
0.0
  0
VERTEX
  5
42
330
40
100
AcDbEntity
  8
0
 62
     7
100
AcDbVertex
100
AcDb2dVertex
 10
59.33451369825821
 20
650.0016580566489
 30
0.0
  0
VERTEX
  5
43
330
40
100
AcDbEntity
  8
0
 62
     7
100
AcDbVertex
100
AcDb2dVertex
 10
59.33451369825821
 20
665.2427705378713
 30
0.0
  0
SEQEND
  5
44
330
40
100
AcDbEntity
  8
0
  0
POLYLINE
  5
45
330
2C
100
AcDbEntity
  8
0
 62
     7
100
AcDb2dPolyline
 66
     1
 10
0.0
 20
0.0
 30
0.0
  0
VERTEX
  5
46
330
45
100
AcDbEntity
  8
0
 62
     7
100
AcDbVertex
100
AcDb2dVertex
 10
-60.49976671468116
 20
634.7605455754265
 30
0.0
  0
VERTEX
  5
47
330
45
100
AcDbEntity
  8
0
 62
     7
100
AcDbVertex
100
AcDb2dVertex
 10
-60.49976671468116
 20
650.0016580566489
 30
0.0
  0
VERTEX
  5
48
330
45
100
AcDbEntity
  8
0
 62
     7
100
AcDbVertex
100
AcDb2dVertex
 10
-60.49976671468116
 20
665.2427705378713
 30
0.0
  0
SEQEND
  5
49
330
45
100
AcDbEntity
  8
0
  0
SPLINE
  5
4A
330
2C
100
AcDbEntity
  8
0
 62
     7
100
AcDbSpline
210
0.0
220
0.0
230
1.0
 70
    11
 71
     3
 72
    17
 73
    13
 74
     0
 42
0.0000000001
 43
0.0000000001
 40
0.0
 40
0.0
 40
0.0
 40
0.0
 40
1.0
 40
1.0
 40
1.0
 40
2.0
 40
2.0
 40
2.0
 40
3.0
 40
3.0
 40
3.0
 40
4.0
 40
4.0
 40
4.0
 40
4.0
 10
-50.52276360762412
 20
650.0016580566489
 30
0.0
 10
-50.52276360762412
 20
655.5138144693876
 30
0.0
 10
-54.9931224583552
 20
659.9896854765314
 30
0.0
 10
-60.49976671468116
 20
659.9896854765314
 30
0.0
 10
-66.00641097100712
 20
659.9896854765314
 30
0.0
 10
-70.47676982173822
 20
655.5138144693876
 30
0.0
 10
-70.47676982173822
 20
650.0016580566489
 30
0.0
 10
-70.47676982173822
 20
644.4895016439102
 30
0.0
 10
-66.00641097100712
 20
640.0081184803537
 30
0.0
 10
-60.49976671468116
 20
640.0081184803537
 30
0.0
 10
-54.9931224583552
 20
640.0081184803537
 30
0.0
 10
-50.52276360762412
 20
644.4895016439102
 30
0.0
 10
-50.52276360762412
 20
650.0016580566489
 30
0.0
  0
POLYLINE
  5
4B
330
2C
100
AcDbEntity
  8
0
 62
     7
100
AcDb2dPolyline
 66
     1
 10
0.0
 20
0.0
 30
0.0
  0
VERTEX
  5
4C
330
4B
100
AcDbEntity
  8
0
 62
     7
100
AcDbVertex
100
AcDb2dVertex
 10
-74.88649495192918
 20
650.0016580566489
 30
0.0
  0
VERTEX
  5
4D
330
4B
100
AcDbEntity
  8
0
 62
     7
100
AcDbVertex
100
AcDb2dVertex
 10
-60.49976671468116
 20
650.0016580566489
 30
0.0
  0
VERTEX
  5
4E
330
4B
100
AcDbEntity
  8
0
 62
     7
100
AcDbVertex
100
AcDb2dVertex
 10
-46.13508710308411
 20
650.0016580566489
 30
0.0
  0
SEQEND
  5
4F
330
4B
100
AcDbEntity
  8
0
  0
SPLINE
  5
50
330
2C
100
AcDbEntity
  8
0
 62
     7
100
AcDbSpline
210
0.0
220
0.0
230
1.0
 70
    11
 71
     3
 72
    17
 73
    13
 74
     0
 42
0.0000000001
 43
0.0000000001
 40
0.0
 40
0.0
 40
0.0
 40
0.0
 40
1.0
 40
1.0
 40
1.0
 40
2.0
 40
2.0
 40
2.0
 40
3.0
 40
3.0
 40
3.0
 40
4.0
 40
4.0
 40
4.0
 40
4.0
 10
19.37137970590261
 20
579.9972716148674
 30
0.0
 10
19.37137970590261
 20
591.0215844403449
 30
0.0
 10
10.41963769161496
 20
599.9788386110451
 30
0.0
 10
-0.5826265082114759
 20
599.9788386110451
 30
0.0
 10
-11.5959150208634
 20
599.9788386110451
 30
0.0
 10
-20.53663272232558
 20
591.0215844403449
 30
0.0
 10
-20.53663272232558
 20
579.9972716148674
 30
0.0
 10
-20.53663272232558
 20
568.9564223201517
 30
0.0
 10
-11.5959150208634
 20
559.9991681494514
 30
0.0
 10
-0.5826265082114759
 20
559.9991681494514
 30
0.0
 10
10.41963769161496
 20
559.9991681494514
 30
0.0
 10
19.37137970590261
 20
568.9564223201517
 30
0.0
 10
19.37137970590261
 20
579.9972716148674
 30
0.0
  0
POLYLINE
  5
51
330
2C
100
AcDbEntity
  8
0
 62
     7
100
AcDb2dPolyline
 66
     1
 10
0.0
 20
0.0
 30
0.0
  0
VERTEX
  5
52
330
51
100
AcDbEntity
  8
0
 62
     7
100
AcDbVertex
100
AcDb2dVertex
 10
-0.5826265082114759
 20
549.5150466524223
 30
0.0
  0
VERTEX
  5
53
330
51
100
AcDbEntity
  8
0
 62
     7
100
AcDbVertex
100
AcDb2dVertex
 10
-0.5826265082114759
 20
579.9972716148674
 30
0.0
  0
VERTEX
  5
54
330
51
100
AcDbEntity
  8
0
 62
     7
100
AcDbVertex
100
AcDb2dVertex
 10
-0.5826265082114759
 20
610.4794965773123
 30
0.0
  0
SEQEND
  5
55
330
51
100
AcDbEntity
  8
0
  0
POLYLINE
  5
56
330
2C
100
AcDbEntity
  8
0
 62
     7
100
AcDb2dPolyline
 66
     1
 10
0.0
 20
0.0
 30
0.0
  0
VERTEX
  5
57
330
56
100
AcDbEntity
  8
0
 62
     7
100
AcDbVertex
100
AcDb2dVertex
 10
139.4261463753515
 20
868.1948574984977
 30
0.0
  0
VERTEX
  5
58
330
56
100
AcDbEntity
  8
0
 62
     7
100
AcDbVertex
100
AcDb2dVertex
 10
139.4261463753515
 20
834.6533857269827
 30
0.0
  0
SEQEND
  5
59
330
56
100
AcDbEntity
  8
0
  0
SPLINE
  5
5A
330
2C
100
AcDbEntity
  8
0
 62
     7
100
AcDbSpline
210
0.0
220
0.0
230
1.0
 70
    11
 71
     3
 72
    26
 73
    22
 74
     0
 42
0.0000000001
 43
0.0000000001
 40
0.0
 40
0.0
 40
0.0
 40
0.0
 40
1.0
 40
1.0
 40
1.0
 40
2.0
 40
2.0
 40
2.0
 40
3.0
 40
3.0
 40
3.0
 40
4.0
 40
4.0
 40
4.0
 40
5.0
 40
5.0
 40
5.0
 40
6.0
 40
6.0
 40
6.0
 40
7.0
 40
7.0
 40
7.0
 40
7.0
 10
134.3384260063937
 20
860.0093052255806
 30
0.0
 10
134.3384260063937
 20
860.0093052255806
 30
0.0
 10
144.3154291134507
 20
860.0093052255806
 30
0.0
 10
144.3154291134507
 20
860.0093052255806
 30
0.0
 10
149.8441219954276
 20
860.0093052255806
 30
0.0
 10
154.3199930025714
 20
855.5334342184369
 30
0.0
 10
154.3199930025714
 20
850.0047413364599
 30
0.0
 10
154.3199930025714
 20
844.4870727673086
 30
0.0
 10
149.8441219954276
 20
840.005689603752
 30
0.0
 10
144.3154291134507
 20
840.005689603752
 30
0.0
 10
144.3154291134507
 20
840.005689603752
 30
0.0
 10
134.3384260063937
 20
840.005689603752
 30
0.0
 10
134.3384260063937
 20
840.005689603752
 30
0.0
 10
128.8152452808295
 20
840.005689603752
 30
0.0
 10
124.3338621172729
 20
844.4870727673086
 30
0.0
 10
124.3338621172729
 20
850.0047413364599
 30
0.0
 10
124.3338621172729
 20
855.5334342184369
 30
0.0
 10
128.8152452808295
 20
860.0093052255806
 30
0.0
 10
134.3384260063937
 20
860.0093052255806
 30
0.0
 10
134.3384260063937
 20
860.0093052255806
 30
0.0
 10
134.3384260063937
 20
860.0093052255806
 30
0.0
 10
134.3384260063937
 20
860.0093052255806
 30
0.0
  0
POLYLINE
  5
5B
330
2C
100
AcDbEntity
  8
0
 62
     7
100
AcDb2dPolyline
 66
     1
 10
0.0
 20
0.0
 30
0.0
  0
VERTEX
  5
5C
330
5B
100
AcDbEntity
  8
0
 62
     7
100
AcDbVertex
100
AcDb2dVertex
 10
167.3011213545711
 20
850.0047413364599
 30
0.0
  0
VERTEX
  5
5D
330
5B
100
AcDbEntity
  8
0
 62
     7
100
AcDbVertex
100
AcDb2dVertex
 10
111.3417094524478
 20
850.0047413364599
 30
0.0
  0
SEQEND
  5
5E
330
5B
100
AcDbEntity
  8
0
  0
SPLINE
  5
5F
330
2C
100
AcDbEntity
  8
0
 62
     7
100
AcDbSpline
210
0.0
220
0.0
230
1.0
 70
    11
 71
     3
 72
    26
 73
    22
 74
     0
 42
0.0000000001
 43
0.0000000001
 40
0.0
 40
0.0
 40
0.0
 40
0.0
 40
1.0
 40
1.0
 40
1.0
 40
2.0
 40
2.0
 40
2.0
 40
3.0
 40
3.0
 40
3.0
 40
4.0
 40
4.0
 40
4.0
 40
5.0
 40
5.0
 40
5.0
 40
6.0
 40
6.0
 40
6.0
 40
7.0
 40
7.0
 40
7.0
 40
7.0
 10
-135.4926547099912
 20
860.0093052255806
 30
0.0
 10
-135.4926547099912
 20
860.0093052255806
 30
0.0
 10
-145.4806821298737
 20
860.0093052255806
 30
0.0
 10
-145.4806821298737
 20
860.0093052255806
 30
0.0
 10
-150.9983506990251
 20
860.0093052255806
 30
0.0
 10
-155.474221706169
 20
855.5334342184369
 30
0.0
 10
-155.474221706169
 20
850.0047413364599
 30
0.0
 10
-155.474221706169
 20
844.4870727673086
 30
0.0
 10
-150.9983506990251
 20
840.005689603752
 30
0.0
 10
-145.4806821298737
 20
840.005689603752
 30
0.0
 10
-145.4806821298737
 20
840.005689603752
 30
0.0
 10
-135.4926547099912
 20
840.005689603752
 30
0.0
 10
-135.4926547099912
 20
840.005689603752
 30
0.0
 10
-129.969473984427
 20
840.005689603752
 30
0.0
 10
-125.4936029772831
 20
844.4870727673086
 30
0.0
 10
-125.4936029772831
 20
850.0047413364599
 30
0.0
 10
-125.4936029772831
 20
855.5334342184369
 30
0.0
 10
-129.969473984427
 20
860.0093052255806
 30
0.0
 10
-135.4926547099912
 20
860.0093052255806
 30
0.0
 10
-135.4926547099912
 20
860.0093052255806
 30
0.0
 10
-135.4926547099912
 20
860.0093052255806
 30
0.0
 10
-135.4926547099912
 20
860.0093052255806
 30
0.0
  0
POLYLINE
  5
60
330
2C
100
AcDbEntity
  8
0
 62
     7
100
AcDb2dPolyline
 66
     1
 10
0.0
 20
0.0
 30
0.0
  0
VERTEX
  5
61
330
60
100
AcDbEntity
  8
0
 62
     7
100
AcDbVertex
100
AcDb2dVertex
 10
-140.4811562635197
 20
866.7782333004238
 30
0.0
  0
VERTEX
  5
62
330
60
100
AcDbEntity
  8
0
 62
     7
100
AcDbVertex
100
AcDb2dVertex
 10
-140.4811562635197
 20
833.2367615289088
 30
0.0
  0
SEQEND
  5
63
330
60
100
AcDbEntity
  8
0
  0
POLYLINE
  5
64
330
2C
100
AcDbEntity
  8
0
 62
     7
100
AcDb2dPolyline
 66
     1
 10
0.0
 20
0.0
 30
0.0
  0
VERTEX
  5
65
330
64
100
AcDbEntity
  8
0
 62
     7
100
AcDbVertex
100
AcDb2dVertex
 10
-168.4718865274068
 20
850.0047413364599
 30
0.0
  0
VERTEX
  5
66
330
64
100
AcDbEntity
  8
0
 62
     7
100
AcDbVertex
100
AcDb2dVertex
 10
-112.4959381560453
 20
850.0047413364599
 30
0.0
  0
SEQEND
  5
67
330
64
100
AcDbEntity
  8
0
  0
ENDBLK
  5
69
330
2C
100
AcDbEntity
  8
0
100
AcDbBlockEnd
  0
ENDSEC
  0
SECTION
  2
ENTITIES
  0
INSERT
  5
6A
330
1F
100
AcDbEntity
  8
0
100
AcDbBlockReference
  2
817953V
 10
0.0
 20
0.0
 30
0.0
  0
ENDSEC
  0
SECTION
  2
OBJECTS
  0
DICTIONARY
  5
C
330
0
100
AcDbDictionary
  3
ACAD_GROUP
350
D
  3
ACAD_MLINESTYLE
350
17
  3
ACAD_PLOTSETTINGS
350
19
  3
ACAD_LAYOUT
350
1A
  3
DWGPROPS
350
6B
1001
ACAD
1000
TREAT_AS_HARD
1070
     0
  0
DICTIONARY
  5
6F
330
1F
100
AcDbDictionary
  3
ACAD_LAYOUTSELFREF
350
70
  0
DICTIONARY
  5
6D
330
1B
100
AcDbDictionary
  3
ACAD_LAYOUTSELFREF
350
6E
  0
DICTIONARY
  5
D
102
{ACAD_REACTORS
330
C
102
}
330
C
100
AcDbDictionary
1001
ACAD
1000
TREAT_AS_HARD
1070
     0
  0
DICTIONARY
  5
17
102
{ACAD_REACTORS
330
C
102
}
330
C
100
AcDbDictionary
  3
STANDARD
350
18
1001
ACAD
1000
TREAT_AS_HARD
1070
     0
  0
DICTIONARY
  5
19
102
{ACAD_REACTORS
330
C
102
}
330
C
100
AcDbDictionary
1001
ACAD
1000
TREAT_AS_HARD
1070
     0
  0
DICTIONARY
  5
1A
102
{ACAD_REACTORS
330
C
102
}
330
C
100
AcDbDictionary
1001
ACAD
1000
TREAT_AS_HARD
1070
     0
  0
XRECORD
  5
6B
102
{ACAD_REACTORS
330
C
102
}
330
C
100
AcDbXrecord
  1
DWGPROPS COOKIE
  2

  3

  4

  6

  7

  8

  9

300
=
301
=
302
=
303
=
304
=
305
=
306
=
307
=
308
=
309
=
 40
0.000744537037037
 41
2455513.610001261
 42
2455513.610745799
  1

 90
        0
  0
XRECORD
  5
70
102
{ACAD_REACTORS
330
6F
102
}
330
6F
100
AcDbXrecord
340
1F
  0
XRECORD
  5
6E
102
{ACAD_REACTORS
330
6D
102
}
330
6D
100
AcDbXrecord
340
1B
  0
MLINESTYLE
  5
18
102
{ACAD_REACTORS
330
17
102
}
330
17
100
AcDbMlineStyle
  2
STANDARD
 70
     0
  3

 62
   256
 51
90.0
 52
90.0
 71
     2
 49
0.5
 62
   256
  6
BYLAYER
 49
-0.5
 62
   256
  6
BYLAYER
  0
ENDSEC
  0
EOF
