  0
SECTION
  2
HEADER
  9
$ACADVER
  1
AC1021
  9
$ACADMAINTVER
 70
    25
  9
$DWGCODEPAGE
  3
ANSI_932
  9
$LASTSAVEDBY
  1
bliu
  9
$INSBASE
 10
0.0
 20
0.0
 30
0.0
  9
$EXTMIN
 10
28.80605723738063
 20
59.716596
 30
0.0
  9
$EXTMAX
 10
274.61993
 20
203.649929
 30
0.0
  9
$LIMMIN
 10
28.40998
 20
59.716596
  9
$LIMMAX
 10
274.708124
 20
203.738124
  9
$ORTHOMODE
 70
     0
  9
$REGENMODE
 70
     1
  9
$FILLMODE
 70
     1
  9
$QTEXTMODE
 70
     0
  9
$MIRRTEXT
 70
     1
  9
$LTSCALE
 40
1.0
  9
$ATTMODE
 70
     1
  9
$TEXTSIZE
 40
0.2
  9
$TRACEWID
 40
0.05
  9
$TEXTSTYLE
  7
Standard
  9
$CLAYER
  8
0
  9
$CELTYPE
  6
Continuous
  9
$CECOLOR
 62
   256
  9
$CELTSCALE
 40
1.0
  9
$DISPSILH
 70
     0
  9
$DIMSCALE
 40
1.0
  9
$DIMASZ
 40
0.18
  9
$DIMEXO
 40
0.0625
  9
$DIMDLI
 40
0.38
  9
$DIMRND
 40
0.0
  9
$DIMDLE
 40
0.0
  9
$DIMEXE
 40
0.18
  9
$DIMTP
 40
0.0
  9
$DIMTM
 40
0.0
  9
$DIMTXT
 40
0.18
  9
$DIMCEN
 40
0.09
  9
$DIMTSZ
 40
0.0
  9
$DIMTOL
 70
     0
  9
$DIMLIM
 70
     0
  9
$DIMTIH
 70
     1
  9
$DIMTOH
 70
     1
  9
$DIMSE1
 70
     0
  9
$DIMSE2
 70
     0
  9
$DIMTAD
 70
     0
  9
$DIMZIN
 70
     0
  9
$DIMBLK
  1

  9
$DIMASO
 70
     1
  9
$DIMSHO
 70
     1
  9
$DIMPOST
  1

  9
$DIMAPOST
  1

  9
$DIMALT
 70
     0
  9
$DIMALTD
 70
     2
  9
$DIMALTF
 40
25.4
  9
$DIMLFAC
 40
1.0
  9
$DIMTOFL
 70
     0
  9
$DIMTVP
 40
0.0
  9
$DIMTIX
 70
     0
  9
$DIMSOXD
 70
     0
  9
$DIMSAH
 70
     0
  9
$DIMBLK1
  1

  9
$DIMBLK2
  1

  9
$DIMSTYLE
  2
Standard
  9
$DIMCLRD
 70
     0
  9
$DIMCLRE
 70
     0
  9
$DIMCLRT
 70
     0
  9
$DIMTFAC
 40
1.0
  9
$DIMGAP
 40
0.09
  9
$DIMJUST
 70
     0
  9
$DIMSD1
 70
     0
  9
$DIMSD2
 70
     0
  9
$DIMTOLJ
 70
     1
  9
$DIMTZIN
 70
     0
  9
$DIMALTZ
 70
     0
  9
$DIMALTTZ
 70
     0
  9
$DIMUPT
 70
     0
  9
$DIMDEC
 70
     4
  9
$DIMTDEC
 70
     4
  9
$DIMALTU
 70
     2
  9
$DIMALTTD
 70
     2
  9
$DIMTXSTY
  7
Standard
  9
$DIMAUNIT
 70
     0
  9
$DIMADEC
 70
     0
  9
$DIMALTRND
 40
0.0
  9
$DIMAZIN
 70
     0
  9
$DIMDSEP
 70
     0
  9
$DIMATFIT
 70
     3
  9
$DIMFRAC
 70
     0
  9
$DIMLDRBLK
  1

  9
$DIMLUNIT
 70
     2
  9
$DIMLWD
 70
     0
  9
$DIMLWE
 70
     0
  9
$DIMTMOVE
 70
     0
  9
$DIMFXL
 40
1.0
  9
$DIMFXLON
 70
     0
  9
$DIMJOGANG
 40
0.7853981633974483
  9
$DIMTFILL
 70
     0
  9
$DIMTFILLCLR
 70
     0
  9
$DIMARCSYM
 70
     0
  9
$DIMLTYPE
  6

  9
$DIMLTEX1
  6

  9
$DIMLTEX2
  6

  9
$LUNITS
 70
     2
  9
$LUPREC
 70
     4
  9
$SKETCHINC
 40
0.1
  9
$FILLETRAD
 40
0.0
  9
$AUNITS
 70
     0
  9
$AUPREC
 70
     0
  9
$MENU
  1
.
  9
$ELEVATION
 40
0.0
  9
$PELEVATION
 40
0.0
  9
$THICKNESS
 40
0.0
  9
$LIMCHECK
 70
     0
  9
$CHAMFERA
 40
0.0
  9
$CHAMFERB
 40
0.0
  9
$CHAMFERC
 40
0.0
  9
$CHAMFERD
 40
0.0
  9
$SKPOLY
 70
     0
  9
$TDCREATE
 40
2453354.133792488
  9
$TDUCREATE
 40
2453353.717125822
  9
$TDUPDATE
 40
2447893.459039364
  9
$TDUUPDATE
 40
2447893.042372697
  9
$TDINDWG
 40
0.0425463079
  9
$TDUSRTIMER
 40
0.0425463079
  9
$USRTIMER
 70
     1
  9
$ANGBASE
 50
0.0
  9
$ANGDIR
 70
     0
  9
$PDMODE
 70
     0
  9
$PDSIZE
 40
0.0
  9
$PLINEWID
 40
0.0
  9
$SPLFRAME
 70
     0
  9
$SPLINETYPE
 70
     6
  9
$SPLINESEGS
 70
     8
  9
$HANDSEED
  5
46D
  9
$SURFTAB1
 70
     6
  9
$SURFTAB2
 70
     6
  9
$SURFTYPE
 70
     6
  9
$SURFU
 70
     6
  9
$SURFV
 70
     6
  9
$UCSBASE
  2

  9
$UCSNAME
  2

  9
$UCSORG
 10
0.0
 20
0.0
 30
0.0
  9
$UCSXDIR
 10
1.0
 20
0.0
 30
0.0
  9
$UCSYDIR
 10
0.0
 20
1.0
 30
0.0
  9
$UCSORTHOREF
  2

  9
$UCSORTHOVIEW
 70
     0
  9
$UCSORGTOP
 10
0.0
 20
0.0
 30
0.0
  9
$UCSORGBOTTOM
 10
0.0
 20
0.0
 30
0.0
  9
$UCSORGLEFT
 10
0.0
 20
0.0
 30
0.0
  9
$UCSORGRIGHT
 10
0.0
 20
0.0
 30
0.0
  9
$UCSORGFRONT
 10
0.0
 20
0.0
 30
0.0
  9
$UCSORGBACK
 10
0.0
 20
0.0
 30
0.0
  9
$PUCSBASE
  2

  9
$PUCSNAME
  2

  9
$PUCSORG
 10
0.0
 20
0.0
 30
0.0
  9
$PUCSXDIR
 10
1.0
 20
0.0
 30
0.0
  9
$PUCSYDIR
 10
0.0
 20
1.0
 30
0.0
  9
$PUCSORTHOREF
  2

  9
$PUCSORTHOVIEW
 70
     0
  9
$PUCSORGTOP
 10
0.0
 20
0.0
 30
0.0
  9
$PUCSORGBOTTOM
 10
0.0
 20
0.0
 30
0.0
  9
$PUCSORGLEFT
 10
0.0
 20
0.0
 30
0.0
  9
$PUCSORGRIGHT
 10
0.0
 20
0.0
 30
0.0
  9
$PUCSORGFRONT
 10
0.0
 20
0.0
 30
0.0
  9
$PUCSORGBACK
 10
0.0
 20
0.0
 30
0.0
  9
$USERI1
 70
     0
  9
$USERI2
 70
     0
  9
$USERI3
 70
     0
  9
$USERI4
 70
     0
  9
$USERI5
 70
     0
  9
$USERR1
 40
0.0
  9
$USERR2
 40
0.0
  9
$USERR3
 40
0.0
  9
$USERR4
 40
0.0
  9
$USERR5
 40
0.0
  9
$WORLDVIEW
 70
     1
  9
$SHADEDGE
 70
     3
  9
$SHADEDIF
 70
    70
  9
$TILEMODE
 70
     1
  9
$MAXACTVP
 70
    16
  9
$PINSBASE
 10
0.0
 20
0.0
 30
0.0
  9
$PLIMCHECK
 70
     0
  9
$PEXTMIN
 10
0.0
 20
0.0
 30
0.0
  9
$PEXTMAX
 10
0.0
 20
0.0
 30
0.0
  9
$PLIMMIN
 10
0.0
 20
0.0
  9
$PLIMMAX
 10
0.0
 20
0.0
  9
$UNITMODE
 70
     0
  9
$VISRETAIN
 70
     0
  9
$PLINEGEN
 70
     1
  9
$PSLTSCALE
 70
     0
  9
$TREEDEPTH
 70
  3020
  9
$CMLSTYLE
  2
Standard
  9
$CMLJUST
 70
     0
  9
$CMLSCALE
 40
1.0
  9
$PROXYGRAPHICS
 70
     0
  9
$MEASUREMENT
 70
     1
  9
$CELWEIGHT
370
     0
  9
$ENDCAPS
280
     0
  9
$JOINSTYLE
280
     0
  9
$LWDISPLAY
290
     0
  9
$INSUNITS
 70
     0
  9
$HYPERLINKBASE
  1

  9
$STYLESHEET
  1

  9
$XEDIT
290
     0
  9
$CEPSNTYPE
380
     0
  9
$PSTYLEMODE
290
     1
  9
$FINGERPRINTGUID
  2

  9
$VERSIONGUID
  2

  9
$EXTNAMES
290
     1
  9
$PSVPSCALE
 40
0.0
  9
$OLESTARTUP
290
     0
  9
$SORTENTS
280
   127
  9
$INDEXCTL
280
     0
  9
$HIDETEXT
280
     1
  9
$XCLIPFRAME
290
     0
  9
$HALOGAP
280
     0
  9
$OBSCOLOR
 70
   257
  9
$OBSLTYPE
280
     0
  9
$INTERSECTIONDISPLAY
280
     0
  9
$INTERSECTIONCOLOR
 70
   257
  9
$DIMASSOC
280
     2
  9
$PROJECTNAME
  1

  9
$CAMERADISPLAY
290
     0
  9
$LENSLENGTH
 40
50.0
  9
$CAMERAHEIGHT
 40
0.0
  9
$STEPSPERSEC
 40
2.0
  9
$STEPSIZE
 40
6.0
  9
$3DDWFPREC
 40
2.0
  9
$PSOLWIDTH
 40
0.25
  9
$PSOLHEIGHT
 40
4.0
  9
$LOFTANG1
 40
1.570796326794897
  9
$LOFTANG2
 40
1.570796326794897
  9
$LOFTMAG1
 40
0.0
  9
$LOFTMAG2
 40
0.0
  9
$LOFTPARAM
 70
     7
  9
$LOFTNORMALS
280
     1
  9
$LATITUDE
 40
37.795
  9
$LONGITUDE
 40
-122.394
  9
$NORTHDIRECTION
 40
0.0
  9
$TIMEZONE
 70
 -8000
  9
$LIGHTGLYPHDISPLAY
280
     1
  9
$TILEMODELIGHTSYNCH
280
     1
  9
$SOLIDHIST
280
     1
  9
$SHOWHIST
280
     1
  9
$DWFFRAME
280
     2
  9
$DGNFRAME
280
     2
  9
$REALWORLDSCALE
290
     1
  9
$INTERFERECOLOR
 62
   256
  9
$CSHADOW
280
     0
  9
$SHADOWPLANELOCATION
 40
0.0
  0
ENDSEC
  0
SECTION
  2
CLASSES
  0
CLASS
  1
ACDBDICTIONARYWDFLT
  2
AcDbDictionaryWithDefault
  3
ObjectDBX Classes
 90
        0
 91
        4
280
     0
281
     0
  0
CLASS
  1
ACDBPLACEHOLDER
  2
AcDbPlaceHolder
  3
ObjectDBX Classes
 90
        0
 91
        1
280
     0
281
     0
  0
CLASS
  1
LAYOUT
  2
AcDbLayout
  3
ObjectDBX Classes
 90
        0
 91
        1
280
     0
281
     0
  0
CLASS
  1
DICTIONARYVAR
  2
AcDbDictionaryVar
  3
ObjectDBX Classes
 90
        0
 91
        4
280
     0
281
     0
  0
CLASS
  1
TABLESTYLE
  2
AcDbTableStyle
  3
ObjectDBX Classes
 90
     4095
 91
        4
280
     0
281
     0
  0
CLASS
  1
SCALE
  2
AcDbScale
  3
ObjectDBX Classes
 90
     1153
 91
        4
280
     0
281
     0
  0
CLASS
  1
WIPEOUTVARIABLES
  2
AcDbWipeoutVariables
  3
WipeOut|AutoCAD Express Tool|expresstools@autodesk.com
 90
        0
 91
        4
280
     0
281
     0
  0
ENDSEC
  0
SECTION
  2
TABLES
  0
TABLE
  2
VPORT
  5
8
330
0
100
AcDbSymbolTable
 70
     2
  0
VPORT
  5
97
330
8
100
AcDbSymbolTableRecord
100
AcDbViewportTableRecord
  2
*ACTIVE
 70
     0
 10
0.0
 20
0.0
 11
1.0
 21
1.0
 12
151.559052
 22
131.72736
 13
0.0
 23
0.0
 14
1.0
 24
1.0
 15
0.0
 25
0.0
 16
0.0
 26
0.0
 36
1.0
 17
0.0
 27
0.0
 37
0.0
 40
146.90195856
 41
0.688564
 42
50.0
 43
0.0
 44
0.0
 50
0.0
 51
0.0
 71
    16
 72
   100
 73
     1
 74
     1
 75
     0
 76
     0
 77
     0
 78
     0
281
     0
 65
     0
110
0.0
120
0.0
130
0.0
111
1.0
121
0.0
131
0.0
112
0.0
122
1.0
132
0.0
 79
     0
146
0.0
 60
     3
 61
     5
292
     1
282
     1
141
0.0
142
0.0
 63
   256
  0
ENDTAB
  0
TABLE
  2
LTYPE
  5
5
330
0
100
AcDbSymbolTable
 70
     2
  0
LTYPE
  5
14
330
5
100
AcDbSymbolTableRecord
100
AcDbLinetypeTableRecord
  2
ByBlock
 70
     0
  3

 72
    65
 73
     0
 40
0.0
  0
LTYPE
  5
15
330
5
100
AcDbSymbolTableRecord
100
AcDbLinetypeTableRecord
  2
ByLayer
 70
     0
  3

 72
    65
 73
     0
 40
0.0
  0
LTYPE
  5
16
330
5
100
AcDbSymbolTableRecord
100
AcDbLinetypeTableRecord
  2
Continuous
 70
     0
  3
Solid line
 72
    65
 73
     0
 40
0.0
  0
LTYPE
  5
451
330
5
100
AcDbSymbolTableRecord
100
AcDbLinetypeTableRecord
  2
AI9-LType1
 70
     0
  3
Illustrator Dash Style No.1
 72
    65
 73
     4
 40
20.32
 49
12.7
 74
     4
 75
     0
340
0
 46
1.0
 50
0.0
 44
0.0
 45
0.0
 49
-2.54
 74
     4
 75
     0
340
0
 46
1.0
 50
0.0
 44
0.0
 45
0.0
 49
2.54
 74
     4
 75
     0
340
0
 46
1.0
 50
0.0
 44
0.0
 45
0.0
 49
-2.54
 74
     4
 75
     0
340
0
 46
1.0
 50
0.0
 44
0.0
 45
0.0
  0
ENDTAB
  0
TABLE
  2
LAYER
  5
2
330
0
100
AcDbSymbolTable
 70
     2
  0
LAYER
  5
10
330
2
100
AcDbSymbolTableRecord
100
AcDbLayerTableRecord
  2
0
 70
     0
 62
     7
  6
Continuous
370
    -3
390
F
347
0
  0
LAYER
  5
28
330
2
100
AcDbSymbolTableRecord
100
AcDbLayerTableRecord
  2
LAYER_1
 70
     0
 62
   160
  6
Continuous
370
    -3
390
F
347
0
  0
ENDTAB
  0
TABLE
  2
STYLE
  5
3
330
0
100
AcDbSymbolTable
 70
     5
  0
STYLE
  5
11
330
3
100
AcDbSymbolTableRecord
100
AcDbTextStyleTableRecord
  2
Standard
 70
     0
 40
0.0
 41
1.0
 50
0.0
 71
     0
 42
0.2
  3
txt
  4

  0
STYLE
  5
24
330
3
100
AcDbSymbolTableRecord
100
AcDbTextStyleTableRecord
  2
STD
 70
     0
 40
0.0
 41
1.0
 50
0.0
 71
     0
 42
0.2
  3
txt
  4

  0
STYLE
  5
25
330
3
100
AcDbSymbolTableRecord
100
AcDbTextStyleTableRecord
  2
TATESTD
 70
     4
 40
0.0
 41
1.0
 50
0.0
 71
     0
 42
0.2
  3
txt
  4

  0
STYLE
  5
26
330
3
100
AcDbSymbolTableRecord
100
AcDbTextStyleTableRecord
  2
KANJISTD
 70
     0
 40
0.0
 41
1.0
 50
0.0
 71
     0
 42
0.2
  3
txt
  4
extfont
  0
STYLE
  5
450
330
3
100
AcDbSymbolTableRecord
100
AcDbTextStyleTableRecord
  2
KANJITATE
 70
     4
 40
0.0
 41
1.0
 50
0.0
 71
     0
 42
0.2
  3
txt
  4
extfont
  0
ENDTAB
  0
TABLE
  2
VIEW
  5
6
330
0
100
AcDbSymbolTable
 70
     0
  0
ENDTAB
  0
TABLE
  2
UCS
  5
7
330
0
100
AcDbSymbolTable
 70
     0
  0
ENDTAB
  0
TABLE
  2
APPID
  5
9
330
0
100
AcDbSymbolTable
 70
     1
  0
APPID
  5
12
330
9
100
AcDbSymbolTableRecord
100
AcDbRegAppTableRecord
  2
ACAD
 70
     0
  0
ENDTAB
  0
TABLE
  2
DIMSTYLE
  5
A
330
0
100
AcDbSymbolTable
 70
     1
100
AcDbDimStyleTable
  0
DIMSTYLE
105
27
330
A
100
AcDbSymbolTableRecord
100
AcDbDimStyleTableRecord
  2
Standard
 70
     0
340
11
  0
ENDTAB
  0
TABLE
  2
BLOCK_RECORD
  5
1
330
0
100
AcDbSymbolTable
 70
     3
  0
BLOCK_RECORD
  5
1F
102
{ACAD_XDICTIONARY
360
46A
102
}
330
1
100
AcDbSymbolTableRecord
100
AcDbBlockTableRecord
  2
*Model_Space
340
22
 70
     0
280
     1
281
     0
  0
BLOCK_RECORD
  5
73
330
1
100
AcDbSymbolTableRecord
100
AcDbBlockTableRecord
  2
*Paper_Space
340
74
 70
     0
280
     1
281
     0
  0
BLOCK_RECORD
  5
3B3
330
1
100
AcDbSymbolTableRecord
100
AcDbBlockTableRecord
  2
AI9-BLK1
340
0
102
{BLKREFS
331
3B4
102
}
 70
     0
280
     1
281
     0
  0
BLOCK_RECORD
  5
413
330
1
100
AcDbSymbolTableRecord
100
AcDbBlockTableRecord
  2
AI9-BLK2
340
0
102
{BLKREFS
331
414
102
}
 70
     0
280
     1
281
     0
  0
BLOCK_RECORD
  5
41A
330
1
100
AcDbSymbolTableRecord
100
AcDbBlockTableRecord
  2
AI9-BLK3
340
0
102
{BLKREFS
331
41B
102
}
 70
     0
280
     1
281
     0
  0
ENDTAB
  0
ENDSEC
  0
SECTION
  2
BLOCKS
  0
BLOCK
  5
20
330
1F
100
AcDbEntity
  8
0
100
AcDbBlockBegin
  2
*Model_Space
 70
     0
 10
0.0
 20
0.0
 30
0.0
  3
*Model_Space
  1

  0
ENDBLK
  5
21
330
1F
100
AcDbEntity
  8
0
100
AcDbBlockEnd
  0
BLOCK
  5
75
330
73
100
AcDbEntity
 67
     1
  8
0
100
AcDbBlockBegin
  2
*Paper_Space
 70
     0
 10
0.0
 20
0.0
 30
0.0
  3
*Paper_Space
  1

  0
ENDBLK
  5
76
330
73
100
AcDbEntity
 67
     1
  8
0
100
AcDbBlockEnd
  0
BLOCK
  5
453
330
3B3
100
AcDbEntity
  8
LAYER_1
100
AcDbBlockBegin
  2
AI9-BLK1
 70
     0
 10
0.0
 20
0.0
 30
0.0
  3
AI9-BLK1
  1

  0
MTEXT
  5
3B8
330
3B3
100
AcDbEntity
  8
LAYER_1
 62
     7
100
AcDbMText
 10
-1.705405
 20
0.744485
 30
0.0
 40
2.657801
 41
0.0
 46
0.0
 71
     1
 72
     2
  1
\fArial|b0|i0;\H2.6578;\W0.75;\C7;9
  7
STD
 11
0.0
 21
1.0
 31
0.0
 73
     1
 44
1.0
  0
MTEXT
  5
3B7
330
3B3
100
AcDbEntity
  8
LAYER_1
 62
     7
100
AcDbMText
 10
-1.705405
 20
-0.745174
 30
0.0
 40
2.657801
 41
0.0
 46
0.0
 71
     1
 72
     2
  1
\fArial|b0|i0;\H2.6578;\W0.75;\C7;7
  7
STD
 11
0.0
 21
1.0
 31
0.0
 73
     1
 44
1.0
  0
MTEXT
  5
3B6
330
3B3
100
AcDbEntity
  8
LAYER_1
 62
     7
100
AcDbMText
 10
-1.705405
 20
-2.234489
 30
0.0
 40
2.657801
 41
0.0
 46
0.0
 71
     1
 72
     2
  1
\fArial|b0|i0;\H2.6578;\W0.75;\C7;2
  7
STD
 11
0.0
 21
1.0
 31
0.0
 73
     1
 44
1.0
  0
ENDBLK
  5
454
330
3B3
100
AcDbEntity
  8
LAYER_1
100
AcDbBlockEnd
  0
BLOCK
  5
455
330
413
100
AcDbEntity
  8
LAYER_1
100
AcDbBlockBegin
  2
AI9-BLK2
 70
     0
 10
0.0
 20
0.0
 30
0.0
  3
AI9-BLK2
  1

  0
MTEXT
  5
418
330
413
100
AcDbEntity
  8
LAYER_1
 62
     7
100
AcDbMText
 10
-1.705405
 20
0.744313
 30
0.0
 40
2.657801
 41
0.0
 46
0.0
 71
     1
 72
     2
  1
\fArial|b0|i0;\H2.6578;\W0.75;\C7;6
  7
STD
 11
0.0
 21
1.0
 31
0.0
 73
     1
 44
1.0
  0
MTEXT
  5
417
330
413
100
AcDbEntity
  8
LAYER_1
 62
     7
100
AcDbMText
 10
-1.705405
 20
-0.745002
 30
0.0
 40
2.657801
 41
0.0
 46
0.0
 71
     1
 72
     2
  1
\fArial|b0|i0;\H2.6578;\W0.75;\C7;5
  7
STD
 11
0.0
 21
1.0
 31
0.0
 73
     1
 44
1.0
  0
MTEXT
  5
416
330
413
100
AcDbEntity
  8
LAYER_1
 62
     7
100
AcDbMText
 10
-1.705405
 20
-2.234317
 30
0.0
 40
2.657801
 41
0.0
 46
0.0
 71
     1
 72
     2
  1
\fArial|b0|i0;\H2.6578;\W0.75;\C7;1
  7
STD
 11
0.0
 21
1.0
 31
0.0
 73
     1
 44
1.0
  0
ENDBLK
  5
456
330
413
100
AcDbEntity
  8
LAYER_1
100
AcDbBlockEnd
  0
BLOCK
  5
457
330
41A
100
AcDbEntity
  8
LAYER_1
100
AcDbBlockBegin
  2
AI9-BLK3
 70
     0
 10
0.0
 20
0.0
 30
0.0
  3
AI9-BLK3
  1

  0
MTEXT
  5
41E
330
41A
100
AcDbEntity
  8
LAYER_1
 62
     7
100
AcDbMText
 10
-1.705491
 20
-0.000172
 30
0.0
 40
2.657801
 41
0.0
 46
0.0
 71
     1
 72
     2
  1
\fArial|b0|i0;\H2.6578;\W0.75;\C7;4
  7
STD
 11
0.0
 21
1.0
 31
0.0
 73
     1
 44
1.0
  0
MTEXT
  5
41D
330
41A
100
AcDbEntity
  8
LAYER_1
 62
     7
100
AcDbMText
 10
-1.705318
 20
-1.489832
 30
0.0
 40
2.657801
 41
0.0
 46
0.0
 71
     1
 72
     2
  1
\fArial|b0|i0;\H2.6578;\W0.75;\C7;5
  7
STD
 11
0.0
 21
1.0
 31
0.0
 73
     1
 44
1.0
  0
ENDBLK
  5
458
330
41A
100
AcDbEntity
  8
LAYER_1
100
AcDbBlockEnd
  0
ENDSEC
  0
SECTION
  2
ENTITIES
  0
LINE
  5
428
330
1F
100
AcDbEntity
  8
LAYER_1
 62
     7
100
AcDbLine
 10
39.823065
 20
95.849102
 30
0.0
 11
40.272822
 21
98.549023
 31
0.0
  0
LINE
  5
427
330
1F
100
AcDbEntity
  8
LAYER_1
 62
     7
100
AcDbLine
 10
40.272994
 20
98.549023
 30
0.0
 11
40.723096
 21
95.849102
 31
0.0
  0
LINE
  5
426
330
1F
100
AcDbEntity
  8
LAYER_1
 62
     7
100
AcDbLine
 10
39.823065
 20
95.849102
 30
0.0
 11
40.72344
 21
95.849102
 31
0.0
  0
LINE
  5
425
330
1F
100
AcDbEntity
  8
LAYER_1
 62
     7
100
AcDbLine
 10
40.272994
 20
98.549023
 30
0.0
 11
40.272994
 21
95.849102
 31
0.0
  0
LINE
  5
424
330
1F
100
AcDbEntity
  8
LAYER_1
 62
     7
100
AcDbLine
 10
40.723268
 20
79.795302
 30
0.0
 11
40.273166
 21
77.095036
 31
0.0
  0
LINE
  5
423
330
1F
100
AcDbEntity
  8
LAYER_1
 62
     7
100
AcDbLine
 10
40.272994
 20
77.095036
 30
0.0
 11
39.823237
 21
79.795302
 31
0.0
  0
LINE
  5
422
330
1F
100
AcDbEntity
  8
LAYER_1
 62
     7
100
AcDbLine
 10
40.723268
 20
79.795302
 30
0.0
 11
39.822892
 21
79.795302
 31
0.0
  0
LINE
  5
421
330
1F
100
AcDbEntity
  8
LAYER_1
 62
     7
100
AcDbLine
 10
40.272994
 20
77.095036
 30
0.0
 11
40.272994
 21
79.795302
 31
0.0
  0
LINE
  5
420
330
1F
100
AcDbEntity
  8
LAYER_1
 62
     7
100
AcDbLine
 10
40.272994
 20
98.549023
 30
0.0
 11
40.272994
 21
77.09538
 31
0.0
  0
INSERT
  5
41B
330
1F
100
AcDbEntity
  8
LAYER_1
 62
     7
100
AcDbBlockReference
  2
AI9-BLK3
 10
38.523144
 20
87.746754
 30
0.0
  0
INSERT
  5
414
330
1F
100
AcDbEntity
  8
LAYER_1
 62
     7
100
AcDbBlockReference
  2
AI9-BLK2
 10
117.105514
 20
121.92348
 30
0.0
  0
LINE
  5
412
330
1F
100
AcDbEntity
  8
LAYER_1
 62
     7
100
AcDbLine
 10
57.115032
 20
100.482411
 30
0.0
 11
57.115032
 21
117.845692
 31
0.0
  0
SPLINE
  5
411
330
1F
100
AcDbEntity
  8
LAYER_1
 62
     7
100
AcDbSpline
210
0.0
220
0.0
230
1.0
 70
     8
 71
     3
 72
     8
 73
     4
 74
     0
 42
0.00000001
 43
0.00000001
 40
0.0
 40
0.0
 40
0.0
 40
0.0
 40
1.0
 40
1.0
 40
1.0
 40
1.0
 10
57.11503228081597
 20
96.63699544270833
 30
0.0
 10
57.0416517469618
 20
96.56533745659722
 30
0.0
 10
57.00065511067708
 20
96.46749674479166
 30
0.0
 10
57.00065511067708
 20
96.36483289930554
 30
0.0
  0
LINE
  5
410
330
1F
100
AcDbEntity
  8
LAYER_1
 62
     7
100
AcDbLine
 10
57.115032
 20
77.380979
 30
0.0
 11
57.115032
 21
98.26377
 31
0.0
  0
LINE
  5
40F
330
1F
100
AcDbEntity
  8
LAYER_1
 62
     7
100
AcDbLine
 10
57.147072
 20
70.478041
 30
0.0
 11
57.147072
 21
63.668121
 31
0.0
  0
LINE
  5
40E
330
1F
100
AcDbEntity
  8
LAYER_1
 62
     7
100
AcDbLine
 10
57.13622
 20
77.026478
 30
0.0
 11
57.13622
 21
98.668568
 31
0.0
  0
LINE
  5
40D
330
1F
100
AcDbEntity
  8
LAYER_1
 62
     7
100
AcDbLine
 10
84.99998
 20
116.33364
 30
0.0
 11
87.700418
 21
115.883883
 31
0.0
  0
LINE
  5
40C
330
1F
100
AcDbEntity
  8
LAYER_1
 62
     7
100
AcDbLine
 10
87.700418
 20
115.88371
 30
0.0
 11
84.99998
 21
115.433609
 31
0.0
  0
LINE
  5
40B
330
1F
100
AcDbEntity
  8
LAYER_1
 62
     7
100
AcDbLine
 10
84.99998
 20
116.33364
 30
0.0
 11
84.99998
 21
115.433609
 31
0.0
  0
LINE
  5
40A
330
1F
100
AcDbEntity
  8
LAYER_1
 62
     7
100
AcDbLine
 10
87.700418
 20
115.88371
 30
0.0
 11
84.99998
 21
115.88371
 31
0.0
  0
LINE
  5
409
330
1F
100
AcDbEntity
  8
LAYER_1
 62
     7
100
AcDbLine
 10
59.836658
 20
115.433609
 30
0.0
 11
57.13622
 21
115.88371
 31
0.0
  0
LINE
  5
408
330
1F
100
AcDbEntity
  8
LAYER_1
 62
     7
100
AcDbLine
 10
57.13622
 20
115.88371
 30
0.0
 11
59.836658
 21
116.333468
 31
0.0
  0
LINE
  5
407
330
1F
100
AcDbEntity
  8
LAYER_1
 62
     7
100
AcDbLine
 10
59.836658
 20
115.433609
 30
0.0
 11
59.836658
 21
116.333468
 31
0.0
  0
LINE
  5
406
330
1F
100
AcDbEntity
  8
LAYER_1
 62
     7
100
AcDbLine
 10
57.13622
 20
115.88371
 30
0.0
 11
59.836658
 21
115.88371
 31
0.0
  0
LINE
  5
405
330
1F
100
AcDbEntity
  8
LAYER_1
 62
     7
100
AcDbLine
 10
87.700418
 20
101.985851
 30
0.0
 11
87.700418
 21
116.643009
 31
0.0
  0
LINE
  5
404
330
1F
100
AcDbEntity
  8
LAYER_1
 62
     7
100
AcDbLine
 10
87.700418
 20
115.88371
 30
0.0
 11
57.136047
 21
115.88371
 31
0.0
  0
MTEXT
  5
403
330
1F
100
AcDbEntity
  8
LAYER_1
 62
     7
100
AcDbMText
 10
79.376206
 20
119.338102
 30
0.0
 40
2.635492
 41
0.0
 46
0.0
 71
     1
 72
     2
  1
\fArial|b0|i0;\H2.6355;\C7;77
  7
STD
 73
     1
 44
1.0
  0
MTEXT
  5
402
330
1F
100
AcDbEntity
  8
LAYER_1
 62
     7
100
AcDbMText
 10
98.539033
 20
72.054511
 30
0.0
 40
2.635492
 41
0.0
 46
0.0
 71
     1
 72
     2
  1
\fArial|b0|i0;\H2.6355;\C7;212
  7
STD
 73
     1
 44
1.0
  0
LINE
  5
401
330
1F
100
AcDbEntity
  8
LAYER_1
 62
     7
100
AcDbLine
 10
140.435528
 20
68.899154
 30
0.0
 11
143.135794
 21
68.449224
 31
0.0
  0
LINE
  5
400
330
1F
100
AcDbEntity
  8
LAYER_1
 62
     7
100
AcDbLine
 10
143.135794
 20
68.449224
 30
0.0
 11
140.4357
 21
67.99895
 31
0.0
  0
LINE
  5
3FF
330
1F
100
AcDbEntity
  8
LAYER_1
 62
     7
100
AcDbLine
 10
140.435528
 20
68.899154
 30
0.0
 11
140.435528
 21
67.99895
 31
0.0
  0
LINE
  5
3FE
330
1F
100
AcDbEntity
  8
LAYER_1
 62
     7
100
AcDbLine
 10
143.135794
 20
68.449224
 30
0.0
 11
140.4357
 21
68.449224
 31
0.0
  0
LINE
  5
3FD
330
1F
100
AcDbEntity
  8
LAYER_1
 62
     7
100
AcDbLine
 10
59.836658
 20
67.99895
 30
0.0
 11
57.13622
 21
68.449224
 31
0.0
  0
LINE
  5
3FC
330
1F
100
AcDbEntity
  8
LAYER_1
 62
     7
100
AcDbLine
 10
57.13622
 20
68.449224
 30
0.0
 11
59.836658
 21
68.899154
 31
0.0
  0
LINE
  5
3FB
330
1F
100
AcDbEntity
  8
LAYER_1
 62
     7
100
AcDbLine
 10
59.836658
 20
67.99895
 30
0.0
 11
59.836658
 21
68.899154
 31
0.0
  0
LINE
  5
3FA
330
1F
100
AcDbEntity
  8
LAYER_1
 62
     7
100
AcDbLine
 10
57.13622
 20
68.449224
 30
0.0
 11
59.836658
 21
68.449224
 31
0.0
  0
LINE
  5
3F9
330
1F
100
AcDbEntity
  8
LAYER_1
 62
     7
100
AcDbLine
 10
143.135794
 20
66.553044
 30
0.0
 11
143.135794
 21
150.427683
 31
0.0
  0
LINE
  5
3F8
330
1F
100
AcDbEntity
  8
LAYER_1
 62
     7
100
AcDbLine
 10
143.135794
 20
68.449224
 30
0.0
 11
57.136392
 21
68.449224
 31
0.0
  0
SPLINE
  5
3F7
330
1F
100
AcDbEntity
  8
LAYER_1
 62
     7
100
AcDbSpline
210
0.0
220
0.0
230
1.0
 70
     8
 71
     3
 72
     8
 73
     4
 74
     0
 42
0.00000001
 43
0.00000001
 40
0.0
 40
0.0
 40
0.0
 40
0.0
 40
1.0
 40
1.0
 40
1.0
 40
1.0
 10
260.7392957899305
 20
87.3438503689236
 30
0.0
 10
260.5177761501736
 20
87.09718153211804
 30
0.0
 10
260.8126763237847
 20
87.42618815104166
 30
0.0
 10
260.5915011935764
 20
87.17917480468749
 30
0.0
  0
SPLINE
  5
3F6
330
1F
100
AcDbEntity
  8
LAYER_1
 62
     7
100
AcDbSpline
210
0.0
220
0.0
230
1.0
 70
     8
 71
     3
 72
     8
 73
     4
 74
     0
 42
0.00000001
 43
0.00000001
 40
0.0
 40
0.0
 40
0.0
 40
0.0
 40
1.0
 40
1.0
 40
1.0
 40
1.0
 10
260.56083984375
 20
87.479931640625
 30
0.0
 10
260.829212782118
 20
87.27598198784722
 30
0.0
 10
260.4709228515625
 20
87.54745551215277
 30
0.0
 10
260.7392957899305
 20
87.3438503689236
 30
0.0
  0
SPLINE
  5
3F5
330
1F
100
AcDbEntity
  8
LAYER_1
 62
     7
100
AcDbSpline
210
0.0
220
0.0
230
1.0
 70
     8
 71
     3
 72
     8
 73
     4
 74
     0
 42
0.00000001
 43
0.00000001
 40
0.0
 40
0.0
 40
0.0
 40
0.0
 40
1.0
 40
1.0
 40
1.0
 40
1.0
 10
260.4254475911458
 20
87.34488389756943
 30
0.0
 10
260.6276746961805
 20
87.54676649305554
 30
0.0
 10
260.3586127387152
 20
87.27770453559027
 30
0.0
 10
260.56083984375
 20
87.479931640625
 30
0.0
  0
SPLINE
  5
3F4
330
1F
100
AcDbEntity
  8
LAYER_1
 62
     7
100
AcDbSpline
210
0.0
220
0.0
230
1.0
 70
     8
 71
     3
 72
     8
 73
     4
 74
     0
 42
0.00000001
 43
0.00000001
 40
0.0
 40
0.0
 40
0.0
 40
0.0
 40
1.0
 40
1.0
 40
1.0
 40
1.0
 10
260.56083984375
 20
88.64781901041665
 30
0.0
 10
260.4209689670139
 20
88.79836968315972
 30
0.0
 10
260.6063151041666
 20
88.59752061631944
 30
0.0
 10
260.4674777560764
 20
88.7480712890625
 30
0.0
  0
SPLINE
  5
3F3
330
1F
100
AcDbEntity
  8
LAYER_1
 62
     7
100
AcDbSpline
210
0.0
220
0.0
230
1.0
 70
     8
 71
     3
 72
     8
 73
     4
 74
     0
 42
0.00000001
 43
0.00000001
 40
0.0
 40
0.0
 40
0.0
 40
0.0
 40
1.0
 40
1.0
 40
1.0
 40
1.0
 10
260.7392957899305
 20
88.78458930121526
 30
0.0
 10
260.4709228515625
 20
88.57926161024305
 30
0.0
 10
260.829212782118
 20
88.85349121093749
 30
0.0
 10
260.56083984375
 20
88.64781901041665
 30
0.0
  0
SPLINE
  5
3F2
330
1F
100
AcDbEntity
  8
LAYER_1
 62
     7
100
AcDbSpline
210
0.0
220
0.0
230
1.0
 70
     8
 71
     3
 72
     8
 73
     4
 74
     0
 42
0.00000001
 43
0.00000001
 40
0.0
 40
0.0
 40
0.0
 40
0.0
 40
1.0
 40
1.0
 40
1.0
 40
1.0
 10
260.6314643012153
 20
88.91240234374999
 30
0.0
 10
260.7933837890625
 20
88.72085503472222
 30
0.0
 10
260.5780653211805
 20
88.97613661024305
 30
0.0
 10
260.7392957899305
 20
88.78458930121526
 30
0.0
  0
SPLINE
  5
3F1
330
1F
100
AcDbEntity
  8
LAYER_1
 62
     7
100
AcDbSpline
210
0.0
220
0.0
230
1.0
 70
     8
 71
     3
 72
    14
 73
    10
 74
     0
 42
0.00000001
 43
0.00000001
 40
0.0
 40
0.0
 40
0.0
 40
0.0
 40
1.0
 40
1.0
 40
1.0
 40
2.0
 40
2.0
 40
2.0
 40
3.0
 40
3.0
 40
3.0
 40
3.0
 10
259.7481418185764
 20
86.86601562499999
 30
0.0
 10
259.3529893663194
 20
86.89254286024305
 30
0.0
 10
259.8793999565972
 20
86.84913465711804
 30
0.0
 10
259.4845920138889
 20
86.8877197265625
 30
0.0
 10
258.8865234375
 20
87.06410861545137
 30
0.0
 10
259.6685601128472
 20
86.78712293836804
 30
0.0
 10
259.0939181857639
 20
87.02655707465277
 30
0.0
 10
258.7904052734375
 20
87.24325358072916
 30
0.0
 10
259.1900363498264
 20
86.94628634982638
 30
0.0
 10
258.8941026475694
 20
87.17504069010415
 30
0.0
  0
SPLINE
  5
3F0
330
1F
100
AcDbEntity
  8
LAYER_1
 62
     7
100
AcDbSpline
210
0.0
220
0.0
230
1.0
 70
     8
 71
     3
 72
    14
 73
    10
 74
     0
 42
0.00000001
 43
0.00000001
 40
0.0
 40
0.0
 40
0.0
 40
0.0
 40
1.0
 40
1.0
 40
1.0
 40
2.0
 40
2.0
 40
2.0
 40
3.0
 40
3.0
 40
3.0
 40
3.0
 10
260.5915011935764
 20
87.17917480468749
 30
0.0
 10
260.3661919487847
 20
86.9993408203125
 30
0.0
 10
260.6700493706597
 20
87.2353298611111
 30
0.0
 10
260.4395724826389
 20
87.0613525390625
 30
0.0
 10
259.8821560329861
 20
86.78850097656249
 30
0.0
 10
260.6428331163194
 20
87.1113064236111
 30
0.0
 10
260.0592339409722
 20
86.90012207031249
 30
0.0
 10
259.59345703125
 20
86.83948838975694
 30
0.0
 10
260.2163302951388
 20
86.90735677083333
 30
0.0
 10
259.7481418185764
 20
86.86601562499999
 30
0.0
  0
SPLINE
  5
3EF
330
1F
100
AcDbEntity
  8
LAYER_1
 62
     7
100
AcDbSpline
210
0.0
220
0.0
230
1.0
 70
     8
 71
     3
 72
    14
 73
    10
 74
     0
 42
0.00000001
 43
0.00000001
 40
0.0
 40
0.0
 40
0.0
 40
0.0
 40
1.0
 40
1.0
 40
1.0
 40
2.0
 40
2.0
 40
2.0
 40
3.0
 40
3.0
 40
3.0
 40
3.0
 10
258.5196207682291
 20
88.07696668836805
 30
0.0
 10
258.6033365885417
 20
88.70294053819444
 30
0.0
 10
258.4651882595486
 20
87.87542860243055
 30
0.0
 10
258.5888671875
 20
88.49072265624999
 30
0.0
 10
258.8841118706597
 20
89.05296223958332
 30
0.0
 10
258.4489963107638
 20
88.32708062065971
 30
0.0
 10
258.8062527126736
 20
88.85349121093749
 30
0.0
 10
258.8872124565972
 20
88.93996310763887
 30
0.0
 10
258.7790364583333
 20
88.8255859375
 30
0.0
 10
258.8599962022569
 20
88.91067979600693
 30
0.0
  0
SPLINE
  5
3EE
330
1F
100
AcDbEntity
  8
LAYER_1
 62
     7
100
AcDbSpline
210
0.0
220
0.0
230
1.0
 70
     8
 71
     3
 72
    14
 73
    10
 74
     0
 42
0.00000001
 43
0.00000001
 40
0.0
 40
0.0
 40
0.0
 40
0.0
 40
1.0
 40
1.0
 40
1.0
 40
2.0
 40
2.0
 40
2.0
 40
3.0
 40
3.0
 40
3.0
 40
3.0
 10
258.8083197699652
 20
87.26461317274305
 30
0.0
 10
258.6116048177083
 20
87.53195258246527
 30
0.0
 10
258.8686089409722
 20
87.17159559461805
 30
0.0
 10
258.6805067274306
 20
87.44479166666666
 30
0.0
 10
258.4500298394097
 20
87.97774793836805
 30
0.0
 10
258.7204698350694
 20
87.25324435763888
 30
0.0
 10
258.545458984375
 20
87.80687120225694
 30
0.0
 10
258.4999837239583
 20
88.21166992187499
 30
0.0
 10
258.5509711371528
 20
87.67113444010415
 30
0.0
 10
258.5196207682291
 20
88.07696668836805
 30
0.0
  0
SPLINE
  5
3ED
330
1F
100
AcDbEntity
  8
LAYER_1
 62
     7
100
AcDbSpline
210
0.0
220
0.0
230
1.0
 70
     8
 71
     3
 72
     8
 73
     4
 74
     0
 42
0.00000001
 43
0.00000001
 40
0.0
 40
0.0
 40
0.0
 40
0.0
 40
1.0
 40
1.0
 40
1.0
 40
1.0
 10
258.8941026475694
 20
87.17504069010415
 30
0.0
 10
258.7659450954861
 20
87.3093994140625
 30
0.0
 10
258.9371663411458
 20
87.1299099392361
 30
0.0
 10
258.8083197699652
 20
87.26461317274305
 30
0.0
  0
SPLINE
  5
3EC
330
1F
100
AcDbEntity
  8
LAYER_1
 62
     7
100
AcDbSpline
210
0.0
220
0.0
230
1.0
 70
     8
 71
     3
 72
    14
 73
    10
 74
     0
 42
0.00000001
 43
0.00000001
 40
0.0
 40
0.0
 40
0.0
 40
0.0
 40
1.0
 40
1.0
 40
1.0
 40
2.0
 40
2.0
 40
2.0
 40
3.0
 40
3.0
 40
3.0
 40
3.0
 10
259.7453857421875
 20
89.26104600694444
 30
0.0
 10
260.4254475911458
 20
89.17181803385415
 30
0.0
 10
259.5255886501736
 20
89.31926812065971
 30
0.0
 10
260.1953152126736
 20
89.18766547309026
 30
0.0
 10
260.7193142361111
 20
88.93203938802083
 30
0.0
 10
260.03994140625
 20
89.30824381510416
 30
0.0
 10
260.5350016276041
 20
88.99921875
 30
0.0
 10
260.6814181857638
 20
88.87002766927083
 30
0.0
 10
260.4874593098958
 20
89.04434950086805
 30
0.0
 10
260.6314643012153
 20
88.91240234374999
 30
0.0
  0
SPLINE
  5
3EB
330
1F
100
AcDbEntity
  8
LAYER_1
 62
     7
100
AcDbSpline
210
0.0
220
0.0
230
1.0
 70
     8
 71
     3
 72
    14
 73
    10
 74
     0
 42
0.00000001
 43
0.00000001
 40
0.0
 40
0.0
 40
0.0
 40
0.0
 40
1.0
 40
1.0
 40
1.0
 40
2.0
 40
2.0
 40
2.0
 40
3.0
 40
3.0
 40
3.0
 40
3.0
 10
258.8599962022569
 20
88.91067979600693
 30
0.0
 10
259.2082953559027
 20
89.19455566406249
 30
0.0
 10
258.7366617838541
 20
88.82661946614583
 30
0.0
 10
259.0963297526042
 20
89.09464789496526
 30
0.0
 10
259.6547797309028
 20
89.3375271267361
 30
0.0
 10
258.8947916666667
 20
89.05399576822916
 30
0.0
 10
259.4763237847222
 20
89.23658582899304
 30
0.0
 10
259.8793999565972
 20
89.28033854166665
 30
0.0
 10
259.3412760416666
 20
89.23107367621527
 30
0.0
 10
259.7453857421875
 20
89.26104600694444
 30
0.0
  0
SPLINE
  5
3EA
330
1F
100
AcDbEntity
  8
LAYER_1
 62
     7
100
AcDbSpline
210
0.0
220
0.0
230
1.0
 70
     8
 71
     3
 72
    14
 73
    10
 74
     0
 42
0.00000001
 43
0.00000001
 40
0.0
 40
0.0
 40
0.0
 40
0.0
 40
1.0
 40
1.0
 40
1.0
 40
2.0
 40
2.0
 40
2.0
 40
3.0
 40
3.0
 40
3.0
 40
3.0
 10
258.7239149305555
 20
88.06111924913193
 30
0.0
 10
258.7921278211805
 20
87.55400119357638
 30
0.0
 10
258.6794731987847
 20
88.22476128472222
 30
0.0
 10
258.7804144965277
 20
87.72591145833333
 30
0.0
 10
259.0208821614583
 20
87.27046983506943
 30
0.0
 10
258.6653483072917
 20
87.85751410590277
 30
0.0
 10
258.9585259331597
 20
87.43238932291666
 30
0.0
 10
259.1042534722222
 20
87.2880398220486
 30
0.0
 10
258.9075385199653
 20
87.47786458333333
 30
0.0
 10
259.0567111545139
 20
87.3373046875
 30
0.0
  0
SPLINE
  5
3E9
330
1F
100
AcDbEntity
  8
LAYER_1
 62
     7
100
AcDbSpline
210
0.0
220
0.0
230
1.0
 70
     8
 71
     3
 72
    14
 73
    10
 74
     0
 42
0.00000001
 43
0.00000001
 40
0.0
 40
0.0
 40
0.0
 40
0.0
 40
1.0
 40
1.0
 40
1.0
 40
2.0
 40
2.0
 40
2.0
 40
3.0
 40
3.0
 40
3.0
 40
3.0
 10
259.0174370659722
 20
88.75323893229165
 30
0.0
 10
258.7280490451388
 20
88.40080566406249
 30
0.0
 10
259.0990858289931
 20
88.88139648437499
 30
0.0
 10
258.8320909288194
 20
88.51311577690971
 30
0.0
 10
258.6639702690972
 20
88.07903374565971
 30
0.0
 10
258.857240125868
 20
88.66917860243055
 30
0.0
 10
258.7356282552083
 20
88.2182156032986
 30
0.0
 10
258.7156467013889
 20
87.98291558159721
 30
0.0
 10
258.7383843315972
 20
88.29676378038194
 30
0.0
 10
258.7239149305555
 20
88.06111924913193
 30
0.0
  0
SPLINE
  5
3E8
330
1F
100
AcDbEntity
  8
LAYER_1
 62
     7
100
AcDbSpline
210
0.0
220
0.0
230
1.0
 70
     8
 71
     3
 72
    14
 73
    10
 74
     0
 42
0.00000001
 43
0.00000001
 40
0.0
 40
0.0
 40
0.0
 40
0.0
 40
1.0
 40
1.0
 40
1.0
 40
2.0
 40
2.0
 40
2.0
 40
3.0
 40
3.0
 40
3.0
 40
3.0
 10
260.4674777560764
 20
88.7480712890625
 30
0.0
 10
260.2142632378472
 20
88.94926486545138
 30
0.0
 10
260.5567057291667
 20
88.68778211805555
 30
0.0
 10
260.2962565104166
 20
88.8786404079861
 30
0.0
 10
259.8132541232638
 20
89.09395887586805
 30
0.0
 10
260.4709228515625
 20
88.84246690538194
 30
0.0
 10
259.9669053819444
 20
89.00507541232638
 30
0.0
 10
259.6158501519097
 20
89.04469401041666
 30
0.0
 10
260.085072157118
 20
88.99990776909722
 30
0.0
 10
259.7326388888889
 20
89.0271240234375
 30
0.0
  0
SPLINE
  5
3E7
330
1F
100
AcDbEntity
  8
LAYER_1
 62
     7
100
AcDbSpline
210
0.0
220
0.0
230
1.0
 70
     8
 71
     3
 72
    14
 73
    10
 74
     0
 42
0.00000001
 43
0.00000001
 40
0.0
 40
0.0
 40
0.0
 40
0.0
 40
1.0
 40
1.0
 40
1.0
 40
2.0
 40
2.0
 40
2.0
 40
3.0
 40
3.0
 40
3.0
 40
3.0
 10
259.7326388888889
 20
89.0271240234375
 30
0.0
 10
259.1831461588541
 20
88.95167643229166
 30
0.0
 10
259.9100613064236
 20
89.07466634114583
 30
0.0
 10
259.3691813151041
 20
88.96580132378472
 30
0.0
 10
258.8734320746527
 20
88.71534288194444
 30
0.0
 10
259.5149088541667
 20
89.08431260850693
 30
0.0
 10
259.0491319444444
 20
88.78114420572916
 30
0.0
 10
259.0019341362847
 20
88.74014756944443
 30
0.0
 10
259.0642903645833
 20
88.7949245876736
 30
0.0
 10
259.0174370659722
 20
88.75323893229165
 30
0.0
  0
SPLINE
  5
3E6
330
1F
100
AcDbEntity
  8
LAYER_1
 62
     7
100
AcDbSpline
210
0.0
220
0.0
230
1.0
 70
     8
 71
     3
 72
    14
 73
    10
 74
     0
 42
0.00000001
 43
0.00000001
 40
0.0
 40
0.0
 40
0.0
 40
0.0
 40
1.0
 40
1.0
 40
1.0
 40
2.0
 40
2.0
 40
2.0
 40
3.0
 40
3.0
 40
3.0
 40
3.0
 10
259.7467637803819
 20
87.09993760850693
 30
0.0
 10
260.095751953125
 20
87.12887641059027
 30
0.0
 10
259.6313530815972
 20
87.08167860243054
 30
0.0
 10
259.9786187065972
 20
87.1233642578125
 30
0.0
 10
260.4567979600694
 20
87.2849392361111
 30
0.0
 10
259.8325466579861
 20
87.0368923611111
 30
0.0
 10
260.2910888671875
 20
87.2473876953125
 30
0.0
 10
260.4953830295138
 20
87.39139268663193
 30
0.0
 10
260.2259765625
 20
87.19571126302083
 30
0.0
 10
260.4254475911458
 20
87.34488389756943
 30
0.0
  0
SPLINE
  5
3E5
330
1F
100
AcDbEntity
  8
LAYER_1
 62
     7
100
AcDbSpline
210
0.0
220
0.0
230
1.0
 70
     8
 71
     3
 72
    14
 73
    10
 74
     0
 42
0.00000001
 43
0.00000001
 40
0.0
 40
0.0
 40
0.0
 40
0.0
 40
1.0
 40
1.0
 40
1.0
 40
2.0
 40
2.0
 40
2.0
 40
3.0
 40
3.0
 40
3.0
 40
3.0
 10
259.0567111545139
 20
87.3373046875
 30
0.0
 10
259.2331000434028
 20
87.20535753038193
 30
0.0
 10
258.9957329644097
 20
87.3779568142361
 30
0.0
 10
259.1748779296875
 20
87.2508327907986
 30
0.0
 10
259.6285970052083
 20
87.04171549479166
 30
0.0
 10
259.0108913845486
 20
87.28872884114583
 30
0.0
 10
259.483558485243
 20
87.1268093532986
 30
0.0
 10
259.8769883897569
 20
87.07857801649305
 30
0.0
 10
259.3512668185764
 20
87.1330105251736
 30
0.0
 10
259.7467637803819
 20
87.09993760850693
 30
0.0
  0
LINE
  5
3E4
330
1F
100
AcDbEntity
  8
LAYER_1
 62
     7
100
AcDbLine
 10
179.256931
 20
87.150925
 30
0.0
 11
179.256931
 21
86.819162
 31
0.0
  0
LINE
  5
3E3
330
1F
100
AcDbEntity
  8
LAYER_1
 62
     7
100
AcDbLine
 10
179.256931
 20
86.819162
 30
0.0
 11
179.578358
 21
86.819162
 31
0.0
  0
LINE
  5
3E2
330
1F
100
AcDbEntity
  8
LAYER_1
 62
     7
100
AcDbLine
 10
179.578358
 20
86.819162
 30
0.0
 11
179.578358
 21
87.472008
 31
0.0
  0
LINE
  5
3E1
330
1F
100
AcDbEntity
  8
LAYER_1
 62
     7
100
AcDbLine
 10
180.005895
 20
87.8992
 30
0.0
 11
180.25842
 21
87.8992
 31
0.0
  0
LINE
  5
3E0
330
1F
100
AcDbEntity
  8
LAYER_1
 62
     7
100
AcDbLine
 10
180.688024
 20
87.469596
 30
0.0
 11
180.688024
 21
86.819162
 31
0.0
  0
LINE
  5
3DF
330
1F
100
AcDbEntity
  8
LAYER_1
 62
     7
100
AcDbLine
 10
180.688024
 20
86.819162
 30
0.0
 11
181.009451
 21
86.819162
 31
0.0
  0
LINE
  5
3DE
330
1F
100
AcDbEntity
  8
LAYER_1
 62
     7
100
AcDbLine
 10
181.009451
 20
86.819162
 30
0.0
 11
181.009451
 21
87.148513
 31
0.0
  0
LINE
  5
3DD
330
1F
100
AcDbEntity
  8
LAYER_1
 62
     7
100
AcDbLine
 10
181.009451
 20
88.903101
 30
0.0
 11
181.009451
 21
89.097059
 31
0.0
  0
LINE
  5
3DC
330
1F
100
AcDbEntity
  8
LAYER_1
 62
     7
100
AcDbLine
 10
181.009451
 20
89.097059
 30
0.0
 11
180.688024
 21
89.097059
 31
0.0
  0
LINE
  5
3DB
330
1F
100
AcDbEntity
  8
LAYER_1
 62
     7
100
AcDbLine
 10
180.688024
 20
89.097059
 30
0.0
 11
180.688024
 21
88.582018
 31
0.0
  0
LINE
  5
3DA
330
1F
100
AcDbEntity
  8
LAYER_1
 62
     7
100
AcDbLine
 10
180.268755
 20
88.162061
 30
0.0
 11
179.995559
 21
88.162061
 31
0.0
  0
LINE
  5
3D9
330
1F
100
AcDbEntity
  8
LAYER_1
 62
     7
100
AcDbLine
 10
179.578358
 20
88.579951
 30
0.0
 11
179.578358
 21
89.097059
 31
0.0
  0
LINE
  5
3D8
330
1F
100
AcDbEntity
  8
LAYER_1
 62
     7
100
AcDbLine
 10
179.578358
 20
89.097059
 30
0.0
 11
179.256931
 21
89.097059
 31
0.0
  0
LINE
  5
3D7
330
1F
100
AcDbEntity
  8
LAYER_1
 62
     7
100
AcDbLine
 10
179.256931
 20
89.097059
 30
0.0
 11
179.256931
 21
88.900689
 31
0.0
  0
LINE
  5
3D6
330
1F
100
AcDbEntity
  8
LAYER_1
 62
     7
100
AcDbLine
 10
179.256931
 20
88.900689
 30
0.0
 11
179.256931
 21
87.150925
 31
0.0
  0
LINE
  5
3D5
330
1F
100
AcDbEntity
  8
LAYER_1
 62
     7
100
AcDbLine
 10
181.009451
 20
87.148513
 30
0.0
 11
181.009451
 21
88.903101
 31
0.0
  0
LINE
  5
3D4
330
1F
100
AcDbEntity
  8
LAYER_1
 62
     7
100
AcDbLine
 10
180.25842
 20
87.8992
 30
0.0
 11
180.688024
 21
87.8992
 31
0.0
  0
LINE
  5
3D3
330
1F
100
AcDbEntity
  8
LAYER_1
 62
     7
100
AcDbLine
 10
180.688024
 20
87.8992
 30
0.0
 11
180.688024
 21
87.469596
 31
0.0
  0
LINE
  5
3D2
330
1F
100
AcDbEntity
  8
LAYER_1
 62
     7
100
AcDbLine
 10
180.688024
 20
88.162061
 30
0.0
 11
180.268755
 21
88.162061
 31
0.0
  0
LINE
  5
3D1
330
1F
100
AcDbEntity
  8
LAYER_1
 62
     7
100
AcDbLine
 10
180.688024
 20
88.582018
 30
0.0
 11
180.688024
 21
88.162061
 31
0.0
  0
LINE
  5
3D0
330
1F
100
AcDbEntity
  8
LAYER_1
 62
     7
100
AcDbLine
 10
179.578358
 20
87.8992
 30
0.0
 11
180.005895
 21
87.8992
 31
0.0
  0
LINE
  5
3CF
330
1F
100
AcDbEntity
  8
LAYER_1
 62
     7
100
AcDbLine
 10
179.578358
 20
87.472008
 30
0.0
 11
179.578358
 21
87.8992
 31
0.0
  0
LINE
  5
3CE
330
1F
100
AcDbEntity
  8
LAYER_1
 62
     7
100
AcDbLine
 10
179.995559
 20
88.162061
 30
0.0
 11
179.578358
 21
88.162061
 31
0.0
  0
LINE
  5
3CD
330
1F
100
AcDbEntity
  8
LAYER_1
 62
     7
100
AcDbLine
 10
179.578358
 20
88.162061
 30
0.0
 11
179.578358
 21
88.579951
 31
0.0
  0
LINE
  5
3CC
330
1F
100
AcDbEntity
  8
LAYER_1
 62
     7
100
AcDbLine
 10
180.13233
 20
88.025635
 30
0.0
 11
180.13233
 21
88.975103
 31
0.0
  0
LINE
  5
3CB
330
1F
100
AcDbEntity
  8
LAYER_1
 62
     7
100
AcDbLine
 10
180.13233
 20
88.025635
 30
0.0
 11
179.182861
 21
88.025635
 31
0.0
  0
LINE
  5
3CA
330
1F
100
AcDbEntity
  8
LAYER_1
 62
     7
100
AcDbLine
 10
180.13233
 20
88.025635
 30
0.0
 11
180.13233
 21
87.076855
 31
0.0
  0
LINE
  5
3C9
330
1F
100
AcDbEntity
  8
LAYER_1
 62
     7
100
AcDbLine
 10
180.13233
 20
88.025635
 30
0.0
 11
181.081109
 21
88.025635
 31
0.0
  0
LINE
  5
3C8
330
1F
100
AcDbEntity
  8
LAYER_1
 62
     7
100
AcDbLine
 10
180.13233
 20
89.924227
 30
0.0
 11
180.13233
 21
103.314624
 31
0.0
  0
LINE
  5
3C7
330
1F
100
AcDbEntity
  8
LAYER_1
 62
     7
100
AcDbLine
 10
178.233393
 20
88.025635
 30
0.0
 11
165.278111
 21
88.025635
 31
0.0
  0
LINE
  5
3C6
330
1F
100
AcDbEntity
  8
LAYER_1
 62
     7
100
AcDbLine
 10
180.13233
 20
86.127387
 30
0.0
 11
180.13233
 21
73.45357
 31
0.0
  0
LINE
  5
3C5
330
1F
100
AcDbEntity
  8
LAYER_1
 62
     7
100
AcDbLine
 10
182.030233
 20
88.025635
 30
0.0
 11
194.996194
 21
88.027013
 31
0.0
  0
LINE
  5
3C4
330
1F
100
AcDbEntity
  8
LAYER_1
 62
     7
100
AcDbLine
 10
56.355733
 20
98.549023
 30
0.0
 11
39.265476
 21
98.549023
 31
0.0
  0
LINE
  5
3C3
330
1F
100
AcDbEntity
  8
LAYER_1
 62
     7
100
AcDbLine
 10
56.355733
 20
77.095036
 30
0.0
 11
39.060493
 21
77.095036
 31
0.0
  0
LINE
  5
3C2
330
1F
100
AcDbEntity
  8
LAYER_1
 62
     7
100
AcDbLine
 10
32.107601
 20
199.004563
 30
0.0
 11
32.557703
 21
201.704656
 31
0.0
  0
LINE
  5
3C1
330
1F
100
AcDbEntity
  8
LAYER_1
 62
     7
100
AcDbLine
 10
32.557875
 20
201.704829
 30
0.0
 11
33.007977
 21
199.004563
 31
0.0
  0
LINE
  5
3C0
330
1F
100
AcDbEntity
  8
LAYER_1
 62
     7
100
AcDbLine
 10
32.107601
 20
199.004563
 30
0.0
 11
33.007977
 21
199.004563
 31
0.0
  0
LINE
  5
3BF
330
1F
100
AcDbEntity
  8
LAYER_1
 62
     7
100
AcDbLine
 10
32.557875
 20
201.704829
 30
0.0
 11
32.557875
 21
199.004563
 31
0.0
  0
LINE
  5
3BE
330
1F
100
AcDbEntity
  8
LAYER_1
 62
     7
100
AcDbLine
 10
33.007977
 20
90.367955
 30
0.0
 11
32.557875
 21
87.667689
 31
0.0
  0
LINE
  5
3BD
330
1F
100
AcDbEntity
  8
LAYER_1
 62
     7
100
AcDbLine
 10
32.557875
 20
87.667689
 30
0.0
 11
32.107773
 21
90.367955
 31
0.0
  0
LINE
  5
3BC
330
1F
100
AcDbEntity
  8
LAYER_1
 62
     7
100
AcDbLine
 10
33.007977
 20
90.367955
 30
0.0
 11
32.107601
 21
90.367955
 31
0.0
  0
LINE
  5
3BB
330
1F
100
AcDbEntity
  8
LAYER_1
 62
     7
100
AcDbLine
 10
32.557875
 20
87.667689
 30
0.0
 11
32.557875
 21
90.367955
 31
0.0
  0
LINE
  5
3BA
330
1F
100
AcDbEntity
  8
LAYER_1
 62
     7
100
AcDbLine
 10
32.557875
 20
201.704829
 30
0.0
 11
32.557875
 21
87.667689
 31
0.0
  0
INSERT
  5
3B4
330
1F
100
AcDbEntity
  8
LAYER_1
 62
     7
100
AcDbBlockReference
  2
AI9-BLK1
 10
30.52234
 20
144.445275
 30
0.0
  0
LINE
  5
3B2
330
1F
100
AcDbEntity
  8
LAYER_1
 62
     7
100
AcDbLine
 10
103.138063
 20
201.704829
 30
0.0
 11
31.550012
 21
201.704829
 31
0.0
  0
LINE
  5
3B1
330
1F
100
AcDbEntity
  8
LAYER_1
 62
     7
100
AcDbLine
 10
35.986778
 20
87.667689
 30
0.0
 11
31.344857
 21
87.667689
 31
0.0
  0
LINE
  5
3B0
330
1F
100
AcDbEntity
  8
LAYER_1
 62
     7
100
AcDbLine
 10
119.261454
 20
148.426944
 30
0.0
 11
119.711556
 21
151.127037
 31
0.0
  0
LINE
  5
3AF
330
1F
100
AcDbEntity
  8
LAYER_1
 62
     7
100
AcDbLine
 10
119.711556
 20
151.127209
 30
0.0
 11
120.161658
 21
148.427116
 31
0.0
  0
LINE
  5
3AE
330
1F
100
AcDbEntity
  8
LAYER_1
 62
     7
100
AcDbLine
 10
119.261454
 20
148.426944
 30
0.0
 11
120.16183
 21
148.426944
 31
0.0
  0
LINE
  5
3AD
330
1F
100
AcDbEntity
  8
LAYER_1
 62
     7
100
AcDbLine
 10
119.711556
 20
151.127209
 30
0.0
 11
119.711556
 21
148.427116
 31
0.0
  0
LINE
  5
3AC
330
1F
100
AcDbEntity
  8
LAYER_1
 62
     7
100
AcDbLine
 10
120.161658
 20
90.367955
 30
0.0
 11
119.711556
 21
87.667689
 31
0.0
  0
LINE
  5
3AB
330
1F
100
AcDbEntity
  8
LAYER_1
 62
     7
100
AcDbLine
 10
119.711556
 20
87.667689
 30
0.0
 11
119.261454
 21
90.367955
 31
0.0
  0
LINE
  5
3AA
330
1F
100
AcDbEntity
  8
LAYER_1
 62
     7
100
AcDbLine
 10
120.161658
 20
90.367955
 30
0.0
 11
119.261282
 21
90.367955
 31
0.0
  0
LINE
  5
3A9
330
1F
100
AcDbEntity
  8
LAYER_1
 62
     7
100
AcDbLine
 10
119.711556
 20
87.667689
 30
0.0
 11
119.711556
 21
90.367955
 31
0.0
  0
LINE
  5
3A8
330
1F
100
AcDbEntity
  8
LAYER_1
 62
     7
100
AcDbLine
 10
119.711556
 20
151.127209
 30
0.0
 11
119.711556
 21
87.667689
 31
0.0
  0
LINE
  5
3A7
330
1F
100
AcDbEntity
  8
LAYER_1
 62
     7
100
AcDbLine
 10
137.71373
 20
151.127209
 30
0.0
 11
118.703521
 21
151.127209
 31
0.0
  0
LINE
  5
3A6
330
1F
100
AcDbEntity
  8
LAYER_1
 62
     7
100
AcDbLine
 10
110.853354
 20
87.667689
 30
0.0
 11
122.56909
 21
87.667689
 31
0.0
  0
LINE
  5
3A5
330
1F
100
AcDbEntity
  8
LAYER_1
 62
     7
100
AcDbLine
 10
57.07817
 20
98.413287
 30
0.0
 11
57.07817
 21
77.651763
 31
0.0
  0
SPLINE
  5
3A4
330
1F
100
AcDbEntity
  8
LAYER_1
 62
     7
100
AcDbSpline
210
0.0
220
0.0
230
1.0
 70
     8
 71
     3
 72
     8
 73
     4
 74
     0
 42
0.00000001
 43
0.00000001
 40
0.0
 40
0.0
 40
0.0
 40
0.0
 40
1.0
 40
1.0
 40
1.0
 40
1.0
 10
178.1765489366319
 20
98.54075520833332
 30
0.0
 10
173.7864637586805
 20
97.7246120876736
 30
0.0
 10
170.3313774956597
 20
94.24782172309027
 30
0.0
 10
169.5483072916666
 20
89.84567871093749
 30
0.0
  0
SPLINE
  5
3A3
330
1F
100
AcDbEntity
  8
LAYER_1
 62
     7
100
AcDbSpline
210
0.0
220
0.0
230
1.0
 70
     8
 71
     3
 72
     8
 73
     4
 74
     0
 42
0.00000001
 43
0.00000001
 40
0.0
 40
0.0
 40
0.0
 40
0.0
 40
1.0
 40
1.0
 40
1.0
 40
1.0
 10
190.7459798177083
 20
89.95006510416665
 30
0.0
 10
189.9146782769097
 20
94.37253417968749
 30
0.0
 10
186.3810438368055
 20
97.84208984374999
 30
0.0
 10
181.9251573350694
 20
98.57796223958333
 30
0.0
  0
SPLINE
  5
3A2
330
1F
100
AcDbEntity
  8
LAYER_1
 62
     7
100
AcDbSpline
210
0.0
220
0.0
230
1.0
 70
     8
 71
     3
 72
     8
 73
     4
 74
     0
 42
0.00000001
 43
0.00000001
 40
0.0
 40
0.0
 40
0.0
 40
0.0
 40
1.0
 40
1.0
 40
1.0
 40
1.0
 10
182.1015462239583
 20
77.34721679687499
 30
0.0
 10
186.5708685980903
 20
78.16198187934027
 30
0.0
 10
190.0786648220486
 20
81.73351236979165
 30
0.0
 10
190.7969672309028
 20
86.23625217013888
 30
0.0
  0
SPLINE
  5
3A1
330
1F
100
AcDbEntity
  8
LAYER_1
 62
     7
100
AcDbSpline
210
0.0
220
0.0
230
1.0
 70
     8
 71
     3
 72
     8
 73
     4
 74
     0
 42
0.00000001
 43
0.00000001
 40
0.0
 40
0.0
 40
0.0
 40
0.0
 40
1.0
 40
1.0
 40
1.0
 40
1.0
 10
169.5441731770833
 20
86.07157660590276
 30
0.0
 10
170.3296549479167
 20
81.59984266493055
 30
0.0
 10
173.8712131076389
 20
78.07757703993055
 30
0.0
 10
178.3529378255208
 20
77.322412109375
 30
0.0
  0
LINE
  5
3A0
330
1F
100
AcDbEntity
  8
LAYER_1
 62
     7
100
AcDbLine
 10
259.732639
 20
88.025635
 30
0.0
 11
259.732639
 21
88.975103
 31
0.0
  0
LINE
  5
39F
330
1F
100
AcDbEntity
  8
LAYER_1
 62
     7
100
AcDbLine
 10
259.732639
 20
88.025635
 30
0.0
 11
260.681763
 21
88.025635
 31
0.0
  0
LINE
  5
39E
330
1F
100
AcDbEntity
  8
LAYER_1
 62
     7
100
AcDbLine
 10
259.732639
 20
88.025635
 30
0.0
 11
259.732639
 21
87.076855
 31
0.0
  0
LINE
  5
39D
330
1F
100
AcDbEntity
  8
LAYER_1
 62
     7
100
AcDbLine
 10
259.732639
 20
88.025635
 30
0.0
 11
258.78386
 21
88.025635
 31
0.0
  0
LINE
  5
39C
330
1F
100
AcDbEntity
  8
LAYER_1
 62
     7
100
AcDbLine
 10
60.312942
 20
77.356519
 30
0.0
 11
60.740823
 21
81.232595
 31
0.0
  0
LINE
  5
39B
330
1F
100
AcDbEntity
  8
LAYER_1
 62
     7
100
AcDbLine
 10
60.740995
 20
81.232595
 30
0.0
 11
60.740995
 21
81.232595
 31
0.0
  0
LINE
  5
39A
330
1F
100
AcDbEntity
  8
LAYER_1
 62
     7
100
AcDbLine
 10
60.740995
 20
81.232595
 30
0.0
 11
60.740995
 21
81.232595
 31
0.0
  0
LINE
  5
399
330
1F
100
AcDbEntity
  8
LAYER_1
 62
     7
100
AcDbLine
 10
60.740995
 20
81.232595
 30
0.0
 11
72.30153
 21
82.524506
 31
0.0
  0
LINE
  5
398
330
1F
100
AcDbEntity
  8
LAYER_1
 62
     7
100
AcDbLine
 10
61.597102
 20
85.108328
 30
0.0
 11
61.597102
 21
85.108328
 31
0.0
  0
LINE
  5
397
330
1F
100
AcDbEntity
  8
LAYER_1
 62
     7
100
AcDbLine
 10
61.597102
 20
85.108328
 30
0.0
 11
61.597102
 21
85.108328
 31
0.0
  0
LINE
  5
396
330
1F
100
AcDbEntity
  8
LAYER_1
 62
     7
100
AcDbLine
 10
72.729583
 20
88.122442
 30
0.0
 11
72.729583
 21
82.524506
 31
0.0
  0
LINE
  5
395
330
1F
100
AcDbEntity
  8
LAYER_1
 62
     7
100
AcDbLine
 10
73.586206
 20
83.816417
 30
0.0
 11
73.586206
 21
83.816417
 31
0.0
  0
LINE
  5
394
330
1F
100
AcDbEntity
  8
LAYER_1
 62
     7
100
AcDbLine
 10
73.586206
 20
83.816417
 30
0.0
 11
73.586206
 21
83.816417
 31
0.0
  0
LINE
  5
393
330
1F
100
AcDbEntity
  8
LAYER_1
 62
     7
100
AcDbLine
 10
73.586206
 20
92.428811
 30
0.0
 11
73.586206
 21
92.428811
 31
0.0
  0
LINE
  5
392
330
1F
100
AcDbEntity
  8
LAYER_1
 62
     7
100
AcDbLine
 10
73.586206
 20
92.428811
 30
0.0
 11
73.586206
 21
92.428811
 31
0.0
  0
LINE
  5
391
330
1F
100
AcDbEntity
  8
LAYER_1
 62
     7
100
AcDbLine
 10
72.729583
 20
93.720378
 30
0.0
 11
72.301702
 21
93.720378
 31
0.0
  0
LINE
  5
390
330
1F
100
AcDbEntity
  8
LAYER_1
 62
     7
100
AcDbLine
 10
72.30153
 20
93.720378
 30
0.0
 11
72.30153
 21
93.720378
 31
0.0
  0
LINE
  5
38F
330
1F
100
AcDbEntity
  8
LAYER_1
 62
     7
100
AcDbLine
 10
60.740995
 20
94.58234
 30
0.0
 11
72.30153
 21
93.720378
 31
0.0
  0
LINE
  5
38E
330
1F
100
AcDbEntity
  8
LAYER_1
 62
     7
100
AcDbLine
 10
72.729583
 20
88.122442
 30
0.0
 11
72.729583
 21
93.720378
 31
0.0
  0
LINE
  5
38D
330
1F
100
AcDbEntity
  8
LAYER_1
 62
     7
100
AcDbLine
 10
72.30153
 20
82.524506
 30
0.0
 11
72.30153
 21
82.524506
 31
0.0
  0
LWPOLYLINE
  5
388
330
1F
100
AcDbEntity
  8
LAYER_1
 62
     7
100
AcDbPolyline
 90
        3
 70
     0
 43
0.0
 10
72.30153
 20
82.524506
 10
72.30153
 20
82.524506
 10
72.729411
 20
82.524506
  0
LWPOLYLINE
  5
383
330
1F
100
AcDbEntity
  8
LAYER_1
 62
     7
100
AcDbPolyline
 90
        3
 70
     0
 43
0.0
 10
72.30153
 20
82.524506
 10
72.30153
 20
82.524506
 10
72.729411
 20
82.524506
  0
LINE
  5
382
330
1F
100
AcDbEntity
  8
LAYER_1
 62
     7
100
AcDbLine
 10
73.586206
 20
84.247054
 30
0.0
 11
73.586206
 21
83.816417
 31
0.0
  0
LINE
  5
381
330
1F
100
AcDbEntity
  8
LAYER_1
 62
     7
100
AcDbLine
 10
73.586206
 20
83.816417
 30
0.0
 11
72.729583
 21
83.816417
 31
0.0
  0
LINE
  5
380
330
1F
100
AcDbEntity
  8
LAYER_1
 62
     7
100
AcDbLine
 10
72.729583
 20
83.816417
 30
0.0
 11
72.729583
 21
83.816417
 31
0.0
  0
LINE
  5
37F
330
1F
100
AcDbEntity
  8
LAYER_1
 62
     7
100
AcDbLine
 10
72.729583
 20
83.816417
 30
0.0
 11
72.729583
 21
83.385436
 31
0.0
  0
LINE
  5
37E
330
1F
100
AcDbEntity
  8
LAYER_1
 62
     7
100
AcDbLine
 10
60.740995
 20
95.012288
 30
0.0
 11
60.740995
 21
95.012288
 31
0.0
  0
LINE
  5
37D
330
1F
100
AcDbEntity
  8
LAYER_1
 62
     7
100
AcDbLine
 10
60.740995
 20
95.012288
 30
0.0
 11
60.740995
 21
94.58234
 31
0.0
  0
LINE
  5
37C
330
1F
100
AcDbEntity
  8
LAYER_1
 62
     7
100
AcDbLine
 10
60.740995
 20
95.012288
 30
0.0
 11
60.740995
 21
81.232595
 31
0.0
  0
LINE
  5
37B
330
1F
100
AcDbEntity
  8
LAYER_1
 62
     7
100
AcDbLine
 10
73.586206
 20
84.247054
 30
0.0
 11
73.586206
 21
92.428811
 31
0.0
  0
LINE
  5
37A
330
1F
100
AcDbEntity
  8
LAYER_1
 62
     7
100
AcDbLine
 10
60.312942
 20
98.457039
 30
0.0
 11
60.740823
 21
95.012288
 31
0.0
  0
LINE
  5
379
330
1F
100
AcDbEntity
  8
LAYER_1
 62
     7
100
AcDbLine
 10
60.312942
 20
98.457039
 30
0.0
 11
60.312942
 21
98.457039
 31
0.0
  0
LINE
  5
378
330
1F
100
AcDbEntity
  8
LAYER_1
 62
     7
100
AcDbLine
 10
60.312942
 20
98.457039
 30
0.0
 11
60.312942
 21
98.457039
 31
0.0
  0
LINE
  5
377
330
1F
100
AcDbEntity
  8
LAYER_1
 62
     7
100
AcDbLine
 10
57.315365
 20
98.888021
 30
0.0
 11
60.312942
 21
98.457039
 31
0.0
  0
LINE
  5
376
330
1F
100
AcDbEntity
  8
LAYER_1
 62
     7
100
AcDbLine
 10
73.586206
 20
92.428811
 30
0.0
 11
72.729583
 21
92.428811
 31
0.0
  0
LINE
  5
375
330
1F
100
AcDbEntity
  8
LAYER_1
 62
     7
100
AcDbLine
 10
72.729583
 20
92.428811
 30
0.0
 11
72.729583
 21
92.428811
 31
0.0
  0
LINE
  5
374
330
1F
100
AcDbEntity
  8
LAYER_1
 62
     7
100
AcDbLine
 10
72.729583
 20
92.428811
 30
0.0
 11
72.729583
 21
92.428811
 31
0.0
  0
LINE
  5
373
330
1F
100
AcDbEntity
  8
LAYER_1
 62
     7
100
AcDbLine
 10
60.740306
 20
81.552645
 30
0.0
 11
60.740306
 21
81.552645
 31
0.0
  0
LINE
  5
372
330
1F
100
AcDbEntity
  8
LAYER_1
 62
     7
100
AcDbLine
 10
60.740306
 20
94.902045
 30
0.0
 11
60.740306
 21
94.902045
 31
0.0
  0
LINE
  5
371
330
1F
100
AcDbEntity
  8
LAYER_1
 62
     7
100
AcDbLine
 10
60.312253
 20
98.777433
 30
0.0
 11
60.312253
 21
98.777433
 31
0.0
  0
LINE
  5
370
330
1F
100
AcDbEntity
  8
LAYER_1
 62
     7
100
AcDbLine
 10
60.312253
 20
98.777433
 30
0.0
 11
60.312253
 21
98.777433
 31
0.0
  0
LINE
  5
36F
330
1F
100
AcDbEntity
  8
LAYER_1
 62
     7
100
AcDbLine
 10
60.312253
 20
68.771341
 30
0.0
 11
60.312253
 21
68.771341
 31
0.0
  0
LINE
  5
36E
330
1F
100
AcDbEntity
  8
LAYER_1
 62
     7
100
AcDbLine
 10
60.312253
 20
68.771341
 30
0.0
 11
60.312253
 21
68.771341
 31
0.0
  0
LINE
  5
36D
330
1F
100
AcDbEntity
  8
LAYER_1
 62
     7
100
AcDbLine
 10
68.447846
 20
93.60979
 30
0.0
 11
68.447846
 21
93.60979
 31
0.0
  0
LINE
  5
36C
330
1F
100
AcDbEntity
  8
LAYER_1
 62
     7
100
AcDbLine
 10
68.447846
 20
93.60979
 30
0.0
 11
68.447846
 21
93.60979
 31
0.0
  0
LINE
  5
36B
330
1F
100
AcDbEntity
  8
LAYER_1
 62
     7
100
AcDbLine
 10
68.447846
 20
93.60979
 30
0.0
 11
68.447846
 21
93.60979
 31
0.0
  0
LINE
  5
36A
330
1F
100
AcDbEntity
  8
LAYER_1
 62
     7
100
AcDbLine
 10
68.447846
 20
93.60979
 30
0.0
 11
68.447846
 21
93.60979
 31
0.0
  0
LINE
  5
369
330
1F
100
AcDbEntity
  8
LAYER_1
 62
     7
100
AcDbLine
 10
68.447846
 20
93.60979
 30
0.0
 11
68.447846
 21
93.60979
 31
0.0
  0
LINE
  5
368
330
1F
100
AcDbEntity
  8
LAYER_1
 62
     7
100
AcDbLine
 10
68.447846
 20
93.60979
 30
0.0
 11
68.447846
 21
93.60979
 31
0.0
  0
LINE
  5
367
330
1F
100
AcDbEntity
  8
LAYER_1
 62
     7
100
AcDbLine
 10
68.447846
 20
93.60979
 30
0.0
 11
68.447846
 21
93.60979
 31
0.0
  0
LINE
  5
366
330
1F
100
AcDbEntity
  8
LAYER_1
 62
     7
100
AcDbLine
 10
68.447846
 20
93.60979
 30
0.0
 11
68.447846
 21
93.60979
 31
0.0
  0
LINE
  5
365
330
1F
100
AcDbEntity
  8
LAYER_1
 62
     7
100
AcDbLine
 10
68.447846
 20
93.60979
 30
0.0
 11
68.447846
 21
93.60979
 31
0.0
  0
LINE
  5
364
330
1F
100
AcDbEntity
  8
LAYER_1
 62
     7
100
AcDbLine
 10
68.447846
 20
93.60979
 30
0.0
 11
68.447846
 21
93.60979
 31
0.0
  0
LINE
  5
363
330
1F
100
AcDbEntity
  8
LAYER_1
 62
     7
100
AcDbLine
 10
68.447846
 20
93.60979
 30
0.0
 11
68.447846
 21
93.60979
 31
0.0
  0
LINE
  5
362
330
1F
100
AcDbEntity
  8
LAYER_1
 62
     7
100
AcDbLine
 10
68.447846
 20
93.60979
 30
0.0
 11
68.447846
 21
93.60979
 31
0.0
  0
LINE
  5
361
330
1F
100
AcDbEntity
  8
LAYER_1
 62
     7
100
AcDbLine
 10
68.447846
 20
93.60979
 30
0.0
 11
68.447846
 21
93.60979
 31
0.0
  0
LINE
  5
360
330
1F
100
AcDbEntity
  8
LAYER_1
 62
     7
100
AcDbLine
 10
68.447846
 20
93.60979
 30
0.0
 11
68.447846
 21
93.60979
 31
0.0
  0
LINE
  5
35F
330
1F
100
AcDbEntity
  8
LAYER_1
 62
     7
100
AcDbLine
 10
68.447846
 20
93.60979
 30
0.0
 11
68.447846
 21
93.60979
 31
0.0
  0
LINE
  5
35E
330
1F
100
AcDbEntity
  8
LAYER_1
 62
     7
100
AcDbLine
 10
68.447846
 20
93.60979
 30
0.0
 11
68.447846
 21
93.60979
 31
0.0
  0
LINE
  5
35D
330
1F
100
AcDbEntity
  8
LAYER_1
 62
     7
100
AcDbLine
 10
68.447846
 20
93.60979
 30
0.0
 11
68.447846
 21
93.60979
 31
0.0
  0
LINE
  5
35C
330
1F
100
AcDbEntity
  8
LAYER_1
 62
     7
100
AcDbLine
 10
68.447846
 20
93.60979
 30
0.0
 11
68.447846
 21
93.60979
 31
0.0
  0
LINE
  5
35B
330
1F
100
AcDbEntity
  8
LAYER_1
 62
     7
100
AcDbLine
 10
68.447846
 20
93.60979
 30
0.0
 11
68.447846
 21
93.60979
 31
0.0
  0
LINE
  5
35A
330
1F
100
AcDbEntity
  8
LAYER_1
 62
     7
100
AcDbLine
 10
68.447846
 20
94.040771
 30
0.0
 11
68.447846
 21
94.040771
 31
0.0
  0
LINE
  5
359
330
1F
100
AcDbEntity
  8
LAYER_1
 62
     7
100
AcDbLine
 10
68.447846
 20
94.040771
 30
0.0
 11
68.447846
 21
94.040771
 31
0.0
  0
LINE
  5
358
330
1F
100
AcDbEntity
  8
LAYER_1
 62
     7
100
AcDbLine
 10
68.447846
 20
94.040771
 30
0.0
 11
68.447846
 21
94.040771
 31
0.0
  0
LINE
  5
357
330
1F
100
AcDbEntity
  8
LAYER_1
 62
     7
100
AcDbLine
 10
68.447846
 20
94.040771
 30
0.0
 11
68.447846
 21
94.040771
 31
0.0
  0
LINE
  5
356
330
1F
100
AcDbEntity
  8
LAYER_1
 62
     7
100
AcDbLine
 10
68.019793
 20
94.040771
 30
0.0
 11
68.019793
 21
94.040771
 31
0.0
  0
LINE
  5
355
330
1F
100
AcDbEntity
  8
LAYER_1
 62
     7
100
AcDbLine
 10
68.019793
 20
94.040771
 30
0.0
 11
68.019793
 21
94.040771
 31
0.0
  0
LINE
  5
354
330
1F
100
AcDbEntity
  8
LAYER_1
 62
     7
100
AcDbLine
 10
68.019793
 20
94.040771
 30
0.0
 11
68.019793
 21
94.040771
 31
0.0
  0
LINE
  5
353
330
1F
100
AcDbEntity
  8
LAYER_1
 62
     7
100
AcDbLine
 10
68.019793
 20
94.040771
 30
0.0
 11
68.019793
 21
94.040771
 31
0.0
  0
LINE
  5
352
330
1F
100
AcDbEntity
  8
LAYER_1
 62
     7
100
AcDbLine
 10
68.019793
 20
94.040771
 30
0.0
 11
68.019793
 21
94.040771
 31
0.0
  0
LINE
  5
351
330
1F
100
AcDbEntity
  8
LAYER_1
 62
     7
100
AcDbLine
 10
81.325613
 20
86.126354
 30
0.0
 11
81.325613
 21
83.985571
 31
0.0
  0
LINE
  5
350
330
1F
100
AcDbEntity
  8
LAYER_1
 62
     7
100
AcDbLine
 10
83.909607
 20
75.849634
 30
0.0
 11
83.909607
 21
75.849634
 31
0.0
  0
LINE
  5
34F
330
1F
100
AcDbEntity
  8
LAYER_1
 62
     7
100
AcDbLine
 10
87.784995
 20
75.849634
 30
0.0
 11
87.784995
 21
75.849634
 31
0.0
  0
LINE
  5
34E
330
1F
100
AcDbEntity
  8
LAYER_1
 62
     7
100
AcDbLine
 10
85.63181
 20
75.849634
 30
0.0
 11
83.909607
 21
75.849634
 31
0.0
  0
LINE
  5
34D
330
1F
100
AcDbEntity
  8
LAYER_1
 62
     7
100
AcDbLine
 10
73.574665
 20
86.126354
 30
0.0
 11
81.325613
 21
86.126354
 31
0.0
  0
LINE
  5
34C
330
1F
100
AcDbEntity
  8
LAYER_1
 62
     7
100
AcDbLine
 10
81.325613
 20
89.980037
 30
0.0
 11
81.325613
 21
86.126354
 31
0.0
  0
LINE
  5
34B
330
1F
100
AcDbEntity
  8
LAYER_1
 62
     7
100
AcDbLine
 10
82.187231
 20
83.985571
 30
0.0
 11
84.340588
 21
83.985571
 31
0.0
  0
LINE
  5
34A
330
1F
100
AcDbEntity
  8
LAYER_1
 62
     7
100
AcDbLine
 10
84.340416
 20
83.985571
 30
0.0
 11
83.909607
 21
75.849289
 31
0.0
  0
LINE
  5
349
330
1F
100
AcDbEntity
  8
LAYER_1
 62
     7
100
AcDbLine
 10
87.784995
 20
75.849634
 30
0.0
 11
87.354702
 21
83.985571
 31
0.0
  0
LINE
  5
348
330
1F
100
AcDbEntity
  8
LAYER_1
 62
     7
100
AcDbLine
 10
81.325613
 20
89.980037
 30
0.0
 11
81.325613
 21
91.692939
 31
0.0
  0
LINE
  5
347
330
1F
100
AcDbEntity
  8
LAYER_1
 62
     7
100
AcDbLine
 10
87.354702
 20
92.121164
 30
0.0
 11
87.785167
 21
92.121164
 31
0.0
  0
LINE
  5
346
330
1F
100
AcDbEntity
  8
LAYER_1
 62
     7
100
AcDbLine
 10
82.187231
 20
92.121164
 30
0.0
 11
84.340588
 21
92.121164
 31
0.0
  0
LWPOLYLINE
  5
341
330
1F
100
AcDbEntity
  8
LAYER_1
 62
     7
100
AcDbPolyline
 90
        3
 70
     0
 43
0.0
 10
87.354702
 20
83.985571
 10
86.493601
 20
84.413797
 10
85.631638
 20
84.413797
  0
LWPOLYLINE
  5
33C
330
1F
100
AcDbEntity
  8
LAYER_1
 62
     7
100
AcDbPolyline
 90
        3
 70
     0
 43
0.0
 10
87.354702
 20
83.985571
 10
86.493601
 20
84.413797
 10
85.631638
 20
84.413797
  0
LWPOLYLINE
  5
337
330
1F
100
AcDbEntity
  8
LAYER_1
 62
     7
100
AcDbPolyline
 90
        3
 70
     0
 43
0.0
 10
85.63181
 20
84.413797
 10
84.770709
 20
84.413797
 10
84.340244
 20
83.985571
  0
LWPOLYLINE
  5
332
330
1F
100
AcDbEntity
  8
LAYER_1
 62
     7
100
AcDbPolyline
 90
        3
 70
     0
 43
0.0
 10
85.63181
 20
84.413797
 10
84.770709
 20
84.413797
 10
84.340244
 20
83.985571
  0
LINE
  5
331
330
1F
100
AcDbEntity
  8
LAYER_1
 62
     7
100
AcDbLine
 10
88.215804
 20
84.413797
 30
0.0
 11
88.215804
 21
91.692939
 31
0.0
  0
LINE
  5
330
330
1F
100
AcDbEntity
  8
LAYER_1
 62
     7
100
AcDbLine
 10
81.756422
 20
92.121164
 30
0.0
 11
81.325613
 21
91.692939
 31
0.0
  0
LINE
  5
32F
330
1F
100
AcDbEntity
  8
LAYER_1
 62
     7
100
AcDbLine
 10
87.784995
 20
99.828187
 30
0.0
 11
87.354702
 21
92.121164
 31
0.0
  0
LINE
  5
32E
330
1F
100
AcDbEntity
  8
LAYER_1
 62
     7
100
AcDbLine
 10
84.340416
 20
92.121164
 30
0.0
 11
83.909607
 21
99.828187
 31
0.0
  0
LINE
  5
32D
330
1F
100
AcDbEntity
  8
LAYER_1
 62
     7
100
AcDbLine
 10
87.784995
 20
100.256068
 30
0.0
 11
87.784995
 21
99.828187
 31
0.0
  0
LINE
  5
32C
330
1F
100
AcDbEntity
  8
LAYER_1
 62
     7
100
AcDbLine
 10
83.909607
 20
100.256068
 30
0.0
 11
83.909607
 21
99.828187
 31
0.0
  0
LINE
  5
32B
330
1F
100
AcDbEntity
  8
LAYER_1
 62
     7
100
AcDbLine
 10
85.63181
 20
100.256068
 30
0.0
 11
87.785167
 21
100.256068
 31
0.0
  0
LINE
  5
32A
330
1F
100
AcDbEntity
  8
LAYER_1
 62
     7
100
AcDbLine
 10
60.225781
 20
77.563224
 30
0.0
 11
60.225781
 21
77.563224
 31
0.0
  0
LINE
  5
329
330
1F
100
AcDbEntity
  8
LAYER_1
 62
     7
100
AcDbLine
 10
87.784995
 20
83.985571
 30
0.0
 11
88.215804
 21
84.413797
 31
0.0
  0
LINE
  5
328
330
1F
100
AcDbEntity
  8
LAYER_1
 62
     7
100
AcDbLine
 10
73.574665
 20
92.121164
 30
0.0
 11
73.574665
 21
92.121164
 31
0.0
  0
LINE
  5
327
330
1F
100
AcDbEntity
  8
LAYER_1
 62
     7
100
AcDbLine
 10
73.574665
 20
92.121164
 30
0.0
 11
73.574665
 21
92.121164
 31
0.0
  0
LINE
  5
326
330
1F
100
AcDbEntity
  8
LAYER_1
 62
     7
100
AcDbLine
 10
85.63181
 20
75.849634
 30
0.0
 11
87.785167
 21
75.849634
 31
0.0
  0
LINE
  5
325
330
1F
100
AcDbEntity
  8
LAYER_1
 62
     7
100
AcDbLine
 10
81.756422
 20
92.121164
 30
0.0
 11
82.187231
 21
92.121164
 31
0.0
  0
LWPOLYLINE
  5
320
330
1F
100
AcDbEntity
  8
LAYER_1
 62
     7
100
AcDbPolyline
 90
        3
 70
     0
 43
0.0
 10
87.354702
 20
92.121164
 10
86.493601
 20
91.692939
 10
85.631638
 20
91.264714
  0
LWPOLYLINE
  5
31B
330
1F
100
AcDbEntity
  8
LAYER_1
 62
     7
100
AcDbPolyline
 90
        3
 70
     0
 43
0.0
 10
87.354702
 20
92.121164
 10
86.493601
 20
91.692939
 10
85.631638
 20
91.264714
  0
LWPOLYLINE
  5
316
330
1F
100
AcDbEntity
  8
LAYER_1
 62
     7
100
AcDbPolyline
 90
        3
 70
     0
 43
0.0
 10
85.63181
 20
91.264714
 10
84.770709
 20
91.692939
 10
84.340244
 20
92.121164
  0
LWPOLYLINE
  5
311
330
1F
100
AcDbEntity
  8
LAYER_1
 62
     7
100
AcDbPolyline
 90
        3
 70
     0
 43
0.0
 10
85.63181
 20
91.264714
 10
84.770709
 20
91.692939
 10
84.340244
 20
92.121164
  0
LINE
  5
310
330
1F
100
AcDbEntity
  8
LAYER_1
 62
     7
100
AcDbLine
 10
87.354702
 20
83.985571
 30
0.0
 11
87.785167
 21
83.985571
 31
0.0
  0
LINE
  5
30F
330
1F
100
AcDbEntity
  8
LAYER_1
 62
     7
100
AcDbLine
 10
81.756422
 20
83.985571
 30
0.0
 11
81.325613
 21
83.985571
 31
0.0
  0
LWPOLYLINE
  5
309
330
1F
100
AcDbEntity
  8
LAYER_1
 62
     7
100
AcDbPolyline
 90
        4
 70
     0
 43
0.0
 10
60.225781
 20
98.543511
 10
60.225781
 20
98.543511
 10
60.312942
 20
77.356519
 10
57.315365
 20
76.926571
  0
LWPOLYLINE
  5
303
330
1F
100
AcDbEntity
  8
LAYER_1
 62
     7
100
AcDbPolyline
 90
        4
 70
     0
 43
0.0
 10
60.225781
 20
98.543511
 10
60.225781
 20
98.543511
 10
60.312942
 20
77.356519
 10
57.315365
 20
76.926571
  0
LINE
  5
302
330
1F
100
AcDbEntity
  8
LAYER_1
 62
     7
100
AcDbLine
 10
60.225781
 20
94.690516
 30
0.0
 11
60.225781
 21
94.690516
 31
0.0
  0
LINE
  5
301
330
1F
100
AcDbEntity
  8
LAYER_1
 62
     7
100
AcDbLine
 10
85.63181
 20
100.256068
 30
0.0
 11
83.909607
 21
100.256068
 31
0.0
  0
LINE
  5
300
330
1F
100
AcDbEntity
  8
LAYER_1
 62
     7
100
AcDbLine
 10
181.995782
 20
99.828187
 30
0.0
 11
181.558599
 21
91.867261
 31
0.0
  0
LINE
  5
2FF
330
1F
100
AcDbEntity
  8
LAYER_1
 62
     7
100
AcDbLine
 10
178.562744
 20
91.81145
 30
0.0
 11
178.120394
 21
99.828187
 31
0.0
  0
LINE
  5
2FE
330
1F
100
AcDbEntity
  8
LAYER_1
 62
     7
100
AcDbLine
 10
181.995782
 20
100.256068
 30
0.0
 11
181.995782
 21
99.828187
 31
0.0
  0
LINE
  5
2FD
330
1F
100
AcDbEntity
  8
LAYER_1
 62
     7
100
AcDbLine
 10
178.120394
 20
100.256068
 30
0.0
 11
178.120394
 21
99.828187
 31
0.0
  0
LINE
  5
2FC
330
1F
100
AcDbEntity
  8
LAYER_1
 62
     7
100
AcDbLine
 10
179.842597
 20
100.256068
 30
0.0
 11
181.995782
 21
100.256068
 31
0.0
  0
LINE
  5
2FB
330
1F
100
AcDbEntity
  8
LAYER_1
 62
     7
100
AcDbLine
 10
179.842597
 20
100.256068
 30
0.0
 11
178.120394
 21
100.256068
 31
0.0
  0
LINE
  5
2FA
330
1F
100
AcDbEntity
  8
LAYER_1
 62
     7
100
AcDbLine
 10
168.329777
 20
89.889431
 30
0.0
 11
176.256597
 21
89.456727
 31
0.0
  0
LINE
  5
2F9
330
1F
100
AcDbEntity
  8
LAYER_1
 62
     7
100
AcDbLine
 10
176.312063
 20
86.468452
 30
0.0
 11
168.329777
 21
86.014044
 31
0.0
  0
LINE
  5
2F8
330
1F
100
AcDbEntity
  8
LAYER_1
 62
     7
100
AcDbLine
 10
167.901896
 20
89.889431
 30
0.0
 11
168.329777
 21
89.889431
 31
0.0
  0
LINE
  5
2F7
330
1F
100
AcDbEntity
  8
LAYER_1
 62
     7
100
AcDbLine
 10
167.901896
 20
86.014044
 30
0.0
 11
168.329777
 21
86.014044
 31
0.0
  0
LINE
  5
2F6
330
1F
100
AcDbEntity
  8
LAYER_1
 62
     7
100
AcDbLine
 10
167.901896
 20
87.736591
 30
0.0
 11
167.901896
 21
89.889431
 31
0.0
  0
LINE
  5
2F5
330
1F
100
AcDbEntity
  8
LAYER_1
 62
     7
100
AcDbLine
 10
167.901896
 20
87.736591
 30
0.0
 11
167.901896
 21
86.014044
 31
0.0
  0
LINE
  5
2F4
330
1F
100
AcDbEntity
  8
LAYER_1
 62
     7
100
AcDbLine
 10
178.268533
 20
76.223771
 30
0.0
 11
178.715362
 21
84.162305
 31
0.0
  0
LINE
  5
2F3
330
1F
100
AcDbEntity
  8
LAYER_1
 62
     7
100
AcDbLine
 10
181.703982
 20
84.204335
 30
0.0
 11
182.143921
 21
76.223771
 31
0.0
  0
LINE
  5
2F2
330
1F
100
AcDbEntity
  8
LAYER_1
 62
     7
100
AcDbLine
 10
178.268533
 20
75.795546
 30
0.0
 11
178.268533
 21
76.223771
 31
0.0
  0
LINE
  5
2F1
330
1F
100
AcDbEntity
  8
LAYER_1
 62
     7
100
AcDbLine
 10
182.143921
 20
75.795546
 30
0.0
 11
182.143921
 21
76.223771
 31
0.0
  0
LINE
  5
2F0
330
1F
100
AcDbEntity
  8
LAYER_1
 62
     7
100
AcDbLine
 10
180.421373
 20
75.795546
 30
0.0
 11
178.268533
 21
75.795546
 31
0.0
  0
LINE
  5
2EF
330
1F
100
AcDbEntity
  8
LAYER_1
 62
     7
100
AcDbLine
 10
180.421373
 20
75.795546
 30
0.0
 11
182.143921
 21
75.795546
 31
0.0
  0
LINE
  5
2EE
330
1F
100
AcDbEntity
  8
LAYER_1
 62
     7
100
AcDbLine
 10
191.934193
 20
86.162183
 30
0.0
 11
183.977056
 21
86.614868
 31
0.0
  0
LINE
  5
2ED
330
1F
100
AcDbEntity
  8
LAYER_1
 62
     7
100
AcDbLine
 10
183.963965
 20
89.59212
 30
0.0
 11
191.934193
 21
90.037571
 31
0.0
  0
LINE
  5
2EC
330
1F
100
AcDbEntity
  8
LAYER_1
 62
     7
100
AcDbLine
 10
192.362419
 20
86.162183
 30
0.0
 11
191.934193
 21
86.162183
 31
0.0
  0
LINE
  5
2EB
330
1F
100
AcDbEntity
  8
LAYER_1
 62
     7
100
AcDbLine
 10
192.362419
 20
90.037571
 30
0.0
 11
191.934193
 21
90.037571
 31
0.0
  0
LINE
  5
2EA
330
1F
100
AcDbEntity
  8
LAYER_1
 62
     7
100
AcDbLine
 10
192.362419
 20
88.315023
 30
0.0
 11
192.362419
 21
86.162183
 31
0.0
  0
LINE
  5
2E9
330
1F
100
AcDbEntity
  8
LAYER_1
 62
     7
100
AcDbLine
 10
192.362419
 20
88.315023
 30
0.0
 11
192.362419
 21
90.037571
 31
0.0
  0
LINE
  5
2E8
330
1F
100
AcDbEntity
  8
LAYER_1
 62
     7
100
AcDbLine
 10
73.574665
 20
83.557346
 30
0.0
 11
73.574665
 21
83.557346
 31
0.0
  0
LINE
  5
2E7
330
1F
100
AcDbEntity
  8
LAYER_1
 62
     7
100
AcDbLine
 10
73.574665
 20
83.557346
 30
0.0
 11
73.574665
 21
83.557346
 31
0.0
  0
LINE
  5
2E6
330
1F
100
AcDbEntity
  8
LAYER_1
 62
     7
100
AcDbLine
 10
72.283099
 20
82.273359
 30
0.0
 11
72.283099
 21
82.273359
 31
0.0
  0
LINE
  5
2E5
330
1F
100
AcDbEntity
  8
LAYER_1
 62
     7
100
AcDbLine
 10
72.283099
 20
82.273359
 30
0.0
 11
72.283099
 21
82.273359
 31
0.0
  0
LINE
  5
2E4
330
1F
100
AcDbEntity
  8
LAYER_1
 62
     7
100
AcDbLine
 10
72.283099
 20
93.405496
 30
0.0
 11
72.283099
 21
93.405496
 31
0.0
  0
LINE
  5
2E3
330
1F
100
AcDbEntity
  8
LAYER_1
 62
     7
100
AcDbLine
 10
72.283099
 20
93.405496
 30
0.0
 11
72.283099
 21
93.405496
 31
0.0
  0
SPLINE
  5
2E2
330
1F
100
AcDbEntity
  8
LAYER_1
 62
     7
100
AcDbSpline
210
0.0
220
0.0
230
1.0
 70
    11
 71
     3
 72
    17
 73
    13
 74
     0
 42
0.00000001
 43
0.00000001
 40
0.0
 40
0.0
 40
0.0
 40
0.0
 40
1.0
 40
1.0
 40
1.0
 40
2.0
 40
2.0
 40
2.0
 40
3.0
 40
3.0
 40
3.0
 40
4.0
 40
4.0
 40
4.0
 40
4.0
 10
87.78499484592012
 20
87.83925509982637
 30
0.0
 10
87.78499484592012
 20
86.98314887152777
 30
0.0
 10
87.21173095703124
 20
85.98407118055555
 30
0.0
 10
86.09138590494791
 20
85.98407118055555
 30
0.0
 10
85.05940755208333
 20
85.98407118055555
 30
0.0
 10
84.34041612413193
 20
86.98314887152777
 30
0.0
 10
84.34041612413193
 20
87.83925509982637
 30
0.0
 10
84.34041612413193
 20
89.12393120659722
 30
0.0
 10
85.18498128255207
 20
89.7933132595486
 30
0.0
 10
86.04659966362847
 20
89.7933132595486
 30
0.0
 10
87.07737223307291
 20
89.7933132595486
 30
0.0
 10
87.78499484592012
 20
89.12393120659722
 30
0.0
 10
87.78499484592012
 20
87.83925509982637
 30
0.0
  0
LINE
  5
2E1
330
1F
100
AcDbEntity
  8
LAYER_1
 62
     7
100
AcDbLine
 10
73.574665
 20
89.980037
 30
0.0
 11
81.325613
 21
89.980037
 31
0.0
  0
LINE
  5
2E0
330
1F
100
AcDbEntity
  8
LAYER_1
 62
     7
100
AcDbLine
 10
87.784995
 20
92.121164
 30
0.0
 11
88.215804
 21
91.692939
 31
0.0
  0
LINE
  5
2DF
330
1F
100
AcDbEntity
  8
LAYER_1
 62
     7
100
AcDbLine
 10
81.756422
 20
83.985571
 30
0.0
 11
82.187231
 21
83.985571
 31
0.0
  0
CIRCLE
  5
2DE
330
1F
100
AcDbEntity
  8
LAYER_1
 62
     7
100
AcDbCircle
 10
180.131985
 20
88.025635
 30
0.0
 40
4.082783
  0
SPLINE
  5
2DD
330
1F
100
AcDbEntity
  8
LAYER_1
 62
     7
100
AcDbSpline
210
0.0
220
0.0
230
1.0
 70
     8
 71
     3
 72
     8
 73
     4
 74
     0
 42
0.00000001
 43
0.00000001
 40
0.0
 40
0.0
 40
0.0
 40
0.0
 40
1.0
 40
1.0
 40
1.0
 40
1.0
 10
174.6759874131944
 20
89.62105848524305
 30
0.0
 10
175.2106662326389
 20
91.45178222656249
 30
0.0
 10
176.6424479166666
 20
92.90113389756944
 30
0.0
 10
178.463525390625
 20
93.45958387586805
 30
0.0
  0
SPLINE
  5
2DC
330
1F
100
AcDbEntity
  8
LAYER_1
 62
     7
100
AcDbSpline
210
0.0
220
0.0
230
1.0
 70
     8
 71
     3
 72
     8
 73
     4
 74
     0
 42
0.00000001
 43
0.00000001
 40
0.0
 40
0.0
 40
0.0
 40
0.0
 40
1.0
 40
1.0
 40
1.0
 40
1.0
 10
178.5889268663194
 20
82.55516764322915
 30
0.0
 10
176.7234076605903
 20
83.08020019531249
 30
0.0
 10
175.2464952256944
 20
84.53403049045139
 30
0.0
 10
174.6894232855903
 20
86.3857693142361
 30
0.0
  0
SPLINE
  5
2DB
330
1F
100
AcDbEntity
  8
LAYER_1
 62
     7
100
AcDbSpline
210
0.0
220
0.0
230
1.0
 70
     8
 71
     3
 72
     8
 73
     4
 74
     0
 42
0.00000001
 43
0.00000001
 40
0.0
 40
0.0
 40
0.0
 40
0.0
 40
1.0
 40
1.0
 40
1.0
 40
1.0
 10
185.6145100911458
 20
86.52495117187499
 30
0.0
 10
185.1025689019097
 20
84.65047471788193
 30
0.0
 10
183.6549397786458
 20
83.16219346788193
 30
0.0
 10
181.8045789930555
 20
82.593408203125
 30
0.0
  0
SPLINE
  5
2DA
330
1F
100
AcDbEntity
  8
LAYER_1
 62
     7
100
AcDbSpline
210
0.0
220
0.0
230
1.0
 70
     8
 71
     3
 72
     8
 73
     4
 74
     0
 42
0.00000001
 43
0.00000001
 40
0.0
 40
0.0
 40
0.0
 40
0.0
 40
1.0
 40
1.0
 40
1.0
 40
1.0
 10
181.6498942057291
 20
93.50402560763888
 30
0.0
 10
183.4981879340278
 20
92.99277343749999
 30
0.0
 10
184.9688991970486
 20
91.57098253038194
 30
0.0
 10
185.5483642578125
 20
89.75231662326388
 30
0.0
  0
SPLINE
  5
2D9
330
1F
100
AcDbEntity
  8
LAYER_1
 62
     7
100
AcDbSpline
210
0.0
220
0.0
230
1.0
 70
     8
 71
     3
 72
     8
 73
     4
 74
     0
 42
0.00000001
 43
0.00000001
 40
0.0
 40
0.0
 40
0.0
 40
0.0
 40
1.0
 40
1.0
 40
1.0
 40
1.0
 10
186.1743381076389
 20
89.75748426649305
 30
0.0
 10
185.5624891493055
 20
91.89619954427083
 30
0.0
 10
183.8457980685764
 20
93.56810438368055
 30
0.0
 10
181.6815890842014
 20
94.11690809461804
 30
0.0
  0
SPLINE
  5
2D8
330
1F
100
AcDbEntity
  8
LAYER_1
 62
     7
100
AcDbSpline
210
0.0
220
0.0
230
1.0
 70
     8
 71
     3
 72
     8
 73
     4
 74
     0
 42
0.00000001
 43
0.00000001
 40
0.0
 40
0.0
 40
0.0
 40
0.0
 40
1.0
 40
1.0
 40
1.0
 40
1.0
 10
181.8862277560764
 20
81.99051649305555
 30
0.0
 10
184.0314887152778
 20
82.61304524739583
 30
0.0
 10
185.7037380642361
 20
84.34833984375
 30
0.0
 10
186.2363498263889
 20
86.52977430555555
 30
0.0
  0
SPLINE
  5
2D7
330
1F
100
AcDbEntity
  8
LAYER_1
 62
     7
100
AcDbSpline
210
0.0
220
0.0
230
1.0
 70
     8
 71
     3
 72
     8
 73
     4
 74
     0
 42
0.00000001
 43
0.00000001
 40
0.0
 40
0.0
 40
0.0
 40
0.0
 40
1.0
 40
1.0
 40
1.0
 40
1.0
 10
174.0737847222222
 20
86.35235188802082
 30
0.0
 10
174.6718532986111
 20
84.18228624131943
 30
0.0
 10
176.404736328125
 20
82.48282063802083
 30
0.0
 10
178.59375
 20
81.93229437934028
 30
0.0
  0
SPLINE
  5
2D6
330
1F
100
AcDbEntity
  8
LAYER_1
 62
     7
100
AcDbSpline
210
0.0
220
0.0
230
1.0
 70
     8
 71
     3
 72
     8
 73
     4
 74
     0
 42
0.00000001
 43
0.00000001
 40
0.0
 40
0.0
 40
0.0
 40
0.0
 40
1.0
 40
1.0
 40
1.0
 40
1.0
 10
178.4328640407986
 20
94.07694498697916
 30
0.0
 10
176.2958713107639
 20
93.47818739149305
 30
0.0
 10
174.6194878472222
 20
91.77803276909721
 30
0.0
 10
174.0548366970486
 20
89.62794867621527
 30
0.0
  0
LINE
  5
2D5
330
1F
100
AcDbEntity
  8
LAYER_1
 62
     7
100
AcDbLine
 10
219.924905
 20
88.025635
 30
0.0
 11
219.924905
 21
88.975103
 31
0.0
  0
LINE
  5
2D4
330
1F
100
AcDbEntity
  8
LAYER_1
 62
     7
100
AcDbLine
 10
219.924905
 20
88.025635
 30
0.0
 11
218.975437
 21
88.025635
 31
0.0
  0
LINE
  5
2D3
330
1F
100
AcDbEntity
  8
LAYER_1
 62
     7
100
AcDbLine
 10
219.924905
 20
88.025635
 30
0.0
 11
219.924905
 21
87.076855
 31
0.0
  0
LINE
  5
2D2
330
1F
100
AcDbEntity
  8
LAYER_1
 62
     7
100
AcDbLine
 10
219.924905
 20
88.025635
 30
0.0
 11
220.873684
 21
88.025635
 31
0.0
  0
LINE
  5
2D1
330
1F
100
AcDbEntity
  8
LAYER_1
 62
     7
100
AcDbLine
 10
219.924905
 20
89.924227
 30
0.0
 11
219.924905
 21
103.314624
 31
0.0
  0
LINE
  5
2D0
330
1F
100
AcDbEntity
  8
LAYER_1
 62
     7
100
AcDbLine
 10
218.025968
 20
88.025635
 30
0.0
 11
205.070687
 21
88.025635
 31
0.0
  0
LINE
  5
2CF
330
1F
100
AcDbEntity
  8
LAYER_1
 62
     7
100
AcDbLine
 10
219.924905
 20
86.127387
 30
0.0
 11
219.924905
 21
73.45357
 31
0.0
  0
LINE
  5
2CE
330
1F
100
AcDbEntity
  8
LAYER_1
 62
     7
100
AcDbLine
 10
221.822808
 20
88.025635
 30
0.0
 11
234.78877
 21
88.027013
 31
0.0
  0
LINE
  5
2CD
330
1F
100
AcDbEntity
  8
LAYER_1
 62
     7
100
AcDbLine
 10
259.766056
 20
89.924227
 30
0.0
 11
259.766056
 21
103.314624
 31
0.0
  0
LINE
  5
2CC
330
1F
100
AcDbEntity
  8
LAYER_1
 62
     7
100
AcDbLine
 10
261.664993
 20
88.025635
 30
0.0
 11
274.61993
 21
88.025635
 31
0.0
  0
LINE
  5
2CB
330
1F
100
AcDbEntity
  8
LAYER_1
 62
     7
100
AcDbLine
 10
259.766056
 20
86.127387
 30
0.0
 11
259.766056
 21
73.45357
 31
0.0
  0
LINE
  5
2CA
330
1F
100
AcDbEntity
  8
LAYER_1
 62
     7
100
AcDbLine
 10
257.868153
 20
88.025635
 30
0.0
 11
244.902192
 21
88.027013
 31
0.0
  0
SPLINE
  5
2C9
330
1F
100
AcDbEntity
  8
LAYER_1
 62
     7
100
AcDbSpline
210
0.0
220
0.0
230
1.0
 70
     8
 71
     3
 72
     8
 73
     4
 74
     0
 42
0.00000001
 43
0.00000001
 40
0.0
 40
0.0
 40
0.0
 40
0.0
 40
1.0
 40
1.0
 40
1.0
 40
1.0
 10
261.7214925130208
 20
98.54075520833332
 30
0.0
 10
266.1115776909722
 20
97.7246120876736
 30
0.0
 10
269.5670084635416
 20
94.24782172309027
 30
0.0
 10
270.3500786675347
 20
89.84567871093749
 30
0.0
  0
SPLINE
  5
2C8
330
1F
100
AcDbEntity
  8
LAYER_1
 62
     7
100
AcDbSpline
210
0.0
220
0.0
230
1.0
 70
     8
 71
     3
 72
     8
 73
     4
 74
     0
 42
0.00000001
 43
0.00000001
 40
0.0
 40
0.0
 40
0.0
 40
0.0
 40
1.0
 40
1.0
 40
1.0
 40
1.0
 10
249.1520616319444
 20
89.95006510416665
 30
0.0
 10
249.9837076822917
 20
94.37253417968749
 30
0.0
 10
253.5169976128472
 20
97.84208984374999
 30
0.0
 10
257.9728841145833
 20
98.57796223958333
 30
0.0
  0
SPLINE
  5
2C7
330
1F
100
AcDbEntity
  8
LAYER_1
 62
     7
100
AcDbSpline
210
0.0
220
0.0
230
1.0
 70
     8
 71
     3
 72
     8
 73
     4
 74
     0
 42
0.00000001
 43
0.00000001
 40
0.0
 40
0.0
 40
0.0
 40
0.0
 40
1.0
 40
1.0
 40
1.0
 40
1.0
 10
257.7964952256944
 20
77.34721679687499
 30
0.0
 10
253.3275173611111
 20
78.16198187934027
 30
0.0
 10
249.8197211371528
 20
81.73351236979165
 30
0.0
 10
249.1014187282986
 20
86.23625217013888
 30
0.0
  0
SPLINE
  5
2C6
330
1F
100
AcDbEntity
  8
LAYER_1
 62
     7
100
AcDbSpline
210
0.0
220
0.0
230
1.0
 70
     8
 71
     3
 72
     8
 73
     4
 74
     0
 42
0.00000001
 43
0.00000001
 40
0.0
 40
0.0
 40
0.0
 40
0.0
 40
1.0
 40
1.0
 40
1.0
 40
1.0
 10
270.3538682725694
 20
86.07157660590276
 30
0.0
 10
269.5683865017361
 20
81.59984266493055
 30
0.0
 10
266.0271728515625
 20
78.07757703993055
 30
0.0
 10
261.5451036241319
 20
77.322412109375
 30
0.0
  0
LINE
  5
2C5
330
1F
100
AcDbEntity
  8
LAYER_1
 62
     7
100
AcDbLine
 10
257.90226
 20
99.828187
 30
0.0
 11
258.340131
 21
91.867261
 31
0.0
  0
LINE
  5
2C4
330
1F
100
AcDbEntity
  8
LAYER_1
 62
     7
100
AcDbLine
 10
261.335642
 20
91.81145
 30
0.0
 11
261.777992
 21
99.828187
 31
0.0
  0
LINE
  5
2C3
330
1F
100
AcDbEntity
  8
LAYER_1
 62
     7
100
AcDbLine
 10
257.90226
 20
100.256068
 30
0.0
 11
257.90226
 21
99.828187
 31
0.0
  0
LINE
  5
2C2
330
1F
100
AcDbEntity
  8
LAYER_1
 62
     7
100
AcDbLine
 10
261.777992
 20
100.256068
 30
0.0
 11
261.777992
 21
99.828187
 31
0.0
  0
LINE
  5
2C1
330
1F
100
AcDbEntity
  8
LAYER_1
 62
     7
100
AcDbLine
 10
260.055789
 20
100.256068
 30
0.0
 11
257.902604
 21
100.256068
 31
0.0
  0
LINE
  5
2C0
330
1F
100
AcDbEntity
  8
LAYER_1
 62
     7
100
AcDbLine
 10
260.055789
 20
100.256068
 30
0.0
 11
261.777992
 21
100.256068
 31
0.0
  0
LINE
  5
2BF
330
1F
100
AcDbEntity
  8
LAYER_1
 62
     7
100
AcDbLine
 10
271.568609
 20
89.889431
 30
0.0
 11
263.642133
 21
89.456727
 31
0.0
  0
LINE
  5
2BE
330
1F
100
AcDbEntity
  8
LAYER_1
 62
     7
100
AcDbLine
 10
263.586323
 20
86.468452
 30
0.0
 11
271.568609
 21
86.014044
 31
0.0
  0
LINE
  5
2BD
330
1F
100
AcDbEntity
  8
LAYER_1
 62
     7
100
AcDbLine
 10
271.99649
 20
89.889431
 30
0.0
 11
271.568609
 21
89.889431
 31
0.0
  0
LINE
  5
2BC
330
1F
100
AcDbEntity
  8
LAYER_1
 62
     7
100
AcDbLine
 10
271.99649
 20
86.014044
 30
0.0
 11
271.568609
 21
86.014044
 31
0.0
  0
LINE
  5
2BB
330
1F
100
AcDbEntity
  8
LAYER_1
 62
     7
100
AcDbLine
 10
271.99649
 20
87.736591
 30
0.0
 11
271.99649
 21
89.889431
 31
0.0
  0
LINE
  5
2BA
330
1F
100
AcDbEntity
  8
LAYER_1
 62
     7
100
AcDbLine
 10
271.99649
 20
87.736591
 30
0.0
 11
271.99649
 21
86.014044
 31
0.0
  0
LINE
  5
2B9
330
1F
100
AcDbEntity
  8
LAYER_1
 62
     7
100
AcDbLine
 10
261.630197
 20
76.223771
 30
0.0
 11
261.18268
 21
84.162305
 31
0.0
  0
LINE
  5
2B8
330
1F
100
AcDbEntity
  8
LAYER_1
 62
     7
100
AcDbLine
 10
258.194404
 20
84.204335
 30
0.0
 11
257.754465
 21
76.223771
 31
0.0
  0
LINE
  5
2B7
330
1F
100
AcDbEntity
  8
LAYER_1
 62
     7
100
AcDbLine
 10
261.630197
 20
75.795546
 30
0.0
 11
261.630197
 21
76.223771
 31
0.0
  0
LINE
  5
2B6
330
1F
100
AcDbEntity
  8
LAYER_1
 62
     7
100
AcDbLine
 10
257.754465
 20
75.795546
 30
0.0
 11
257.754465
 21
76.223771
 31
0.0
  0
LINE
  5
2B5
330
1F
100
AcDbEntity
  8
LAYER_1
 62
     7
100
AcDbLine
 10
259.476668
 20
75.795546
 30
0.0
 11
261.629853
 21
75.795546
 31
0.0
  0
LINE
  5
2B4
330
1F
100
AcDbEntity
  8
LAYER_1
 62
     7
100
AcDbLine
 10
259.476668
 20
75.795546
 30
0.0
 11
257.754465
 21
75.795546
 31
0.0
  0
LINE
  5
2B3
330
1F
100
AcDbEntity
  8
LAYER_1
 62
     7
100
AcDbLine
 10
247.963848
 20
86.162183
 30
0.0
 11
255.92133
 21
86.614868
 31
0.0
  0
LINE
  5
2B2
330
1F
100
AcDbEntity
  8
LAYER_1
 62
     7
100
AcDbLine
 10
255.934766
 20
89.59212
 30
0.0
 11
247.963848
 21
90.037571
 31
0.0
  0
LINE
  5
2B1
330
1F
100
AcDbEntity
  8
LAYER_1
 62
     7
100
AcDbLine
 10
247.535967
 20
86.162183
 30
0.0
 11
247.963848
 21
86.162183
 31
0.0
  0
LINE
  5
2B0
330
1F
100
AcDbEntity
  8
LAYER_1
 62
     7
100
AcDbLine
 10
247.535967
 20
90.037571
 30
0.0
 11
247.963848
 21
90.037571
 31
0.0
  0
LINE
  5
2AF
330
1F
100
AcDbEntity
  8
LAYER_1
 62
     7
100
AcDbLine
 10
247.535967
 20
88.315023
 30
0.0
 11
247.535967
 21
86.162183
 31
0.0
  0
LINE
  5
2AE
330
1F
100
AcDbEntity
  8
LAYER_1
 62
     7
100
AcDbLine
 10
247.535967
 20
88.315023
 30
0.0
 11
247.535967
 21
90.037571
 31
0.0
  0
CIRCLE
  5
2AD
330
1F
100
AcDbEntity
  8
LAYER_1
 62
     7
100
AcDbCircle
 10
259.766229
 20
88.025635
 30
0.0
 40
4.08261
  0
SPLINE
  5
2AC
330
1F
100
AcDbEntity
  8
LAYER_1
 62
     7
100
AcDbSpline
210
0.0
220
0.0
230
1.0
 70
     8
 71
     3
 72
     8
 73
     4
 74
     0
 42
0.00000001
 43
0.00000001
 40
0.0
 40
0.0
 40
0.0
 40
0.0
 40
1.0
 40
1.0
 40
1.0
 40
1.0
 10
265.2220540364583
 20
89.62105848524305
 30
0.0
 10
264.6877197265625
 20
91.45178222656249
 30
0.0
 10
263.2559380425347
 20
92.90113389756944
 30
0.0
 10
261.4348605685764
 20
93.45958387586805
 30
0.0
  0
SPLINE
  5
2AB
330
1F
100
AcDbEntity
  8
LAYER_1
 62
     7
100
AcDbSpline
210
0.0
220
0.0
230
1.0
 70
     8
 71
     3
 72
     8
 73
     4
 74
     0
 42
0.00000001
 43
0.00000001
 40
0.0
 40
0.0
 40
0.0
 40
0.0
 40
1.0
 40
1.0
 40
1.0
 40
1.0
 10
261.3091145833333
 20
82.55516764322915
 30
0.0
 10
263.1749782986111
 20
83.08020019531249
 30
0.0
 10
264.6515462239583
 20
84.53403049045139
 30
0.0
 10
265.2089626736111
 20
86.3857693142361
 30
0.0
  0
SPLINE
  5
2AA
330
1F
100
AcDbEntity
  8
LAYER_1
 62
     7
100
AcDbSpline
210
0.0
220
0.0
230
1.0
 70
     8
 71
     3
 72
     8
 73
     4
 74
     0
 42
0.00000001
 43
0.00000001
 40
0.0
 40
0.0
 40
0.0
 40
0.0
 40
1.0
 40
1.0
 40
1.0
 40
1.0
 10
254.2835313585069
 20
86.52495117187499
 30
0.0
 10
254.7958170572917
 20
84.65047471788193
 30
0.0
 10
256.2431016710069
 20
83.16219346788193
 30
0.0
 10
258.0934624565972
 20
82.593408203125
 30
0.0
  0
SPLINE
  5
2A9
330
1F
100
AcDbEntity
  8
LAYER_1
 62
     7
100
AcDbSpline
210
0.0
220
0.0
230
1.0
 70
     8
 71
     3
 72
     8
 73
     4
 74
     0
 42
0.00000001
 43
0.00000001
 40
0.0
 40
0.0
 40
0.0
 40
0.0
 40
1.0
 40
1.0
 40
1.0
 40
1.0
 10
258.2484917534722
 20
93.50402560763888
 30
0.0
 10
256.4001980251736
 20
92.99277343749999
 30
0.0
 10
254.9298312717014
 20
91.57098253038194
 30
0.0
 10
254.3500217013889
 20
89.75231662326388
 30
0.0
  0
SPLINE
  5
2A8
330
1F
100
AcDbEntity
  8
LAYER_1
 62
     7
100
AcDbSpline
210
0.0
220
0.0
230
1.0
 70
     8
 71
     3
 72
     8
 73
     4
 74
     0
 42
0.00000001
 43
0.00000001
 40
0.0
 40
0.0
 40
0.0
 40
0.0
 40
1.0
 40
1.0
 40
1.0
 40
1.0
 10
253.7243923611111
 20
89.75748426649305
 30
0.0
 10
254.3355523003472
 20
91.89619954427083
 30
0.0
 10
256.052587890625
 20
93.56810438368055
 30
0.0
 10
258.2171413845486
 20
94.11690809461804
 30
0.0
  0
SPLINE
  5
2A7
330
1F
100
AcDbEntity
  8
LAYER_1
 62
     7
100
AcDbSpline
210
0.0
220
0.0
230
1.0
 70
     8
 71
     3
 72
     8
 73
     4
 74
     0
 42
0.00000001
 43
0.00000001
 40
0.0
 40
0.0
 40
0.0
 40
0.0
 40
1.0
 40
1.0
 40
1.0
 40
1.0
 10
258.012158203125
 20
81.99051649305555
 30
0.0
 10
255.8668972439236
 20
82.61304524739583
 30
0.0
 10
254.1946478949652
 20
84.34833984375
 30
0.0
 10
253.6620361328125
 20
86.52977430555555
 30
0.0
  0
SPLINE
  5
2A6
330
1F
100
AcDbEntity
  8
LAYER_1
 62
     7
100
AcDbSpline
210
0.0
220
0.0
230
1.0
 70
     8
 71
     3
 72
     8
 73
     4
 74
     0
 42
0.00000001
 43
0.00000001
 40
0.0
 40
0.0
 40
0.0
 40
0.0
 40
1.0
 40
1.0
 40
1.0
 40
1.0
 10
265.8246012369792
 20
86.35235188802082
 30
0.0
 10
265.2265326605902
 20
84.18228624131943
 30
0.0
 10
263.4936496310764
 20
82.48282063802083
 30
0.0
 10
261.3042914496527
 20
81.93229437934028
 30
0.0
  0
SPLINE
  5
2A5
330
1F
100
AcDbEntity
  8
LAYER_1
 62
     7
100
AcDbSpline
210
0.0
220
0.0
230
1.0
 70
     8
 71
     3
 72
     8
 73
     4
 74
     0
 42
0.00000001
 43
0.00000001
 40
0.0
 40
0.0
 40
0.0
 40
0.0
 40
1.0
 40
1.0
 40
1.0
 40
1.0
 10
261.4655219184028
 20
94.07694498697916
 30
0.0
 10
263.6025146484375
 20
93.47818739149305
 30
0.0
 10
265.2785536024305
 20
91.77803276909721
 30
0.0
 10
265.8438937717013
 20
89.62794867621527
 30
0.0
  0
LWPOLYLINE
  5
29A
330
1F
100
AcDbEntity
  8
LAYER_1
 62
     7
100
AcDbPolyline
 90
        9
 70
     0
 43
0.0
 10
139.057662
 20
162.345474
 10
139.057662
 20
165.790397
 10
138.629092
 20
168.804511
 10
137.772814
 20
171.388161
 10
136.917052
 20
174.402447
 10
135.632204
 20
176.986441
 10
133.919474
 20
180.000555
 10
132.206745
 20
182.153567
 10
130.066135
 20
184.737389
  0
LWPOLYLINE
  5
28F
330
1F
100
AcDbEntity
  8
LAYER_1
 62
     7
100
AcDbPolyline
 90
        9
 70
     0
 43
0.0
 10
139.057662
 20
162.345474
 10
139.057662
 20
165.790397
 10
138.629092
 20
168.804511
 10
137.772814
 20
171.388161
 10
136.917052
 20
174.402447
 10
135.632204
 20
176.986441
 10
133.919474
 20
180.000555
 10
132.206745
 20
182.153567
 10
130.066135
 20
184.737389
  0
LWPOLYLINE
  5
284
330
1F
100
AcDbEntity
  8
LAYER_1
 62
     7
100
AcDbPolyline
 90
        9
 70
     0
 43
0.0
 10
130.066135
 20
184.737389
 10
127.92518
 20
186.459592
 10
125.355828
 20
188.612604
 10
122.886384
 20
190.121901
 10
120.336496
 20
191.322
 10
117.220063
 20
192.488681
 10
114.386127
 20
193.122234
 10
111.235932
 20
193.672244
 10
108.228536
 20
193.78042
  0
LWPOLYLINE
  5
279
330
1F
100
AcDbEntity
  8
LAYER_1
 62
     7
100
AcDbPolyline
 90
        9
 70
     0
 43
0.0
 10
130.066135
 20
184.737389
 10
127.92518
 20
186.459592
 10
125.355828
 20
188.612604
 10
122.886384
 20
190.121901
 10
120.336496
 20
191.322
 10
117.220063
 20
192.488681
 10
114.386127
 20
193.122234
 10
111.235932
 20
193.672244
 10
108.228536
 20
193.78042
  0
LWPOLYLINE
  5
26E
330
1F
100
AcDbEntity
  8
LAYER_1
 62
     7
100
AcDbPolyline
 90
        9
 70
     0
 43
0.0
 10
108.228536
 20
193.78042
 10
105.185828
 20
193.522555
 10
102.185838
 20
193.122062
 10
99.237009
 20
192.488509
 10
96.239431
 20
191.196943
 10
93.670424
 20
189.904687
 10
91.101588
 20
188.612949
 10
88.493479
 20
186.860946
 10
86.391626
 20
184.737389
  0
LWPOLYLINE
  5
263
330
1F
100
AcDbEntity
  8
LAYER_1
 62
     7
100
AcDbPolyline
 90
        9
 70
     0
 43
0.0
 10
108.228536
 20
193.78042
 10
105.185828
 20
193.522555
 10
102.185838
 20
193.122062
 10
99.237009
 20
192.488509
 10
96.239431
 20
191.196943
 10
93.670424
 20
189.904687
 10
91.101588
 20
188.612949
 10
88.493479
 20
186.860946
 10
86.391626
 20
184.737389
  0
LWPOLYLINE
  5
258
330
1F
100
AcDbEntity
  8
LAYER_1
 62
     7
100
AcDbPolyline
 90
        9
 70
     0
 43
0.0
 10
86.391626
 20
184.737389
 10
84.250671
 20
182.153567
 10
82.537942
 20
180.000727
 10
80.825041
 20
176.986441
 10
79.540365
 20
174.402447
 10
78.420536
 20
171.430535
 10
77.827635
 20
168.804511
 10
77.399238
 20
165.790397
 10
77.399238
 20
162.345474
  0
LWPOLYLINE
  5
24D
330
1F
100
AcDbEntity
  8
LAYER_1
 62
     7
100
AcDbPolyline
 90
        9
 70
     0
 43
0.0
 10
86.391626
 20
184.737389
 10
84.250671
 20
182.153567
 10
82.537942
 20
180.000727
 10
80.825041
 20
176.986441
 10
79.540365
 20
174.402447
 10
78.420536
 20
171.430535
 10
77.827635
 20
168.804511
 10
77.399238
 20
165.790397
 10
77.399238
 20
162.345474
  0
LINE
  5
24C
330
1F
100
AcDbEntity
  8
LAYER_1
 62
     7
100
AcDbLine
 10
77.39941
 20
162.345474
 30
0.0
 11
77.39941
 21
100.04075
 31
0.0
  0
LINE
  5
24B
330
1F
100
AcDbEntity
  8
LAYER_1
 62
     7
100
AcDbLine
 10
69.69187
 20
100.04075
 30
0.0
 11
69.69187
 21
162.345474
 31
0.0
  0
LINE
  5
24A
330
1F
100
AcDbEntity
  8
LAYER_1
 62
     7
100
AcDbLine
 10
60.700343
 20
94.307422
 30
0.0
 11
60.700343
 21
94.307422
 31
0.0
  0
LINE
  5
249
330
1F
100
AcDbEntity
  8
LAYER_1
 62
     7
100
AcDbLine
 10
73.545554
 20
96.030659
 30
0.0
 11
67.97983
 21
96.030659
 31
0.0
  0
LINE
  5
248
330
1F
100
AcDbEntity
  8
LAYER_1
 62
     7
100
AcDbLine
 10
60.27229
 20
77.514304
 30
0.0
 11
60.27229
 21
80.959055
 31
0.0
  0
LINE
  5
247
330
1F
100
AcDbEntity
  8
LAYER_1
 62
     7
100
AcDbLine
 10
73.545554
 20
96.030659
 30
0.0
 11
78.684086
 21
96.030659
 31
0.0
  0
LINE
  5
246
330
1F
100
AcDbEntity
  8
LAYER_1
 62
     7
100
AcDbLine
 10
67.97983
 20
96.030659
 30
0.0
 11
68.835592
 21
96.030659
 31
0.0
  0
LWPOLYLINE
  5
241
330
1F
100
AcDbEntity
  8
LAYER_1
 62
     7
100
AcDbPolyline
 90
        3
 70
     0
 43
0.0
 10
57.274712
 20
99.045117
 10
57.274712
 20
98.183843
 10
57.274712
 20
95.599677
  0
LWPOLYLINE
  5
23C
330
1F
100
AcDbEntity
  8
LAYER_1
 62
     7
100
AcDbPolyline
 90
        3
 70
     0
 43
0.0
 10
57.274712
 20
99.045117
 10
57.274712
 20
98.183843
 10
57.274712
 20
95.599677
  0
LWPOLYLINE
  5
237
330
1F
100
AcDbEntity
  8
LAYER_1
 62
     7
100
AcDbPolyline
 90
        3
 70
     0
 43
0.0
 10
57.274712
 20
95.599677
 10
57.274712
 20
92.154582
 10
57.274712
 20
87.848901
  0
LWPOLYLINE
  5
232
330
1F
100
AcDbEntity
  8
LAYER_1
 62
     7
100
AcDbPolyline
 90
        3
 70
     0
 43
0.0
 10
57.274712
 20
95.599677
 10
57.274712
 20
92.154582
 10
57.274712
 20
87.848901
  0
LWPOLYLINE
  5
22D
330
1F
100
AcDbEntity
  8
LAYER_1
 62
     7
100
AcDbPolyline
 90
        3
 70
     0
 43
0.0
 10
57.274712
 20
87.848901
 10
57.274712
 20
83.542877
 10
57.274712
 20
80.097092
  0
LWPOLYLINE
  5
228
330
1F
100
AcDbEntity
  8
LAYER_1
 62
     7
100
AcDbPolyline
 90
        3
 70
     0
 43
0.0
 10
57.274712
 20
87.848901
 10
57.274712
 20
83.542877
 10
57.274712
 20
80.097092
  0
LWPOLYLINE
  5
223
330
1F
100
AcDbEntity
  8
LAYER_1
 62
     7
100
AcDbPolyline
 90
        3
 70
     0
 43
0.0
 10
57.274712
 20
80.097092
 10
57.274712
 20
77.514304
 10
57.274712
 20
77.083322
  0
LWPOLYLINE
  5
21E
330
1F
100
AcDbEntity
  8
LAYER_1
 62
     7
100
AcDbPolyline
 90
        3
 70
     0
 43
0.0
 10
57.274712
 20
80.097092
 10
57.274712
 20
77.514304
 10
57.274712
 20
77.083322
  0
LINE
  5
21D
330
1F
100
AcDbEntity
  8
LAYER_1
 62
     7
100
AcDbLine
 10
60.27229
 20
98.613791
 30
0.0
 11
57.274712
 21
99.045117
 31
0.0
  0
LINE
  5
21C
330
1F
100
AcDbEntity
  8
LAYER_1
 62
     7
100
AcDbLine
 10
57.274712
 20
77.083322
 30
0.0
 11
60.27229
 21
77.083322
 31
0.0
  0
LINE
  5
21B
330
1F
100
AcDbEntity
  8
LAYER_1
 62
     7
100
AcDbLine
 10
60.700343
 20
81.389692
 30
0.0
 11
60.700343
 21
81.389692
 31
0.0
  0
LWPOLYLINE
  5
216
330
1F
100
AcDbEntity
  8
LAYER_1
 62
     7
100
AcDbPolyline
 90
        3
 70
     0
 43
0.0
 10
78.684258
 20
96.030659
 10
78.256033
 20
96.030659
 10
77.39941
 20
96.030659
  0
LWPOLYLINE
  5
211
330
1F
100
AcDbEntity
  8
LAYER_1
 62
     7
100
AcDbPolyline
 90
        3
 70
     0
 43
0.0
 10
78.684258
 20
96.030659
 10
78.256033
 20
96.030659
 10
77.39941
 20
96.030659
  0
LWPOLYLINE
  5
20C
330
1F
100
AcDbEntity
  8
LAYER_1
 62
     7
100
AcDbPolyline
 90
        3
 70
     0
 43
0.0
 10
77.39941
 20
96.030659
 10
75.258455
 20
96.030659
 10
73.545726
 20
96.030659
  0
LWPOLYLINE
  5
207
330
1F
100
AcDbEntity
  8
LAYER_1
 62
     7
100
AcDbPolyline
 90
        3
 70
     0
 43
0.0
 10
77.39941
 20
96.030659
 10
75.258455
 20
96.030659
 10
73.545726
 20
96.030659
  0
LWPOLYLINE
  5
202
330
1F
100
AcDbEntity
  8
LAYER_1
 62
     7
100
AcDbPolyline
 90
        3
 70
     0
 43
0.0
 10
73.545554
 20
96.030659
 10
71.404944
 20
96.030659
 10
69.69187
 20
96.030659
  0
LWPOLYLINE
  5
1FD
330
1F
100
AcDbEntity
  8
LAYER_1
 62
     7
100
AcDbPolyline
 90
        3
 70
     0
 43
0.0
 10
73.545554
 20
96.030659
 10
71.404944
 20
96.030659
 10
69.69187
 20
96.030659
  0
LWPOLYLINE
  5
1F8
330
1F
100
AcDbEntity
  8
LAYER_1
 62
     7
100
AcDbPolyline
 90
        3
 70
     0
 43
0.0
 10
69.69187
 20
96.030659
 10
68.407711
 20
96.030659
 10
67.97983
 20
96.030659
  0
LWPOLYLINE
  5
1F3
330
1F
100
AcDbEntity
  8
LAYER_1
 62
     7
100
AcDbPolyline
 90
        3
 70
     0
 43
0.0
 10
69.69187
 20
96.030659
 10
68.407711
 20
96.030659
 10
67.97983
 20
96.030659
  0
LWPOLYLINE
  5
1EE
330
1F
100
AcDbEntity
  8
LAYER_1
 62
     7
100
AcDbPolyline
 90
        3
 70
     0
 43
0.0
 10
78.684258
 20
80.528073
 10
78.256033
 20
80.528073
 10
77.39941
 20
80.528073
  0
LWPOLYLINE
  5
1E9
330
1F
100
AcDbEntity
  8
LAYER_1
 62
     7
100
AcDbPolyline
 90
        3
 70
     0
 43
0.0
 10
78.684258
 20
80.528073
 10
78.256033
 20
80.528073
 10
77.39941
 20
80.528073
  0
LWPOLYLINE
  5
1E4
330
1F
100
AcDbEntity
  8
LAYER_1
 62
     7
100
AcDbPolyline
 90
        3
 70
     0
 43
0.0
 10
77.39941
 20
80.528073
 10
75.258455
 20
80.528073
 10
73.545726
 20
80.528073
  0
LWPOLYLINE
  5
1DF
330
1F
100
AcDbEntity
  8
LAYER_1
 62
     7
100
AcDbPolyline
 90
        3
 70
     0
 43
0.0
 10
77.39941
 20
80.528073
 10
75.258455
 20
80.528073
 10
73.545726
 20
80.528073
  0
LWPOLYLINE
  5
1DA
330
1F
100
AcDbEntity
  8
LAYER_1
 62
     7
100
AcDbPolyline
 90
        3
 70
     0
 43
0.0
 10
73.545554
 20
80.528073
 10
71.404944
 20
80.528073
 10
69.69187
 20
80.528073
  0
LWPOLYLINE
  5
1D5
330
1F
100
AcDbEntity
  8
LAYER_1
 62
     7
100
AcDbPolyline
 90
        3
 70
     0
 43
0.0
 10
73.545554
 20
80.528073
 10
71.404944
 20
80.528073
 10
69.69187
 20
80.528073
  0
LWPOLYLINE
  5
1D0
330
1F
100
AcDbEntity
  8
LAYER_1
 62
     7
100
AcDbPolyline
 90
        3
 70
     0
 43
0.0
 10
69.69187
 20
80.528073
 10
68.407711
 20
80.528073
 10
67.97983
 20
80.528073
  0
LWPOLYLINE
  5
1CB
330
1F
100
AcDbEntity
  8
LAYER_1
 62
     7
100
AcDbPolyline
 90
        3
 70
     0
 43
0.0
 10
69.69187
 20
80.528073
 10
68.407711
 20
80.528073
 10
67.97983
 20
80.528073
  0
LWPOLYLINE
  5
1C6
330
1F
100
AcDbEntity
  8
LAYER_1
 62
     7
100
AcDbPolyline
 90
        3
 70
     0
 43
0.0
 10
77.827463
 20
79.6668
 10
77.399582
 20
79.6668
 10
76.543304
 20
79.6668
  0
LWPOLYLINE
  5
1C1
330
1F
100
AcDbEntity
  8
LAYER_1
 62
     7
100
AcDbPolyline
 90
        3
 70
     0
 43
0.0
 10
77.827463
 20
79.6668
 10
77.399582
 20
79.6668
 10
76.543304
 20
79.6668
  0
LWPOLYLINE
  5
1BC
330
1F
100
AcDbEntity
  8
LAYER_1
 62
     7
100
AcDbPolyline
 90
        3
 70
     0
 43
0.0
 10
76.543304
 20
79.6668
 10
75.258455
 20
79.6668
 10
73.545382
 20
79.6668
  0
LWPOLYLINE
  5
1B7
330
1F
100
AcDbEntity
  8
LAYER_1
 62
     7
100
AcDbPolyline
 90
        3
 70
     0
 43
0.0
 10
76.543304
 20
79.6668
 10
75.258455
 20
79.6668
 10
73.545382
 20
79.6668
  0
LWPOLYLINE
  5
1B2
330
1F
100
AcDbEntity
  8
LAYER_1
 62
     7
100
AcDbPolyline
 90
        3
 70
     0
 43
0.0
 10
73.545554
 20
79.6668
 10
71.832825
 20
79.6668
 10
70.120785
 20
79.6668
  0
LWPOLYLINE
  5
1AD
330
1F
100
AcDbEntity
  8
LAYER_1
 62
     7
100
AcDbPolyline
 90
        3
 70
     0
 43
0.0
 10
73.545554
 20
79.6668
 10
71.832825
 20
79.6668
 10
70.120785
 20
79.6668
  0
LWPOLYLINE
  5
1A8
330
1F
100
AcDbEntity
  8
LAYER_1
 62
     7
100
AcDbPolyline
 90
        3
 70
     0
 43
0.0
 10
70.120612
 20
79.6668
 10
69.263645
 20
79.6668
 10
68.835764
 20
79.6668
  0
LWPOLYLINE
  5
1A3
330
1F
100
AcDbEntity
  8
LAYER_1
 62
     7
100
AcDbPolyline
 90
        3
 70
     0
 43
0.0
 10
70.120612
 20
79.6668
 10
69.263645
 20
79.6668
 10
68.835764
 20
79.6668
  0
LINE
  5
1A2
330
1F
100
AcDbEntity
  8
LAYER_1
 62
     7
100
AcDbLine
 10
78.684258
 20
90.039293
 30
0.0
 11
78.684258
 21
96.030659
 31
0.0
  0
LINE
  5
1A1
330
1F
100
AcDbEntity
  8
LAYER_1
 62
     7
100
AcDbLine
 10
78.684258
 20
80.528073
 30
0.0
 11
78.684258
 21
86.134277
 31
0.0
  0
LINE
  5
1A0
330
1F
100
AcDbEntity
  8
LAYER_1
 62
     7
100
AcDbLine
 10
67.97983
 20
81.965023
 30
0.0
 11
67.97983
 21
80.528073
 31
0.0
  0
LINE
  5
19F
330
1F
100
AcDbEntity
  8
LAYER_1
 62
     7
100
AcDbLine
 10
67.97983
 20
96.030659
 30
0.0
 11
67.97983
 21
94.018034
 31
0.0
  0
LINE
  5
19E
330
1F
100
AcDbEntity
  8
LAYER_1
 62
     7
100
AcDbLine
 10
77.827463
 20
79.6668
 30
0.0
 11
78.684431
 21
80.528073
 31
0.0
  0
LINE
  5
19D
330
1F
100
AcDbEntity
  8
LAYER_1
 62
     7
100
AcDbLine
 10
78.112545
 20
99.906047
 30
0.0
 11
68.407711
 21
99.906047
 31
0.0
  0
LINE
  5
19C
330
1F
100
AcDbEntity
  8
LAYER_1
 62
     7
100
AcDbLine
 10
67.97983
 20
96.030659
 30
0.0
 11
68.407711
 21
99.906047
 31
0.0
  0
LINE
  5
19B
330
1F
100
AcDbEntity
  8
LAYER_1
 62
     7
100
AcDbLine
 10
78.684258
 20
96.030659
 30
0.0
 11
78.112373
 21
99.906047
 31
0.0
  0
LINE
  5
19A
330
1F
100
AcDbEntity
  8
LAYER_1
 62
     7
100
AcDbLine
 10
67.97983
 20
80.528073
 30
0.0
 11
68.835592
 21
79.6668
 31
0.0
  0
LINE
  5
199
330
1F
100
AcDbEntity
  8
LAYER_1
 62
     7
100
AcDbLine
 10
215.017022
 20
93.60979
 30
0.0
 11
215.017022
 21
93.60979
 31
0.0
  0
LINE
  5
198
330
1F
100
AcDbEntity
  8
LAYER_1
 62
     7
100
AcDbLine
 10
215.017022
 20
93.60979
 30
0.0
 11
215.017022
 21
93.60979
 31
0.0
  0
LINE
  5
197
330
1F
100
AcDbEntity
  8
LAYER_1
 62
     7
100
AcDbLine
 10
215.017022
 20
93.60979
 30
0.0
 11
215.017022
 21
93.60979
 31
0.0
  0
LINE
  5
196
330
1F
100
AcDbEntity
  8
LAYER_1
 62
     7
100
AcDbLine
 10
215.017022
 20
93.60979
 30
0.0
 11
215.017022
 21
93.60979
 31
0.0
  0
LINE
  5
195
330
1F
100
AcDbEntity
  8
LAYER_1
 62
     7
100
AcDbLine
 10
215.017022
 20
93.60979
 30
0.0
 11
215.017022
 21
93.60979
 31
0.0
  0
LINE
  5
194
330
1F
100
AcDbEntity
  8
LAYER_1
 62
     7
100
AcDbLine
 10
215.017022
 20
93.60979
 30
0.0
 11
215.017022
 21
93.60979
 31
0.0
  0
LINE
  5
193
330
1F
100
AcDbEntity
  8
LAYER_1
 62
     7
100
AcDbLine
 10
215.017022
 20
93.60979
 30
0.0
 11
215.017022
 21
93.60979
 31
0.0
  0
LINE
  5
192
330
1F
100
AcDbEntity
  8
LAYER_1
 62
     7
100
AcDbLine
 10
215.017022
 20
93.60979
 30
0.0
 11
215.017022
 21
93.60979
 31
0.0
  0
LINE
  5
191
330
1F
100
AcDbEntity
  8
LAYER_1
 62
     7
100
AcDbLine
 10
215.017022
 20
93.60979
 30
0.0
 11
215.017022
 21
93.60979
 31
0.0
  0
LINE
  5
190
330
1F
100
AcDbEntity
  8
LAYER_1
 62
     7
100
AcDbLine
 10
215.017022
 20
93.60979
 30
0.0
 11
215.017022
 21
93.60979
 31
0.0
  0
LINE
  5
18F
330
1F
100
AcDbEntity
  8
LAYER_1
 62
     7
100
AcDbLine
 10
215.017022
 20
93.60979
 30
0.0
 11
215.017022
 21
93.60979
 31
0.0
  0
LINE
  5
18E
330
1F
100
AcDbEntity
  8
LAYER_1
 62
     7
100
AcDbLine
 10
215.017022
 20
93.60979
 30
0.0
 11
215.017022
 21
93.60979
 31
0.0
  0
LINE
  5
18D
330
1F
100
AcDbEntity
  8
LAYER_1
 62
     7
100
AcDbLine
 10
215.017022
 20
93.60979
 30
0.0
 11
215.017022
 21
93.60979
 31
0.0
  0
LINE
  5
18C
330
1F
100
AcDbEntity
  8
LAYER_1
 62
     7
100
AcDbLine
 10
215.017022
 20
93.60979
 30
0.0
 11
215.017022
 21
93.60979
 31
0.0
  0
LINE
  5
18B
330
1F
100
AcDbEntity
  8
LAYER_1
 62
     7
100
AcDbLine
 10
215.017022
 20
93.60979
 30
0.0
 11
215.017022
 21
93.60979
 31
0.0
  0
LINE
  5
18A
330
1F
100
AcDbEntity
  8
LAYER_1
 62
     7
100
AcDbLine
 10
215.017022
 20
93.60979
 30
0.0
 11
215.017022
 21
93.60979
 31
0.0
  0
LINE
  5
189
330
1F
100
AcDbEntity
  8
LAYER_1
 62
     7
100
AcDbLine
 10
215.017022
 20
93.60979
 30
0.0
 11
215.017022
 21
93.60979
 31
0.0
  0
LINE
  5
188
330
1F
100
AcDbEntity
  8
LAYER_1
 62
     7
100
AcDbLine
 10
215.017022
 20
93.60979
 30
0.0
 11
215.017022
 21
93.60979
 31
0.0
  0
LINE
  5
187
330
1F
100
AcDbEntity
  8
LAYER_1
 62
     7
100
AcDbLine
 10
215.017022
 20
93.60979
 30
0.0
 11
215.017022
 21
93.60979
 31
0.0
  0
LINE
  5
186
330
1F
100
AcDbEntity
  8
LAYER_1
 62
     7
100
AcDbLine
 10
215.017022
 20
94.040771
 30
0.0
 11
215.017022
 21
94.040771
 31
0.0
  0
LINE
  5
185
330
1F
100
AcDbEntity
  8
LAYER_1
 62
     7
100
AcDbLine
 10
215.017022
 20
94.040771
 30
0.0
 11
215.017022
 21
94.040771
 31
0.0
  0
LINE
  5
184
330
1F
100
AcDbEntity
  8
LAYER_1
 62
     7
100
AcDbLine
 10
215.017022
 20
94.040771
 30
0.0
 11
215.017022
 21
94.040771
 31
0.0
  0
LINE
  5
183
330
1F
100
AcDbEntity
  8
LAYER_1
 62
     7
100
AcDbLine
 10
215.017022
 20
94.040771
 30
0.0
 11
215.017022
 21
94.040771
 31
0.0
  0
LINE
  5
182
330
1F
100
AcDbEntity
  8
LAYER_1
 62
     7
100
AcDbLine
 10
214.588797
 20
94.040771
 30
0.0
 11
214.588797
 21
94.040771
 31
0.0
  0
LINE
  5
181
330
1F
100
AcDbEntity
  8
LAYER_1
 62
     7
100
AcDbLine
 10
214.588797
 20
94.040771
 30
0.0
 11
214.588797
 21
94.040771
 31
0.0
  0
LINE
  5
180
330
1F
100
AcDbEntity
  8
LAYER_1
 62
     7
100
AcDbLine
 10
214.588797
 20
94.040771
 30
0.0
 11
214.588797
 21
94.040771
 31
0.0
  0
LINE
  5
17F
330
1F
100
AcDbEntity
  8
LAYER_1
 62
     7
100
AcDbLine
 10
214.588797
 20
94.040771
 30
0.0
 11
214.588797
 21
94.040771
 31
0.0
  0
LINE
  5
17E
330
1F
100
AcDbEntity
  8
LAYER_1
 62
     7
100
AcDbLine
 10
214.588797
 20
94.040771
 30
0.0
 11
214.588797
 21
94.040771
 31
0.0
  0
LINE
  5
17D
330
1F
100
AcDbEntity
  8
LAYER_1
 62
     7
100
AcDbLine
 10
220.114385
 20
96.030659
 30
0.0
 11
214.548489
 21
96.030659
 31
0.0
  0
LINE
  5
17C
330
1F
100
AcDbEntity
  8
LAYER_1
 62
     7
100
AcDbLine
 10
220.114385
 20
96.030659
 30
0.0
 11
225.252745
 21
96.030659
 31
0.0
  0
LINE
  5
17B
330
1F
100
AcDbEntity
  8
LAYER_1
 62
     7
100
AcDbLine
 10
214.548489
 20
96.030659
 30
0.0
 11
215.404595
 21
96.030659
 31
0.0
  0
LWPOLYLINE
  5
176
330
1F
100
AcDbEntity
  8
LAYER_1
 62
     7
100
AcDbPolyline
 90
        3
 70
     0
 43
0.0
 10
225.252745
 20
96.030659
 10
224.824864
 20
96.030659
 10
223.968414
 20
96.030659
  0
LWPOLYLINE
  5
171
330
1F
100
AcDbEntity
  8
LAYER_1
 62
     7
100
AcDbPolyline
 90
        3
 70
     0
 43
0.0
 10
225.252745
 20
96.030659
 10
224.824864
 20
96.030659
 10
223.968414
 20
96.030659
  0
LWPOLYLINE
  5
16C
330
1F
100
AcDbEntity
  8
LAYER_1
 62
     7
100
AcDbPolyline
 90
        3
 70
     0
 43
0.0
 10
223.968414
 20
96.030659
 10
221.827287
 20
96.030659
 10
220.114385
 20
96.030659
  0
LWPOLYLINE
  5
167
330
1F
100
AcDbEntity
  8
LAYER_1
 62
     7
100
AcDbPolyline
 90
        3
 70
     0
 43
0.0
 10
223.968414
 20
96.030659
 10
221.827287
 20
96.030659
 10
220.114385
 20
96.030659
  0
LWPOLYLINE
  5
162
330
1F
100
AcDbEntity
  8
LAYER_1
 62
     7
100
AcDbPolyline
 90
        3
 70
     0
 43
0.0
 10
220.114385
 20
96.030659
 10
217.973603
 20
96.030659
 10
216.260701
 20
96.030659
  0
LWPOLYLINE
  5
15D
330
1F
100
AcDbEntity
  8
LAYER_1
 62
     7
100
AcDbPolyline
 90
        3
 70
     0
 43
0.0
 10
220.114385
 20
96.030659
 10
217.973603
 20
96.030659
 10
216.260701
 20
96.030659
  0
LWPOLYLINE
  5
158
330
1F
100
AcDbEntity
  8
LAYER_1
 62
     7
100
AcDbPolyline
 90
        3
 70
     0
 43
0.0
 10
216.260701
 20
96.030659
 10
214.976714
 20
96.030659
 10
214.548145
 20
96.030659
  0
LWPOLYLINE
  5
153
330
1F
100
AcDbEntity
  8
LAYER_1
 62
     7
100
AcDbPolyline
 90
        3
 70
     0
 43
0.0
 10
216.260701
 20
96.030659
 10
214.976714
 20
96.030659
 10
214.548145
 20
96.030659
  0
LWPOLYLINE
  5
14E
330
1F
100
AcDbEntity
  8
LAYER_1
 62
     7
100
AcDbPolyline
 90
        3
 70
     0
 43
0.0
 10
225.252745
 20
80.528073
 10
224.824864
 20
80.528073
 10
223.968414
 20
80.528073
  0
LWPOLYLINE
  5
149
330
1F
100
AcDbEntity
  8
LAYER_1
 62
     7
100
AcDbPolyline
 90
        3
 70
     0
 43
0.0
 10
225.252745
 20
80.528073
 10
224.824864
 20
80.528073
 10
223.968414
 20
80.528073
  0
LWPOLYLINE
  5
144
330
1F
100
AcDbEntity
  8
LAYER_1
 62
     7
100
AcDbPolyline
 90
        3
 70
     0
 43
0.0
 10
223.968414
 20
80.528073
 10
221.827287
 20
80.528073
 10
220.114385
 20
80.528073
  0
LWPOLYLINE
  5
13F
330
1F
100
AcDbEntity
  8
LAYER_1
 62
     7
100
AcDbPolyline
 90
        3
 70
     0
 43
0.0
 10
223.968414
 20
80.528073
 10
221.827287
 20
80.528073
 10
220.114385
 20
80.528073
  0
LWPOLYLINE
  5
13A
330
1F
100
AcDbEntity
  8
LAYER_1
 62
     7
100
AcDbPolyline
 90
        3
 70
     0
 43
0.0
 10
220.114385
 20
80.528073
 10
217.973603
 20
80.528073
 10
216.260701
 20
80.528073
  0
LWPOLYLINE
  5
135
330
1F
100
AcDbEntity
  8
LAYER_1
 62
     7
100
AcDbPolyline
 90
        3
 70
     0
 43
0.0
 10
220.114385
 20
80.528073
 10
217.973603
 20
80.528073
 10
216.260701
 20
80.528073
  0
LWPOLYLINE
  5
130
330
1F
100
AcDbEntity
  8
LAYER_1
 62
     7
100
AcDbPolyline
 90
        3
 70
     0
 43
0.0
 10
216.260701
 20
80.528073
 10
214.976714
 20
80.528073
 10
214.548145
 20
80.528073
  0
LWPOLYLINE
  5
12B
330
1F
100
AcDbEntity
  8
LAYER_1
 62
     7
100
AcDbPolyline
 90
        3
 70
     0
 43
0.0
 10
216.260701
 20
80.528073
 10
214.976714
 20
80.528073
 10
214.548145
 20
80.528073
  0
LWPOLYLINE
  5
126
330
1F
100
AcDbEntity
  8
LAYER_1
 62
     7
100
AcDbPolyline
 90
        3
 70
     0
 43
0.0
 10
224.396294
 20
79.6668
 10
223.968414
 20
79.6668
 10
223.112307
 20
79.6668
  0
LWPOLYLINE
  5
121
330
1F
100
AcDbEntity
  8
LAYER_1
 62
     7
100
AcDbPolyline
 90
        3
 70
     0
 43
0.0
 10
224.396294
 20
79.6668
 10
223.968414
 20
79.6668
 10
223.112307
 20
79.6668
  0
LWPOLYLINE
  5
11C
330
1F
100
AcDbEntity
  8
LAYER_1
 62
     7
100
AcDbPolyline
 90
        3
 70
     0
 43
0.0
 10
223.112307
 20
79.6668
 10
221.826942
 20
79.6668
 10
220.114385
 20
79.6668
  0
LWPOLYLINE
  5
117
330
1F
100
AcDbEntity
  8
LAYER_1
 62
     7
100
AcDbPolyline
 90
        3
 70
     0
 43
0.0
 10
223.112307
 20
79.6668
 10
221.826942
 20
79.6668
 10
220.114385
 20
79.6668
  0
LWPOLYLINE
  5
112
330
1F
100
AcDbEntity
  8
LAYER_1
 62
     7
100
AcDbPolyline
 90
        3
 70
     0
 43
0.0
 10
220.114385
 20
79.6668
 10
218.401828
 20
79.6668
 10
216.689271
 20
79.6668
  0
LWPOLYLINE
  5
10D
330
1F
100
AcDbEntity
  8
LAYER_1
 62
     7
100
AcDbPolyline
 90
        3
 70
     0
 43
0.0
 10
220.114385
 20
79.6668
 10
218.401828
 20
79.6668
 10
216.689271
 20
79.6668
  0
LWPOLYLINE
  5
108
330
1F
100
AcDbEntity
  8
LAYER_1
 62
     7
100
AcDbPolyline
 90
        3
 70
     0
 43
0.0
 10
216.689271
 20
79.6668
 10
215.832476
 20
79.6668
 10
215.404595
 20
79.6668
  0
LWPOLYLINE
  5
103
330
1F
100
AcDbEntity
  8
LAYER_1
 62
     7
100
AcDbPolyline
 90
        3
 70
     0
 43
0.0
 10
216.689271
 20
79.6668
 10
215.832476
 20
79.6668
 10
215.404595
 20
79.6668
  0
LINE
  5
102
330
1F
100
AcDbEntity
  8
LAYER_1
 62
     7
100
AcDbLine
 10
225.252745
 20
80.528073
 30
0.0
 11
225.252745
 21
96.030659
 31
0.0
  0
LINE
  5
101
330
1F
100
AcDbEntity
  8
LAYER_1
 62
     7
100
AcDbLine
 10
214.548489
 20
96.030659
 30
0.0
 11
214.548489
 21
80.485354
 31
0.0
  0
LINE
  5
100
330
1F
100
AcDbEntity
  8
LAYER_1
 62
     7
100
AcDbLine
 10
224.396294
 20
79.6668
 30
0.0
 11
225.252745
 21
80.528073
 31
0.0
  0
LINE
  5
FF
330
1F
100
AcDbEntity
  8
LAYER_1
 62
     7
100
AcDbLine
 10
224.681548
 20
99.906047
 30
0.0
 11
214.976714
 21
99.906047
 31
0.0
  0
LINE
  5
FE
330
1F
100
AcDbEntity
  8
LAYER_1
 62
     7
100
AcDbLine
 10
214.548489
 20
96.030659
 30
0.0
 11
214.976714
 21
99.906047
 31
0.0
  0
LINE
  5
FD
330
1F
100
AcDbEntity
  8
LAYER_1
 62
     7
100
AcDbLine
 10
225.252745
 20
96.030659
 30
0.0
 11
224.681548
 21
99.906047
 31
0.0
  0
LINE
  5
FC
330
1F
100
AcDbEntity
  8
LAYER_1
 62
     7
100
AcDbLine
 10
214.548489
 20
80.528073
 30
0.0
 11
215.404595
 21
79.6668
 31
0.0
  0
LWPOLYLINE
  5
F7
330
1F
100
AcDbEntity
  8
LAYER_1
 62
     7
100
AcDbPolyline
 90
        3
 70
     0
 43
0.0
 10
60.27229
 20
98.613791
 10
60.27229
 20
97.752517
 10
60.27229
 20
95.169385
  0
LWPOLYLINE
  5
F2
330
1F
100
AcDbEntity
  8
LAYER_1
 62
     7
100
AcDbPolyline
 90
        3
 70
     0
 43
0.0
 10
60.27229
 20
98.613791
 10
60.27229
 20
97.752517
 10
60.27229
 20
95.169385
  0
LWPOLYLINE
  5
ED
330
1F
100
AcDbEntity
  8
LAYER_1
 62
     7
100
AcDbPolyline
 90
        3
 70
     0
 43
0.0
 10
60.27229
 20
95.169385
 10
60.27229
 20
91.724634
 10
60.27229
 20
87.848901
  0
LWPOLYLINE
  5
E8
330
1F
100
AcDbEntity
  8
LAYER_1
 62
     7
100
AcDbPolyline
 90
        3
 70
     0
 43
0.0
 10
60.27229
 20
95.169385
 10
60.27229
 20
91.724634
 10
60.27229
 20
87.848901
  0
LWPOLYLINE
  5
E3
330
1F
100
AcDbEntity
  8
LAYER_1
 62
     7
100
AcDbPolyline
 90
        3
 70
     0
 43
0.0
 10
60.27229
 20
87.848901
 10
60.27229
 20
83.973169
 10
60.27229
 20
80.528073
  0
LWPOLYLINE
  5
DE
330
1F
100
AcDbEntity
  8
LAYER_1
 62
     7
100
AcDbPolyline
 90
        3
 70
     0
 43
0.0
 10
60.27229
 20
87.848901
 10
60.27229
 20
83.973169
 10
60.27229
 20
80.528073
  0
LWPOLYLINE
  5
D9
330
1F
100
AcDbEntity
  8
LAYER_1
 62
     7
100
AcDbPolyline
 90
        3
 70
     0
 43
0.0
 10
60.27229
 20
80.528073
 10
60.27229
 20
77.943907
 10
60.27229
 20
77.083322
  0
LWPOLYLINE
  5
D4
330
1F
100
AcDbEntity
  8
LAYER_1
 62
     7
100
AcDbPolyline
 90
        3
 70
     0
 43
0.0
 10
60.27229
 20
80.528073
 10
60.27229
 20
77.943907
 10
60.27229
 20
77.083322
  0
LWPOLYLINE
  5
CF
330
1F
100
AcDbEntity
  8
LAYER_1
 62
     7
100
AcDbPolyline
 90
        3
 70
     0
 43
0.0
 10
60.27229
 20
94.738403
 10
60.27229
 20
94.307422
 10
60.27229
 20
92.585219
  0
LWPOLYLINE
  5
CA
330
1F
100
AcDbEntity
  8
LAYER_1
 62
     7
100
AcDbPolyline
 90
        3
 70
     0
 43
0.0
 10
60.27229
 20
94.738403
 10
60.27229
 20
94.307422
 10
60.27229
 20
92.585219
  0
LWPOLYLINE
  5
C5
330
1F
100
AcDbEntity
  8
LAYER_1
 62
     7
100
AcDbPolyline
 90
        3
 70
     0
 43
0.0
 10
60.27229
 20
92.585219
 10
60.27229
 20
90.432034
 10
60.27229
 20
87.848901
  0
LWPOLYLINE
  5
C0
330
1F
100
AcDbEntity
  8
LAYER_1
 62
     7
100
AcDbPolyline
 90
        3
 70
     0
 43
0.0
 10
60.27229
 20
92.585219
 10
60.27229
 20
90.432034
 10
60.27229
 20
87.848901
  0
LWPOLYLINE
  5
BB
330
1F
100
AcDbEntity
  8
LAYER_1
 62
     7
100
AcDbPolyline
 90
        3
 70
     0
 43
0.0
 10
60.27229
 20
87.848901
 10
60.27229
 20
85.26508
 10
60.27229
 20
83.111895
  0
LWPOLYLINE
  5
459
330
1F
100
AcDbEntity
  8
LAYER_1
 62
     7
100
AcDbPolyline
 90
        3
 70
     0
 43
0.0
 10
60.27229
 20
87.848901
 10
60.27229
 20
85.26508
 10
60.27229
 20
83.111895
  0
LWPOLYLINE
  5
45A
330
1F
100
AcDbEntity
  8
LAYER_1
 62
     7
100
AcDbPolyline
 90
        3
 70
     0
 43
0.0
 10
60.27229
 20
77.083322
 10
60.27229
 20
77.083322
 10
60.27229
 20
77.514304
  0
LWPOLYLINE
  5
45B
330
1F
100
AcDbEntity
  8
LAYER_1
 62
     7
100
AcDbPolyline
 90
        3
 70
     0
 43
0.0
 10
60.27229
 20
77.083322
 10
60.27229
 20
77.083322
 10
60.27229
 20
77.514304
  0
LINE
  5
45C
330
1F
100
AcDbEntity
  8
LAYER_1
 62
     7
100
AcDbLine
 10
60.27229
 20
77.514304
 30
0.0
 11
60.27229
 21
77.514304
 31
0.0
  0
LINE
  5
45D
330
1F
100
AcDbEntity
  8
LAYER_1
 62
     7
100
AcDbLine
 10
60.27229
 20
98.183843
 30
0.0
 11
60.27229
 21
98.613791
 31
0.0
  0
LINE
  5
45E
330
1F
100
AcDbEntity
  8
LAYER_1
 62
     7
100
AcDbLine
 10
60.27229
 20
98.613791
 30
0.0
 11
60.27229
 21
98.613791
 31
0.0
  0
LINE
  5
45F
330
1F
100
AcDbEntity
  8
LAYER_1
 62
     7
100
AcDbLine
 10
60.27229
 20
94.738403
 30
0.0
 11
60.27229
 21
98.183843
 31
0.0
  0
LINE
  5
460
330
1F
100
AcDbEntity
  8
LAYER_1
 62
     7
100
AcDbLine
 10
146.764857
 20
162.271577
 30
0.0
 11
146.764857
 21
159.331188
 31
0.0
  0
LINE
  5
461
330
1F
100
AcDbEntity
  8
LAYER_1
 62
     7
100
AcDbLine
 10
139.057662
 20
162.775939
 30
0.0
 11
139.057662
 21
159.331015
 31
0.0
  0
LINE
  5
462
330
1F
100
AcDbEntity
  8
LAYER_1
 62
     7
100
AcDbLine
 10
146.764857
 20
151.149603
 30
0.0
 11
146.764857
 21
159.330843
 31
0.0
  0
LINE
  5
463
330
1F
100
AcDbEntity
  8
LAYER_1
 62
     7
100
AcDbLine
 10
139.057662
 20
151.149603
 30
0.0
 11
139.057662
 21
159.330843
 31
0.0
  0
LINE
  5
464
330
1F
100
AcDbEntity
  8
LAYER_1
 62
     7
100
AcDbLine
 10
139.057662
 20
159.331015
 30
0.0
 11
146.764857
 21
159.331015
 31
0.0
  0
LINE
  5
465
330
1F
100
AcDbEntity
  8
LAYER_1
 62
     7
100
AcDbLine
 10
139.057662
 20
151.149603
 30
0.0
 11
146.764857
 21
151.149603
 31
0.0
  0
LINE
  5
466
330
1F
100
AcDbEntity
  8
LAYER_1
 62
     0
100
AcDbLine
 10
57.274712
 20
76.222049
 30
0.0
 11
57.274712
 21
72.173717
 31
0.0
  0
LINE
  5
467
330
1F
100
AcDbEntity
  8
LAYER_1
  6
AI9-LType1
 62
     7
100
AcDbLine
 10
50.845992
 20
87.848901
 30
0.0
 11
112.46497
 21
87.848901
 31
0.0
  0
LWPOLYLINE
  5
95
330
1F
100
AcDbEntity
  8
LAYER_1
 62
     7
100
AcDbPolyline
 90
        9
 70
     0
 43
0.0
 10
146.764857
 20
162.345474
 10
146.764857
 20
166.220345
 10
146.137678
 20
170.22234
 10
145.052128
 20
173.972327
 10
143.767624
 20
177.416905
 10
142.187187
 20
180.922118
 10
140.342166
 20
184.306924
 10
138.201211
 20
187.321038
 10
135.631859
 20
189.90486
  0
LWPOLYLINE
  5
8A
330
1F
100
AcDbEntity
  8
LAYER_1
 62
     7
100
AcDbPolyline
 90
        9
 70
     0
 43
0.0
 10
146.764857
 20
162.345474
 10
146.764857
 20
166.220345
 10
146.137678
 20
170.22234
 10
145.052128
 20
173.972327
 10
143.767624
 20
177.416905
 10
142.187187
 20
180.922118
 10
140.342166
 20
184.306924
 10
138.201211
 20
187.321038
 10
135.631859
 20
189.90486
  0
LWPOLYLINE
  5
7F
330
1F
100
AcDbEntity
  8
LAYER_1
 62
     7
100
AcDbPolyline
 90
        9
 70
     0
 43
0.0
 10
135.632031
 20
189.837336
 10
132.786899
 20
192.655596
 10
129.63791
 20
195.004807
 10
126.286521
 20
196.855168
 10
122.786648
 20
198.450075
 10
119.361534
 20
199.741985
 10
115.935387
 20
200.603087
 10
112.086182
 20
201.205634
 10
108.228708
 20
201.464533
  0
LWPOLYLINE
  5
468
330
1F
100
AcDbEntity
  8
LAYER_1
 62
     7
100
AcDbPolyline
 90
        9
 70
     0
 43
0.0
 10
135.632031
 20
189.837336
 10
132.786899
 20
192.655596
 10
129.63791
 20
195.004807
 10
126.286521
 20
196.855168
 10
122.786648
 20
198.450075
 10
119.361534
 20
199.741985
 10
115.935387
 20
200.603087
 10
112.086182
 20
201.205634
 10
108.228708
 20
201.464533
  0
LWPOLYLINE
  5
69
330
1F
100
AcDbEntity
  8
LAYER_1
 62
     7
100
AcDbPolyline
 90
        9
 70
     0
 43
0.0
 10
80.825041
 20
189.904687
 10
83.850179
 20
192.790472
 10
86.819851
 20
195.072158
 10
89.81674
 20
196.794878
 10
93.242543
 20
198.517426
 10
97.096227
 20
199.808993
 10
100.521341
 20
200.670439
 10
104.386049
 20
201.272641
 10
108.228536
 20
201.53154
  0
LWPOLYLINE
  5
469
330
1F
100
AcDbEntity
  8
LAYER_1
 62
     7
100
AcDbPolyline
 90
        9
 70
     0
 43
0.0
 10
80.825041
 20
189.904687
 10
83.850179
 20
192.790472
 10
86.819851
 20
195.072158
 10
89.81674
 20
196.794878
 10
93.242543
 20
198.517426
 10
97.096227
 20
199.808993
 10
100.521341
 20
200.670439
 10
104.386049
 20
201.272641
 10
108.228536
 20
201.53154
  0
LWPOLYLINE
  5
53
330
1F
100
AcDbEntity
  8
LAYER_1
 62
     7
100
AcDbPolyline
 90
        9
 70
     0
 43
0.0
 10
80.825041
 20
189.904687
 10
78.256205
 20
187.32121
 10
76.115078
 20
184.306752
 10
73.974468
 20
180.862001
 10
72.261739
 20
177.416733
 10
70.99136
 20
174.002127
 10
70.120785
 20
170.09625
 10
69.691698
 20
166.22069
 10
69.691698
 20
162.345302
  0
LWPOLYLINE
  5
48
330
1F
100
AcDbEntity
  8
LAYER_1
 62
     7
100
AcDbPolyline
 90
        9
 70
     0
 43
0.0
 10
80.825041
 20
189.904687
 10
78.256205
 20
187.32121
 10
76.115078
 20
184.306752
 10
73.974468
 20
180.862001
 10
72.261739
 20
177.416733
 10
70.99136
 20
174.002127
 10
70.120785
 20
170.09625
 10
69.691698
 20
166.22069
 10
69.691698
 20
162.345302
  0
MTEXT
  5
47
330
1F
100
AcDbEntity
  8
LAYER_1
 62
     7
100
AcDbMText
 10
216.477743
 20
65.970069
 30
0.0
 40
2.75739
 41
0.0
 46
0.0
 71
     1
 72
     2
  1
\fArial|b0|i0;\H2.7574;\C7;200
  7
STD
 73
     1
 44
1.0
  0
LINE
  5
46
330
1F
100
AcDbEntity
  8
LAYER_1
 62
     7
100
AcDbLine
 10
259.776047
 20
62.298006
 30
0.0
 11
180.194341
 21
62.427886
 31
0.0
  0
LINE
  5
45
330
1F
100
AcDbEntity
  8
LAYER_1
 62
     7
100
AcDbLine
 10
180.194341
 20
62.427886
 30
0.0
 11
183.017942
 21
62.427886
 31
0.0
  0
LINE
  5
44
330
1F
100
AcDbEntity
  8
LAYER_1
 62
     7
100
AcDbLine
 10
183.017942
 20
61.956942
 30
0.0
 11
183.017942
 21
62.897797
 31
0.0
  0
LINE
  5
43
330
1F
100
AcDbEntity
  8
LAYER_1
 62
     7
100
AcDbLine
 10
180.194341
 20
62.427886
 30
0.0
 11
183.017942
 21
62.897797
 31
0.0
  0
LINE
  5
42
330
1F
100
AcDbEntity
  8
LAYER_1
 62
     7
100
AcDbLine
 10
183.017942
 20
61.956942
 30
0.0
 11
180.194341
 21
62.427886
 31
0.0
  0
LINE
  5
41
330
1F
100
AcDbEntity
  8
LAYER_1
 62
     7
100
AcDbLine
 10
259.776047
 20
62.298006
 30
0.0
 11
256.952447
 21
62.298006
 31
0.0
  0
LINE
  5
40
330
1F
100
AcDbEntity
  8
LAYER_1
 62
     7
100
AcDbLine
 10
256.952447
 20
62.768262
 30
0.0
 11
256.952447
 21
61.827062
 31
0.0
  0
LINE
  5
3F
330
1F
100
AcDbEntity
  8
LAYER_1
 62
     7
100
AcDbLine
 10
259.776047
 20
62.298006
 30
0.0
 11
256.952447
 21
61.827062
 31
0.0
  0
LINE
  5
3E
330
1F
100
AcDbEntity
  8
LAYER_1
 62
     7
100
AcDbLine
 10
256.952447
 20
62.768262
 30
0.0
 11
259.776047
 21
62.298006
 31
0.0
  0
LINE
  5
3D
330
1F
100
AcDbEntity
  8
LAYER_1
 62
     7
100
AcDbLine
 10
259.800163
 20
60.069374
 30
0.0
 11
259.800163
 21
74.274192
 31
0.0
  0
LINE
  5
3C
330
1F
100
AcDbEntity
  8
LAYER_1
 62
     7
100
AcDbLine
 10
223.715544
 20
155.024646
 30
0.0
 11
223.715544
 21
158.221867
 31
0.0
  0
LINE
  5
3B
330
1F
100
AcDbEntity
  8
LAYER_1
 62
     7
100
AcDbLine
 10
216.102227
 20
158.221867
 30
0.0
 11
216.102227
 21
155.024646
 31
0.0
  0
SPLINE
  5
3A
330
1F
100
AcDbEntity
  8
LAYER_1
 62
     7
100
AcDbSpline
210
0.0
220
0.0
230
1.0
 70
     8
 71
     3
 72
    11
 73
     7
 74
     0
 42
0.00000001
 43
0.00000001
 40
0.0
 40
0.0
 40
0.0
 40
0.0
 40
1.0
 40
1.0
 40
1.0
 40
2.0
 40
2.0
 40
2.0
 40
2.0
 10
223.7155436197916
 20
197.2169026692708
 30
0.0
 10
223.7155436197916
 20
199.3190999348958
 30
0.0
 10
222.0112548828125
 20
201.023388671875
 30
0.0
 10
219.9094021267361
 20
201.023388671875
 30
0.0
 10
217.8068603515625
 20
201.023388671875
 30
0.0
 10
216.1022271050347
 20
199.3190999348958
 30
0.0
 10
216.1022271050347
 20
197.2169026692708
 30
0.0
  0
LINE
  5
39
330
1F
100
AcDbEntity
  8
LAYER_1
 62
     7
100
AcDbLine
 10
216.102227
 20
197.216903
 30
0.0
 11
216.102227
 21
158.221867
 31
0.0
  0
LINE
  5
38
330
1F
100
AcDbEntity
  8
LAYER_1
 62
     7
100
AcDbLine
 10
223.715544
 20
158.221867
 30
0.0
 11
223.715544
 21
197.216903
 31
0.0
  0
LINE
  5
37
330
1F
100
AcDbEntity
  8
LAYER_1
 62
     7
100
AcDbLine
 10
223.715544
 20
100.09656
 30
0.0
 11
223.715544
 21
147.232185
 31
0.0
  0
LINE
  5
36
330
1F
100
AcDbEntity
  8
LAYER_1
 62
     7
100
AcDbLine
 10
216.102227
 20
147.232185
 30
0.0
 11
216.102227
 21
100.09656
 31
0.0
  0
LINE
  5
35
330
1F
100
AcDbEntity
  8
LAYER_1
 62
     7
100
AcDbLine
 10
223.715544
 20
147.232185
 30
0.0
 11
223.715544
 21
155.024646
 31
0.0
  0
LINE
  5
34
330
1F
100
AcDbEntity
  8
LAYER_1
 62
     7
100
AcDbLine
 10
216.102227
 20
155.024646
 30
0.0
 11
216.102227
 21
147.232185
 31
0.0
  0
LINE
  5
33
330
1F
100
AcDbEntity
  8
LAYER_1
 62
     7
100
AcDbLine
 10
223.715544
 20
159.06247
 30
0.0
 11
216.102227
 21
159.06247
 31
0.0
  0
LINE
  5
32
330
1F
100
AcDbEntity
  8
LAYER_1
 62
     7
100
AcDbLine
 10
217.750361
 20
151.270009
 30
0.0
 11
216.102227
 21
151.270009
 31
0.0
  0
LINE
  5
31
330
1F
100
AcDbEntity
  8
LAYER_1
 62
     7
100
AcDbLine
 10
223.715544
 20
151.270009
 30
0.0
 11
217.750361
 21
151.270009
 31
0.0
  0
LINE
  5
30
330
1F
100
AcDbEntity
  8
LAYER_1
  6
AI9-LType1
 62
     7
100
AcDbLine
 10
219.909402
 20
203.649929
 30
0.0
 11
219.909402
 21
100.915804
 31
0.0
  0
LINE
  5
2E
330
1F
100
AcDbEntity
  8
LAYER_1
 62
     7
100
AcDbLine
 10
180.106147
 20
59.716596
 30
0.0
 11
180.106147
 21
74.051638
 31
0.0
  0
SPLINE
  5
2D
330
1F
100
AcDbEntity
  8
LAYER_1
 62
     7
100
AcDbSpline
210
0.0
220
0.0
230
1.0
 70
     8
 71
     3
 72
    11
 73
     7
 74
     0
 42
0.00000001
 43
0.00000001
 40
0.0
 40
0.0
 40
0.0
 40
0.0
 40
1.0
 40
1.0
 40
1.0
 40
2.0
 40
2.0
 40
2.0
 40
2.0
 10
214.5395317925347
 20
86.15219184027777
 30
0.0
 10
214.3348931206597
 20
86.73889160156249
 30
0.0
 10
214.2236165364583
 20
87.36899956597222
 30
0.0
 10
214.2236165364583
 20
88.02563476562499
 30
0.0
 10
214.2236165364583
 20
88.6860595703125
 30
0.0
 10
214.3362711588541
 20
89.32099066840277
 30
0.0
 10
214.5429768880208
 20
89.910791015625
 30
0.0
  0
SPLINE
  5
2C
330
1F
100
AcDbEntity
  8
LAYER_1
 62
     7
100
AcDbSpline
210
0.0
220
0.0
230
1.0
 70
     8
 71
     3
 72
    11
 73
     7
 74
     0
 42
0.00000001
 43
0.00000001
 40
0.0
 40
0.0
 40
0.0
 40
0.0
 40
1.0
 40
1.0
 40
1.0
 40
2.0
 40
2.0
 40
2.0
 40
2.0
 10
225.2455105251736
 20
90.07650010850693
 30
0.0
 10
225.4908013237847
 20
89.44019097222221
 30
0.0
 10
225.6255045572916
 20
88.74876030815972
 30
0.0
 10
225.6255045572916
 20
88.0259792751736
 30
0.0
 10
225.6255045572916
 20
87.26771375868054
 30
0.0
 10
225.4777099609375
 20
86.5438991970486
 30
0.0
 10
225.2086480034722
 20
85.88244086371527
 30
0.0
  0
SPLINE
  5
2B
330
1F
100
AcDbEntity
  8
LAYER_1
 62
     7
100
AcDbSpline
210
0.0
220
0.0
230
1.0
 70
     8
 71
     3
 72
    11
 73
     7
 74
     0
 42
0.00000001
 43
0.00000001
 40
0.0
 40
0.0
 40
0.0
 40
0.0
 40
1.0
 40
1.0
 40
1.0
 40
2.0
 40
2.0
 40
2.0
 40
2.0
 10
214.5347086588542
 20
84.74108072916665
 30
0.0
 10
213.9504204644097
 20
85.69778374565972
 30
0.0
 10
213.613490125868
 20
86.82260742187499
 30
0.0
 10
213.613490125868
 20
88.02563476562499
 30
0.0
 10
213.613490125868
 20
89.21212565104166
 30
0.0
 10
213.9411187065972
 20
90.32213541666665
 30
0.0
 10
214.5105929904514
 20
91.27022569444443
 30
0.0
  0
SPLINE
  5
2A
330
1F
100
AcDbEntity
  8
LAYER_1
 62
     7
100
AcDbSpline
210
0.0
220
0.0
230
1.0
 70
     8
 71
     3
 72
    11
 73
     7
 74
     0
 42
0.00000001
 43
0.00000001
 40
0.0
 40
0.0
 40
0.0
 40
0.0
 40
1.0
 40
1.0
 40
1.0
 40
2.0
 40
2.0
 40
2.0
 40
2.0
 10
225.2499891493055
 20
91.4145751953125
 30
0.0
 10
225.8742404513889
 20
90.43547905815971
 30
0.0
 10
226.2356309678819
 20
89.27275933159721
 30
0.0
 10
226.2356309678819
 20
88.02563476562499
 30
0.0
 10
226.2356309678819
 20
86.77437608506943
 30
0.0
 10
225.871484375
 20
85.60717773437499
 30
0.0
 10
225.2424099392361
 20
84.62601453993055
 30
0.0
  0
SPLINE
  5
29
330
1F
100
AcDbEntity
  8
LAYER_1
 62
     7
100
AcDbSpline
210
0.0
220
0.0
230
1.0
 70
     8
 71
     3
 72
    17
 73
    13
 74
     0
 42
0.00000001
 43
0.00000001
 40
0.0
 40
0.0
 40
0.0
 40
0.0
 40
1.0
 40
1.0
 40
1.0
 40
2.0
 40
2.0
 40
2.0
 40
3.0
 40
3.0
 40
3.0
 40
4.0
 40
4.0
 40
4.0
 40
4.0
 10
225.0239908854167
 20
97.43212348090277
 30
0.0
 10
228.3584988064236
 20
95.62069227430554
 30
0.0
 10
230.6222710503472
 20
92.0877468532986
 30
0.0
 10
230.6222710503472
 20
88.02563476562499
 30
0.0
 10
230.6222710503472
 20
82.11764051649305
 30
0.0
 10
225.8328993055555
 20
77.32861328125
 30
0.0
 10
219.9249050564236
 20
77.32861328125
 30
0.0
 10
214.016566297743
 20
77.32861328125
 30
0.0
 10
209.2271945529514
 20
82.11764051649305
 30
0.0
 10
209.2271945529514
 20
88.02563476562499
 30
0.0
 10
209.2271945529514
 20
92.02366807725694
 30
0.0
 10
211.4199978298611
 20
95.50976019965277
 30
0.0
 10
214.6697564019097
 20
97.34599609374999
 30
0.0
  0
ENDSEC
  0
SECTION
  2
OBJECTS
  0
DICTIONARY
  5
C
330
0
100
AcDbDictionary
281
     1
  3
ACAD_COLOR
350
6C
  3
ACAD_GROUP
350
D
  3
ACAD_LAYOUT
350
1A
  3
ACAD_MATERIAL
350
6B
  3
ACAD_MLEADERSTYLE
350
46B
  3
ACAD_MLINESTYLE
350
17
  3
ACAD_PLOTSETTINGS
350
19
  3
ACAD_PLOTSTYLENAME
350
E
  3
ACAD_SCALELIST
350
99
  3
ACAD_TABLESTYLE
350
92
  3
ACAD_WIPEOUT_VARS
350
452
  3
AcDbVariableDictionary
350
59
  0
DICTIONARY
  5
46A
330
1F
100
AcDbDictionary
280
     1
281
     1
  0
DICTIONARY
  5
6C
102
{ACAD_REACTORS
330
C
102
}
330
C
100
AcDbDictionary
281
     1
  0
DICTIONARY
  5
D
102
{ACAD_REACTORS
330
C
102
}
330
C
100
AcDbDictionary
281
     1
  0
DICTIONARY
  5
1A
102
{ACAD_REACTORS
330
C
102
}
330
C
100
AcDbDictionary
281
     1
  3
Layout1
350
74
  3
Model
350
22
  0
DICTIONARY
  5
6B
102
{ACAD_REACTORS
330
C
102
}
330
C
100
AcDbDictionary
281
     1
  0
DICTIONARY
  5
46B
102
{ACAD_REACTORS
330
C
102
}
330
C
100
AcDbDictionary
281
     1
  0
DICTIONARY
  5
17
102
{ACAD_REACTORS
330
C
102
}
330
C
100
AcDbDictionary
281
     1
  3
Standard
350
18
  0
DICTIONARY
  5
19
102
{ACAD_REACTORS
330
C
102
}
330
C
100
AcDbDictionary
281
     1
  0
ACDBDICTIONARYWDFLT
  5
E
102
{ACAD_REACTORS
330
C
102
}
330
C
100
AcDbDictionary
281
     1
  3
Normal
350
F
100
AcDbDictionaryWithDefault
340
F
  0
DICTIONARY
  5
99
102
{ACAD_REACTORS
330
C
102
}
330
C
100
AcDbDictionary
281
     1
  3
A0
350
9A
  3
A1
350
9B
  3
A2
350
9C
  3
A3
350
9D
  3
A4
350
9E
  3
A5
350
9F
  3
A6
350
A0
  3
A7
350
A1
  3
A8
350
A2
  3
A9
350
A3
  3
B0
350
A4
  3
B1
350
A5
  3
B2
350
A6
  3
B3
350
A7
  3
B4
350
A8
  3
B5
350
A9
  3
B6
350
AA
  3
B7
350
AB
  3
B8
350
AC
  3
B9
350
AD
  3
C0
350
AE
  3
C1
350
AF
  3
C2
350
B0
  3
C3
350
B1
  3
C4
350
B2
  3
C5
350
B3
  3
C6
350
B4
  3
C7
350
B5
  3
C8
350
B6
  3
C9
350
B7
  3
D0
350
B8
  3
D1
350
B9
  3
D2
350
BA
  0
DICTIONARY
  5
92
102
{ACAD_REACTORS
330
C
102
}
330
C
100
AcDbDictionary
281
     1
  3
Standard
350
93
  0
WIPEOUTVARIABLES
  5
452
102
{ACAD_REACTORS
330
C
102
}
330
C
100
AcDbWipeoutVariables
 70
     1
  0
DICTIONARY
  5
59
102
{ACAD_REACTORS
330
C
102
}
330
C
100
AcDbDictionary
281
     1
  3
CANNOSCALE
350
46C
  3
CTABLESTYLE
350
98
  3
DIMASSOC
350
44C
  3
HIDETEXT
350
5E
  0
LAYOUT
  5
74
102
{ACAD_REACTORS
330
1A
102
}
330
1A
100
AcDbPlotSettings
  1

  2
none_device
  4
ISO_C5_(229.00_x_162.00_MM)
  6

 40
0.0
 41
0.0
 42
0.0
 43
0.0
 44
229.0
 45
162.0
 46
0.0
 47
0.0
 48
0.0
 49
0.0
140
0.0
141
0.0
142
1.0
143
1.0
 70
   544
 72
     1
 73
     0
 74
     0
  7

 75
    16
 76
     0
 77
     2
 78
   300
147
1.0
148
0.0
149
0.0
100
AcDbLayout
  1
Layout1
 70
     0
 71
     0
 10
0.0
 20
0.0
 11
0.0
 21
0.0
 12
0.0
 22
0.0
 32
0.0
 14
0.0
 24
0.0
 34
0.0
 15
0.0
 25
0.0
 35
0.0
146
0.0
 13
0.0
 23
0.0
 33
0.0
 16
1.0
 26
0.0
 36
0.0
 17
0.0
 27
1.0
 37
0.0
 76
     0
330
73
  0
LAYOUT
  5
22
102
{ACAD_REACTORS
330
1A
102
}
330
1A
100
AcDbPlotSettings
  1

  2
none_device
  4
ISO_C5_(229.00_x_162.00_MM)
  6

 40
0.0
 41
0.0
 42
0.0
 43
0.0
 44
229.0
 45
162.0
 46
0.0
 47
0.0
 48
0.0
 49
0.0
140
0.0
141
0.0
142
1.0
143
1.0
 70
 11936
 72
     1
 73
     0
 74
     0
  7

 75
     0
 76
     0
 77
     2
 78
   300
147
0.830485864149802
148
0.0
149
0.0
100
AcDbLayout
  1
Model
 70
     1
 71
     0
 10
28.40998
 20
59.716596
 11
274.708124
 21
203.738124
 12
0.0
 22
0.0
 32
0.0
 14
28.80605723738063
 24
59.716596
 34
0.0
 15
274.61993
 25
203.649929
 35
0.0
146
0.0
 13
0.0
 23
0.0
 33
0.0
 16
1.0
 26
0.0
 36
0.0
 17
0.0
 27
1.0
 37
0.0
 76
     0
330
1F
331
97
  0
MLINESTYLE
  5
18
102
{ACAD_REACTORS
330
17
102
}
330
17
100
AcDbMlineStyle
  2
Standard
 70
     0
  3

 62
     0
 51
90.0
 52
90.0
 71
     2
 49
0.5
 62
   256
  6
BYLAYER
 49
-0.5
 62
   256
  6
BYLAYER
  0
ACDBPLACEHOLDER
  5
F
102
{ACAD_REACTORS
330
E
102
}
330
E
  0
SCALE
  5
9A
102
{ACAD_REACTORS
330
99
102
}
330
99
100
AcDbScale
 70
     0
300
1:1
140
1.0
141
1.0
290
     1
  0
SCALE
  5
9B
102
{ACAD_REACTORS
330
99
102
}
330
99
100
AcDbScale
 70
     0
300
1:2
140
1.0
141
2.0
290
     0
  0
SCALE
  5
9C
102
{ACAD_REACTORS
330
99
102
}
330
99
100
AcDbScale
 70
     0
300
1:4
140
1.0
141
4.0
290
     0
  0
SCALE
  5
9D
102
{ACAD_REACTORS
330
99
102
}
330
99
100
AcDbScale
 70
     0
300
1:5
140
1.0
141
5.0
290
     0
  0
SCALE
  5
9E
102
{ACAD_REACTORS
330
99
102
}
330
99
100
AcDbScale
 70
     0
300
1:8
140
1.0
141
8.0
290
     0
  0
SCALE
  5
9F
102
{ACAD_REACTORS
330
99
102
}
330
99
100
AcDbScale
 70
     0
300
1:10
140
1.0
141
10.0
290
     0
  0
SCALE
  5
A0
102
{ACAD_REACTORS
330
99
102
}
330
99
100
AcDbScale
 70
     0
300
1:16
140
1.0
141
16.0
290
     0
  0
SCALE
  5
A1
102
{ACAD_REACTORS
330
99
102
}
330
99
100
AcDbScale
 70
     0
300
1:20
140
1.0
141
20.0
290
     0
  0
SCALE
  5
A2
102
{ACAD_REACTORS
330
99
102
}
330
99
100
AcDbScale
 70
     0
300
1:30
140
1.0
141
30.0
290
     0
  0
SCALE
  5
A3
102
{ACAD_REACTORS
330
99
102
}
330
99
100
AcDbScale
 70
     0
300
1:40
140
1.0
141
40.0
290
     0
  0
SCALE
  5
A4
102
{ACAD_REACTORS
330
99
102
}
330
99
100
AcDbScale
 70
     0
300
1:50
140
1.0
141
50.0
290
     0
  0
SCALE
  5
A5
102
{ACAD_REACTORS
330
99
102
}
330
99
100
AcDbScale
 70
     0
300
1:100
140
1.0
141
100.0
290
     0
  0
SCALE
  5
A6
102
{ACAD_REACTORS
330
99
102
}
330
99
100
AcDbScale
 70
     0
300
2:1
140
2.0
141
1.0
290
     0
  0
SCALE
  5
A7
102
{ACAD_REACTORS
330
99
102
}
330
99
100
AcDbScale
 70
     0
300
4:1
140
4.0
141
1.0
290
     0
  0
SCALE
  5
A8
102
{ACAD_REACTORS
330
99
102
}
330
99
100
AcDbScale
 70
     0
300
8:1
140
8.0
141
1.0
290
     0
  0
SCALE
  5
A9
102
{ACAD_REACTORS
330
99
102
}
330
99
100
AcDbScale
 70
     0
300
10:1
140
10.0
141
1.0
290
     0
  0
SCALE
  5
AA
102
{ACAD_REACTORS
330
99
102
}
330
99
100
AcDbScale
 70
     0
300
100:1
140
100.0
141
1.0
290
     0
  0
SCALE
  5
AB
102
{ACAD_REACTORS
330
99
102
}
330
99
100
AcDbScale
 70
     0
300
1/128" = 1'-0"
140
0.0078125
141
12.0
290
     0
  0
SCALE
  5
AC
102
{ACAD_REACTORS
330
99
102
}
330
99
100
AcDbScale
 70
     0
300
1/64" = 1'-0"
140
0.015625
141
12.0
290
     0
  0
SCALE
  5
AD
102
{ACAD_REACTORS
330
99
102
}
330
99
100
AcDbScale
 70
     0
300
1/32" = 1'-0"
140
0.03125
141
12.0
290
     0
  0
SCALE
  5
AE
102
{ACAD_REACTORS
330
99
102
}
330
99
100
AcDbScale
 70
     0
300
1/16" = 1'-0"
140
0.0625
141
12.0
290
     0
  0
SCALE
  5
AF
102
{ACAD_REACTORS
330
99
102
}
330
99
100
AcDbScale
 70
     0
300
3/32" = 1'-0"
140
0.09375
141
12.0
290
     0
  0
SCALE
  5
B0
102
{ACAD_REACTORS
330
99
102
}
330
99
100
AcDbScale
 70
     0
300
1/8" = 1'-0"
140
0.125
141
12.0
290
     0
  0
SCALE
  5
B1
102
{ACAD_REACTORS
330
99
102
}
330
99
100
AcDbScale
 70
     0
300
3/16" = 1'-0"
140
0.1875
141
12.0
290
     0
  0
SCALE
  5
B2
102
{ACAD_REACTORS
330
99
102
}
330
99
100
AcDbScale
 70
     0
300
1/4" = 1'-0"
140
0.25
141
12.0
290
     0
  0
SCALE
  5
B3
102
{ACAD_REACTORS
330
99
102
}
330
99
100
AcDbScale
 70
     0
300
3/8" = 1'-0"
140
0.375
141
12.0
290
     0
  0
SCALE
  5
B4
102
{ACAD_REACTORS
330
99
102
}
330
99
100
AcDbScale
 70
     0
300
1/2" = 1'-0"
140
0.5
141
12.0
290
     0
  0
SCALE
  5
B5
102
{ACAD_REACTORS
330
99
102
}
330
99
100
AcDbScale
 70
     0
300
3/4" = 1'-0"
140
0.75
141
12.0
290
     0
  0
SCALE
  5
B6
102
{ACAD_REACTORS
330
99
102
}
330
99
100
AcDbScale
 70
     0
300
1" = 1'-0"
140
1.0
141
12.0
290
     0
  0
SCALE
  5
B7
102
{ACAD_REACTORS
330
99
102
}
330
99
100
AcDbScale
 70
     0
300
1-1/2" = 1'-0"
140
1.5
141
12.0
290
     0
  0
SCALE
  5
B8
102
{ACAD_REACTORS
330
99
102
}
330
99
100
AcDbScale
 70
     0
300
3" = 1'-0"
140
3.0
141
12.0
290
     0
  0
SCALE
  5
B9
102
{ACAD_REACTORS
330
99
102
}
330
99
100
AcDbScale
 70
     0
300
6" = 1'-0"
140
6.0
141
12.0
290
     0
  0
SCALE
  5
BA
102
{ACAD_REACTORS
330
99
102
}
330
99
100
AcDbScale
 70
     0
300
1'-0" = 1'-0"
140
12.0
141
12.0
290
     0
  0
TABLESTYLE
  5
93
102
{ACAD_REACTORS
330
92
102
}
330
92
100
AcDbTableStyle
  3
Standard
 70
     0
 71
     0
 40
0.06
 41
0.06
280
     0
281
     0
  7
Standard
140
0.18
170
     2
 62
     0
 63
     7
283
     0
 90
      512
 91
        0
  1

274
    -2
284
     1
 64
     0
275
    -2
285
     1
 65
     0
276
    -2
286
     1
 66
     0
277
    -2
287
     1
 67
     0
278
    -2
288
     1
 68
     0
279
    -2
289
     1
 69
     0
  7
Standard
140
0.25
170
     5
 62
     0
 63
     7
283
     0
 90
      512
 91
        0
  1

274
    -2
284
     1
 64
     0
275
    -2
285
     1
 65
     0
276
    -2
286
     1
 66
     0
277
    -2
287
     1
 67
     0
278
    -2
288
     1
 68
     0
279
    -2
289
     1
 69
     0
  7
Standard
140
0.18
170
     5
 62
     0
 63
     7
283
     0
 90
      512
 91
        0
  1

274
    -2
284
     1
 64
     0
275
    -2
285
     1
 65
     0
276
    -2
286
     1
 66
     0
277
    -2
287
     1
 67
     0
278
    -2
288
     1
 68
     0
279
    -2
289
     1
 69
     0
  0
DICTIONARYVAR
  5
46C
102
{ACAD_REACTORS
330
59
102
}
330
59
100
DictionaryVariables
280
     0
  1
1:1
  0
DICTIONARYVAR
  5
98
102
{ACAD_REACTORS
330
59
102
}
330
59
100
DictionaryVariables
280
     0
  1
Standard
  0
DICTIONARYVAR
  5
44C
102
{ACAD_REACTORS
330
59
102
}
330
59
100
DictionaryVariables
280
     0
  1
2
  0
DICTIONARYVAR
  5
5E
102
{ACAD_REACTORS
330
59
102
}
330
59
100
DictionaryVariables
280
     0
  1
1
  0
ENDSEC
  0
EOF
