  0
SECTION
  2
HEADER
  9
$ACADVER
  1
AC1027
  9
$ACADMAINTVER
 70
    55
  9
$DWGCODEPAGE
  3
ANSI_1252
  9
$REQUIREDVERSIONS
160
                 0
  9
$INSBASE
 10
0.0
 20
0.0
 30
0.0
  9
$EXTMIN
 10
-1874.999941635132
 20
-103.0000010311509
 30
0.0
  9
$EXTMAX
 10
2124.999943542481
 20
75.0000005722046
 30
3000.000022888184
  9
$LIMMIN
 10
0.0
 20
0.0
  9
$LIMMAX
 10
12.0
 20
9.0
  9
$ORTHOMODE
 70
     0
  9
$REGENMODE
 70
     1
  9
$FILLMODE
 70
     1
  9
$QTEXTMODE
 70
     0
  9
$MIRRTEXT
 70
     0
  9
$LTSCALE
 40
1.0
  9
$ATTMODE
 70
     1
  9
$TEXTSIZE
 40
0.2
  9
$TRACEWID
 40
0.05
  9
$TEXTSTYLE
  7
Standard
  9
$CLAYER
  8
0
  9
$CELTYPE
  6
ByLayer
  9
$CECOLOR
 62
   256
  9
$CELTSCALE
 40
1.0
  9
$DISPSILH
 70
     0
  9
$DIMSCALE
 40
1.0
  9
$DIMASZ
 40
0.18
  9
$DIMEXO
 40
0.0625
  9
$DIMDLI
 40
0.38
  9
$DIMRND
 40
0.0
  9
$DIMDLE
 40
0.0
  9
$DIMEXE
 40
0.18
  9
$DIMTP
 40
0.0
  9
$DIMTM
 40
0.0
  9
$DIMTXT
 40
0.18
  9
$DIMCEN
 40
0.09
  9
$DIMTSZ
 40
0.0
  9
$DIMTOL
 70
     0
  9
$DIMLIM
 70
     0
  9
$DIMTIH
 70
     1
  9
$DIMTOH
 70
     1
  9
$DIMSE1
 70
     0
  9
$DIMSE2
 70
     0
  9
$DIMTAD
 70
     0
  9
$DIMZIN
 70
     0
  9
$DIMBLK
  1

  9
$DIMASO
 70
     1
  9
$DIMSHO
 70
     1
  9
$DIMPOST
  1

  9
$DIMAPOST
  1

  9
$DIMALT
 70
     0
  9
$DIMALTD
 70
     2
  9
$DIMALTF
 40
25.4
  9
$DIMLFAC
 40
1.0
  9
$DIMTOFL
 70
     0
  9
$DIMTVP
 40
0.0
  9
$DIMTIX
 70
     0
  9
$DIMSOXD
 70
     0
  9
$DIMSAH
 70
     0
  9
$DIMBLK1
  1

  9
$DIMBLK2
  1

  9
$DIMSTYLE
  2
Standard
  9
$DIMCLRD
 70
     0
  9
$DIMCLRE
 70
     0
  9
$DIMCLRT
 70
     0
  9
$DIMTFAC
 40
1.0
  9
$DIMGAP
 40
0.09
  9
$DIMJUST
 70
     0
  9
$DIMSD1
 70
     0
  9
$DIMSD2
 70
     0
  9
$DIMTOLJ
 70
     1
  9
$DIMTZIN
 70
     0
  9
$DIMALTZ
 70
     0
  9
$DIMALTTZ
 70
     0
  9
$DIMUPT
 70
     0
  9
$DIMDEC
 70
     4
  9
$DIMTDEC
 70
     4
  9
$DIMALTU
 70
     2
  9
$DIMALTTD
 70
     2
  9
$DIMTXSTY
  7
Standard
  9
$DIMAUNIT
 70
     0
  9
$DIMADEC
 70
     0
  9
$DIMALTRND
 40
0.0
  9
$DIMAZIN
 70
     0
  9
$DIMDSEP
 70
    46
  9
$DIMATFIT
 70
     3
  9
$DIMFRAC
 70
     0
  9
$DIMLDRBLK
  1

  9
$DIMLUNIT
 70
     2
  9
$DIMLWD
 70
    -2
  9
$DIMLWE
 70
    -2
  9
$DIMTMOVE
 70
     0
  9
$DIMFXL
 40
1.0
  9
$DIMFXLON
 70
     0
  9
$DIMJOGANG
 40
0.7853981633974483
  9
$DIMTFILL
 70
     0
  9
$DIMTFILLCLR
 70
     0
  9
$DIMARCSYM
 70
     0
  9
$DIMLTYPE
  6

  9
$DIMLTEX1
  6

  9
$DIMLTEX2
  6

  9
$DIMTXTDIRECTION
 70
     0
  9
$LUNITS
 70
     2
  9
$LUPREC
 70
     4
  9
$SKETCHINC
 40
0.1
  9
$FILLETRAD
 40
0.0
  9
$AUNITS
 70
     0
  9
$AUPREC
 70
     0
  9
$MENU
  1
.
  9
$ELEVATION
 40
0.0
  9
$PELEVATION
 40
0.0
  9
$THICKNESS
 40
0.0
  9
$LIMCHECK
 70
     0
  9
$CHAMFERA
 40
0.0
  9
$CHAMFERB
 40
0.0
  9
$CHAMFERC
 40
0.0
  9
$CHAMFERD
 40
0.0
  9
$SKPOLY
 70
     0
  9
$TDCREATE
 40
2457063.719282686
  9
$TDUCREATE
 40
2457063.969282685
  9
$TDUPDATE
 40
2457063.719282686
  9
$TDUUPDATE
 40
2457063.969282685
  9
$TDINDWG
 40
0.0000035764
  9
$TDUSRTIMER
 40
0.0000035764
  9
$USRTIMER
 70
     1
  9
$ANGBASE
 50
0.0
  9
$ANGDIR
 70
     0
  9
$PDMODE
 70
     0
  9
$PDSIZE
 40
0.0
  9
$PLINEWID
 40
0.0
  9
$SPLFRAME
 70
     0
  9
$SPLINETYPE
 70
     6
  9
$SPLINESEGS
 70
     8
  9
$HANDSEED
  5
608
  9
$SURFTAB1
 70
     6
  9
$SURFTAB2
 70
     6
  9
$SURFTYPE
 70
     6
  9
$SURFU
 70
     6
  9
$SURFV
 70
     6
  9
$UCSBASE
  2

  9
$UCSNAME
  2

  9
$UCSORG
 10
0.0
 20
0.0
 30
0.0
  9
$UCSXDIR
 10
1.0
 20
0.0
 30
0.0
  9
$UCSYDIR
 10
0.0
 20
1.0
 30
0.0
  9
$UCSORTHOREF
  2

  9
$UCSORTHOVIEW
 70
     0
  9
$UCSORGTOP
 10
0.0
 20
0.0
 30
0.0
  9
$UCSORGBOTTOM
 10
0.0
 20
0.0
 30
0.0
  9
$UCSORGLEFT
 10
0.0
 20
0.0
 30
0.0
  9
$UCSORGRIGHT
 10
0.0
 20
0.0
 30
0.0
  9
$UCSORGFRONT
 10
0.0
 20
0.0
 30
0.0
  9
$UCSORGBACK
 10
0.0
 20
0.0
 30
0.0
  9
$PUCSBASE
  2

  9
$PUCSNAME
  2

  9
$PUCSORG
 10
0.0
 20
0.0
 30
0.0
  9
$PUCSXDIR
 10
1.0
 20
0.0
 30
0.0
  9
$PUCSYDIR
 10
0.0
 20
1.0
 30
0.0
  9
$PUCSORTHOREF
  2

  9
$PUCSORTHOVIEW
 70
     0
  9
$PUCSORGTOP
 10
0.0
 20
0.0
 30
0.0
  9
$PUCSORGBOTTOM
 10
0.0
 20
0.0
 30
0.0
  9
$PUCSORGLEFT
 10
0.0
 20
0.0
 30
0.0
  9
$PUCSORGRIGHT
 10
0.0
 20
0.0
 30
0.0
  9
$PUCSORGFRONT
 10
0.0
 20
0.0
 30
0.0
  9
$PUCSORGBACK
 10
0.0
 20
0.0
 30
0.0
  9
$USERI1
 70
     0
  9
$USERI2
 70
     0
  9
$USERI3
 70
     0
  9
$USERI4
 70
     0
  9
$USERI5
 70
     0
  9
$USERR1
 40
0.0
  9
$USERR2
 40
0.0
  9
$USERR3
 40
0.0
  9
$USERR4
 40
0.0
  9
$USERR5
 40
0.0
  9
$WORLDVIEW
 70
     1
  9
$SHADEDGE
 70
     3
  9
$SHADEDIF
 70
    70
  9
$TILEMODE
 70
     1
  9
$MAXACTVP
 70
    64
  9
$PINSBASE
 10
0.0
 20
0.0
 30
0.0
  9
$PLIMCHECK
 70
     0
  9
$PEXTMIN
 10
1.000000000000000E+20
 20
1.000000000000000E+20
 30
1.000000000000000E+20
  9
$PEXTMAX
 10
-1.000000000000000E+20
 20
-1.000000000000000E+20
 30
-1.000000000000000E+20
  9
$PLIMMIN
 10
0.0
 20
0.0
  9
$PLIMMAX
 10
12.0
 20
9.0
  9
$UNITMODE
 70
     0
  9
$VISRETAIN
 70
     1
  9
$PLINEGEN
 70
     0
  9
$PSLTSCALE
 70
     1
  9
$TREEDEPTH
 70
  3020
  9
$CMLSTYLE
  2
Standard
  9
$CMLJUST
 70
     0
  9
$CMLSCALE
 40
1.0
  9
$PROXYGRAPHICS
 70
     1
  9
$MEASUREMENT
 70
     1
  9
$CELWEIGHT
370
    -1
  9
$ENDCAPS
280
     0
  9
$JOINSTYLE
280
     0
  9
$LWDISPLAY
290
     0
  9
$INSUNITS
 70
     4
  9
$HYPERLINKBASE
  1

  9
$STYLESHEET
  1

  9
$XEDIT
290
     1
  9
$CEPSNTYPE
380
     0
  9
$PSTYLEMODE
290
     1
  9
$FINGERPRINTGUID
  2
{9F243261-D4BB-4E2E-AEAB-2EF4794D792F}
  9
$VERSIONGUID
  2
{E7C55CAF-D6DF-4CC1-B351-9779AEEA03CC}
  9
$EXTNAMES
290
     1
  9
$PSVPSCALE
 40
0.0
  9
$OLESTARTUP
290
     0
  9
$SORTENTS
280
   127
  9
$INDEXCTL
280
     0
  9
$HIDETEXT
280
     1
  9
$XCLIPFRAME
280
     2
  9
$HALOGAP
280
     0
  9
$OBSCOLOR
 70
   257
  9
$OBSLTYPE
280
     0
  9
$INTERSECTIONDISPLAY
280
     0
  9
$INTERSECTIONCOLOR
 70
   257
  9
$DIMASSOC
280
     2
  9
$PROJECTNAME
  1

  9
$CAMERADISPLAY
290
     0
  9
$LENSLENGTH
 40
50.0
  9
$CAMERAHEIGHT
 40
0.0
  9
$STEPSPERSEC
 40
2.0
  9
$STEPSIZE
 40
6.0
  9
$3DDWFPREC
 40
2.0
  9
$PSOLWIDTH
 40
0.25
  9
$PSOLHEIGHT
 40
4.0
  9
$LOFTANG1
 40
1.570796326794896
  9
$LOFTANG2
 40
1.570796326794896
  9
$LOFTMAG1
 40
0.0
  9
$LOFTMAG2
 40
0.0
  9
$LOFTPARAM
 70
     7
  9
$LOFTNORMALS
280
     1
  9
$LATITUDE
 40
37.795
  9
$LONGITUDE
 40
-122.394
  9
$NORTHDIRECTION
 40
0.0
  9
$TIMEZONE
 70
 -8000
  9
$LIGHTGLYPHDISPLAY
280
     1
  9
$TILEMODELIGHTSYNCH
280
     1
  9
$CMATERIAL
347
11
  9
$SOLIDHIST
280
     0
  9
$SHOWHIST
280
     1
  9
$DWFFRAME
280
     2
  9
$DGNFRAME
280
     0
  9
$REALWORLDSCALE
290
     1
  9
$INTERFERECOLOR
 62
     1
  9
$INTERFEREOBJVS
345
33
  9
$INTERFEREVPVS
346
30
  9
$CSHADOW
280
     0
  9
$SHADOWPLANELOCATION
 40
0.0
  0
ENDSEC
  0
SECTION
  2
CLASSES
  0
CLASS
  1
ACDBDICTIONARYWDFLT
  2
AcDbDictionaryWithDefault
  3
ObjectDBX Classes
 90
        0
 91
        1
280
     0
281
     0
  0
CLASS
  1
MATERIAL
  2
AcDbMaterial
  3
ObjectDBX Classes
 90
     1153
 91
        6
280
     0
281
     0
  0
CLASS
  1
VISUALSTYLE
  2
AcDbVisualStyle
  3
ObjectDBX Classes
 90
     4095
 91
       24
280
     0
281
     0
  0
CLASS
  1
SCALE
  2
AcDbScale
  3
ObjectDBX Classes
 90
     1153
 91
       17
280
     0
281
     0
  0
CLASS
  1
TABLESTYLE
  2
AcDbTableStyle
  3
ObjectDBX Classes
 90
     4095
 91
        1
280
     0
281
     0
  0
CLASS
  1
MLEADERSTYLE
  2
AcDbMLeaderStyle
  3
ACDB_MLEADERSTYLE_CLASS
 90
     4095
 91
        1
280
     0
281
     0
  0
CLASS
  1
ACDBSECTIONVIEWSTYLE
  2
AcDbSectionViewStyle
  3
ObjectDBX Classes
 90
     1025
 91
        1
280
     0
281
     0
  0
CLASS
  1
ACDBDETAILVIEWSTYLE
  2
AcDbDetailViewStyle
  3
ObjectDBX Classes
 90
     1025
 91
        1
280
     0
281
     0
  0
CLASS
  1
RASTERVARIABLES
  2
AcDbRasterVariables
  3
ISM
 90
        0
 91
        1
280
     0
281
     0
  0
CLASS
  1
DICTIONARYVAR
  2
AcDbDictionaryVar
  3
ObjectDBX Classes
 90
        0
 91
        5
280
     0
281
     0
  0
CLASS
  1
CELLSTYLEMAP
  2
AcDbCellStyleMap
  3
ObjectDBX Classes
 90
     1152
 91
        2
280
     0
281
     0
  0
ENDSEC
  0
SECTION
  2
TABLES
  0
TABLE
  2
VPORT
  5
8
330
0
100
AcDbSymbolTable
 70
     1
  0
VPORT
  5
57
330
8
100
AcDbSymbolTableRecord
100
AcDbViewportTableRecord
  2
*Active
 70
     0
 10
0.0
 20
0.0
 11
1.0
 21
1.0
 12
125.0000009536743
 22
-14.00000022947317
 13
0.0
 23
0.0
 14
1.0
 24
1.0
 15
0.0
 25
0.0
 16
50.62805827763599
 26
-50.62805827763597
 36
50.62805827763597
 17
124.9999999999924
 27
-75.9999999999906
 37
837.0000000000002
 40
178.0000016033555
 41
22.47190926487164
 42
50.0
 43
0.0
 44
0.0
 50
0.0
 51
0.0
 71
     0
 72
  1000
 73
     1
 74
     1
 75
     0
 76
     0
 77
     0
 78
     0
281
     1
 65
     1
110
0.0
120
0.0
130
0.0
111
1.0
121
0.0
131
0.0
112
0.0
122
1.0
132
0.0
 79
     0
146
0.0
348
30
 60
     3
 61
     5
292
     1
282
     1
141
0.0
142
0.0
 63
   250
421
  3355443
  0
ENDTAB
  0
TABLE
  2
LTYPE
  5
5
330
0
100
AcDbSymbolTable
 70
     1
  0
LTYPE
  5
5B
330
5
100
AcDbSymbolTableRecord
100
AcDbLinetypeTableRecord
  2
ByBlock
 70
     0
  3

 72
    65
 73
     0
 40
0.0
  0
LTYPE
  5
5C
330
5
100
AcDbSymbolTableRecord
100
AcDbLinetypeTableRecord
  2
ByLayer
 70
     0
  3

 72
    65
 73
     0
 40
0.0
  0
LTYPE
  5
5D
330
5
100
AcDbSymbolTableRecord
100
AcDbLinetypeTableRecord
  2
Continuous
 70
     0
  3
Solid line
 72
    65
 73
     0
 40
0.0
  0
ENDTAB
  0
TABLE
  2
LAYER
  5
2
330
0
100
AcDbSymbolTable
 70
     3
  0
LAYER
  5
54
330
2
100
AcDbSymbolTableRecord
100
AcDbLayerTableRecord
  2
0
 70
     0
 62
     7
  6
Continuous
370
    -3
390
F
347
21
348
0
  0
LAYER
  5
88
330
2
100
AcDbSymbolTableRecord
100
AcDbLayerTableRecord
  2
A-WALL
 70
     0
 62
   113
  6
Continuous
370
    50
390
F
347
21
348
0
  0
LAYER
  5
B3
330
2
100
AcDbSymbolTableRecord
100
AcDbLayerTableRecord
  2
A-GENM
 70
     0
 62
    13
  6
Continuous
370
    30
390
F
347
21
348
0
  0
ENDTAB
  0
TABLE
  2
STYLE
  5
3
330
0
100
AcDbSymbolTable
 70
     2
  0
STYLE
  5
55
330
3
100
AcDbSymbolTableRecord
100
AcDbTextStyleTableRecord
  2
Standard
 70
     0
 40
0.0
 41
1.0
 50
0.0
 71
     0
 42
0.2
  3
txt
  4

  0
STYLE
  5
5A
330
3
100
AcDbSymbolTableRecord
100
AcDbTextStyleTableRecord
  2
Annotative
 70
     0
 40
0.0
 41
1.0
 50
0.0
 71
     0
 42
0.2
  3
txt
  4

1001
AcadAnnotative
1000
AnnotativeData
1002
{
1070
     1
1070
     1
1002
}
  0
ENDTAB
  0
TABLE
  2
VIEW
  5
6
330
0
100
AcDbSymbolTable
 70
     1
  0
VIEW
  5
5F3
330
6
100
AcDbSymbolTableRecord
100
AcDbViewTableRecord
  2
_3D_
 70
     0
 40
60960.0
 10
0.0
 20
0.0
 41
60960.0
 11
50.62805827763599
 21
-50.62805827763597
 31
50.62805827763597
 12
124.9999999999924
 22
-75.9999999999906
 32
837.0000000000002
 42
50.0
 43
0.0
 44
0.0
 50
0.0
 71
     0
281
     0
 72
     0
 73
     0
  0
ENDTAB
  0
TABLE
  2
UCS
  5
7
330
0
100
AcDbSymbolTable
 70
     0
  0
ENDTAB
  0
TABLE
  2
APPID
  5
9
330
0
100
AcDbSymbolTable
 70
     3
  0
APPID
  5
56
330
9
100
AcDbSymbolTableRecord
100
AcDbRegAppTableRecord
  2
ACAD
 70
     0
  0
APPID
  5
5E
330
9
100
AcDbSymbolTableRecord
100
AcDbRegAppTableRecord
  2
AcadAnnotative
 70
     0
  0
APPID
  5
78
330
9
100
AcDbSymbolTableRecord
100
AcDbRegAppTableRecord
  2
REVIT
 70
     0
  0
ENDTAB
  0
TABLE
  2
DIMSTYLE
  5
A
330
0
100
AcDbSymbolTable
 70
     2
100
AcDbDimStyleTable
 71
     0
  0
DIMSTYLE
105
58
330
A
100
AcDbSymbolTableRecord
100
AcDbDimStyleTableRecord
  2
Standard
 70
     0
340
55
  0
DIMSTYLE
105
59
330
A
100
AcDbSymbolTableRecord
100
AcDbDimStyleTableRecord
  2
Annotative
 70
     0
340
55
1001
AcadAnnotative
1000
AnnotativeData
1002
{
1070
     1
1070
     1
1002
}
  0
ENDTAB
  0
TABLE
  2
BLOCK_RECORD
  5
1
330
0
100
AcDbSymbolTable
 70
     2
  0
BLOCK_RECORD
  5
70
330
1
100
AcDbSymbolTableRecord
100
AcDbBlockTableRecord
  2
*Model_Space
340
73
 70
     0
280
     1
281
     0
  0
BLOCK_RECORD
  5
6C
330
1
100
AcDbSymbolTableRecord
100
AcDbBlockTableRecord
  2
*Paper_Space
340
6F
 70
     0
280
     1
281
     0
  0
BLOCK_RECORD
  5
74
330
1
100
AcDbSymbolTableRecord
100
AcDbBlockTableRecord
  2
*Paper_Space0
340
77
 70
     0
280
     1
281
     0
  0
BLOCK_RECORD
  5
B4
330
1
100
AcDbSymbolTableRecord
100
AcDbBlockTableRecord
  2
Geberit_sigma_pneumatic - Geberit_sigma_pneumatic-16576-_3D_
340
0
102
{BLKREFS
331
5F2
102
}
 70
     0
280
     1
281
     0
  0
ENDTAB
  0
ENDSEC
  0
SECTION
  2
BLOCKS
  0
BLOCK
  5
71
330
70
100
AcDbEntity
  8
0
100
AcDbBlockBegin
  2
*Model_Space
 70
     0
 10
0.0
 20
0.0
 30
0.0
  3
*Model_Space
  1

  0
ENDBLK
  5
72
330
70
100
AcDbEntity
  8
0
100
AcDbBlockEnd
  0
BLOCK
  5
6D
330
6C
100
AcDbEntity
 67
     1
  8
0
100
AcDbBlockBegin
  2
*Paper_Space
 70
     0
 10
0.0
 20
0.0
 30
0.0
  3
*Paper_Space
  1

  0
ENDBLK
  5
6E
330
6C
100
AcDbEntity
 67
     1
  8
0
100
AcDbBlockEnd
  0
BLOCK
  5
75
330
74
100
AcDbEntity
 67
     1
  8
0
100
AcDbBlockBegin
  2
*Paper_Space0
 70
     0
 10
0.0
 20
0.0
 30
0.0
  3
*Paper_Space0
  1

  0
ENDBLK
  5
76
330
74
100
AcDbEntity
 67
     1
  8
0
100
AcDbBlockEnd
  0
BLOCK
  5
5F0
330
B4
100
AcDbEntity
  8
0
100
AcDbBlockBegin
  2
Geberit_sigma_pneumatic - Geberit_sigma_pneumatic-16576-_3D_
 70
     0
 10
0.0
 20
0.0
 30
0.0
  3
Geberit_sigma_pneumatic - Geberit_sigma_pneumatic-16576-_3D_
  1

  0
POLYLINE
  5
B5
330
B4
100
AcDbEntity
  8
A-GENM
370
    18
100
AcDbPolyFaceMesh
 66
     1
 10
0.0
 20
0.0
 30
0.0
 70
    64
 71
     4
 72
     1
  0
VERTEX
  5
B6
330
B5
100
AcDbEntity
  8
A-GENM
370
    18
100
AcDbVertex
100
AcDbPolyFaceMeshVertex
 10
61.49999792575837
 20
0.0
 30
70.99999945163727
 70
   192
  0
VERTEX
  5
B7
330
B5
100
AcDbEntity
  8
A-GENM
370
    18
100
AcDbVertex
100
AcDbPolyFaceMeshVertex
 10
61.49999792575837
 20
0.0
 30
2.999999988824129
 70
   192
  0
VERTEX
  5
B8
330
B5
100
AcDbEntity
  8
A-GENM
370
    18
100
AcDbVertex
100
AcDbPolyFaceMeshVertex
 10
60.4999999165535
 20
72.00000200271607
 30
3.999999985098838
 70
   192
  0
VERTEX
  5
B9
330
B5
100
AcDbEntity
  8
A-GENM
370
    18
100
AcDbVertex
100
AcDbPolyFaceMeshVertex
 10
60.4999999165535
 20
72.00000200271607
 30
70.00000144243241
 70
   192
  0
VERTEX
  5
BA
330
B5
100
AcDbEntity
  8
A-GENM
370
    18
100
AcDbFaceRecord
 10
0.0
 20
0.0
 30
0.0
 70
   128
 71
     1
 72
     2
 73
     3
 74
     4
  0
SEQEND
  5
BB
330
B5
100
AcDbEntity
  8
A-GENM
370
    18
  0
POLYLINE
  5
BC
330
B4
100
AcDbEntity
  8
A-GENM
370
    18
100
AcDbPolyFaceMesh
 66
     1
 10
0.0
 20
0.0
 30
0.0
 70
    64
 71
     4
 72
     1
  0
VERTEX
  5
BD
330
BC
100
AcDbEntity
  8
A-GENM
370
    18
100
AcDbVertex
100
AcDbPolyFaceMeshVertex
 10
59.51379103660584
 20
70.99999945163727
 30
69.01379256248474
 70
   192
  0
VERTEX
  5
BE
330
BC
100
AcDbEntity
  8
A-GENM
370
    18
100
AcDbVertex
100
AcDbPolyFaceMeshVertex
 10
59.51379103660584
 20
70.99999945163727
 30
4.986207729578018
 70
   192
  0
VERTEX
  5
BF
330
BC
100
AcDbEntity
  8
A-GENM
370
    18
100
AcDbVertex
100
AcDbPolyFaceMeshVertex
 10
60.51379358768463
 20
-0.9999999962747097
 30
3.986207449436188
 70
   192
  0
VERTEX
  5
C0
330
BC
100
AcDbEntity
  8
A-GENM
370
    18
100
AcDbVertex
100
AcDbPolyFaceMeshVertex
 10
60.51379358768463
 20
-0.9999999962747097
 30
70.01379057168961
 70
   192
  0
VERTEX
  5
C1
330
BC
100
AcDbEntity
  8
A-GENM
370
    18
100
AcDbFaceRecord
 10
0.0
 20
0.0
 30
0.0
 70
   128
 71
     1
 72
     2
 73
     3
 74
     4
  0
SEQEND
  5
C2
330
BC
100
AcDbEntity
  8
A-GENM
370
    18
  0
POLYLINE
  5
C3
330
B4
100
AcDbEntity
  8
A-GENM
370
    18
100
AcDbPolyFaceMesh
 66
     1
 10
0.0
 20
0.0
 30
0.0
 70
    64
 71
     4
 72
     1
  0
VERTEX
  5
C4
330
C3
100
AcDbEntity
  8
A-GENM
370
    18
100
AcDbVertex
100
AcDbPolyFaceMeshVertex
 10
62.50000047683716
 20
-0.9999999962747097
 30
72.00000200271607
 70
   192
  0
VERTEX
  5
C5
330
C3
100
AcDbEntity
  8
A-GENM
370
    18
100
AcDbVertex
100
AcDbPolyFaceMeshVertex
 10
62.50000047683716
 20
-0.9999999962747097
 30
1.999999992549419
 70
   192
  0
VERTEX
  5
C6
330
C3
100
AcDbEntity
  8
A-GENM
370
    18
100
AcDbVertex
100
AcDbPolyFaceMeshVertex
 10
62.50000047683716
 20
0.0
 30
1.999999992549419
 70
   192
  0
VERTEX
  5
C7
330
C3
100
AcDbEntity
  8
A-GENM
370
    18
100
AcDbVertex
100
AcDbPolyFaceMeshVertex
 10
62.50000047683716
 20
0.0
 30
72.00000200271607
 70
   192
  0
VERTEX
  5
C8
330
C3
100
AcDbEntity
  8
A-GENM
370
    18
100
AcDbFaceRecord
 10
0.0
 20
0.0
 30
0.0
 70
   128
 71
     1
 72
     2
 73
     3
 74
     4
  0
SEQEND
  5
C9
330
C3
100
AcDbEntity
  8
A-GENM
370
    18
  0
POLYLINE
  5
CA
330
B4
100
AcDbEntity
  8
A-GENM
370
    18
100
AcDbPolyFaceMesh
 66
     1
 10
0.0
 20
0.0
 30
0.0
 70
    64
 71
     4
 72
     1
  0
VERTEX
  5
CB
330
CA
100
AcDbEntity
  8
A-GENM
370
    18
100
AcDbVertex
100
AcDbPolyFaceMeshVertex
 10
61.49999792575837
 20
0.0
 30
2.999999988824129
 70
   192
  0
VERTEX
  5
CC
330
CA
100
AcDbEntity
  8
A-GENM
370
    18
100
AcDbVertex
100
AcDbPolyFaceMeshVertex
 10
-61.49999792575837
 20
0.0
 30
2.999999988824129
 70
   192
  0
VERTEX
  5
CD
330
CA
100
AcDbEntity
  8
A-GENM
370
    18
100
AcDbVertex
100
AcDbPolyFaceMeshVertex
 10
-60.4999999165535
 20
72.00000200271607
 30
3.999999985098838
 70
   192
  0
VERTEX
  5
CE
330
CA
100
AcDbEntity
  8
A-GENM
370
    18
100
AcDbVertex
100
AcDbPolyFaceMeshVertex
 10
60.4999999165535
 20
72.00000200271607
 30
3.999999985098838
 70
   192
  0
VERTEX
  5
CF
330
CA
100
AcDbEntity
  8
A-GENM
370
    18
100
AcDbFaceRecord
 10
0.0
 20
0.0
 30
0.0
 70
   128
 71
     1
 72
     2
 73
     3
 74
     4
  0
SEQEND
  5
D0
330
CA
100
AcDbEntity
  8
A-GENM
370
    18
  0
POLYLINE
  5
D1
330
B4
100
AcDbEntity
  8
A-GENM
370
    18
100
AcDbPolyFaceMesh
 66
     1
 10
0.0
 20
0.0
 30
0.0
 70
    64
 71
     4
 72
     1
  0
VERTEX
  5
D2
330
D1
100
AcDbEntity
  8
A-GENM
370
    18
100
AcDbVertex
100
AcDbPolyFaceMeshVertex
 10
59.51379103660584
 20
70.99999945163727
 30
4.986207729578018
 70
   192
  0
VERTEX
  5
D3
330
D1
100
AcDbEntity
  8
A-GENM
370
    18
100
AcDbVertex
100
AcDbPolyFaceMeshVertex
 10
-59.51379103660584
 20
70.99999945163727
 30
4.986207729578018
 70
   192
  0
VERTEX
  5
D4
330
D1
100
AcDbEntity
  8
A-GENM
370
    18
100
AcDbVertex
100
AcDbPolyFaceMeshVertex
 10
-60.51379358768463
 20
-0.9999999962747097
 30
3.986207449436188
 70
   192
  0
VERTEX
  5
D5
330
D1
100
AcDbEntity
  8
A-GENM
370
    18
100
AcDbVertex
100
AcDbPolyFaceMeshVertex
 10
60.51379358768463
 20
-0.9999999962747097
 30
3.986207449436188
 70
   192
  0
VERTEX
  5
D6
330
D1
100
AcDbEntity
  8
A-GENM
370
    18
100
AcDbFaceRecord
 10
0.0
 20
0.0
 30
0.0
 70
   128
 71
     1
 72
     2
 73
     3
 74
     4
  0
SEQEND
  5
D7
330
D1
100
AcDbEntity
  8
A-GENM
370
    18
  0
POLYLINE
  5
D8
330
B4
100
AcDbEntity
  8
A-GENM
370
    18
100
AcDbPolyFaceMesh
 66
     1
 10
0.0
 20
0.0
 30
0.0
 70
    64
 71
     4
 72
     1
  0
VERTEX
  5
D9
330
D8
100
AcDbEntity
  8
A-GENM
370
    18
100
AcDbVertex
100
AcDbPolyFaceMeshVertex
 10
62.50000047683716
 20
-0.9999999962747097
 30
1.999999992549419
 70
   192
  0
VERTEX
  5
DA
330
D8
100
AcDbEntity
  8
A-GENM
370
    18
100
AcDbVertex
100
AcDbPolyFaceMeshVertex
 10
-62.50000047683716
 20
-0.9999999962747097
 30
1.999999992549419
 70
   192
  0
VERTEX
  5
DB
330
D8
100
AcDbEntity
  8
A-GENM
370
    18
100
AcDbVertex
100
AcDbPolyFaceMeshVertex
 10
-62.50000047683716
 20
0.0
 30
1.999999992549419
 70
   192
  0
VERTEX
  5
DC
330
D8
100
AcDbEntity
  8
A-GENM
370
    18
100
AcDbVertex
100
AcDbPolyFaceMeshVertex
 10
62.50000047683716
 20
0.0
 30
1.999999992549419
 70
   192
  0
VERTEX
  5
DD
330
D8
100
AcDbEntity
  8
A-GENM
370
    18
100
AcDbFaceRecord
 10
0.0
 20
0.0
 30
0.0
 70
   128
 71
     1
 72
     2
 73
     3
 74
     4
  0
SEQEND
  5
DE
330
D8
100
AcDbEntity
  8
A-GENM
370
    18
  0
POLYLINE
  5
DF
330
B4
100
AcDbEntity
  8
A-GENM
370
    18
100
AcDbPolyFaceMesh
 66
     1
 10
0.0
 20
0.0
 30
0.0
 70
    64
 71
     4
 72
     1
  0
VERTEX
  5
E0
330
DF
100
AcDbEntity
  8
A-GENM
370
    18
100
AcDbVertex
100
AcDbPolyFaceMeshVertex
 10
-61.49999792575837
 20
0.0
 30
2.999999988824129
 70
   192
  0
VERTEX
  5
E1
330
DF
100
AcDbEntity
  8
A-GENM
370
    18
100
AcDbVertex
100
AcDbPolyFaceMeshVertex
 10
-61.49999792575837
 20
0.0
 30
70.99999945163727
 70
   192
  0
VERTEX
  5
E2
330
DF
100
AcDbEntity
  8
A-GENM
370
    18
100
AcDbVertex
100
AcDbPolyFaceMeshVertex
 10
-60.4999999165535
 20
72.00000200271607
 30
70.00000144243241
 70
   192
  0
VERTEX
  5
E3
330
DF
100
AcDbEntity
  8
A-GENM
370
    18
100
AcDbVertex
100
AcDbPolyFaceMeshVertex
 10
-60.4999999165535
 20
72.00000200271607
 30
3.999999985098838
 70
   192
  0
VERTEX
  5
E4
330
DF
100
AcDbEntity
  8
A-GENM
370
    18
100
AcDbFaceRecord
 10
0.0
 20
0.0
 30
0.0
 70
   128
 71
     1
 72
     2
 73
     3
 74
     4
  0
SEQEND
  5
E5
330
DF
100
AcDbEntity
  8
A-GENM
370
    18
  0
POLYLINE
  5
E6
330
B4
100
AcDbEntity
  8
A-GENM
370
    18
100
AcDbPolyFaceMesh
 66
     1
 10
0.0
 20
0.0
 30
0.0
 70
    64
 71
     4
 72
     1
  0
VERTEX
  5
E7
330
E6
100
AcDbEntity
  8
A-GENM
370
    18
100
AcDbVertex
100
AcDbPolyFaceMeshVertex
 10
-59.51379103660584
 20
70.99999945163727
 30
4.986207729578018
 70
   192
  0
VERTEX
  5
E8
330
E6
100
AcDbEntity
  8
A-GENM
370
    18
100
AcDbVertex
100
AcDbPolyFaceMeshVertex
 10
-59.51379103660584
 20
70.99999945163727
 30
69.01379256248474
 70
   192
  0
VERTEX
  5
E9
330
E6
100
AcDbEntity
  8
A-GENM
370
    18
100
AcDbVertex
100
AcDbPolyFaceMeshVertex
 10
-60.51379358768463
 20
-0.9999999962747097
 30
70.01379057168961
 70
   192
  0
VERTEX
  5
EA
330
E6
100
AcDbEntity
  8
A-GENM
370
    18
100
AcDbVertex
100
AcDbPolyFaceMeshVertex
 10
-60.51379358768463
 20
-0.9999999962747097
 30
3.986207449436188
 70
   192
  0
VERTEX
  5
EB
330
E6
100
AcDbEntity
  8
A-GENM
370
    18
100
AcDbFaceRecord
 10
0.0
 20
0.0
 30
0.0
 70
   128
 71
     1
 72
     2
 73
     3
 74
     4
  0
SEQEND
  5
EC
330
E6
100
AcDbEntity
  8
A-GENM
370
    18
  0
POLYLINE
  5
ED
330
B4
100
AcDbEntity
  8
A-GENM
370
    18
100
AcDbPolyFaceMesh
 66
     1
 10
0.0
 20
0.0
 30
0.0
 70
    64
 71
     4
 72
     1
  0
VERTEX
  5
EE
330
ED
100
AcDbEntity
  8
A-GENM
370
    18
100
AcDbVertex
100
AcDbPolyFaceMeshVertex
 10
-62.50000047683716
 20
-0.9999999962747097
 30
1.999999992549419
 70
   192
  0
VERTEX
  5
EF
330
ED
100
AcDbEntity
  8
A-GENM
370
    18
100
AcDbVertex
100
AcDbPolyFaceMeshVertex
 10
-62.50000047683716
 20
-0.9999999962747097
 30
72.00000200271607
 70
   192
  0
VERTEX
  5
F0
330
ED
100
AcDbEntity
  8
A-GENM
370
    18
100
AcDbVertex
100
AcDbPolyFaceMeshVertex
 10
-62.50000047683716
 20
0.0
 30
72.00000200271607
 70
   192
  0
VERTEX
  5
F1
330
ED
100
AcDbEntity
  8
A-GENM
370
    18
100
AcDbVertex
100
AcDbPolyFaceMeshVertex
 10
-62.50000047683716
 20
0.0
 30
1.999999992549419
 70
   192
  0
VERTEX
  5
F2
330
ED
100
AcDbEntity
  8
A-GENM
370
    18
100
AcDbFaceRecord
 10
0.0
 20
0.0
 30
0.0
 70
   128
 71
     1
 72
     2
 73
     3
 74
     4
  0
SEQEND
  5
F3
330
ED
100
AcDbEntity
  8
A-GENM
370
    18
  0
POLYLINE
  5
F4
330
B4
100
AcDbEntity
  8
A-GENM
370
    18
100
AcDbPolyFaceMesh
 66
     1
 10
0.0
 20
0.0
 30
0.0
 70
    64
 71
     4
 72
     1
  0
VERTEX
  5
F5
330
F4
100
AcDbEntity
  8
A-GENM
370
    18
100
AcDbVertex
100
AcDbPolyFaceMeshVertex
 10
60.4999999165535
 20
72.00000200271607
 30
70.00000144243241
 70
   192
  0
VERTEX
  5
F6
330
F4
100
AcDbEntity
  8
A-GENM
370
    18
100
AcDbVertex
100
AcDbPolyFaceMeshVertex
 10
-60.4999999165535
 20
72.00000200271607
 30
70.00000144243241
 70
   192
  0
VERTEX
  5
F7
330
F4
100
AcDbEntity
  8
A-GENM
370
    18
100
AcDbVertex
100
AcDbPolyFaceMeshVertex
 10
-61.49999792575837
 20
0.0
 30
70.99999945163727
 70
   192
  0
VERTEX
  5
F8
330
F4
100
AcDbEntity
  8
A-GENM
370
    18
100
AcDbVertex
100
AcDbPolyFaceMeshVertex
 10
61.49999792575837
 20
0.0
 30
70.99999945163727
 70
   192
  0
VERTEX
  5
F9
330
F4
100
AcDbEntity
  8
A-GENM
370
    18
100
AcDbFaceRecord
 10
0.0
 20
0.0
 30
0.0
 70
   128
 71
     1
 72
     2
 73
     3
 74
     4
  0
SEQEND
  5
FA
330
F4
100
AcDbEntity
  8
A-GENM
370
    18
  0
POLYLINE
  5
FB
330
B4
100
AcDbEntity
  8
A-GENM
370
    18
100
AcDbPolyFaceMesh
 66
     1
 10
0.0
 20
0.0
 30
0.0
 70
    64
 71
     4
 72
     1
  0
VERTEX
  5
FC
330
FB
100
AcDbEntity
  8
A-GENM
370
    18
100
AcDbVertex
100
AcDbPolyFaceMeshVertex
 10
60.4999999165535
 20
72.00000200271607
 30
3.999999985098838
 70
   192
  0
VERTEX
  5
FD
330
FB
100
AcDbEntity
  8
A-GENM
370
    18
100
AcDbVertex
100
AcDbPolyFaceMeshVertex
 10
-60.4999999165535
 20
72.00000200271607
 30
3.999999985098838
 70
   192
  0
VERTEX
  5
FE
330
FB
100
AcDbEntity
  8
A-GENM
370
    18
100
AcDbVertex
100
AcDbPolyFaceMeshVertex
 10
-60.4999999165535
 20
72.00000200271607
 30
70.00000144243241
 70
   192
  0
VERTEX
  5
FF
330
FB
100
AcDbEntity
  8
A-GENM
370
    18
100
AcDbVertex
100
AcDbPolyFaceMeshVertex
 10
60.4999999165535
 20
72.00000200271607
 30
70.00000144243241
 70
   192
  0
VERTEX
  5
100
330
FB
100
AcDbEntity
  8
A-GENM
370
    18
100
AcDbFaceRecord
 10
0.0
 20
0.0
 30
0.0
 70
   128
 71
     1
 72
     2
 73
     3
 74
     4
  0
SEQEND
  5
101
330
FB
100
AcDbEntity
  8
A-GENM
370
    18
  0
POLYLINE
  5
102
330
B4
100
AcDbEntity
  8
A-GENM
370
    18
100
AcDbPolyFaceMesh
 66
     1
 10
0.0
 20
0.0
 30
0.0
 70
    64
 71
     4
 72
     1
  0
VERTEX
  5
103
330
102
100
AcDbEntity
  8
A-GENM
370
    18
100
AcDbVertex
100
AcDbPolyFaceMeshVertex
 10
59.51379103660584
 20
70.99999945163727
 30
69.01379256248474
 70
   192
  0
VERTEX
  5
104
330
102
100
AcDbEntity
  8
A-GENM
370
    18
100
AcDbVertex
100
AcDbPolyFaceMeshVertex
 10
-59.51379103660584
 20
70.99999945163727
 30
69.01379256248474
 70
   192
  0
VERTEX
  5
105
330
102
100
AcDbEntity
  8
A-GENM
370
    18
100
AcDbVertex
100
AcDbPolyFaceMeshVertex
 10
-59.51379103660584
 20
70.99999945163727
 30
4.986207729578018
 70
   192
  0
VERTEX
  5
106
330
102
100
AcDbEntity
  8
A-GENM
370
    18
100
AcDbVertex
100
AcDbPolyFaceMeshVertex
 10
59.51379103660584
 20
70.99999945163727
 30
4.986207729578018
 70
   192
  0
VERTEX
  5
107
330
102
100
AcDbEntity
  8
A-GENM
370
    18
100
AcDbFaceRecord
 10
0.0
 20
0.0
 30
0.0
 70
   128
 71
     1
 72
     2
 73
     3
 74
     4
  0
SEQEND
  5
108
330
102
100
AcDbEntity
  8
A-GENM
370
    18
  0
POLYLINE
  5
109
330
B4
100
AcDbEntity
  8
A-GENM
370
    18
100
AcDbPolyFaceMesh
 66
     1
 10
0.0
 20
0.0
 30
0.0
 70
    64
 71
     4
 72
     1
  0
VERTEX
  5
10A
330
109
100
AcDbEntity
  8
A-GENM
370
    18
100
AcDbVertex
100
AcDbPolyFaceMeshVertex
 10
60.51379358768463
 20
-0.9999999962747097
 30
70.01379057168961
 70
   192
  0
VERTEX
  5
10B
330
109
100
AcDbEntity
  8
A-GENM
370
    18
100
AcDbVertex
100
AcDbPolyFaceMeshVertex
 10
-60.51379358768463
 20
-0.9999999962747097
 30
70.01379057168961
 70
   192
  0
VERTEX
  5
10C
330
109
100
AcDbEntity
  8
A-GENM
370
    18
100
AcDbVertex
100
AcDbPolyFaceMeshVertex
 10
-59.51379103660584
 20
70.99999945163727
 30
69.01379256248474
 70
   192
  0
VERTEX
  5
10D
330
109
100
AcDbEntity
  8
A-GENM
370
    18
100
AcDbVertex
100
AcDbPolyFaceMeshVertex
 10
59.51379103660584
 20
70.99999945163727
 30
69.01379256248474
 70
   192
  0
VERTEX
  5
10E
330
109
100
AcDbEntity
  8
A-GENM
370
    18
100
AcDbFaceRecord
 10
0.0
 20
0.0
 30
0.0
 70
   128
 71
     1
 72
     2
 73
     3
 74
     4
  0
SEQEND
  5
10F
330
109
100
AcDbEntity
  8
A-GENM
370
    18
  0
POLYLINE
  5
110
330
B4
100
AcDbEntity
  8
A-GENM
370
    18
100
AcDbPolyFaceMesh
 66
     1
 10
0.0
 20
0.0
 30
0.0
 70
    64
 71
     8
 72
     4
  0
VERTEX
  5
111
330
110
100
AcDbEntity
  8
A-GENM
370
    18
100
AcDbVertex
100
AcDbPolyFaceMeshVertex
 10
62.50000047683716
 20
-0.9999999962747097
 30
1.999999992549419
 70
   192
  0
VERTEX
  5
112
330
110
100
AcDbEntity
  8
A-GENM
370
    18
100
AcDbVertex
100
AcDbPolyFaceMeshVertex
 10
62.50000047683716
 20
-0.9999999962747097
 30
72.00000200271607
 70
   192
  0
VERTEX
  5
113
330
110
100
AcDbEntity
  8
A-GENM
370
    18
100
AcDbVertex
100
AcDbPolyFaceMeshVertex
 10
-62.50000047683716
 20
-0.9999999962747097
 30
72.00000200271607
 70
   192
  0
VERTEX
  5
114
330
110
100
AcDbEntity
  8
A-GENM
370
    18
100
AcDbVertex
100
AcDbPolyFaceMeshVertex
 10
-62.50000047683716
 20
-0.9999999962747097
 30
1.999999992549419
 70
   192
  0
VERTEX
  5
115
330
110
100
AcDbEntity
  8
A-GENM
370
    18
100
AcDbVertex
100
AcDbPolyFaceMeshVertex
 10
60.51379358768463
 20
-0.9999999962747097
 30
70.01379057168961
 70
   192
  0
VERTEX
  5
116
330
110
100
AcDbEntity
  8
A-GENM
370
    18
100
AcDbVertex
100
AcDbPolyFaceMeshVertex
 10
60.51379358768463
 20
-0.9999999962747097
 30
3.986207449436188
 70
   192
  0
VERTEX
  5
117
330
110
100
AcDbEntity
  8
A-GENM
370
    18
100
AcDbVertex
100
AcDbPolyFaceMeshVertex
 10
-60.51379358768463
 20
-0.9999999962747097
 30
3.986207449436188
 70
   192
  0
VERTEX
  5
118
330
110
100
AcDbEntity
  8
A-GENM
370
    18
100
AcDbVertex
100
AcDbPolyFaceMeshVertex
 10
-60.51379358768463
 20
-0.9999999962747097
 30
70.01379057168961
 70
   192
  0
VERTEX
  5
119
330
110
100
AcDbEntity
  8
A-GENM
370
    18
100
AcDbFaceRecord
 10
0.0
 20
0.0
 30
0.0
 70
   128
 71
    -4
 72
     7
 73
    -8
 74
     3
  0
VERTEX
  5
11A
330
110
100
AcDbEntity
  8
A-GENM
370
    18
100
AcDbFaceRecord
 10
0.0
 20
0.0
 30
0.0
 70
   128
 71
     6
 72
    -7
 73
     4
 74
    -1
  0
VERTEX
  5
11B
330
110
100
AcDbEntity
  8
A-GENM
370
    18
100
AcDbFaceRecord
 10
0.0
 20
0.0
 30
0.0
 70
   128
 71
    -3
 72
     8
 73
    -5
 74
     2
  0
VERTEX
  5
11C
330
110
100
AcDbEntity
  8
A-GENM
370
    18
100
AcDbFaceRecord
 10
0.0
 20
0.0
 30
0.0
 70
   128
 71
     5
 72
    -6
 73
     1
 74
    -2
  0
SEQEND
  5
11D
330
110
100
AcDbEntity
  8
A-GENM
370
    18
  0
POLYLINE
  5
11E
330
B4
100
AcDbEntity
  8
A-GENM
370
    18
100
AcDbPolyFaceMesh
 66
     1
 10
0.0
 20
0.0
 30
0.0
 70
    64
 71
     4
 72
     1
  0
VERTEX
  5
11F
330
11E
100
AcDbEntity
  8
A-GENM
370
    18
100
AcDbVertex
100
AcDbPolyFaceMeshVertex
 10
62.50000047683716
 20
0.0
 30
72.00000200271607
 70
   192
  0
VERTEX
  5
120
330
11E
100
AcDbEntity
  8
A-GENM
370
    18
100
AcDbVertex
100
AcDbPolyFaceMeshVertex
 10
-62.50000047683716
 20
0.0
 30
72.00000200271607
 70
   192
  0
VERTEX
  5
121
330
11E
100
AcDbEntity
  8
A-GENM
370
    18
100
AcDbVertex
100
AcDbPolyFaceMeshVertex
 10
-62.50000047683716
 20
-0.9999999962747097
 30
72.00000200271607
 70
   192
  0
VERTEX
  5
122
330
11E
100
AcDbEntity
  8
A-GENM
370
    18
100
AcDbVertex
100
AcDbPolyFaceMeshVertex
 10
62.50000047683716
 20
-0.9999999962747097
 30
72.00000200271607
 70
   192
  0
VERTEX
  5
123
330
11E
100
AcDbEntity
  8
A-GENM
370
    18
100
AcDbFaceRecord
 10
0.0
 20
0.0
 30
0.0
 70
   128
 71
     1
 72
     2
 73
     3
 74
     4
  0
SEQEND
  5
124
330
11E
100
AcDbEntity
  8
A-GENM
370
    18
  0
POLYLINE
  5
125
330
B4
100
AcDbEntity
  8
A-GENM
370
    18
100
AcDbPolyFaceMesh
 66
     1
 10
0.0
 20
0.0
 30
0.0
 70
    64
 71
     8
 72
     4
  0
VERTEX
  5
126
330
125
100
AcDbEntity
  8
A-GENM
370
    18
100
AcDbVertex
100
AcDbPolyFaceMeshVertex
 10
62.50000047683716
 20
0.0
 30
72.00000200271607
 70
   192
  0
VERTEX
  5
127
330
125
100
AcDbEntity
  8
A-GENM
370
    18
100
AcDbVertex
100
AcDbPolyFaceMeshVertex
 10
62.50000047683716
 20
-0.0000000000000913
 30
1.999999992549419
 70
   192
  0
VERTEX
  5
128
330
125
100
AcDbEntity
  8
A-GENM
370
    18
100
AcDbVertex
100
AcDbPolyFaceMeshVertex
 10
-62.50000047683716
 20
-0.0000000000000913
 30
1.999999992549419
 70
   192
  0
VERTEX
  5
129
330
125
100
AcDbEntity
  8
A-GENM
370
    18
100
AcDbVertex
100
AcDbPolyFaceMeshVertex
 10
-62.50000047683716
 20
0.0
 30
72.00000200271607
 70
   192
  0
VERTEX
  5
12A
330
125
100
AcDbEntity
  8
A-GENM
370
    18
100
AcDbVertex
100
AcDbPolyFaceMeshVertex
 10
61.49999792575837
 20
-0.00000000000009
 30
2.999999988824129
 70
   192
  0
VERTEX
  5
12B
330
125
100
AcDbEntity
  8
A-GENM
370
    18
100
AcDbVertex
100
AcDbPolyFaceMeshVertex
 10
61.49999792575837
 20
-0.0000000000000013
 30
70.99999945163727
 70
   192
  0
VERTEX
  5
12C
330
125
100
AcDbEntity
  8
A-GENM
370
    18
100
AcDbVertex
100
AcDbPolyFaceMeshVertex
 10
-61.49999792575837
 20
-0.0000000000000013
 30
70.99999945163727
 70
   192
  0
VERTEX
  5
12D
330
125
100
AcDbEntity
  8
A-GENM
370
    18
100
AcDbVertex
100
AcDbPolyFaceMeshVertex
 10
-61.49999792575837
 20
-0.00000000000009
 30
2.999999988824129
 70
   192
  0
VERTEX
  5
12E
330
125
100
AcDbEntity
  8
A-GENM
370
    18
100
AcDbFaceRecord
 10
0.0
 20
0.0
 30
0.0
 70
   128
 71
    -4
 72
     7
 73
    -8
 74
     3
  0
VERTEX
  5
12F
330
125
100
AcDbEntity
  8
A-GENM
370
    18
100
AcDbFaceRecord
 10
0.0
 20
0.0
 30
0.0
 70
   128
 71
     6
 72
    -7
 73
     4
 74
    -1
  0
VERTEX
  5
130
330
125
100
AcDbEntity
  8
A-GENM
370
    18
100
AcDbFaceRecord
 10
0.0
 20
0.0
 30
0.0
 70
   128
 71
    -3
 72
     8
 73
    -5
 74
     2
  0
VERTEX
  5
131
330
125
100
AcDbEntity
  8
A-GENM
370
    18
100
AcDbFaceRecord
 10
0.0
 20
0.0
 30
0.0
 70
   128
 71
     5
 72
    -6
 73
     1
 74
    -2
  0
SEQEND
  5
132
330
125
100
AcDbEntity
  8
A-GENM
370
    18
  0
POLYLINE
  5
133
330
B4
100
AcDbEntity
  8
A-GENM
370
    18
100
AcDbPolyFaceMesh
 66
     1
 10
0.0
 20
0.0
 30
0.0
 70
    64
 71
     8
 72
     4
1001
REVIT
1002
{
1070
     4
1000
4860
1002
}
  0
VERTEX
  5
134
330
133
100
AcDbEntity
  8
A-GENM
370
    18
100
AcDbVertex
100
AcDbPolyFaceMeshVertex
 10
44.88062717914581
 20
-28.00000103116035
 30
52.37500076293946
 70
   192
  0
VERTEX
  5
135
330
133
100
AcDbEntity
  8
A-GENM
370
    18
100
AcDbVertex
100
AcDbPolyFaceMeshVertex
 10
15.00562817752361
 20
-28.00000103116035
 30
52.37500076293946
 70
   192
  0
VERTEX
  5
136
330
133
100
AcDbEntity
  8
A-GENM
370
    18
100
AcDbVertex
100
AcDbPolyFaceMeshVertex
 10
14.25562853515148
 20
-28.00000103116035
 30
51.62500112056733
 70
   192
  0
VERTEX
  5
137
330
133
100
AcDbEntity
  8
A-GENM
370
    18
100
AcDbVertex
100
AcDbPolyFaceMeshVertex
 10
14.25562853515148
 20
-28.00000103116035
 30
22.37499917149544
 70
   192
  0
VERTEX
  5
138
330
133
100
AcDbEntity
  8
A-GENM
370
    18
100
AcDbVertex
100
AcDbPolyFaceMeshVertex
 10
15.00562817752361
 20
-28.00000103116035
 30
21.62499952912331
 70
   192
  0
VERTEX
  5
139
330
133
100
AcDbEntity
  8
A-GENM
370
    18
100
AcDbVertex
100
AcDbPolyFaceMeshVertex
 10
44.88062717914581
 20
-28.00000103116035
 30
21.62499952912331
 70
   192
  0
VERTEX
  5
13A
330
133
100
AcDbEntity
  8
A-GENM
370
    18
100
AcDbVertex
100
AcDbPolyFaceMeshVertex
 10
45.63062682151794
 20
-28.00000103116035
 30
22.37499917149544
 70
   192
  0
VERTEX
  5
13B
330
133
100
AcDbEntity
  8
A-GENM
370
    18
100
AcDbVertex
100
AcDbPolyFaceMeshVertex
 10
45.63062682151794
 20
-28.00000103116035
 30
51.62500112056733
 70
   192
  0
VERTEX
  5
13C
330
133
100
AcDbEntity
  8
A-GENM
370
    18
100
AcDbFaceRecord
 10
0.0
 20
0.0
 30
0.0
 70
   128
 71
     2
 72
    -3
 73
    -5
 74
     1
  0
VERTEX
  5
13D
330
133
100
AcDbEntity
  8
A-GENM
370
    18
100
AcDbFaceRecord
 10
0.0
 20
0.0
 30
0.0
 70
   128
 71
    -5
 72
     3
 73
     4
  0
VERTEX
  5
13E
330
133
100
AcDbEntity
  8
A-GENM
370
    18
100
AcDbFaceRecord
 10
0.0
 20
0.0
 30
0.0
 70
   128
 71
     8
 72
    -1
 73
     6
 74
     7
  0
VERTEX
  5
13F
330
133
100
AcDbEntity
  8
A-GENM
370
    18
100
AcDbFaceRecord
 10
0.0
 20
0.0
 30
0.0
 70
   128
 71
    -6
 72
    -1
 73
     5
  0
SEQEND
  5
140
330
133
100
AcDbEntity
  8
A-GENM
370
    18
  0
POLYLINE
  5
141
330
B4
100
AcDbEntity
  8
A-GENM
370
    18
100
AcDbPolyFaceMesh
 66
     1
 10
0.0
 20
0.0
 30
0.0
 70
    64
 71
     8
 72
     3
1001
REVIT
1002
{
1070
     4
1000
4860
1002
}
  0
VERTEX
  5
142
330
141
100
AcDbEntity
  8
A-GENM
370
    18
100
AcDbVertex
100
AcDbPolyFaceMeshVertex
 10
46.00562664270401
 20
-5.000000265240669
 30
53.50000022649766
 70
   192
  0
VERTEX
  5
143
330
141
100
AcDbEntity
  8
A-GENM
370
    18
100
AcDbVertex
100
AcDbPolyFaceMeshVertex
 10
46.75562628507614
 20
-5.000000265240669
 30
52.75000058412552
 70
   192
  0
VERTEX
  5
144
330
141
100
AcDbEntity
  8
A-GENM
370
    18
100
AcDbVertex
100
AcDbPolyFaceMeshVertex
 10
46.75562628507614
 20
-5.000000265240669
 30
21.24999970793724
 70
   192
  0
VERTEX
  5
145
330
141
100
AcDbEntity
  8
A-GENM
370
    18
100
AcDbVertex
100
AcDbPolyFaceMeshVertex
 10
46.00562664270401
 20
-5.000000265240669
 30
20.50000006556511
 70
   192
  0
VERTEX
  5
146
330
141
100
AcDbEntity
  8
A-GENM
370
    18
100
AcDbVertex
100
AcDbPolyFaceMeshVertex
 10
13.88062871396541
 20
-5.000000265240669
 30
20.50000006556511
 70
   192
  0
VERTEX
  5
147
330
141
100
AcDbEntity
  8
A-GENM
370
    18
100
AcDbVertex
100
AcDbPolyFaceMeshVertex
 10
13.13062907159328
 20
-5.000000265240669
 30
21.24999970793724
 70
   192
  0
VERTEX
  5
148
330
141
100
AcDbEntity
  8
A-GENM
370
    18
100
AcDbVertex
100
AcDbPolyFaceMeshVertex
 10
13.13062907159328
 20
-5.000000265240669
 30
52.75000058412552
 70
   192
  0
VERTEX
  5
149
330
141
100
AcDbEntity
  8
A-GENM
370
    18
100
AcDbVertex
100
AcDbPolyFaceMeshVertex
 10
13.88062871396541
 20
-5.000000265240669
 30
53.50000022649766
 70
   192
  0
VERTEX
  5
14A
330
141
100
AcDbEntity
  8
A-GENM
370
    18
100
AcDbFaceRecord
 10
0.0
 20
0.0
 30
0.0
 70
   128
 71
     7
 72
    -8
 73
     5
 74
     6
  0
VERTEX
  5
14B
330
141
100
AcDbEntity
  8
A-GENM
370
    18
100
AcDbFaceRecord
 10
0.0
 20
0.0
 30
0.0
 70
   128
 71
    -5
 72
     8
 73
    -1
 74
     4
  0
VERTEX
  5
14C
330
141
100
AcDbEntity
  8
A-GENM
370
    18
100
AcDbFaceRecord
 10
0.0
 20
0.0
 30
0.0
 70
   128
 71
     2
 72
     3
 73
    -4
 74
     1
  0
SEQEND
  5
14D
330
141
100
AcDbEntity
  8
A-GENM
370
    18
  0
POLYLINE
  5
14E
330
B4
100
AcDbEntity
  8
A-GENM
370
    18
100
AcDbPolyFaceMesh
 66
     1
 10
0.0
 20
0.0
 30
0.0
 70
    64
 71
     4
 72
     1
1001
REVIT
1002
{
1070
     4
1000
4860
1002
}
  0
VERTEX
  5
14F
330
14E
100
AcDbEntity
  8
A-GENM
370
    18
100
AcDbVertex
100
AcDbPolyFaceMeshVertex
 10
46.00562664270401
 20
-5.000000265240669
 30
20.50000006556511
 70
   192
  0
VERTEX
  5
150
330
14E
100
AcDbEntity
  8
A-GENM
370
    18
100
AcDbVertex
100
AcDbPolyFaceMeshVertex
 10
44.88062717914581
 20
-28.00000103116035
 30
21.62499952912331
 70
   192
  0
VERTEX
  5
151
330
14E
100
AcDbEntity
  8
A-GENM
370
    18
100
AcDbVertex
100
AcDbPolyFaceMeshVertex
 10
15.00562817752361
 20
-28.00000103116035
 30
21.62499952912331
 70
   192
  0
VERTEX
  5
152
330
14E
100
AcDbEntity
  8
A-GENM
370
    18
100
AcDbVertex
100
AcDbPolyFaceMeshVertex
 10
13.88062871396541
 20
-5.000000265240669
 30
20.50000006556511
 70
   192
  0
VERTEX
  5
153
330
14E
100
AcDbEntity
  8
A-GENM
370
    18
100
AcDbFaceRecord
 10
0.0
 20
0.0
 30
0.0
 70
   128
 71
     1
 72
     2
 73
     3
 74
     4
  0
SEQEND
  5
154
330
14E
100
AcDbEntity
  8
A-GENM
370
    18
  0
POLYLINE
  5
155
330
B4
100
AcDbEntity
  8
A-GENM
370
    18
100
AcDbPolyFaceMesh
 66
     1
 10
0.0
 20
0.0
 30
0.0
 70
    64
 71
     4
 72
     1
1001
REVIT
1002
{
1070
     4
1000
4860
1002
}
  0
VERTEX
  5
156
330
155
100
AcDbEntity
  8
A-GENM
370
    18
100
AcDbVertex
100
AcDbPolyFaceMeshVertex
 10
13.13062907159328
 20
-5.000000265240669
 30
21.24999970793724
 70
   192
  0
VERTEX
  5
157
330
155
100
AcDbEntity
  8
A-GENM
370
    18
100
AcDbVertex
100
AcDbPolyFaceMeshVertex
 10
14.25562853515148
 20
-28.00000103116035
 30
22.37499917149544
 70
   192
  0
VERTEX
  5
158
330
155
100
AcDbEntity
  8
A-GENM
370
    18
100
AcDbVertex
100
AcDbPolyFaceMeshVertex
 10
14.25562853515148
 20
-28.00000103116035
 30
51.62500112056733
 70
   192
  0
VERTEX
  5
159
330
155
100
AcDbEntity
  8
A-GENM
370
    18
100
AcDbVertex
100
AcDbPolyFaceMeshVertex
 10
13.13062907159328
 20
-5.000000265240669
 30
52.75000058412552
 70
   192
  0
VERTEX
  5
15A
330
155
100
AcDbEntity
  8
A-GENM
370
    18
100
AcDbFaceRecord
 10
0.0
 20
0.0
 30
0.0
 70
   128
 71
     1
 72
     2
 73
     3
 74
     4
  0
SEQEND
  5
15B
330
155
100
AcDbEntity
  8
A-GENM
370
    18
  0
POLYLINE
  5
15C
330
B4
100
AcDbEntity
  8
A-GENM
370
    18
100
AcDbPolyFaceMesh
 66
     1
 10
0.0
 20
0.0
 30
0.0
 70
    64
 71
     4
 72
     1
1001
REVIT
1002
{
1070
     4
1000
4860
1002
}
  0
VERTEX
  5
15D
330
15C
100
AcDbEntity
  8
A-GENM
370
    18
100
AcDbVertex
100
AcDbPolyFaceMeshVertex
 10
13.13062907159328
 20
-5.000000265240669
 30
52.75000058412552
 70
   192
  0
VERTEX
  5
15E
330
15C
100
AcDbEntity
  8
A-GENM
370
    18
100
AcDbVertex
100
AcDbPolyFaceMeshVertex
 10
14.25562853515148
 20
-28.00000103116035
 30
51.62500112056733
 70
   192
  0
VERTEX
  5
15F
330
15C
100
AcDbEntity
  8
A-GENM
370
    18
100
AcDbVertex
100
AcDbPolyFaceMeshVertex
 10
15.00562817752361
 20
-28.00000103116035
 30
52.37500076293946
 70
   192
  0
VERTEX
  5
160
330
15C
100
AcDbEntity
  8
A-GENM
370
    18
100
AcDbVertex
100
AcDbPolyFaceMeshVertex
 10
13.88062871396541
 20
-5.000000265240669
 30
53.50000022649766
 70
   192
  0
VERTEX
  5
161
330
15C
100
AcDbEntity
  8
A-GENM
370
    18
100
AcDbFaceRecord
 10
0.0
 20
0.0
 30
0.0
 70
   128
 71
     1
 72
     2
 73
     3
 74
     4
  0
SEQEND
  5
162
330
15C
100
AcDbEntity
  8
A-GENM
370
    18
  0
POLYLINE
  5
163
330
B4
100
AcDbEntity
  8
A-GENM
370
    18
100
AcDbPolyFaceMesh
 66
     1
 10
0.0
 20
0.0
 30
0.0
 70
    64
 71
     4
 72
     1
1001
REVIT
1002
{
1070
     4
1000
4860
1002
}
  0
VERTEX
  5
164
330
163
100
AcDbEntity
  8
A-GENM
370
    18
100
AcDbVertex
100
AcDbPolyFaceMeshVertex
 10
13.88062871396541
 20
-5.000000265240669
 30
53.50000022649766
 70
   192
  0
VERTEX
  5
165
330
163
100
AcDbEntity
  8
A-GENM
370
    18
100
AcDbVertex
100
AcDbPolyFaceMeshVertex
 10
15.00562817752361
 20
-28.00000103116035
 30
52.37500076293946
 70
   192
  0
VERTEX
  5
166
330
163
100
AcDbEntity
  8
A-GENM
370
    18
100
AcDbVertex
100
AcDbPolyFaceMeshVertex
 10
44.88062717914581
 20
-28.00000103116035
 30
52.37500076293946
 70
   192
  0
VERTEX
  5
167
330
163
100
AcDbEntity
  8
A-GENM
370
    18
100
AcDbVertex
100
AcDbPolyFaceMeshVertex
 10
46.00562664270401
 20
-5.000000265240669
 30
53.50000022649766
 70
   192
  0
VERTEX
  5
168
330
163
100
AcDbEntity
  8
A-GENM
370
    18
100
AcDbFaceRecord
 10
0.0
 20
0.0
 30
0.0
 70
   128
 71
     1
 72
     2
 73
     3
 74
     4
  0
SEQEND
  5
169
330
163
100
AcDbEntity
  8
A-GENM
370
    18
  0
POLYLINE
  5
16A
330
B4
100
AcDbEntity
  8
A-GENM
370
    18
100
AcDbPolyFaceMesh
 66
     1
 10
0.0
 20
0.0
 30
0.0
 70
    64
 71
     4
 72
     1
1001
REVIT
1002
{
1070
     4
1000
4860
1002
}
  0
VERTEX
  5
16B
330
16A
100
AcDbEntity
  8
A-GENM
370
    18
100
AcDbVertex
100
AcDbPolyFaceMeshVertex
 10
13.88062871396541
 20
-5.000000265240669
 30
20.50000006556511
 70
   192
  0
VERTEX
  5
16C
330
16A
100
AcDbEntity
  8
A-GENM
370
    18
100
AcDbVertex
100
AcDbPolyFaceMeshVertex
 10
15.00562817752361
 20
-28.00000103116035
 30
21.62499952912331
 70
   192
  0
VERTEX
  5
16D
330
16A
100
AcDbEntity
  8
A-GENM
370
    18
100
AcDbVertex
100
AcDbPolyFaceMeshVertex
 10
14.25562853515148
 20
-28.00000103116035
 30
22.37499917149544
 70
   192
  0
VERTEX
  5
16E
330
16A
100
AcDbEntity
  8
A-GENM
370
    18
100
AcDbVertex
100
AcDbPolyFaceMeshVertex
 10
13.13062907159328
 20
-5.000000265240669
 30
21.24999970793724
 70
   192
  0
VERTEX
  5
16F
330
16A
100
AcDbEntity
  8
A-GENM
370
    18
100
AcDbFaceRecord
 10
0.0
 20
0.0
 30
0.0
 70
   128
 71
     1
 72
     2
 73
     3
 74
     4
  0
SEQEND
  5
170
330
16A
100
AcDbEntity
  8
A-GENM
370
    18
  0
POLYLINE
  5
171
330
B4
100
AcDbEntity
  8
A-GENM
370
    18
100
AcDbPolyFaceMesh
 66
     1
 10
0.0
 20
0.0
 30
0.0
 70
    64
 71
     4
 72
     1
1001
REVIT
1002
{
1070
     4
1000
4860
1002
}
  0
VERTEX
  5
172
330
171
100
AcDbEntity
  8
A-GENM
370
    18
100
AcDbVertex
100
AcDbPolyFaceMeshVertex
 10
46.75562628507614
 20
-5.000000265240669
 30
21.24999970793724
 70
   192
  0
VERTEX
  5
173
330
171
100
AcDbEntity
  8
A-GENM
370
    18
100
AcDbVertex
100
AcDbPolyFaceMeshVertex
 10
45.63062682151794
 20
-28.00000103116035
 30
22.37499917149544
 70
   192
  0
VERTEX
  5
174
330
171
100
AcDbEntity
  8
A-GENM
370
    18
100
AcDbVertex
100
AcDbPolyFaceMeshVertex
 10
44.88062717914581
 20
-28.00000103116035
 30
21.62499952912331
 70
   192
  0
VERTEX
  5
175
330
171
100
AcDbEntity
  8
A-GENM
370
    18
100
AcDbVertex
100
AcDbPolyFaceMeshVertex
 10
46.00562664270401
 20
-5.000000265240669
 30
20.50000006556511
 70
   192
  0
VERTEX
  5
176
330
171
100
AcDbEntity
  8
A-GENM
370
    18
100
AcDbFaceRecord
 10
0.0
 20
0.0
 30
0.0
 70
   128
 71
     1
 72
     2
 73
     3
 74
     4
  0
SEQEND
  5
177
330
171
100
AcDbEntity
  8
A-GENM
370
    18
  0
POLYLINE
  5
178
330
B4
100
AcDbEntity
  8
A-GENM
370
    18
100
AcDbPolyFaceMesh
 66
     1
 10
0.0
 20
0.0
 30
0.0
 70
    64
 71
     4
 72
     1
1001
REVIT
1002
{
1070
     4
1000
4860
1002
}
  0
VERTEX
  5
179
330
178
100
AcDbEntity
  8
A-GENM
370
    18
100
AcDbVertex
100
AcDbPolyFaceMeshVertex
 10
46.75562628507614
 20
-5.000000265240669
 30
52.75000058412552
 70
   192
  0
VERTEX
  5
17A
330
178
100
AcDbEntity
  8
A-GENM
370
    18
100
AcDbVertex
100
AcDbPolyFaceMeshVertex
 10
45.63062682151794
 20
-28.00000103116035
 30
51.62500112056733
 70
   192
  0
VERTEX
  5
17B
330
178
100
AcDbEntity
  8
A-GENM
370
    18
100
AcDbVertex
100
AcDbPolyFaceMeshVertex
 10
45.63062682151794
 20
-28.00000103116035
 30
22.37499917149544
 70
   192
  0
VERTEX
  5
17C
330
178
100
AcDbEntity
  8
A-GENM
370
    18
100
AcDbVertex
100
AcDbPolyFaceMeshVertex
 10
46.75562628507614
 20
-5.000000265240669
 30
21.24999970793724
 70
   192
  0
VERTEX
  5
17D
330
178
100
AcDbEntity
  8
A-GENM
370
    18
100
AcDbFaceRecord
 10
0.0
 20
0.0
 30
0.0
 70
   128
 71
     1
 72
     2
 73
     3
 74
     4
  0
SEQEND
  5
17E
330
178
100
AcDbEntity
  8
A-GENM
370
    18
  0
POLYLINE
  5
17F
330
B4
100
AcDbEntity
  8
A-GENM
370
    18
100
AcDbPolyFaceMesh
 66
     1
 10
0.0
 20
0.0
 30
0.0
 70
    64
 71
     4
 72
     1
1001
REVIT
1002
{
1070
     4
1000
4860
1002
}
  0
VERTEX
  5
180
330
17F
100
AcDbEntity
  8
A-GENM
370
    18
100
AcDbVertex
100
AcDbPolyFaceMeshVertex
 10
46.00562664270401
 20
-5.000000265240669
 30
53.50000022649766
 70
   192
  0
VERTEX
  5
181
330
17F
100
AcDbEntity
  8
A-GENM
370
    18
100
AcDbVertex
100
AcDbPolyFaceMeshVertex
 10
44.88062717914581
 20
-28.00000103116035
 30
52.37500076293946
 70
   192
  0
VERTEX
  5
182
330
17F
100
AcDbEntity
  8
A-GENM
370
    18
100
AcDbVertex
100
AcDbPolyFaceMeshVertex
 10
45.63062682151794
 20
-28.00000103116035
 30
51.62500112056733
 70
   192
  0
VERTEX
  5
183
330
17F
100
AcDbEntity
  8
A-GENM
370
    18
100
AcDbVertex
100
AcDbPolyFaceMeshVertex
 10
46.75562628507614
 20
-5.000000265240669
 30
52.75000058412552
 70
   192
  0
VERTEX
  5
184
330
17F
100
AcDbEntity
  8
A-GENM
370
    18
100
AcDbFaceRecord
 10
0.0
 20
0.0
 30
0.0
 70
   128
 71
     1
 72
     2
 73
     3
 74
     4
  0
SEQEND
  5
185
330
17F
100
AcDbEntity
  8
A-GENM
370
    18
  0
POLYLINE
  5
186
330
B4
100
AcDbEntity
  8
A-GENM
370
    18
100
AcDbPolyFaceMesh
 66
     1
 10
0.0
 20
0.0
 30
0.0
 70
    64
 71
     8
 72
     3
1001
REVIT
1002
{
1070
     4
1000
4860
1002
}
  0
VERTEX
  5
187
330
186
100
AcDbEntity
  8
A-GENM
370
    18
100
AcDbVertex
100
AcDbPolyFaceMeshVertex
 10
4.624999876320361
 20
-28.00000103116035
 30
52.37500076293946
 70
   192
  0
VERTEX
  5
188
330
186
100
AcDbEntity
  8
A-GENM
370
    18
100
AcDbVertex
100
AcDbPolyFaceMeshVertex
 10
-44.62500143051147
 20
-28.00000103116035
 30
52.37500076293946
 70
   192
  0
VERTEX
  5
189
330
186
100
AcDbEntity
  8
A-GENM
370
    18
100
AcDbVertex
100
AcDbPolyFaceMeshVertex
 10
-45.3750010728836
 20
-28.00000103116035
 30
51.62500112056733
 70
   192
  0
VERTEX
  5
18A
330
186
100
AcDbEntity
  8
A-GENM
370
    18
100
AcDbVertex
100
AcDbPolyFaceMeshVertex
 10
-45.3750010728836
 20
-28.00000103116035
 30
22.37499917149544
 70
   192
  0
VERTEX
  5
18B
330
186
100
AcDbEntity
  8
A-GENM
370
    18
100
AcDbVertex
100
AcDbPolyFaceMeshVertex
 10
-44.62500143051147
 20
-28.00000103116035
 30
21.62499952912331
 70
   192
  0
VERTEX
  5
18C
330
186
100
AcDbEntity
  8
A-GENM
370
    18
100
AcDbVertex
100
AcDbPolyFaceMeshVertex
 10
4.624999876320361
 20
-28.00000103116035
 30
21.62499952912331
 70
   192
  0
VERTEX
  5
18D
330
186
100
AcDbEntity
  8
A-GENM
370
    18
100
AcDbVertex
100
AcDbPolyFaceMeshVertex
 10
5.375000086426735
 20
-28.00000103116035
 30
22.37499917149544
 70
   192
  0
VERTEX
  5
18E
330
186
100
AcDbEntity
  8
A-GENM
370
    18
100
AcDbVertex
100
AcDbPolyFaceMeshVertex
 10
5.375000086426735
 20
-28.00000103116035
 30
51.62500112056733
 70
   192
  0
VERTEX
  5
18F
330
186
100
AcDbEntity
  8
A-GENM
370
    18
100
AcDbFaceRecord
 10
0.0
 20
0.0
 30
0.0
 70
   128
 71
     3
 72
     4
 73
    -5
 74
     2
  0
VERTEX
  5
190
330
186
100
AcDbEntity
  8
A-GENM
370
    18
100
AcDbFaceRecord
 10
0.0
 20
0.0
 30
0.0
 70
   128
 71
     1
 72
    -2
 73
     5
 74
    -6
  0
VERTEX
  5
191
330
186
100
AcDbEntity
  8
A-GENM
370
    18
100
AcDbFaceRecord
 10
0.0
 20
0.0
 30
0.0
 70
   128
 71
     6
 72
     7
 73
     8
 74
    -1
  0
SEQEND
  5
192
330
186
100
AcDbEntity
  8
A-GENM
370
    18
  0
POLYLINE
  5
193
330
B4
100
AcDbEntity
  8
A-GENM
370
    18
100
AcDbPolyFaceMesh
 66
     1
 10
0.0
 20
0.0
 30
0.0
 70
    64
 71
     8
 72
     3
1001
REVIT
1002
{
1070
     4
1000
4860
1002
}
  0
VERTEX
  5
194
330
193
100
AcDbEntity
  8
A-GENM
370
    18
100
AcDbVertex
100
AcDbPolyFaceMeshVertex
 10
5.7499999076128
 20
-5.000000265240669
 30
53.50000022649766
 70
   192
  0
VERTEX
  5
195
330
193
100
AcDbEntity
  8
A-GENM
370
    18
100
AcDbVertex
100
AcDbPolyFaceMeshVertex
 10
6.500000117719173
 20
-5.000000265240669
 30
52.75000058412552
 70
   192
  0
VERTEX
  5
196
330
193
100
AcDbEntity
  8
A-GENM
370
    18
100
AcDbVertex
100
AcDbPolyFaceMeshVertex
 10
6.500000117719173
 20
-5.000000265240669
 30
21.24999970793724
 70
   192
  0
VERTEX
  5
197
330
193
100
AcDbEntity
  8
A-GENM
370
    18
100
AcDbVertex
100
AcDbPolyFaceMeshVertex
 10
5.7499999076128
 20
-5.000000265240669
 30
20.50000006556511
 70
   192
  0
VERTEX
  5
198
330
193
100
AcDbEntity
  8
A-GENM
370
    18
100
AcDbVertex
100
AcDbPolyFaceMeshVertex
 10
-45.75000089406967
 20
-5.000000265240669
 30
20.50000006556511
 70
   192
  0
VERTEX
  5
199
330
193
100
AcDbEntity
  8
A-GENM
370
    18
100
AcDbVertex
100
AcDbPolyFaceMeshVertex
 10
-46.5000005364418
 20
-5.000000265240669
 30
21.24999970793724
 70
   192
  0
VERTEX
  5
19A
330
193
100
AcDbEntity
  8
A-GENM
370
    18
100
AcDbVertex
100
AcDbPolyFaceMeshVertex
 10
-46.5000005364418
 20
-5.000000265240669
 30
52.75000058412552
 70
   192
  0
VERTEX
  5
19B
330
193
100
AcDbEntity
  8
A-GENM
370
    18
100
AcDbVertex
100
AcDbPolyFaceMeshVertex
 10
-45.75000089406967
 20
-5.000000265240669
 30
53.50000022649766
 70
   192
  0
VERTEX
  5
19C
330
193
100
AcDbEntity
  8
A-GENM
370
    18
100
AcDbFaceRecord
 10
0.0
 20
0.0
 30
0.0
 70
   128
 71
     7
 72
    -8
 73
     5
 74
     6
  0
VERTEX
  5
19D
330
193
100
AcDbEntity
  8
A-GENM
370
    18
100
AcDbFaceRecord
 10
0.0
 20
0.0
 30
0.0
 70
   128
 71
    -5
 72
     8
 73
    -1
 74
     4
  0
VERTEX
  5
19E
330
193
100
AcDbEntity
  8
A-GENM
370
    18
100
AcDbFaceRecord
 10
0.0
 20
0.0
 30
0.0
 70
   128
 71
    -4
 72
     1
 73
     2
 74
     3
  0
SEQEND
  5
19F
330
193
100
AcDbEntity
  8
A-GENM
370
    18
  0
POLYLINE
  5
1A0
330
B4
100
AcDbEntity
  8
A-GENM
370
    18
100
AcDbPolyFaceMesh
 66
     1
 10
0.0
 20
0.0
 30
0.0
 70
    64
 71
     4
 72
     1
1001
REVIT
1002
{
1070
     4
1000
4860
1002
}
  0
VERTEX
  5
1A1
330
1A0
100
AcDbEntity
  8
A-GENM
370
    18
100
AcDbVertex
100
AcDbPolyFaceMeshVertex
 10
5.7499999076128
 20
-5.000000265240669
 30
20.50000006556511
 70
   192
  0
VERTEX
  5
1A2
330
1A0
100
AcDbEntity
  8
A-GENM
370
    18
100
AcDbVertex
100
AcDbPolyFaceMeshVertex
 10
4.624999876320361
 20
-28.00000103116035
 30
21.62499952912331
 70
   192
  0
VERTEX
  5
1A3
330
1A0
100
AcDbEntity
  8
A-GENM
370
    18
100
AcDbVertex
100
AcDbPolyFaceMeshVertex
 10
-44.62500143051147
 20
-28.00000103116035
 30
21.62499952912331
 70
   192
  0
VERTEX
  5
1A4
330
1A0
100
AcDbEntity
  8
A-GENM
370
    18
100
AcDbVertex
100
AcDbPolyFaceMeshVertex
 10
-45.75000089406967
 20
-5.000000265240669
 30
20.50000006556511
 70
   192
  0
VERTEX
  5
1A5
330
1A0
100
AcDbEntity
  8
A-GENM
370
    18
100
AcDbFaceRecord
 10
0.0
 20
0.0
 30
0.0
 70
   128
 71
     1
 72
     2
 73
     3
 74
     4
  0
SEQEND
  5
1A6
330
1A0
100
AcDbEntity
  8
A-GENM
370
    18
  0
POLYLINE
  5
1A7
330
B4
100
AcDbEntity
  8
A-GENM
370
    18
100
AcDbPolyFaceMesh
 66
     1
 10
0.0
 20
0.0
 30
0.0
 70
    64
 71
     4
 72
     1
1001
REVIT
1002
{
1070
     4
1000
4860
1002
}
  0
VERTEX
  5
1A8
330
1A7
100
AcDbEntity
  8
A-GENM
370
    18
100
AcDbVertex
100
AcDbPolyFaceMeshVertex
 10
-46.5000005364418
 20
-5.000000265240669
 30
21.24999970793724
 70
   192
  0
VERTEX
  5
1A9
330
1A7
100
AcDbEntity
  8
A-GENM
370
    18
100
AcDbVertex
100
AcDbPolyFaceMeshVertex
 10
-45.3750010728836
 20
-28.00000103116035
 30
22.37499917149544
 70
   192
  0
VERTEX
  5
1AA
330
1A7
100
AcDbEntity
  8
A-GENM
370
    18
100
AcDbVertex
100
AcDbPolyFaceMeshVertex
 10
-45.3750010728836
 20
-28.00000103116035
 30
51.62500112056733
 70
   192
  0
VERTEX
  5
1AB
330
1A7
100
AcDbEntity
  8
A-GENM
370
    18
100
AcDbVertex
100
AcDbPolyFaceMeshVertex
 10
-46.5000005364418
 20
-5.000000265240669
 30
52.75000058412552
 70
   192
  0
VERTEX
  5
1AC
330
1A7
100
AcDbEntity
  8
A-GENM
370
    18
100
AcDbFaceRecord
 10
0.0
 20
0.0
 30
0.0
 70
   128
 71
     1
 72
     2
 73
     3
 74
     4
  0
SEQEND
  5
1AD
330
1A7
100
AcDbEntity
  8
A-GENM
370
    18
  0
POLYLINE
  5
1AE
330
B4
100
AcDbEntity
  8
A-GENM
370
    18
100
AcDbPolyFaceMesh
 66
     1
 10
0.0
 20
0.0
 30
0.0
 70
    64
 71
     4
 72
     1
1001
REVIT
1002
{
1070
     4
1000
4860
1002
}
  0
VERTEX
  5
1AF
330
1AE
100
AcDbEntity
  8
A-GENM
370
    18
100
AcDbVertex
100
AcDbPolyFaceMeshVertex
 10
-46.5000005364418
 20
-5.000000265240669
 30
52.75000058412552
 70
   192
  0
VERTEX
  5
1B0
330
1AE
100
AcDbEntity
  8
A-GENM
370
    18
100
AcDbVertex
100
AcDbPolyFaceMeshVertex
 10
-45.3750010728836
 20
-28.00000103116035
 30
51.62500112056733
 70
   192
  0
VERTEX
  5
1B1
330
1AE
100
AcDbEntity
  8
A-GENM
370
    18
100
AcDbVertex
100
AcDbPolyFaceMeshVertex
 10
-44.62500143051147
 20
-28.00000103116035
 30
52.37500076293946
 70
   192
  0
VERTEX
  5
1B2
330
1AE
100
AcDbEntity
  8
A-GENM
370
    18
100
AcDbVertex
100
AcDbPolyFaceMeshVertex
 10
-45.75000089406967
 20
-5.000000265240669
 30
53.50000022649766
 70
   192
  0
VERTEX
  5
1B3
330
1AE
100
AcDbEntity
  8
A-GENM
370
    18
100
AcDbFaceRecord
 10
0.0
 20
0.0
 30
0.0
 70
   128
 71
     1
 72
     2
 73
     3
 74
     4
  0
SEQEND
  5
1B4
330
1AE
100
AcDbEntity
  8
A-GENM
370
    18
  0
POLYLINE
  5
1B5
330
B4
100
AcDbEntity
  8
A-GENM
370
    18
100
AcDbPolyFaceMesh
 66
     1
 10
0.0
 20
0.0
 30
0.0
 70
    64
 71
     4
 72
     1
1001
REVIT
1002
{
1070
     4
1000
4860
1002
}
  0
VERTEX
  5
1B6
330
1B5
100
AcDbEntity
  8
A-GENM
370
    18
100
AcDbVertex
100
AcDbPolyFaceMeshVertex
 10
-45.75000089406967
 20
-5.000000265240669
 30
53.50000022649766
 70
   192
  0
VERTEX
  5
1B7
330
1B5
100
AcDbEntity
  8
A-GENM
370
    18
100
AcDbVertex
100
AcDbPolyFaceMeshVertex
 10
-44.62500143051147
 20
-28.00000103116035
 30
52.37500076293946
 70
   192
  0
VERTEX
  5
1B8
330
1B5
100
AcDbEntity
  8
A-GENM
370
    18
100
AcDbVertex
100
AcDbPolyFaceMeshVertex
 10
4.624999876320361
 20
-28.00000103116035
 30
52.37500076293946
 70
   192
  0
VERTEX
  5
1B9
330
1B5
100
AcDbEntity
  8
A-GENM
370
    18
100
AcDbVertex
100
AcDbPolyFaceMeshVertex
 10
5.7499999076128
 20
-5.000000265240669
 30
53.50000022649766
 70
   192
  0
VERTEX
  5
1BA
330
1B5
100
AcDbEntity
  8
A-GENM
370
    18
100
AcDbFaceRecord
 10
0.0
 20
0.0
 30
0.0
 70
   128
 71
     1
 72
     2
 73
     3
 74
     4
  0
SEQEND
  5
1BB
330
1B5
100
AcDbEntity
  8
A-GENM
370
    18
  0
POLYLINE
  5
1BC
330
B4
100
AcDbEntity
  8
A-GENM
370
    18
100
AcDbPolyFaceMesh
 66
     1
 10
0.0
 20
0.0
 30
0.0
 70
    64
 71
     4
 72
     1
1001
REVIT
1002
{
1070
     4
1000
4860
1002
}
  0
VERTEX
  5
1BD
330
1BC
100
AcDbEntity
  8
A-GENM
370
    18
100
AcDbVertex
100
AcDbPolyFaceMeshVertex
 10
-45.75000089406967
 20
-5.000000265240669
 30
20.50000006556511
 70
   192
  0
VERTEX
  5
1BE
330
1BC
100
AcDbEntity
  8
A-GENM
370
    18
100
AcDbVertex
100
AcDbPolyFaceMeshVertex
 10
-44.62500143051147
 20
-28.00000103116035
 30
21.62499952912331
 70
   192
  0
VERTEX
  5
1BF
330
1BC
100
AcDbEntity
  8
A-GENM
370
    18
100
AcDbVertex
100
AcDbPolyFaceMeshVertex
 10
-45.3750010728836
 20
-28.00000103116035
 30
22.37499917149544
 70
   192
  0
VERTEX
  5
1C0
330
1BC
100
AcDbEntity
  8
A-GENM
370
    18
100
AcDbVertex
100
AcDbPolyFaceMeshVertex
 10
-46.5000005364418
 20
-5.000000265240669
 30
21.24999970793724
 70
   192
  0
VERTEX
  5
1C1
330
1BC
100
AcDbEntity
  8
A-GENM
370
    18
100
AcDbFaceRecord
 10
0.0
 20
0.0
 30
0.0
 70
   128
 71
     1
 72
     2
 73
     3
 74
     4
  0
SEQEND
  5
1C2
330
1BC
100
AcDbEntity
  8
A-GENM
370
    18
  0
POLYLINE
  5
1C3
330
B4
100
AcDbEntity
  8
A-GENM
370
    18
100
AcDbPolyFaceMesh
 66
     1
 10
0.0
 20
0.0
 30
0.0
 70
    64
 71
     4
 72
     1
1001
REVIT
1002
{
1070
     4
1000
4860
1002
}
  0
VERTEX
  5
1C4
330
1C3
100
AcDbEntity
  8
A-GENM
370
    18
100
AcDbVertex
100
AcDbPolyFaceMeshVertex
 10
6.500000117719173
 20
-5.000000265240669
 30
21.24999970793724
 70
   192
  0
VERTEX
  5
1C5
330
1C3
100
AcDbEntity
  8
A-GENM
370
    18
100
AcDbVertex
100
AcDbPolyFaceMeshVertex
 10
5.375000086426735
 20
-28.00000103116035
 30
22.37499917149544
 70
   192
  0
VERTEX
  5
1C6
330
1C3
100
AcDbEntity
  8
A-GENM
370
    18
100
AcDbVertex
100
AcDbPolyFaceMeshVertex
 10
4.624999876320361
 20
-28.00000103116035
 30
21.62499952912331
 70
   192
  0
VERTEX
  5
1C7
330
1C3
100
AcDbEntity
  8
A-GENM
370
    18
100
AcDbVertex
100
AcDbPolyFaceMeshVertex
 10
5.7499999076128
 20
-5.000000265240669
 30
20.50000006556511
 70
   192
  0
VERTEX
  5
1C8
330
1C3
100
AcDbEntity
  8
A-GENM
370
    18
100
AcDbFaceRecord
 10
0.0
 20
0.0
 30
0.0
 70
   128
 71
     1
 72
     2
 73
     3
 74
     4
  0
SEQEND
  5
1C9
330
1C3
100
AcDbEntity
  8
A-GENM
370
    18
  0
POLYLINE
  5
1CA
330
B4
100
AcDbEntity
  8
A-GENM
370
    18
100
AcDbPolyFaceMesh
 66
     1
 10
0.0
 20
0.0
 30
0.0
 70
    64
 71
     4
 72
     1
1001
REVIT
1002
{
1070
     4
1000
4860
1002
}
  0
VERTEX
  5
1CB
330
1CA
100
AcDbEntity
  8
A-GENM
370
    18
100
AcDbVertex
100
AcDbPolyFaceMeshVertex
 10
6.500000117719173
 20
-5.000000265240669
 30
52.75000058412552
 70
   192
  0
VERTEX
  5
1CC
330
1CA
100
AcDbEntity
  8
A-GENM
370
    18
100
AcDbVertex
100
AcDbPolyFaceMeshVertex
 10
5.375000086426735
 20
-28.00000103116035
 30
51.62500112056733
 70
   192
  0
VERTEX
  5
1CD
330
1CA
100
AcDbEntity
  8
A-GENM
370
    18
100
AcDbVertex
100
AcDbPolyFaceMeshVertex
 10
5.375000086426735
 20
-28.00000103116035
 30
22.37499917149544
 70
   192
  0
VERTEX
  5
1CE
330
1CA
100
AcDbEntity
  8
A-GENM
370
    18
100
AcDbVertex
100
AcDbPolyFaceMeshVertex
 10
6.500000117719173
 20
-5.000000265240669
 30
21.24999970793724
 70
   192
  0
VERTEX
  5
1CF
330
1CA
100
AcDbEntity
  8
A-GENM
370
    18
100
AcDbFaceRecord
 10
0.0
 20
0.0
 30
0.0
 70
   128
 71
     1
 72
     2
 73
     3
 74
     4
  0
SEQEND
  5
1D0
330
1CA
100
AcDbEntity
  8
A-GENM
370
    18
  0
POLYLINE
  5
1D1
330
B4
100
AcDbEntity
  8
A-GENM
370
    18
100
AcDbPolyFaceMesh
 66
     1
 10
0.0
 20
0.0
 30
0.0
 70
    64
 71
     4
 72
     1
1001
REVIT
1002
{
1070
     4
1000
4860
1002
}
  0
VERTEX
  5
1D2
330
1D1
100
AcDbEntity
  8
A-GENM
370
    18
100
AcDbVertex
100
AcDbPolyFaceMeshVertex
 10
5.7499999076128
 20
-5.000000265240669
 30
53.50000022649766
 70
   192
  0
VERTEX
  5
1D3
330
1D1
100
AcDbEntity
  8
A-GENM
370
    18
100
AcDbVertex
100
AcDbPolyFaceMeshVertex
 10
4.624999876320361
 20
-28.00000103116035
 30
52.37500076293946
 70
   192
  0
VERTEX
  5
1D4
330
1D1
100
AcDbEntity
  8
A-GENM
370
    18
100
AcDbVertex
100
AcDbPolyFaceMeshVertex
 10
5.375000086426735
 20
-28.00000103116035
 30
51.62500112056733
 70
   192
  0
VERTEX
  5
1D5
330
1D1
100
AcDbEntity
  8
A-GENM
370
    18
100
AcDbVertex
100
AcDbPolyFaceMeshVertex
 10
6.500000117719173
 20
-5.000000265240669
 30
52.75000058412552
 70
   192
  0
VERTEX
  5
1D6
330
1D1
100
AcDbEntity
  8
A-GENM
370
    18
100
AcDbFaceRecord
 10
0.0
 20
0.0
 30
0.0
 70
   128
 71
     1
 72
     2
 73
     3
 74
     4
  0
SEQEND
  5
1D7
330
1D1
100
AcDbEntity
  8
A-GENM
370
    18
  0
POLYLINE
  5
1D8
330
B4
100
AcDbEntity
  8
A-GENM
370
    18
100
AcDbPolyFaceMesh
 66
     1
 10
0.0
 20
0.0
 30
0.0
 70
    64
 71
    16
 72
     8
1001
REVIT
1002
{
1070
     4
1000
14732
1002
}
  0
VERTEX
  5
1D9
330
1D8
100
AcDbEntity
  8
A-GENM
370
    18
100
AcDbVertex
100
AcDbPolyFaceMeshVertex
 10
26.46828584074974
 20
-9.000000250339509
 30
65.01110719442367
 70
   192
  0
VERTEX
  5
1DA
330
1D8
100
AcDbEntity
  8
A-GENM
370
    18
100
AcDbVertex
100
AcDbPolyFaceMeshVertex
 10
24.66828442811966
 20
-9.000000250339509
 30
64.4711101770401
 70
   192
  0
VERTEX
  5
1DB
330
1D8
100
AcDbEntity
  8
A-GENM
370
    18
100
AcDbVertex
100
AcDbPolyFaceMeshVertex
 10
25.84531559944153
 20
-9.000000250339509
 30
64.2250178217888
 70
   192
  0
VERTEX
  5
1DC
330
1D8
100
AcDbEntity
  8
A-GENM
370
    18
100
AcDbVertex
100
AcDbPolyFaceMeshVertex
 10
25.51414486169815
 20
-9.000000250339509
 30
63.34892213344573
 70
   192
  0
VERTEX
  5
1DD
330
1D8
100
AcDbEntity
  8
A-GENM
370
    18
100
AcDbVertex
100
AcDbPolyFaceMeshVertex
 10
24.6893791615963
 20
-9.000000250339509
 30
63.03110904693603
 70
   192
  0
VERTEX
  5
1DE
330
1D8
100
AcDbEntity
  8
A-GENM
370
    18
100
AcDbVertex
100
AcDbPolyFaceMeshVertex
 10
23.68672188520432
 20
-9.000000250339509
 30
63.54017136096954
 70
   192
  0
VERTEX
  5
1DF
330
1D8
100
AcDbEntity
  8
A-GENM
370
    18
100
AcDbVertex
100
AcDbPolyFaceMeshVertex
 10
23.31828507184983
 20
-9.000000250339509
 30
64.95204920768738
 70
   192
  0
VERTEX
  5
1E0
330
1D8
100
AcDbEntity
  8
A-GENM
370
    18
100
AcDbVertex
100
AcDbPolyFaceMeshVertex
 10
23.64734838008881
 20
-9.000000250339509
 30
66.34564146995545
 70
   192
  0
VERTEX
  5
1E1
330
1D8
100
AcDbEntity
  8
A-GENM
370
    18
100
AcDbVertex
100
AcDbPolyFaceMeshVertex
 10
25.38969070315361
 20
-9.000000250339509
 30
66.66556198596954
 70
   192
  0
VERTEX
  5
1E2
330
1D8
100
AcDbEntity
  8
A-GENM
370
    18
100
AcDbVertex
100
AcDbPolyFaceMeshVertex
 10
26.37828633785248
 20
-9.000000250339509
 30
66.04610942602157
 70
   192
  0
VERTEX
  5
1E3
330
1D8
100
AcDbEntity
  8
A-GENM
370
    18
100
AcDbVertex
100
AcDbPolyFaceMeshVertex
 10
24.7020350933075
 20
-9.000000250339509
 30
67.44110966920853
 70
   192
  0
VERTEX
  5
1E4
330
1D8
100
AcDbEntity
  8
A-GENM
370
    18
100
AcDbVertex
100
AcDbPolyFaceMeshVertex
 10
23.22969127893448
 20
-9.000000250339509
 30
66.71970112323761
 70
   192
  0
VERTEX
  5
1E5
330
1D8
100
AcDbEntity
  8
A-GENM
370
    18
100
AcDbVertex
100
AcDbPolyFaceMeshVertex
 10
22.68828628063202
 20
-9.000000250339509
 30
64.91689056158065
 70
   192
  0
VERTEX
  5
1E6
330
1D8
100
AcDbEntity
  8
A-GENM
370
    18
100
AcDbVertex
100
AcDbPolyFaceMeshVertex
 10
23.19523889422417
 20
-9.000000250339509
 30
63.19845439195633
 70
   192
  0
VERTEX
  5
1E7
330
1D8
100
AcDbEntity
  8
A-GENM
370
    18
100
AcDbVertex
100
AcDbPolyFaceMeshVertex
 10
24.61484701037407
 20
-9.000000250339509
 30
62.49110748767853
 70
   192
  0
VERTEX
  5
1E8
330
1D8
100
AcDbEntity
  8
A-GENM
370
    18
100
AcDbVertex
100
AcDbPolyFaceMeshVertex
 10
26.46828584074974
 20
-9.000000250339509
 30
62.49110748767853
 70
   192
  0
VERTEX
  5
1E9
330
1D8
100
AcDbEntity
  8
A-GENM
370
    18
100
AcDbFaceRecord
 10
0.0
 20
0.0
 30
0.0
 70
   128
 71
     9
 72
    10
 73
   -11
  0
VERTEX
  5
1EA
330
1D8
100
AcDbEntity
  8
A-GENM
370
    18
100
AcDbFaceRecord
 10
0.0
 20
0.0
 30
0.0
 70
   128
 71
     8
 72
    -9
 73
    11
 74
   -12
  0
VERTEX
  5
1EB
330
1D8
100
AcDbEntity
  8
A-GENM
370
    18
100
AcDbFaceRecord
 10
0.0
 20
0.0
 30
0.0
 70
   128
 71
    16
 72
    -1
 73
     3
 74
    -4
  0
VERTEX
  5
1EC
330
1D8
100
AcDbEntity
  8
A-GENM
370
    18
100
AcDbFaceRecord
 10
0.0
 20
0.0
 30
0.0
 70
   128
 71
     1
 72
     2
 73
    -3
  0
VERTEX
  5
1ED
330
1D8
100
AcDbEntity
  8
A-GENM
370
    18
100
AcDbFaceRecord
 10
0.0
 20
0.0
 30
0.0
 70
   128
 71
    15
 72
   -16
 73
     4
 74
    -5
  0
VERTEX
  5
1EE
330
1D8
100
AcDbEntity
  8
A-GENM
370
    18
100
AcDbFaceRecord
 10
0.0
 20
0.0
 30
0.0
 70
   128
 71
    -8
 72
    12
 73
   -13
 74
     7
  0
VERTEX
  5
1EF
330
1D8
100
AcDbEntity
  8
A-GENM
370
    18
100
AcDbFaceRecord
 10
0.0
 20
0.0
 30
0.0
 70
   128
 71
     6
 72
    -7
 73
    13
 74
   -14
  0
VERTEX
  5
1F0
330
1D8
100
AcDbEntity
  8
A-GENM
370
    18
100
AcDbFaceRecord
 10
0.0
 20
0.0
 30
0.0
 70
   128
 71
   -15
 72
     5
 73
    -6
 74
    14
  0
SEQEND
  5
1F1
330
1D8
100
AcDbEntity
  8
A-GENM
370
    18
  0
POLYLINE
  5
1F2
330
B4
100
AcDbEntity
  8
A-GENM
370
    18
100
AcDbPolyFaceMesh
 66
     1
 10
0.0
 20
0.0
 30
0.0
 70
    64
 71
    16
 72
     8
1001
REVIT
1002
{
1070
     4
1000
14732
1002
}
  0
VERTEX
  5
1F3
330
1F2
100
AcDbEntity
  8
A-GENM
370
    18
100
AcDbVertex
100
AcDbPolyFaceMeshVertex
 10
26.46828584074974
 20
-7.999999970197677
 30
65.01110719442367
 70
   192
  0
VERTEX
  5
1F4
330
1F2
100
AcDbEntity
  8
A-GENM
370
    18
100
AcDbVertex
100
AcDbPolyFaceMeshVertex
 10
26.46828584074974
 20
-7.999999970197677
 30
62.49110748767853
 70
   192
  0
VERTEX
  5
1F5
330
1F2
100
AcDbEntity
  8
A-GENM
370
    18
100
AcDbVertex
100
AcDbPolyFaceMeshVertex
 10
24.61484701037407
 20
-7.999999970197677
 30
62.49110748767853
 70
   192
  0
VERTEX
  5
1F6
330
1F2
100
AcDbEntity
  8
A-GENM
370
    18
100
AcDbVertex
100
AcDbPolyFaceMeshVertex
 10
23.19523889422417
 20
-7.999999970197677
 30
63.19845439195633
 70
   192
  0
VERTEX
  5
1F7
330
1F2
100
AcDbEntity
  8
A-GENM
370
    18
100
AcDbVertex
100
AcDbPolyFaceMeshVertex
 10
22.68828628063202
 20
-7.999999970197677
 30
64.91689056158065
 70
   192
  0
VERTEX
  5
1F8
330
1F2
100
AcDbEntity
  8
A-GENM
370
    18
100
AcDbVertex
100
AcDbPolyFaceMeshVertex
 10
23.22969127893448
 20
-7.999999970197677
 30
66.71970112323761
 70
   192
  0
VERTEX
  5
1F9
330
1F2
100
AcDbEntity
  8
A-GENM
370
    18
100
AcDbVertex
100
AcDbPolyFaceMeshVertex
 10
24.7020350933075
 20
-7.999999970197677
 30
67.44110966920853
 70
   192
  0
VERTEX
  5
1FA
330
1F2
100
AcDbEntity
  8
A-GENM
370
    18
100
AcDbVertex
100
AcDbPolyFaceMeshVertex
 10
26.37828633785248
 20
-7.999999970197677
 30
66.04610942602157
 70
   192
  0
VERTEX
  5
1FB
330
1F2
100
AcDbEntity
  8
A-GENM
370
    18
100
AcDbVertex
100
AcDbPolyFaceMeshVertex
 10
25.38969070315361
 20
-7.999999970197677
 30
66.66556198596954
 70
   192
  0
VERTEX
  5
1FC
330
1F2
100
AcDbEntity
  8
A-GENM
370
    18
100
AcDbVertex
100
AcDbPolyFaceMeshVertex
 10
23.64734838008881
 20
-7.999999970197677
 30
66.34564146995545
 70
   192
  0
VERTEX
  5
1FD
330
1F2
100
AcDbEntity
  8
A-GENM
370
    18
100
AcDbVertex
100
AcDbPolyFaceMeshVertex
 10
23.31828507184983
 20
-7.999999970197677
 30
64.95204920768738
 70
   192
  0
VERTEX
  5
1FE
330
1F2
100
AcDbEntity
  8
A-GENM
370
    18
100
AcDbVertex
100
AcDbPolyFaceMeshVertex
 10
23.68672188520432
 20
-7.999999970197677
 30
63.54017136096954
 70
   192
  0
VERTEX
  5
1FF
330
1F2
100
AcDbEntity
  8
A-GENM
370
    18
100
AcDbVertex
100
AcDbPolyFaceMeshVertex
 10
24.6893791615963
 20
-7.999999970197677
 30
63.03110904693603
 70
   192
  0
VERTEX
  5
200
330
1F2
100
AcDbEntity
  8
A-GENM
370
    18
100
AcDbVertex
100
AcDbPolyFaceMeshVertex
 10
25.51414486169815
 20
-7.999999970197677
 30
63.34892213344573
 70
   192
  0
VERTEX
  5
201
330
1F2
100
AcDbEntity
  8
A-GENM
370
    18
100
AcDbVertex
100
AcDbPolyFaceMeshVertex
 10
25.84531559944153
 20
-7.999999970197677
 30
64.2250178217888
 70
   192
  0
VERTEX
  5
202
330
1F2
100
AcDbEntity
  8
A-GENM
370
    18
100
AcDbVertex
100
AcDbPolyFaceMeshVertex
 10
24.66828442811966
 20
-7.999999970197677
 30
64.4711101770401
 70
   192
  0
VERTEX
  5
203
330
1F2
100
AcDbEntity
  8
A-GENM
370
    18
100
AcDbFaceRecord
 10
0.0
 20
0.0
 30
0.0
 70
   128
 71
    -5
 72
    11
 73
   -12
 74
     4
  0
VERTEX
  5
204
330
1F2
100
AcDbEntity
  8
A-GENM
370
    18
100
AcDbFaceRecord
 10
0.0
 20
0.0
 30
0.0
 70
   128
 71
    10
 72
   -11
 73
     5
 74
    -6
  0
VERTEX
  5
205
330
1F2
100
AcDbEntity
  8
A-GENM
370
    18
100
AcDbFaceRecord
 10
0.0
 20
0.0
 30
0.0
 70
   128
 71
   -10
 72
     6
 73
    -7
 74
     9
  0
VERTEX
  5
206
330
1F2
100
AcDbEntity
  8
A-GENM
370
    18
100
AcDbFaceRecord
 10
0.0
 20
0.0
 30
0.0
 70
   128
 71
     3
 72
    -4
 73
    12
 74
   -13
  0
VERTEX
  5
207
330
1F2
100
AcDbEntity
  8
A-GENM
370
    18
100
AcDbFaceRecord
 10
0.0
 20
0.0
 30
0.0
 70
   128
 71
    -3
 72
    13
 73
   -14
 74
     2
  0
VERTEX
  5
208
330
1F2
100
AcDbEntity
  8
A-GENM
370
    18
100
AcDbFaceRecord
 10
0.0
 20
0.0
 30
0.0
 70
   128
 71
     8
 72
    -9
 73
     7
  0
VERTEX
  5
209
330
1F2
100
AcDbEntity
  8
A-GENM
370
    18
100
AcDbFaceRecord
 10
0.0
 20
0.0
 30
0.0
 70
   128
 71
    -2
 72
    14
 73
   -15
 74
     1
  0
VERTEX
  5
20A
330
1F2
100
AcDbEntity
  8
A-GENM
370
    18
100
AcDbFaceRecord
 10
0.0
 20
0.0
 30
0.0
 70
   128
 71
    15
 72
    16
 73
    -1
  0
SEQEND
  5
20B
330
1F2
100
AcDbEntity
  8
A-GENM
370
    18
  0
POLYLINE
  5
20C
330
B4
100
AcDbEntity
  8
A-GENM
370
    18
100
AcDbPolyFaceMesh
 66
     1
 10
0.0
 20
0.0
 30
0.0
 70
    64
 71
     4
 72
     1
1001
REVIT
1002
{
1070
     4
1000
14732
1002
}
  0
VERTEX
  5
20D
330
20C
100
AcDbEntity
  8
A-GENM
370
    18
100
AcDbVertex
100
AcDbPolyFaceMeshVertex
 10
26.46828584074974
 20
-9.000000250339509
 30
65.01110719442367
 70
   192
  0
VERTEX
  5
20E
330
20C
100
AcDbEntity
  8
A-GENM
370
    18
100
AcDbVertex
100
AcDbPolyFaceMeshVertex
 10
26.46828584074974
 20
-7.999999970197677
 30
65.01110719442367
 70
   192
  0
VERTEX
  5
20F
330
20C
100
AcDbEntity
  8
A-GENM
370
    18
100
AcDbVertex
100
AcDbPolyFaceMeshVertex
 10
24.66828442811966
 20
-7.999999970197677
 30
64.4711101770401
 70
   192
  0
VERTEX
  5
210
330
20C
100
AcDbEntity
  8
A-GENM
370
    18
100
AcDbVertex
100
AcDbPolyFaceMeshVertex
 10
24.66828442811966
 20
-9.000000250339509
 30
64.4711101770401
 70
   192
  0
VERTEX
  5
211
330
20C
100
AcDbEntity
  8
A-GENM
370
    18
100
AcDbFaceRecord
 10
0.0
 20
0.0
 30
0.0
 70
   128
 71
     1
 72
     2
 73
     3
 74
     4
  0
SEQEND
  5
212
330
20C
100
AcDbEntity
  8
A-GENM
370
    18
  0
POLYLINE
  5
213
330
B4
100
AcDbEntity
  8
A-GENM
370
    18
100
AcDbPolyFaceMesh
 66
     1
 10
0.0
 20
0.0
 30
0.0
 70
    64
 71
     4
 72
     1
1001
REVIT
1002
{
1070
     4
1000
14732
1002
}
  0
VERTEX
  5
214
330
213
100
AcDbEntity
  8
A-GENM
370
    18
100
AcDbVertex
100
AcDbPolyFaceMeshVertex
 10
24.66828442811966
 20
-9.000000250339509
 30
64.4711101770401
 70
   192
  0
VERTEX
  5
215
330
213
100
AcDbEntity
  8
A-GENM
370
    18
100
AcDbVertex
100
AcDbPolyFaceMeshVertex
 10
24.66828442811966
 20
-7.999999970197677
 30
64.4711101770401
 70
   192
  0
VERTEX
  5
216
330
213
100
AcDbEntity
  8
A-GENM
370
    18
100
AcDbVertex
100
AcDbPolyFaceMeshVertex
 10
25.84531559944153
 20
-7.999999970197677
 30
64.2250178217888
 70
   192
  0
VERTEX
  5
217
330
213
100
AcDbEntity
  8
A-GENM
370
    18
100
AcDbVertex
100
AcDbPolyFaceMeshVertex
 10
25.84531559944153
 20
-9.000000250339509
 30
64.2250178217888
 70
   192
  0
VERTEX
  5
218
330
213
100
AcDbEntity
  8
A-GENM
370
    18
100
AcDbFaceRecord
 10
0.0
 20
0.0
 30
0.0
 70
   128
 71
     1
 72
     2
 73
     3
 74
     4
  0
SEQEND
  5
219
330
213
100
AcDbEntity
  8
A-GENM
370
    18
  0
POLYLINE
  5
21A
330
B4
100
AcDbEntity
  8
A-GENM
370
    18
100
AcDbPolyFaceMesh
 66
     1
 10
0.0
 20
0.0
 30
0.0
 70
    64
 71
     4
 72
     1
1001
REVIT
1002
{
1070
     4
1000
14732
1002
}
  0
VERTEX
  5
21B
330
21A
100
AcDbEntity
  8
A-GENM
370
    18
100
AcDbVertex
100
AcDbPolyFaceMeshVertex
 10
25.84531559944153
 20
-9.000000250339509
 30
64.2250178217888
 70
   192
  0
VERTEX
  5
21C
330
21A
100
AcDbEntity
  8
A-GENM
370
    18
100
AcDbVertex
100
AcDbPolyFaceMeshVertex
 10
25.84531559944153
 20
-7.999999970197677
 30
64.2250178217888
 70
   192
  0
VERTEX
  5
21D
330
21A
100
AcDbEntity
  8
A-GENM
370
    18
100
AcDbVertex
100
AcDbPolyFaceMeshVertex
 10
25.51414486169815
 20
-7.999999970197677
 30
63.34892213344573
 70
   192
  0
VERTEX
  5
21E
330
21A
100
AcDbEntity
  8
A-GENM
370
    18
100
AcDbVertex
100
AcDbPolyFaceMeshVertex
 10
25.51414486169815
 20
-9.000000250339509
 30
63.34892213344573
 70
   192
  0
VERTEX
  5
21F
330
21A
100
AcDbEntity
  8
A-GENM
370
    18
100
AcDbFaceRecord
 10
0.0
 20
0.0
 30
0.0
 70
   128
 71
     1
 72
     2
 73
     3
 74
     4
  0
SEQEND
  5
220
330
21A
100
AcDbEntity
  8
A-GENM
370
    18
  0
POLYLINE
  5
221
330
B4
100
AcDbEntity
  8
A-GENM
370
    18
100
AcDbPolyFaceMesh
 66
     1
 10
0.0
 20
0.0
 30
0.0
 70
    64
 71
     4
 72
     1
1001
REVIT
1002
{
1070
     4
1000
14732
1002
}
  0
VERTEX
  5
222
330
221
100
AcDbEntity
  8
A-GENM
370
    18
100
AcDbVertex
100
AcDbPolyFaceMeshVertex
 10
25.51414486169815
 20
-9.000000250339509
 30
63.34892213344573
 70
   192
  0
VERTEX
  5
223
330
221
100
AcDbEntity
  8
A-GENM
370
    18
100
AcDbVertex
100
AcDbPolyFaceMeshVertex
 10
25.51414486169815
 20
-7.999999970197677
 30
63.34892213344573
 70
   192
  0
VERTEX
  5
224
330
221
100
AcDbEntity
  8
A-GENM
370
    18
100
AcDbVertex
100
AcDbPolyFaceMeshVertex
 10
24.6893791615963
 20
-7.999999970197677
 30
63.03110904693603
 70
   192
  0
VERTEX
  5
225
330
221
100
AcDbEntity
  8
A-GENM
370
    18
100
AcDbVertex
100
AcDbPolyFaceMeshVertex
 10
24.6893791615963
 20
-9.000000250339509
 30
63.03110904693603
 70
   192
  0
VERTEX
  5
226
330
221
100
AcDbEntity
  8
A-GENM
370
    18
100
AcDbFaceRecord
 10
0.0
 20
0.0
 30
0.0
 70
   128
 71
     1
 72
     2
 73
     3
 74
     4
  0
SEQEND
  5
227
330
221
100
AcDbEntity
  8
A-GENM
370
    18
  0
POLYLINE
  5
228
330
B4
100
AcDbEntity
  8
A-GENM
370
    18
100
AcDbPolyFaceMesh
 66
     1
 10
0.0
 20
0.0
 30
0.0
 70
    64
 71
     4
 72
     1
1001
REVIT
1002
{
1070
     4
1000
14732
1002
}
  0
VERTEX
  5
229
330
228
100
AcDbEntity
  8
A-GENM
370
    18
100
AcDbVertex
100
AcDbPolyFaceMeshVertex
 10
24.6893791615963
 20
-9.000000250339509
 30
63.03110904693603
 70
   192
  0
VERTEX
  5
22A
330
228
100
AcDbEntity
  8
A-GENM
370
    18
100
AcDbVertex
100
AcDbPolyFaceMeshVertex
 10
24.6893791615963
 20
-7.999999970197677
 30
63.03110904693603
 70
   192
  0
VERTEX
  5
22B
330
228
100
AcDbEntity
  8
A-GENM
370
    18
100
AcDbVertex
100
AcDbPolyFaceMeshVertex
 10
23.68672188520432
 20
-7.999999970197677
 30
63.54017136096954
 70
   192
  0
VERTEX
  5
22C
330
228
100
AcDbEntity
  8
A-GENM
370
    18
100
AcDbVertex
100
AcDbPolyFaceMeshVertex
 10
23.68672188520432
 20
-9.000000250339509
 30
63.54017136096954
 70
   192
  0
VERTEX
  5
22D
330
228
100
AcDbEntity
  8
A-GENM
370
    18
100
AcDbFaceRecord
 10
0.0
 20
0.0
 30
0.0
 70
   128
 71
     1
 72
     2
 73
     3
 74
     4
  0
SEQEND
  5
22E
330
228
100
AcDbEntity
  8
A-GENM
370
    18
  0
POLYLINE
  5
22F
330
B4
100
AcDbEntity
  8
A-GENM
370
    18
100
AcDbPolyFaceMesh
 66
     1
 10
0.0
 20
0.0
 30
0.0
 70
    64
 71
     4
 72
     1
1001
REVIT
1002
{
1070
     4
1000
14732
1002
}
  0
VERTEX
  5
230
330
22F
100
AcDbEntity
  8
A-GENM
370
    18
100
AcDbVertex
100
AcDbPolyFaceMeshVertex
 10
23.68672188520432
 20
-9.000000250339509
 30
63.54017136096954
 70
   192
  0
VERTEX
  5
231
330
22F
100
AcDbEntity
  8
A-GENM
370
    18
100
AcDbVertex
100
AcDbPolyFaceMeshVertex
 10
23.68672188520432
 20
-7.999999970197677
 30
63.54017136096954
 70
   192
  0
VERTEX
  5
232
330
22F
100
AcDbEntity
  8
A-GENM
370
    18
100
AcDbVertex
100
AcDbPolyFaceMeshVertex
 10
23.31828507184983
 20
-7.999999970197677
 30
64.95204920768738
 70
   192
  0
VERTEX
  5
233
330
22F
100
AcDbEntity
  8
A-GENM
370
    18
100
AcDbVertex
100
AcDbPolyFaceMeshVertex
 10
23.31828507184983
 20
-9.000000250339509
 30
64.95204920768738
 70
   192
  0
VERTEX
  5
234
330
22F
100
AcDbEntity
  8
A-GENM
370
    18
100
AcDbFaceRecord
 10
0.0
 20
0.0
 30
0.0
 70
   128
 71
     1
 72
     2
 73
     3
 74
     4
  0
SEQEND
  5
235
330
22F
100
AcDbEntity
  8
A-GENM
370
    18
  0
POLYLINE
  5
236
330
B4
100
AcDbEntity
  8
A-GENM
370
    18
100
AcDbPolyFaceMesh
 66
     1
 10
0.0
 20
0.0
 30
0.0
 70
    64
 71
     4
 72
     1
1001
REVIT
1002
{
1070
     4
1000
14732
1002
}
  0
VERTEX
  5
237
330
236
100
AcDbEntity
  8
A-GENM
370
    18
100
AcDbVertex
100
AcDbPolyFaceMeshVertex
 10
23.31828507184983
 20
-9.000000250339509
 30
64.95204920768738
 70
   192
  0
VERTEX
  5
238
330
236
100
AcDbEntity
  8
A-GENM
370
    18
100
AcDbVertex
100
AcDbPolyFaceMeshVertex
 10
23.31828507184983
 20
-7.999999970197677
 30
64.95204920768738
 70
   192
  0
VERTEX
  5
239
330
236
100
AcDbEntity
  8
A-GENM
370
    18
100
AcDbVertex
100
AcDbPolyFaceMeshVertex
 10
23.64734838008881
 20
-7.999999970197677
 30
66.34564146995545
 70
   192
  0
VERTEX
  5
23A
330
236
100
AcDbEntity
  8
A-GENM
370
    18
100
AcDbVertex
100
AcDbPolyFaceMeshVertex
 10
23.64734838008881
 20
-9.000000250339509
 30
66.34564146995545
 70
   192
  0
VERTEX
  5
23B
330
236
100
AcDbEntity
  8
A-GENM
370
    18
100
AcDbFaceRecord
 10
0.0
 20
0.0
 30
0.0
 70
   128
 71
     1
 72
     2
 73
     3
 74
     4
  0
SEQEND
  5
23C
330
236
100
AcDbEntity
  8
A-GENM
370
    18
  0
POLYLINE
  5
23D
330
B4
100
AcDbEntity
  8
A-GENM
370
    18
100
AcDbPolyFaceMesh
 66
     1
 10
0.0
 20
0.0
 30
0.0
 70
    64
 71
     4
 72
     1
1001
REVIT
1002
{
1070
     4
1000
14732
1002
}
  0
VERTEX
  5
23E
330
23D
100
AcDbEntity
  8
A-GENM
370
    18
100
AcDbVertex
100
AcDbPolyFaceMeshVertex
 10
23.64734838008881
 20
-9.000000250339509
 30
66.34564146995545
 70
   192
  0
VERTEX
  5
23F
330
23D
100
AcDbEntity
  8
A-GENM
370
    18
100
AcDbVertex
100
AcDbPolyFaceMeshVertex
 10
23.64734838008881
 20
-7.999999970197677
 30
66.34564146995545
 70
   192
  0
VERTEX
  5
240
330
23D
100
AcDbEntity
  8
A-GENM
370
    18
100
AcDbVertex
100
AcDbPolyFaceMeshVertex
 10
25.38969070315361
 20
-7.999999970197677
 30
66.66556198596954
 70
   192
  0
VERTEX
  5
241
330
23D
100
AcDbEntity
  8
A-GENM
370
    18
100
AcDbVertex
100
AcDbPolyFaceMeshVertex
 10
25.38969070315361
 20
-9.000000250339509
 30
66.66556198596954
 70
   192
  0
VERTEX
  5
242
330
23D
100
AcDbEntity
  8
A-GENM
370
    18
100
AcDbFaceRecord
 10
0.0
 20
0.0
 30
0.0
 70
   128
 71
     1
 72
     2
 73
     3
 74
     4
  0
SEQEND
  5
243
330
23D
100
AcDbEntity
  8
A-GENM
370
    18
  0
POLYLINE
  5
244
330
B4
100
AcDbEntity
  8
A-GENM
370
    18
100
AcDbPolyFaceMesh
 66
     1
 10
0.0
 20
0.0
 30
0.0
 70
    64
 71
     4
 72
     1
1001
REVIT
1002
{
1070
     4
1000
14732
1002
}
  0
VERTEX
  5
245
330
244
100
AcDbEntity
  8
A-GENM
370
    18
100
AcDbVertex
100
AcDbPolyFaceMeshVertex
 10
25.38969070315361
 20
-9.000000250339509
 30
66.66556198596954
 70
   192
  0
VERTEX
  5
246
330
244
100
AcDbEntity
  8
A-GENM
370
    18
100
AcDbVertex
100
AcDbPolyFaceMeshVertex
 10
25.38969070315361
 20
-7.999999970197677
 30
66.66556198596954
 70
   192
  0
VERTEX
  5
247
330
244
100
AcDbEntity
  8
A-GENM
370
    18
100
AcDbVertex
100
AcDbPolyFaceMeshVertex
 10
26.37828633785248
 20
-7.999999970197677
 30
66.04610942602157
 70
   192
  0
VERTEX
  5
248
330
244
100
AcDbEntity
  8
A-GENM
370
    18
100
AcDbVertex
100
AcDbPolyFaceMeshVertex
 10
26.37828633785248
 20
-9.000000250339509
 30
66.04610942602157
 70
   192
  0
VERTEX
  5
249
330
244
100
AcDbEntity
  8
A-GENM
370
    18
100
AcDbFaceRecord
 10
0.0
 20
0.0
 30
0.0
 70
   128
 71
     1
 72
     2
 73
     3
 74
     4
  0
SEQEND
  5
24A
330
244
100
AcDbEntity
  8
A-GENM
370
    18
  0
POLYLINE
  5
24B
330
B4
100
AcDbEntity
  8
A-GENM
370
    18
100
AcDbPolyFaceMesh
 66
     1
 10
0.0
 20
0.0
 30
0.0
 70
    64
 71
     4
 72
     1
1001
REVIT
1002
{
1070
     4
1000
14732
1002
}
  0
VERTEX
  5
24C
330
24B
100
AcDbEntity
  8
A-GENM
370
    18
100
AcDbVertex
100
AcDbPolyFaceMeshVertex
 10
26.37828633785248
 20
-9.000000250339509
 30
66.04610942602157
 70
   192
  0
VERTEX
  5
24D
330
24B
100
AcDbEntity
  8
A-GENM
370
    18
100
AcDbVertex
100
AcDbPolyFaceMeshVertex
 10
26.37828633785248
 20
-7.999999970197677
 30
66.04610942602157
 70
   192
  0
VERTEX
  5
24E
330
24B
100
AcDbEntity
  8
A-GENM
370
    18
100
AcDbVertex
100
AcDbPolyFaceMeshVertex
 10
24.7020350933075
 20
-7.999999970197677
 30
67.44110966920853
 70
   192
  0
VERTEX
  5
24F
330
24B
100
AcDbEntity
  8
A-GENM
370
    18
100
AcDbVertex
100
AcDbPolyFaceMeshVertex
 10
24.7020350933075
 20
-9.000000250339509
 30
67.44110966920853
 70
   192
  0
VERTEX
  5
250
330
24B
100
AcDbEntity
  8
A-GENM
370
    18
100
AcDbFaceRecord
 10
0.0
 20
0.0
 30
0.0
 70
   128
 71
     1
 72
     2
 73
     3
 74
     4
  0
SEQEND
  5
251
330
24B
100
AcDbEntity
  8
A-GENM
370
    18
  0
POLYLINE
  5
252
330
B4
100
AcDbEntity
  8
A-GENM
370
    18
100
AcDbPolyFaceMesh
 66
     1
 10
0.0
 20
0.0
 30
0.0
 70
    64
 71
     4
 72
     1
1001
REVIT
1002
{
1070
     4
1000
14732
1002
}
  0
VERTEX
  5
253
330
252
100
AcDbEntity
  8
A-GENM
370
    18
100
AcDbVertex
100
AcDbPolyFaceMeshVertex
 10
24.7020350933075
 20
-9.000000250339509
 30
67.44110966920853
 70
   192
  0
VERTEX
  5
254
330
252
100
AcDbEntity
  8
A-GENM
370
    18
100
AcDbVertex
100
AcDbPolyFaceMeshVertex
 10
24.7020350933075
 20
-7.999999970197677
 30
67.44110966920853
 70
   192
  0
VERTEX
  5
255
330
252
100
AcDbEntity
  8
A-GENM
370
    18
100
AcDbVertex
100
AcDbPolyFaceMeshVertex
 10
23.22969127893448
 20
-7.999999970197677
 30
66.71970112323761
 70
   192
  0
VERTEX
  5
256
330
252
100
AcDbEntity
  8
A-GENM
370
    18
100
AcDbVertex
100
AcDbPolyFaceMeshVertex
 10
23.22969127893448
 20
-9.000000250339509
 30
66.71970112323761
 70
   192
  0
VERTEX
  5
257
330
252
100
AcDbEntity
  8
A-GENM
370
    18
100
AcDbFaceRecord
 10
0.0
 20
0.0
 30
0.0
 70
   128
 71
     1
 72
     2
 73
     3
 74
     4
  0
SEQEND
  5
258
330
252
100
AcDbEntity
  8
A-GENM
370
    18
  0
POLYLINE
  5
259
330
B4
100
AcDbEntity
  8
A-GENM
370
    18
100
AcDbPolyFaceMesh
 66
     1
 10
0.0
 20
0.0
 30
0.0
 70
    64
 71
     4
 72
     1
1001
REVIT
1002
{
1070
     4
1000
14732
1002
}
  0
VERTEX
  5
25A
330
259
100
AcDbEntity
  8
A-GENM
370
    18
100
AcDbVertex
100
AcDbPolyFaceMeshVertex
 10
23.22969127893448
 20
-9.000000250339509
 30
66.71970112323761
 70
   192
  0
VERTEX
  5
25B
330
259
100
AcDbEntity
  8
A-GENM
370
    18
100
AcDbVertex
100
AcDbPolyFaceMeshVertex
 10
23.22969127893448
 20
-7.999999970197677
 30
66.71970112323761
 70
   192
  0
VERTEX
  5
25C
330
259
100
AcDbEntity
  8
A-GENM
370
    18
100
AcDbVertex
100
AcDbPolyFaceMeshVertex
 10
22.68828628063202
 20
-7.999999970197677
 30
64.91689056158065
 70
   192
  0
VERTEX
  5
25D
330
259
100
AcDbEntity
  8
A-GENM
370
    18
100
AcDbVertex
100
AcDbPolyFaceMeshVertex
 10
22.68828628063202
 20
-9.000000250339509
 30
64.91689056158065
 70
   192
  0
VERTEX
  5
25E
330
259
100
AcDbEntity
  8
A-GENM
370
    18
100
AcDbFaceRecord
 10
0.0
 20
0.0
 30
0.0
 70
   128
 71
     1
 72
     2
 73
     3
 74
     4
  0
SEQEND
  5
25F
330
259
100
AcDbEntity
  8
A-GENM
370
    18
  0
POLYLINE
  5
260
330
B4
100
AcDbEntity
  8
A-GENM
370
    18
100
AcDbPolyFaceMesh
 66
     1
 10
0.0
 20
0.0
 30
0.0
 70
    64
 71
     4
 72
     1
1001
REVIT
1002
{
1070
     4
1000
14732
1002
}
  0
VERTEX
  5
261
330
260
100
AcDbEntity
  8
A-GENM
370
    18
100
AcDbVertex
100
AcDbPolyFaceMeshVertex
 10
22.68828628063202
 20
-9.000000250339509
 30
64.91689056158065
 70
   192
  0
VERTEX
  5
262
330
260
100
AcDbEntity
  8
A-GENM
370
    18
100
AcDbVertex
100
AcDbPolyFaceMeshVertex
 10
22.68828628063202
 20
-7.999999970197677
 30
64.91689056158065
 70
   192
  0
VERTEX
  5
263
330
260
100
AcDbEntity
  8
A-GENM
370
    18
100
AcDbVertex
100
AcDbPolyFaceMeshVertex
 10
23.19523889422417
 20
-7.999999970197677
 30
63.19845439195633
 70
   192
  0
VERTEX
  5
264
330
260
100
AcDbEntity
  8
A-GENM
370
    18
100
AcDbVertex
100
AcDbPolyFaceMeshVertex
 10
23.19523889422417
 20
-9.000000250339509
 30
63.19845439195633
 70
   192
  0
VERTEX
  5
265
330
260
100
AcDbEntity
  8
A-GENM
370
    18
100
AcDbFaceRecord
 10
0.0
 20
0.0
 30
0.0
 70
   128
 71
     1
 72
     2
 73
     3
 74
     4
  0
SEQEND
  5
266
330
260
100
AcDbEntity
  8
A-GENM
370
    18
  0
POLYLINE
  5
267
330
B4
100
AcDbEntity
  8
A-GENM
370
    18
100
AcDbPolyFaceMesh
 66
     1
 10
0.0
 20
0.0
 30
0.0
 70
    64
 71
     4
 72
     1
1001
REVIT
1002
{
1070
     4
1000
14732
1002
}
  0
VERTEX
  5
268
330
267
100
AcDbEntity
  8
A-GENM
370
    18
100
AcDbVertex
100
AcDbPolyFaceMeshVertex
 10
23.19523889422417
 20
-9.000000250339509
 30
63.19845439195633
 70
   192
  0
VERTEX
  5
269
330
267
100
AcDbEntity
  8
A-GENM
370
    18
100
AcDbVertex
100
AcDbPolyFaceMeshVertex
 10
23.19523889422417
 20
-7.999999970197677
 30
63.19845439195633
 70
   192
  0
VERTEX
  5
26A
330
267
100
AcDbEntity
  8
A-GENM
370
    18
100
AcDbVertex
100
AcDbPolyFaceMeshVertex
 10
24.61484701037407
 20
-7.999999970197677
 30
62.49110748767853
 70
   192
  0
VERTEX
  5
26B
330
267
100
AcDbEntity
  8
A-GENM
370
    18
100
AcDbVertex
100
AcDbPolyFaceMeshVertex
 10
24.61484701037407
 20
-9.000000250339509
 30
62.49110748767853
 70
   192
  0
VERTEX
  5
26C
330
267
100
AcDbEntity
  8
A-GENM
370
    18
100
AcDbFaceRecord
 10
0.0
 20
0.0
 30
0.0
 70
   128
 71
     1
 72
     2
 73
     3
 74
     4
  0
SEQEND
  5
26D
330
267
100
AcDbEntity
  8
A-GENM
370
    18
  0
POLYLINE
  5
26E
330
B4
100
AcDbEntity
  8
A-GENM
370
    18
100
AcDbPolyFaceMesh
 66
     1
 10
0.0
 20
0.0
 30
0.0
 70
    64
 71
     4
 72
     1
1001
REVIT
1002
{
1070
     4
1000
14732
1002
}
  0
VERTEX
  5
26F
330
26E
100
AcDbEntity
  8
A-GENM
370
    18
100
AcDbVertex
100
AcDbPolyFaceMeshVertex
 10
24.61484701037407
 20
-9.000000250339509
 30
62.49110748767853
 70
   192
  0
VERTEX
  5
270
330
26E
100
AcDbEntity
  8
A-GENM
370
    18
100
AcDbVertex
100
AcDbPolyFaceMeshVertex
 10
24.61484701037407
 20
-7.999999970197677
 30
62.49110748767853
 70
   192
  0
VERTEX
  5
271
330
26E
100
AcDbEntity
  8
A-GENM
370
    18
100
AcDbVertex
100
AcDbPolyFaceMeshVertex
 10
26.46828584074974
 20
-7.999999970197677
 30
62.49110748767853
 70
   192
  0
VERTEX
  5
272
330
26E
100
AcDbEntity
  8
A-GENM
370
    18
100
AcDbVertex
100
AcDbPolyFaceMeshVertex
 10
26.46828584074974
 20
-9.000000250339509
 30
62.49110748767853
 70
   192
  0
VERTEX
  5
273
330
26E
100
AcDbEntity
  8
A-GENM
370
    18
100
AcDbFaceRecord
 10
0.0
 20
0.0
 30
0.0
 70
   128
 71
     1
 72
     2
 73
     3
 74
     4
  0
SEQEND
  5
274
330
26E
100
AcDbEntity
  8
A-GENM
370
    18
  0
POLYLINE
  5
275
330
B4
100
AcDbEntity
  8
A-GENM
370
    18
100
AcDbPolyFaceMesh
 66
     1
 10
0.0
 20
0.0
 30
0.0
 70
    64
 71
     4
 72
     1
1001
REVIT
1002
{
1070
     4
1000
14732
1002
}
  0
VERTEX
  5
276
330
275
100
AcDbEntity
  8
A-GENM
370
    18
100
AcDbVertex
100
AcDbPolyFaceMeshVertex
 10
26.46828584074974
 20
-9.000000250339509
 30
62.49110748767853
 70
   192
  0
VERTEX
  5
277
330
275
100
AcDbEntity
  8
A-GENM
370
    18
100
AcDbVertex
100
AcDbPolyFaceMeshVertex
 10
26.46828584074974
 20
-7.999999970197677
 30
62.49110748767853
 70
   192
  0
VERTEX
  5
278
330
275
100
AcDbEntity
  8
A-GENM
370
    18
100
AcDbVertex
100
AcDbPolyFaceMeshVertex
 10
26.46828584074974
 20
-7.999999970197677
 30
65.01110719442367
 70
   192
  0
VERTEX
  5
279
330
275
100
AcDbEntity
  8
A-GENM
370
    18
100
AcDbVertex
100
AcDbPolyFaceMeshVertex
 10
26.46828584074974
 20
-9.000000250339509
 30
65.01110719442367
 70
   192
  0
VERTEX
  5
27A
330
275
100
AcDbEntity
  8
A-GENM
370
    18
100
AcDbFaceRecord
 10
0.0
 20
0.0
 30
0.0
 70
   128
 71
     1
 72
     2
 73
     3
 74
     4
  0
SEQEND
  5
27B
330
275
100
AcDbEntity
  8
A-GENM
370
    18
  0
POLYLINE
  5
27C
330
B4
100
AcDbEntity
  8
A-GENM
370
    18
100
AcDbPolyFaceMesh
 66
     1
 10
0.0
 20
0.0
 30
0.0
 70
    64
 71
     9
 72
     5
1001
REVIT
1002
{
1070
     4
1000
14732
1002
}
  0
VERTEX
  5
27D
330
27C
100
AcDbEntity
  8
A-GENM
370
    18
100
AcDbVertex
100
AcDbPolyFaceMeshVertex
 10
30.60828568339348
 20
-9.000000250339509
 30
63.12111082077027
 70
   192
  0
VERTEX
  5
27E
330
27C
100
AcDbEntity
  8
A-GENM
370
    18
100
AcDbVertex
100
AcDbPolyFaceMeshVertex
 10
28.26828498244286
 20
-9.000000250339509
 30
63.12111082077027
 70
   192
  0
VERTEX
  5
27F
330
27C
100
AcDbEntity
  8
A-GENM
370
    18
100
AcDbVertex
100
AcDbPolyFaceMeshVertex
 10
28.26828498244286
 20
-9.000000250339509
 30
64.83110818862916
 70
   192
  0
VERTEX
  5
280
330
27C
100
AcDbEntity
  8
A-GENM
370
    18
100
AcDbVertex
100
AcDbPolyFaceMeshVertex
 10
30.06828639507294
 20
-9.000000250339509
 30
65.37110974788666
 70
   192
  0
VERTEX
  5
281
330
27C
100
AcDbEntity
  8
A-GENM
370
    18
100
AcDbVertex
100
AcDbPolyFaceMeshVertex
 10
28.26828498244286
 20
-9.000000250339509
 30
65.37110974788666
 70
   192
  0
VERTEX
  5
282
330
27C
100
AcDbEntity
  8
A-GENM
370
    18
100
AcDbVertex
100
AcDbPolyFaceMeshVertex
 10
28.26828498244286
 20
-9.000000250339509
 30
66.81111087799073
 70
   192
  0
VERTEX
  5
283
330
27C
100
AcDbEntity
  8
A-GENM
370
    18
100
AcDbVertex
100
AcDbPolyFaceMeshVertex
 10
30.51828618049622
 20
-9.000000250339509
 30
67.35110789537429
 70
   192
  0
VERTEX
  5
284
330
27C
100
AcDbEntity
  8
A-GENM
370
    18
100
AcDbVertex
100
AcDbPolyFaceMeshVertex
 10
27.63828619122505
 20
-9.000000250339509
 30
67.35110789537429
 70
   192
  0
VERTEX
  5
285
330
27C
100
AcDbEntity
  8
A-GENM
370
    18
100
AcDbVertex
100
AcDbPolyFaceMeshVertex
 10
27.63828619122505
 20
-9.000000250339509
 30
62.58110926151275
 70
   192
  0
VERTEX
  5
286
330
27C
100
AcDbEntity
  8
A-GENM
370
    18
100
AcDbFaceRecord
 10
0.0
 20
0.0
 30
0.0
 70
   128
 71
     3
 72
     4
 73
    -5
  0
VERTEX
  5
287
330
27C
100
AcDbEntity
  8
A-GENM
370
    18
100
AcDbFaceRecord
 10
0.0
 20
0.0
 30
0.0
 70
   128
 71
     5
 72
    -6
 73
    -8
 74
    -3
  0
VERTEX
  5
288
330
27C
100
AcDbEntity
  8
A-GENM
370
    18
100
AcDbFaceRecord
 10
0.0
 20
0.0
 30
0.0
 70
   128
 71
    -8
 72
     6
 73
     7
  0
VERTEX
  5
289
330
27C
100
AcDbEntity
  8
A-GENM
370
    18
100
AcDbFaceRecord
 10
0.0
 20
0.0
 30
0.0
 70
   128
 71
    -9
 72
     2
 73
    -3
 74
     8
  0
VERTEX
  5
28A
330
27C
100
AcDbEntity
  8
A-GENM
370
    18
100
AcDbFaceRecord
 10
0.0
 20
0.0
 30
0.0
 70
   128
 71
    -2
 72
     9
 73
     1
  0
SEQEND
  5
28B
330
27C
100
AcDbEntity
  8
A-GENM
370
    18
  0
POLYLINE
  5
28C
330
B4
100
AcDbEntity
  8
A-GENM
370
    18
100
AcDbPolyFaceMesh
 66
     1
 10
0.0
 20
0.0
 30
0.0
 70
    64
 71
     9
 72
     5
1001
REVIT
1002
{
1070
     4
1000
14732
1002
}
  0
VERTEX
  5
28D
330
28C
100
AcDbEntity
  8
A-GENM
370
    18
100
AcDbVertex
100
AcDbPolyFaceMeshVertex
 10
30.60828568339348
 20
-7.999999970197677
 30
63.12111082077027
 70
   192
  0
VERTEX
  5
28E
330
28C
100
AcDbEntity
  8
A-GENM
370
    18
100
AcDbVertex
100
AcDbPolyFaceMeshVertex
 10
27.63828619122505
 20
-7.999999970197677
 30
62.58110926151275
 70
   192
  0
VERTEX
  5
28F
330
28C
100
AcDbEntity
  8
A-GENM
370
    18
100
AcDbVertex
100
AcDbPolyFaceMeshVertex
 10
27.63828619122505
 20
-7.999999970197677
 30
67.35110789537429
 70
   192
  0
VERTEX
  5
290
330
28C
100
AcDbEntity
  8
A-GENM
370
    18
100
AcDbVertex
100
AcDbPolyFaceMeshVertex
 10
30.51828618049622
 20
-7.999999970197677
 30
67.35110789537429
 70
   192
  0
VERTEX
  5
291
330
28C
100
AcDbEntity
  8
A-GENM
370
    18
100
AcDbVertex
100
AcDbPolyFaceMeshVertex
 10
28.26828498244286
 20
-7.999999970197677
 30
66.81111087799073
 70
   192
  0
VERTEX
  5
292
330
28C
100
AcDbEntity
  8
A-GENM
370
    18
100
AcDbVertex
100
AcDbPolyFaceMeshVertex
 10
28.26828498244286
 20
-7.999999970197677
 30
65.37110974788666
 70
   192
  0
VERTEX
  5
293
330
28C
100
AcDbEntity
  8
A-GENM
370
    18
100
AcDbVertex
100
AcDbPolyFaceMeshVertex
 10
30.06828639507294
 20
-7.999999970197677
 30
65.37110974788666
 70
   192
  0
VERTEX
  5
294
330
28C
100
AcDbEntity
  8
A-GENM
370
    18
100
AcDbVertex
100
AcDbPolyFaceMeshVertex
 10
28.26828498244286
 20
-7.999999970197677
 30
64.83110818862916
 70
   192
  0
VERTEX
  5
295
330
28C
100
AcDbEntity
  8
A-GENM
370
    18
100
AcDbVertex
100
AcDbPolyFaceMeshVertex
 10
28.26828498244286
 20
-7.999999970197677
 30
63.12111082077027
 70
   192
  0
VERTEX
  5
296
330
28C
100
AcDbEntity
  8
A-GENM
370
    18
100
AcDbFaceRecord
 10
0.0
 20
0.0
 30
0.0
 70
   128
 71
     2
 72
    -3
 73
     8
 74
    -9
  0
VERTEX
  5
297
330
28C
100
AcDbEntity
  8
A-GENM
370
    18
100
AcDbFaceRecord
 10
0.0
 20
0.0
 30
0.0
 70
   128
 71
    -5
 72
     3
 73
     4
  0
VERTEX
  5
298
330
28C
100
AcDbEntity
  8
A-GENM
370
    18
100
AcDbFaceRecord
 10
0.0
 20
0.0
 30
0.0
 70
   128
 71
    -2
 72
     9
 73
     1
  0
VERTEX
  5
299
330
28C
100
AcDbEntity
  8
A-GENM
370
    18
100
AcDbFaceRecord
 10
0.0
 20
0.0
 30
0.0
 70
   128
 71
    -3
 72
     5
 73
    -6
 74
    -8
  0
VERTEX
  5
29A
330
28C
100
AcDbEntity
  8
A-GENM
370
    18
100
AcDbFaceRecord
 10
0.0
 20
0.0
 30
0.0
 70
   128
 71
     7
 72
    -8
 73
     6
  0
SEQEND
  5
29B
330
28C
100
AcDbEntity
  8
A-GENM
370
    18
  0
POLYLINE
  5
29C
330
B4
100
AcDbEntity
  8
A-GENM
370
    18
100
AcDbPolyFaceMesh
 66
     1
 10
0.0
 20
0.0
 30
0.0
 70
    64
 71
     4
 72
     1
1001
REVIT
1002
{
1070
     4
1000
14732
1002
}
  0
VERTEX
  5
29D
330
29C
100
AcDbEntity
  8
A-GENM
370
    18
100
AcDbVertex
100
AcDbPolyFaceMeshVertex
 10
30.60828568339348
 20
-9.000000250339509
 30
63.12111082077027
 70
   192
  0
VERTEX
  5
29E
330
29C
100
AcDbEntity
  8
A-GENM
370
    18
100
AcDbVertex
100
AcDbPolyFaceMeshVertex
 10
30.60828568339348
 20
-7.999999970197677
 30
63.12111082077027
 70
   192
  0
VERTEX
  5
29F
330
29C
100
AcDbEntity
  8
A-GENM
370
    18
100
AcDbVertex
100
AcDbPolyFaceMeshVertex
 10
28.26828498244286
 20
-7.999999970197677
 30
63.12111082077027
 70
   192
  0
VERTEX
  5
2A0
330
29C
100
AcDbEntity
  8
A-GENM
370
    18
100
AcDbVertex
100
AcDbPolyFaceMeshVertex
 10
28.26828498244286
 20
-9.000000250339509
 30
63.12111082077027
 70
   192
  0
VERTEX
  5
2A1
330
29C
100
AcDbEntity
  8
A-GENM
370
    18
100
AcDbFaceRecord
 10
0.0
 20
0.0
 30
0.0
 70
   128
 71
     1
 72
     2
 73
     3
 74
     4
  0
SEQEND
  5
2A2
330
29C
100
AcDbEntity
  8
A-GENM
370
    18
  0
POLYLINE
  5
2A3
330
B4
100
AcDbEntity
  8
A-GENM
370
    18
100
AcDbPolyFaceMesh
 66
     1
 10
0.0
 20
0.0
 30
0.0
 70
    64
 71
     4
 72
     1
1001
REVIT
1002
{
1070
     4
1000
14732
1002
}
  0
VERTEX
  5
2A4
330
2A3
100
AcDbEntity
  8
A-GENM
370
    18
100
AcDbVertex
100
AcDbPolyFaceMeshVertex
 10
28.26828498244286
 20
-9.000000250339509
 30
63.12111082077027
 70
   192
  0
VERTEX
  5
2A5
330
2A3
100
AcDbEntity
  8
A-GENM
370
    18
100
AcDbVertex
100
AcDbPolyFaceMeshVertex
 10
28.26828498244286
 20
-7.999999970197677
 30
63.12111082077027
 70
   192
  0
VERTEX
  5
2A6
330
2A3
100
AcDbEntity
  8
A-GENM
370
    18
100
AcDbVertex
100
AcDbPolyFaceMeshVertex
 10
28.26828498244286
 20
-7.999999970197677
 30
64.83110818862916
 70
   192
  0
VERTEX
  5
2A7
330
2A3
100
AcDbEntity
  8
A-GENM
370
    18
100
AcDbVertex
100
AcDbPolyFaceMeshVertex
 10
28.26828498244286
 20
-9.000000250339509
 30
64.83110818862916
 70
   192
  0
VERTEX
  5
2A8
330
2A3
100
AcDbEntity
  8
A-GENM
370
    18
100
AcDbFaceRecord
 10
0.0
 20
0.0
 30
0.0
 70
   128
 71
     1
 72
     2
 73
     3
 74
     4
  0
SEQEND
  5
2A9
330
2A3
100
AcDbEntity
  8
A-GENM
370
    18
  0
POLYLINE
  5
2AA
330
B4
100
AcDbEntity
  8
A-GENM
370
    18
100
AcDbPolyFaceMesh
 66
     1
 10
0.0
 20
0.0
 30
0.0
 70
    64
 71
     4
 72
     1
1001
REVIT
1002
{
1070
     4
1000
14732
1002
}
  0
VERTEX
  5
2AB
330
2AA
100
AcDbEntity
  8
A-GENM
370
    18
100
AcDbVertex
100
AcDbPolyFaceMeshVertex
 10
28.26828498244286
 20
-9.000000250339509
 30
64.83110818862916
 70
   192
  0
VERTEX
  5
2AC
330
2AA
100
AcDbEntity
  8
A-GENM
370
    18
100
AcDbVertex
100
AcDbPolyFaceMeshVertex
 10
28.26828498244286
 20
-7.999999970197677
 30
64.83110818862916
 70
   192
  0
VERTEX
  5
2AD
330
2AA
100
AcDbEntity
  8
A-GENM
370
    18
100
AcDbVertex
100
AcDbPolyFaceMeshVertex
 10
30.06828639507294
 20
-7.999999970197677
 30
65.37110974788666
 70
   192
  0
VERTEX
  5
2AE
330
2AA
100
AcDbEntity
  8
A-GENM
370
    18
100
AcDbVertex
100
AcDbPolyFaceMeshVertex
 10
30.06828639507294
 20
-9.000000250339509
 30
65.37110974788666
 70
   192
  0
VERTEX
  5
2AF
330
2AA
100
AcDbEntity
  8
A-GENM
370
    18
100
AcDbFaceRecord
 10
0.0
 20
0.0
 30
0.0
 70
   128
 71
     1
 72
     2
 73
     3
 74
     4
  0
SEQEND
  5
2B0
330
2AA
100
AcDbEntity
  8
A-GENM
370
    18
  0
POLYLINE
  5
2B1
330
B4
100
AcDbEntity
  8
A-GENM
370
    18
100
AcDbPolyFaceMesh
 66
     1
 10
0.0
 20
0.0
 30
0.0
 70
    64
 71
     4
 72
     1
1001
REVIT
1002
{
1070
     4
1000
14732
1002
}
  0
VERTEX
  5
2B2
330
2B1
100
AcDbEntity
  8
A-GENM
370
    18
100
AcDbVertex
100
AcDbPolyFaceMeshVertex
 10
30.06828639507294
 20
-9.000000250339509
 30
65.37110974788666
 70
   192
  0
VERTEX
  5
2B3
330
2B1
100
AcDbEntity
  8
A-GENM
370
    18
100
AcDbVertex
100
AcDbPolyFaceMeshVertex
 10
30.06828639507294
 20
-7.999999970197677
 30
65.37110974788666
 70
   192
  0
VERTEX
  5
2B4
330
2B1
100
AcDbEntity
  8
A-GENM
370
    18
100
AcDbVertex
100
AcDbPolyFaceMeshVertex
 10
28.26828498244286
 20
-7.999999970197677
 30
65.37110974788666
 70
   192
  0
VERTEX
  5
2B5
330
2B1
100
AcDbEntity
  8
A-GENM
370
    18
100
AcDbVertex
100
AcDbPolyFaceMeshVertex
 10
28.26828498244286
 20
-9.000000250339509
 30
65.37110974788666
 70
   192
  0
VERTEX
  5
2B6
330
2B1
100
AcDbEntity
  8
A-GENM
370
    18
100
AcDbFaceRecord
 10
0.0
 20
0.0
 30
0.0
 70
   128
 71
     1
 72
     2
 73
     3
 74
     4
  0
SEQEND
  5
2B7
330
2B1
100
AcDbEntity
  8
A-GENM
370
    18
  0
POLYLINE
  5
2B8
330
B4
100
AcDbEntity
  8
A-GENM
370
    18
100
AcDbPolyFaceMesh
 66
     1
 10
0.0
 20
0.0
 30
0.0
 70
    64
 71
     4
 72
     1
1001
REVIT
1002
{
1070
     4
1000
14732
1002
}
  0
VERTEX
  5
2B9
330
2B8
100
AcDbEntity
  8
A-GENM
370
    18
100
AcDbVertex
100
AcDbPolyFaceMeshVertex
 10
28.26828498244286
 20
-9.000000250339509
 30
65.37110974788666
 70
   192
  0
VERTEX
  5
2BA
330
2B8
100
AcDbEntity
  8
A-GENM
370
    18
100
AcDbVertex
100
AcDbPolyFaceMeshVertex
 10
28.26828498244286
 20
-7.999999970197677
 30
65.37110974788666
 70
   192
  0
VERTEX
  5
2BB
330
2B8
100
AcDbEntity
  8
A-GENM
370
    18
100
AcDbVertex
100
AcDbPolyFaceMeshVertex
 10
28.26828498244286
 20
-7.999999970197677
 30
66.81111087799073
 70
   192
  0
VERTEX
  5
2BC
330
2B8
100
AcDbEntity
  8
A-GENM
370
    18
100
AcDbVertex
100
AcDbPolyFaceMeshVertex
 10
28.26828498244286
 20
-9.000000250339509
 30
66.81111087799073
 70
   192
  0
VERTEX
  5
2BD
330
2B8
100
AcDbEntity
  8
A-GENM
370
    18
100
AcDbFaceRecord
 10
0.0
 20
0.0
 30
0.0
 70
   128
 71
     1
 72
     2
 73
     3
 74
     4
  0
SEQEND
  5
2BE
330
2B8
100
AcDbEntity
  8
A-GENM
370
    18
  0
POLYLINE
  5
2BF
330
B4
100
AcDbEntity
  8
A-GENM
370
    18
100
AcDbPolyFaceMesh
 66
     1
 10
0.0
 20
0.0
 30
0.0
 70
    64
 71
     4
 72
     1
1001
REVIT
1002
{
1070
     4
1000
14732
1002
}
  0
VERTEX
  5
2C0
330
2BF
100
AcDbEntity
  8
A-GENM
370
    18
100
AcDbVertex
100
AcDbPolyFaceMeshVertex
 10
28.26828498244286
 20
-9.000000250339509
 30
66.81111087799073
 70
   192
  0
VERTEX
  5
2C1
330
2BF
100
AcDbEntity
  8
A-GENM
370
    18
100
AcDbVertex
100
AcDbPolyFaceMeshVertex
 10
28.26828498244286
 20
-7.999999970197677
 30
66.81111087799073
 70
   192
  0
VERTEX
  5
2C2
330
2BF
100
AcDbEntity
  8
A-GENM
370
    18
100
AcDbVertex
100
AcDbPolyFaceMeshVertex
 10
30.51828618049622
 20
-7.999999970197677
 30
67.35110789537429
 70
   192
  0
VERTEX
  5
2C3
330
2BF
100
AcDbEntity
  8
A-GENM
370
    18
100
AcDbVertex
100
AcDbPolyFaceMeshVertex
 10
30.51828618049622
 20
-9.000000250339509
 30
67.35110789537429
 70
   192
  0
VERTEX
  5
2C4
330
2BF
100
AcDbEntity
  8
A-GENM
370
    18
100
AcDbFaceRecord
 10
0.0
 20
0.0
 30
0.0
 70
   128
 71
     1
 72
     2
 73
     3
 74
     4
  0
SEQEND
  5
2C5
330
2BF
100
AcDbEntity
  8
A-GENM
370
    18
  0
POLYLINE
  5
2C6
330
B4
100
AcDbEntity
  8
A-GENM
370
    18
100
AcDbPolyFaceMesh
 66
     1
 10
0.0
 20
0.0
 30
0.0
 70
    64
 71
     4
 72
     1
1001
REVIT
1002
{
1070
     4
1000
14732
1002
}
  0
VERTEX
  5
2C7
330
2C6
100
AcDbEntity
  8
A-GENM
370
    18
100
AcDbVertex
100
AcDbPolyFaceMeshVertex
 10
30.51828618049622
 20
-9.000000250339509
 30
67.35110789537429
 70
   192
  0
VERTEX
  5
2C8
330
2C6
100
AcDbEntity
  8
A-GENM
370
    18
100
AcDbVertex
100
AcDbPolyFaceMeshVertex
 10
30.51828618049622
 20
-7.999999970197677
 30
67.35110789537429
 70
   192
  0
VERTEX
  5
2C9
330
2C6
100
AcDbEntity
  8
A-GENM
370
    18
100
AcDbVertex
100
AcDbPolyFaceMeshVertex
 10
27.63828619122505
 20
-7.999999970197677
 30
67.35110789537429
 70
   192
  0
VERTEX
  5
2CA
330
2C6
100
AcDbEntity
  8
A-GENM
370
    18
100
AcDbVertex
100
AcDbPolyFaceMeshVertex
 10
27.63828619122505
 20
-9.000000250339509
 30
67.35110789537429
 70
   192
  0
VERTEX
  5
2CB
330
2C6
100
AcDbEntity
  8
A-GENM
370
    18
100
AcDbFaceRecord
 10
0.0
 20
0.0
 30
0.0
 70
   128
 71
     1
 72
     2
 73
     3
 74
     4
  0
SEQEND
  5
2CC
330
2C6
100
AcDbEntity
  8
A-GENM
370
    18
  0
POLYLINE
  5
2CD
330
B4
100
AcDbEntity
  8
A-GENM
370
    18
100
AcDbPolyFaceMesh
 66
     1
 10
0.0
 20
0.0
 30
0.0
 70
    64
 71
     4
 72
     1
1001
REVIT
1002
{
1070
     4
1000
14732
1002
}
  0
VERTEX
  5
2CE
330
2CD
100
AcDbEntity
  8
A-GENM
370
    18
100
AcDbVertex
100
AcDbPolyFaceMeshVertex
 10
27.63828619122505
 20
-9.000000250339509
 30
67.35110789537429
 70
   192
  0
VERTEX
  5
2CF
330
2CD
100
AcDbEntity
  8
A-GENM
370
    18
100
AcDbVertex
100
AcDbPolyFaceMeshVertex
 10
27.63828619122505
 20
-7.999999970197677
 30
67.35110789537429
 70
   192
  0
VERTEX
  5
2D0
330
2CD
100
AcDbEntity
  8
A-GENM
370
    18
100
AcDbVertex
100
AcDbPolyFaceMeshVertex
 10
27.63828619122505
 20
-7.999999970197677
 30
62.58110926151275
 70
   192
  0
VERTEX
  5
2D1
330
2CD
100
AcDbEntity
  8
A-GENM
370
    18
100
AcDbVertex
100
AcDbPolyFaceMeshVertex
 10
27.63828619122505
 20
-9.000000250339509
 30
62.58110926151275
 70
   192
  0
VERTEX
  5
2D2
330
2CD
100
AcDbEntity
  8
A-GENM
370
    18
100
AcDbFaceRecord
 10
0.0
 20
0.0
 30
0.0
 70
   128
 71
     1
 72
     2
 73
     3
 74
     4
  0
SEQEND
  5
2D3
330
2CD
100
AcDbEntity
  8
A-GENM
370
    18
  0
POLYLINE
  5
2D4
330
B4
100
AcDbEntity
  8
A-GENM
370
    18
100
AcDbPolyFaceMesh
 66
     1
 10
0.0
 20
0.0
 30
0.0
 70
    64
 71
     4
 72
     1
1001
REVIT
1002
{
1070
     4
1000
14732
1002
}
  0
VERTEX
  5
2D5
330
2D4
100
AcDbEntity
  8
A-GENM
370
    18
100
AcDbVertex
100
AcDbPolyFaceMeshVertex
 10
27.63828619122505
 20
-9.000000250339509
 30
62.58110926151275
 70
   192
  0
VERTEX
  5
2D6
330
2D4
100
AcDbEntity
  8
A-GENM
370
    18
100
AcDbVertex
100
AcDbPolyFaceMeshVertex
 10
27.63828619122505
 20
-7.999999970197677
 30
62.58110926151275
 70
   192
  0
VERTEX
  5
2D7
330
2D4
100
AcDbEntity
  8
A-GENM
370
    18
100
AcDbVertex
100
AcDbPolyFaceMeshVertex
 10
30.60828568339348
 20
-7.999999970197677
 30
63.12111082077027
 70
   192
  0
VERTEX
  5
2D8
330
2D4
100
AcDbEntity
  8
A-GENM
370
    18
100
AcDbVertex
100
AcDbPolyFaceMeshVertex
 10
30.60828568339348
 20
-9.000000250339509
 30
63.12111082077027
 70
   192
  0
VERTEX
  5
2D9
330
2D4
100
AcDbEntity
  8
A-GENM
370
    18
100
AcDbFaceRecord
 10
0.0
 20
0.0
 30
0.0
 70
   128
 71
     1
 72
     2
 73
     3
 74
     4
  0
SEQEND
  5
2DA
330
2D4
100
AcDbEntity
  8
A-GENM
370
    18
  0
POLYLINE
  5
2DB
330
B4
100
AcDbEntity
  8
A-GENM
370
    18
100
AcDbPolyFaceMesh
 66
     1
 10
0.0
 20
0.0
 30
0.0
 70
    64
 71
    17
 72
    11
1001
REVIT
1002
{
1070
     4
1000
14732
1002
}
  0
VERTEX
  5
2DC
330
2DB
100
AcDbEntity
  8
A-GENM
370
    18
100
AcDbVertex
100
AcDbPolyFaceMeshVertex
 10
31.50828525424004
 20
-9.000000250339509
 30
62.58110926151275
 70
   192
  0
VERTEX
  5
2DD
330
2DB
100
AcDbEntity
  8
A-GENM
370
    18
100
AcDbVertex
100
AcDbPolyFaceMeshVertex
 10
33.3870359480381
 20
-9.000000250339509
 30
62.58110926151275
 70
   192
  0
VERTEX
  5
2DE
330
2DB
100
AcDbEntity
  8
A-GENM
370
    18
100
AcDbVertex
100
AcDbPolyFaceMeshVertex
 10
34.55070719718933
 20
-9.000000250339509
 30
62.96501569747925
 70
   192
  0
VERTEX
  5
2DF
330
2DB
100
AcDbEntity
  8
A-GENM
370
    18
100
AcDbVertex
100
AcDbPolyFaceMeshVertex
 10
34.92828453183174
 20
-9.000000250339509
 30
63.91845495700836
 70
   192
  0
VERTEX
  5
2E0
330
2DB
100
AcDbEntity
  8
A-GENM
370
    18
100
AcDbVertex
100
AcDbPolyFaceMeshVertex
 10
34.66812826395035
 20
-9.000000250339509
 30
64.67923246622085
 70
   192
  0
VERTEX
  5
2E1
330
2DB
100
AcDbEntity
  8
A-GENM
370
    18
100
AcDbVertex
100
AcDbPolyFaceMeshVertex
 10
33.90875419378281
 20
-9.000000250339509
 30
65.14610985517503
 70
   192
  0
VERTEX
  5
2E2
330
2DB
100
AcDbEntity
  8
A-GENM
370
    18
100
AcDbVertex
100
AcDbPolyFaceMeshVertex
 10
34.74828552603721
 20
-9.000000250339509
 30
66.20782738924027
 70
   192
  0
VERTEX
  5
2E3
330
2DB
100
AcDbEntity
  8
A-GENM
370
    18
100
AcDbVertex
100
AcDbPolyFaceMeshVertex
 10
34.40937997698784
 20
-9.000000250339509
 30
67.00657950639724
 70
   192
  0
VERTEX
  5
2E4
330
2DB
100
AcDbEntity
  8
A-GENM
370
    18
100
AcDbVertex
100
AcDbPolyFaceMeshVertex
 10
33.36734692454339
 20
-9.000000250339509
 30
67.35110789537429
 70
   192
  0
VERTEX
  5
2E5
330
2DB
100
AcDbEntity
  8
A-GENM
370
    18
100
AcDbVertex
100
AcDbPolyFaceMeshVertex
 10
31.50828525424004
 20
-9.000000250339509
 30
67.35110789537429
 70
   192
  0
VERTEX
  5
2E6
330
2DB
100
AcDbEntity
  8
A-GENM
370
    18
100
AcDbVertex
100
AcDbPolyFaceMeshVertex
 10
32.13828631639481
 20
-9.000000250339509
 30
65.37110974788666
 70
   192
  0
VERTEX
  5
2E7
330
2DB
100
AcDbEntity
  8
A-GENM
370
    18
100
AcDbVertex
100
AcDbPolyFaceMeshVertex
 10
32.13828631639481
 20
-9.000000250339509
 30
66.81111087799073
 70
   192
  0
VERTEX
  5
2E8
330
2DB
100
AcDbEntity
  8
A-GENM
370
    18
100
AcDbVertex
100
AcDbPolyFaceMeshVertex
 10
33.91578501462936
 20
-9.000000250339509
 30
65.59892106056214
 70
   192
  0
VERTEX
  5
2E9
330
2DB
100
AcDbEntity
  8
A-GENM
370
    18
100
AcDbVertex
100
AcDbPolyFaceMeshVertex
 10
33.10859863758088
 20
-9.000000250339509
 30
65.37110974788666
 70
   192
  0
VERTEX
  5
2EA
330
2DB
100
AcDbEntity
  8
A-GENM
370
    18
100
AcDbVertex
100
AcDbPolyFaceMeshVertex
 10
32.13828631639481
 20
-9.000000250339509
 30
63.12111082077027
 70
   192
  0
VERTEX
  5
2EB
330
2DB
100
AcDbEntity
  8
A-GENM
370
    18
100
AcDbVertex
100
AcDbPolyFaceMeshVertex
 10
32.13828631639481
 20
-9.000000250339509
 30
64.83110818862916
 70
   192
  0
VERTEX
  5
2EC
330
2DB
100
AcDbEntity
  8
A-GENM
370
    18
100
AcDbVertex
100
AcDbPolyFaceMeshVertex
 10
33.36172181367874
 20
-9.000000250339509
 30
63.12111082077027
 70
   192
  0
VERTEX
  5
2ED
330
2DB
100
AcDbEntity
  8
A-GENM
370
    18
100
AcDbFaceRecord
 10
0.0
 20
0.0
 30
0.0
 70
   128
 71
    -1
 72
    15
 73
   -16
 74
    10
  0
VERTEX
  5
2EE
330
2DB
100
AcDbEntity
  8
A-GENM
370
    18
100
AcDbFaceRecord
 10
0.0
 20
0.0
 30
0.0
 70
   128
 71
    -2
 72
    17
 73
   -15
 74
     1
  0
VERTEX
  5
2EF
330
2DB
100
AcDbEntity
  8
A-GENM
370
    18
100
AcDbFaceRecord
 10
0.0
 20
0.0
 30
0.0
 70
   128
 71
    16
 72
   -17
 73
    14
 74
   -11
  0
VERTEX
  5
2F0
330
2DB
100
AcDbEntity
  8
A-GENM
370
    18
100
AcDbFaceRecord
 10
0.0
 20
0.0
 30
0.0
 70
   128
 71
     9
 72
   -10
 73
    12
 74
   -13
  0
VERTEX
  5
2F1
330
2DB
100
AcDbEntity
  8
A-GENM
370
    18
100
AcDbFaceRecord
 10
0.0
 20
0.0
 30
0.0
 70
   128
 71
    11
 72
   -12
 73
   -10
 74
   -16
  0
VERTEX
  5
2F2
330
2DB
100
AcDbEntity
  8
A-GENM
370
    18
100
AcDbFaceRecord
 10
0.0
 20
0.0
 30
0.0
 70
   128
 71
    -6
 72
   -14
 73
   -17
 74
     5
  0
VERTEX
  5
2F3
330
2DB
100
AcDbEntity
  8
A-GENM
370
    18
100
AcDbFaceRecord
 10
0.0
 20
0.0
 30
0.0
 70
   128
 71
   -17
 72
     3
 73
     4
 74
    -5
  0
VERTEX
  5
2F4
330
2DB
100
AcDbEntity
  8
A-GENM
370
    18
100
AcDbFaceRecord
 10
0.0
 20
0.0
 30
0.0
 70
   128
 71
   -14
 72
    -6
 73
    13
  0
VERTEX
  5
2F5
330
2DB
100
AcDbEntity
  8
A-GENM
370
    18
100
AcDbFaceRecord
 10
0.0
 20
0.0
 30
0.0
 70
   128
 71
   -13
 72
     7
 73
     8
 74
    -9
  0
VERTEX
  5
2F6
330
2DB
100
AcDbEntity
  8
A-GENM
370
    18
100
AcDbFaceRecord
 10
0.0
 20
0.0
 30
0.0
 70
   128
 71
    -7
 72
   -13
 73
     6
  0
VERTEX
  5
2F7
330
2DB
100
AcDbEntity
  8
A-GENM
370
    18
100
AcDbFaceRecord
 10
0.0
 20
0.0
 30
0.0
 70
   128
 71
   -17
 72
     2
 73
    -3
  0
SEQEND
  5
2F8
330
2DB
100
AcDbEntity
  8
A-GENM
370
    18
  0
POLYLINE
  5
2F9
330
B4
100
AcDbEntity
  8
A-GENM
370
    18
100
AcDbPolyFaceMesh
 66
     1
 10
0.0
 20
0.0
 30
0.0
 70
    64
 71
    17
 72
    10
1001
REVIT
1002
{
1070
     4
1000
14732
1002
}
  0
VERTEX
  5
2FA
330
2F9
100
AcDbEntity
  8
A-GENM
370
    18
100
AcDbVertex
100
AcDbPolyFaceMeshVertex
 10
31.50828525424004
 20
-7.999999970197677
 30
62.58110926151275
 70
   192
  0
VERTEX
  5
2FB
330
2F9
100
AcDbEntity
  8
A-GENM
370
    18
100
AcDbVertex
100
AcDbPolyFaceMeshVertex
 10
31.50828525424004
 20
-7.999999970197677
 30
67.35110789537429
 70
   192
  0
VERTEX
  5
2FC
330
2F9
100
AcDbEntity
  8
A-GENM
370
    18
100
AcDbVertex
100
AcDbPolyFaceMeshVertex
 10
33.36734692454339
 20
-7.999999970197677
 30
67.35110789537429
 70
   192
  0
VERTEX
  5
2FD
330
2F9
100
AcDbEntity
  8
A-GENM
370
    18
100
AcDbVertex
100
AcDbPolyFaceMeshVertex
 10
34.40937997698784
 20
-7.999999970197677
 30
67.00657950639724
 70
   192
  0
VERTEX
  5
2FE
330
2F9
100
AcDbEntity
  8
A-GENM
370
    18
100
AcDbVertex
100
AcDbPolyFaceMeshVertex
 10
34.74828552603721
 20
-7.999999970197677
 30
66.20782738924027
 70
   192
  0
VERTEX
  5
2FF
330
2F9
100
AcDbEntity
  8
A-GENM
370
    18
100
AcDbVertex
100
AcDbPolyFaceMeshVertex
 10
33.90875419378281
 20
-7.999999970197677
 30
65.14610985517503
 70
   192
  0
VERTEX
  5
300
330
2F9
100
AcDbEntity
  8
A-GENM
370
    18
100
AcDbVertex
100
AcDbPolyFaceMeshVertex
 10
34.66812826395035
 20
-7.999999970197677
 30
64.67923246622085
 70
   192
  0
VERTEX
  5
301
330
2F9
100
AcDbEntity
  8
A-GENM
370
    18
100
AcDbVertex
100
AcDbPolyFaceMeshVertex
 10
34.92828453183174
 20
-7.999999970197677
 30
63.91845495700836
 70
   192
  0
VERTEX
  5
302
330
2F9
100
AcDbEntity
  8
A-GENM
370
    18
100
AcDbVertex
100
AcDbPolyFaceMeshVertex
 10
34.55070719718933
 20
-7.999999970197677
 30
62.96501569747925
 70
   192
  0
VERTEX
  5
303
330
2F9
100
AcDbEntity
  8
A-GENM
370
    18
100
AcDbVertex
100
AcDbPolyFaceMeshVertex
 10
33.3870359480381
 20
-7.999999970197677
 30
62.58110926151275
 70
   192
  0
VERTEX
  5
304
330
2F9
100
AcDbEntity
  8
A-GENM
370
    18
100
AcDbVertex
100
AcDbPolyFaceMeshVertex
 10
32.13828631639481
 20
-7.999999970197677
 30
65.37110974788666
 70
   192
  0
VERTEX
  5
305
330
2F9
100
AcDbEntity
  8
A-GENM
370
    18
100
AcDbVertex
100
AcDbPolyFaceMeshVertex
 10
33.10859863758088
 20
-7.999999970197677
 30
65.37110974788666
 70
   192
  0
VERTEX
  5
306
330
2F9
100
AcDbEntity
  8
A-GENM
370
    18
100
AcDbVertex
100
AcDbPolyFaceMeshVertex
 10
33.91578501462936
 20
-7.999999970197677
 30
65.59892106056214
 70
   192
  0
VERTEX
  5
307
330
2F9
100
AcDbEntity
  8
A-GENM
370
    18
100
AcDbVertex
100
AcDbPolyFaceMeshVertex
 10
32.13828631639481
 20
-7.999999970197677
 30
66.81111087799073
 70
   192
  0
VERTEX
  5
308
330
2F9
100
AcDbEntity
  8
A-GENM
370
    18
100
AcDbVertex
100
AcDbPolyFaceMeshVertex
 10
32.13828631639481
 20
-7.999999970197677
 30
63.12111082077027
 70
   192
  0
VERTEX
  5
309
330
2F9
100
AcDbEntity
  8
A-GENM
370
    18
100
AcDbVertex
100
AcDbPolyFaceMeshVertex
 10
33.36172181367874
 20
-7.999999970197677
 30
63.12111082077027
 70
   192
  0
VERTEX
  5
30A
330
2F9
100
AcDbEntity
  8
A-GENM
370
    18
100
AcDbVertex
100
AcDbPolyFaceMeshVertex
 10
32.13828631639481
 20
-7.999999970197677
 30
64.83110818862916
 70
   192
  0
VERTEX
  5
30B
330
2F9
100
AcDbEntity
  8
A-GENM
370
    18
100
AcDbFaceRecord
 10
0.0
 20
0.0
 30
0.0
 70
   128
 71
   -16
 72
     6
 73
     7
 74
    -8
  0
VERTEX
  5
30C
330
2F9
100
AcDbEntity
  8
A-GENM
370
    18
100
AcDbFaceRecord
 10
0.0
 20
0.0
 30
0.0
 70
   128
 71
   -16
 72
     8
 73
     9
 74
   -10
  0
VERTEX
  5
30D
330
2F9
100
AcDbEntity
  8
A-GENM
370
    18
100
AcDbFaceRecord
 10
0.0
 20
0.0
 30
0.0
 70
   128
 71
   -13
 72
     4
 73
     5
 74
    -6
  0
VERTEX
  5
30E
330
2F9
100
AcDbEntity
  8
A-GENM
370
    18
100
AcDbFaceRecord
 10
0.0
 20
0.0
 30
0.0
 70
   128
 71
    12
 72
   -13
 73
    -6
 74
   -16
  0
VERTEX
  5
30F
330
2F9
100
AcDbEntity
  8
A-GENM
370
    18
100
AcDbFaceRecord
 10
0.0
 20
0.0
 30
0.0
 70
   128
 71
     3
 72
    -4
 73
    13
 74
   -14
  0
VERTEX
  5
310
330
2F9
100
AcDbEntity
  8
A-GENM
370
    18
100
AcDbFaceRecord
 10
0.0
 20
0.0
 30
0.0
 70
   128
 71
   -12
 72
    16
 73
   -17
 74
    11
  0
VERTEX
  5
311
330
2F9
100
AcDbEntity
  8
A-GENM
370
    18
100
AcDbFaceRecord
 10
0.0
 20
0.0
 30
0.0
 70
   128
 71
    17
 72
   -15
 73
     1
 74
    -2
  0
VERTEX
  5
312
330
2F9
100
AcDbEntity
  8
A-GENM
370
    18
100
AcDbFaceRecord
 10
0.0
 20
0.0
 30
0.0
 70
   128
 71
    15
 72
   -16
 73
    10
 74
    -1
  0
VERTEX
  5
313
330
2F9
100
AcDbEntity
  8
A-GENM
370
    18
100
AcDbFaceRecord
 10
0.0
 20
0.0
 30
0.0
 70
   128
 71
    -2
 72
    14
 73
   -11
 74
   -17
  0
VERTEX
  5
314
330
2F9
100
AcDbEntity
  8
A-GENM
370
    18
100
AcDbFaceRecord
 10
0.0
 20
0.0
 30
0.0
 70
   128
 71
   -14
 72
     2
 73
    -3
  0
SEQEND
  5
315
330
2F9
100
AcDbEntity
  8
A-GENM
370
    18
  0
POLYLINE
  5
316
330
B4
100
AcDbEntity
  8
A-GENM
370
    18
100
AcDbPolyFaceMesh
 66
     1
 10
0.0
 20
0.0
 30
0.0
 70
    64
 71
     4
 72
     1
1001
REVIT
1002
{
1070
     4
1000
14732
1002
}
  0
VERTEX
  5
317
330
316
100
AcDbEntity
  8
A-GENM
370
    18
100
AcDbVertex
100
AcDbPolyFaceMeshVertex
 10
31.50828525424004
 20
-9.000000250339509
 30
62.58110926151275
 70
   192
  0
VERTEX
  5
318
330
316
100
AcDbEntity
  8
A-GENM
370
    18
100
AcDbVertex
100
AcDbPolyFaceMeshVertex
 10
31.50828525424004
 20
-7.999999970197677
 30
62.58110926151275
 70
   192
  0
VERTEX
  5
319
330
316
100
AcDbEntity
  8
A-GENM
370
    18
100
AcDbVertex
100
AcDbPolyFaceMeshVertex
 10
33.3870359480381
 20
-7.999999970197677
 30
62.58110926151275
 70
   192
  0
VERTEX
  5
31A
330
316
100
AcDbEntity
  8
A-GENM
370
    18
100
AcDbVertex
100
AcDbPolyFaceMeshVertex
 10
33.3870359480381
 20
-9.000000250339509
 30
62.58110926151275
 70
   192
  0
VERTEX
  5
31B
330
316
100
AcDbEntity
  8
A-GENM
370
    18
100
AcDbFaceRecord
 10
0.0
 20
0.0
 30
0.0
 70
   128
 71
     1
 72
     2
 73
     3
 74
     4
  0
SEQEND
  5
31C
330
316
100
AcDbEntity
  8
A-GENM
370
    18
  0
POLYLINE
  5
31D
330
B4
100
AcDbEntity
  8
A-GENM
370
    18
100
AcDbPolyFaceMesh
 66
     1
 10
0.0
 20
0.0
 30
0.0
 70
    64
 71
     4
 72
     1
1001
REVIT
1002
{
1070
     4
1000
14732
1002
}
  0
VERTEX
  5
31E
330
31D
100
AcDbEntity
  8
A-GENM
370
    18
100
AcDbVertex
100
AcDbPolyFaceMeshVertex
 10
33.3870359480381
 20
-9.000000250339509
 30
62.58110926151275
 70
   192
  0
VERTEX
  5
31F
330
31D
100
AcDbEntity
  8
A-GENM
370
    18
100
AcDbVertex
100
AcDbPolyFaceMeshVertex
 10
33.3870359480381
 20
-7.999999970197677
 30
62.58110926151275
 70
   192
  0
VERTEX
  5
320
330
31D
100
AcDbEntity
  8
A-GENM
370
    18
100
AcDbVertex
100
AcDbPolyFaceMeshVertex
 10
34.55070719718933
 20
-7.999999970197677
 30
62.96501569747925
 70
   192
  0
VERTEX
  5
321
330
31D
100
AcDbEntity
  8
A-GENM
370
    18
100
AcDbVertex
100
AcDbPolyFaceMeshVertex
 10
34.55070719718933
 20
-9.000000250339509
 30
62.96501569747925
 70
   192
  0
VERTEX
  5
322
330
31D
100
AcDbEntity
  8
A-GENM
370
    18
100
AcDbFaceRecord
 10
0.0
 20
0.0
 30
0.0
 70
   128
 71
     1
 72
     2
 73
     3
 74
     4
  0
SEQEND
  5
323
330
31D
100
AcDbEntity
  8
A-GENM
370
    18
  0
POLYLINE
  5
324
330
B4
100
AcDbEntity
  8
A-GENM
370
    18
100
AcDbPolyFaceMesh
 66
     1
 10
0.0
 20
0.0
 30
0.0
 70
    64
 71
     4
 72
     1
1001
REVIT
1002
{
1070
     4
1000
14732
1002
}
  0
VERTEX
  5
325
330
324
100
AcDbEntity
  8
A-GENM
370
    18
100
AcDbVertex
100
AcDbPolyFaceMeshVertex
 10
34.55070719718933
 20
-9.000000250339509
 30
62.96501569747925
 70
   192
  0
VERTEX
  5
326
330
324
100
AcDbEntity
  8
A-GENM
370
    18
100
AcDbVertex
100
AcDbPolyFaceMeshVertex
 10
34.55070719718933
 20
-7.999999970197677
 30
62.96501569747925
 70
   192
  0
VERTEX
  5
327
330
324
100
AcDbEntity
  8
A-GENM
370
    18
100
AcDbVertex
100
AcDbPolyFaceMeshVertex
 10
34.92828453183174
 20
-7.999999970197677
 30
63.91845495700836
 70
   192
  0
VERTEX
  5
328
330
324
100
AcDbEntity
  8
A-GENM
370
    18
100
AcDbVertex
100
AcDbPolyFaceMeshVertex
 10
34.92828453183174
 20
-9.000000250339509
 30
63.91845495700836
 70
   192
  0
VERTEX
  5
329
330
324
100
AcDbEntity
  8
A-GENM
370
    18
100
AcDbFaceRecord
 10
0.0
 20
0.0
 30
0.0
 70
   128
 71
     1
 72
     2
 73
     3
 74
     4
  0
SEQEND
  5
32A
330
324
100
AcDbEntity
  8
A-GENM
370
    18
  0
POLYLINE
  5
32B
330
B4
100
AcDbEntity
  8
A-GENM
370
    18
100
AcDbPolyFaceMesh
 66
     1
 10
0.0
 20
0.0
 30
0.0
 70
    64
 71
     4
 72
     1
1001
REVIT
1002
{
1070
     4
1000
14732
1002
}
  0
VERTEX
  5
32C
330
32B
100
AcDbEntity
  8
A-GENM
370
    18
100
AcDbVertex
100
AcDbPolyFaceMeshVertex
 10
34.92828453183174
 20
-9.000000250339509
 30
63.91845495700836
 70
   192
  0
VERTEX
  5
32D
330
32B
100
AcDbEntity
  8
A-GENM
370
    18
100
AcDbVertex
100
AcDbPolyFaceMeshVertex
 10
34.92828453183174
 20
-7.999999970197677
 30
63.91845495700836
 70
   192
  0
VERTEX
  5
32E
330
32B
100
AcDbEntity
  8
A-GENM
370
    18
100
AcDbVertex
100
AcDbPolyFaceMeshVertex
 10
34.66812826395035
 20
-7.999999970197677
 30
64.67923246622085
 70
   192
  0
VERTEX
  5
32F
330
32B
100
AcDbEntity
  8
A-GENM
370
    18
100
AcDbVertex
100
AcDbPolyFaceMeshVertex
 10
34.66812826395035
 20
-9.000000250339509
 30
64.67923246622085
 70
   192
  0
VERTEX
  5
330
330
32B
100
AcDbEntity
  8
A-GENM
370
    18
100
AcDbFaceRecord
 10
0.0
 20
0.0
 30
0.0
 70
   128
 71
     1
 72
     2
 73
     3
 74
     4
  0
SEQEND
  5
331
330
32B
100
AcDbEntity
  8
A-GENM
370
    18
  0
POLYLINE
  5
332
330
B4
100
AcDbEntity
  8
A-GENM
370
    18
100
AcDbPolyFaceMesh
 66
     1
 10
0.0
 20
0.0
 30
0.0
 70
    64
 71
     4
 72
     1
1001
REVIT
1002
{
1070
     4
1000
14732
1002
}
  0
VERTEX
  5
333
330
332
100
AcDbEntity
  8
A-GENM
370
    18
100
AcDbVertex
100
AcDbPolyFaceMeshVertex
 10
34.66812826395035
 20
-9.000000250339509
 30
64.67923246622085
 70
   192
  0
VERTEX
  5
334
330
332
100
AcDbEntity
  8
A-GENM
370
    18
100
AcDbVertex
100
AcDbPolyFaceMeshVertex
 10
34.66812826395035
 20
-7.999999970197677
 30
64.67923246622085
 70
   192
  0
VERTEX
  5
335
330
332
100
AcDbEntity
  8
A-GENM
370
    18
100
AcDbVertex
100
AcDbPolyFaceMeshVertex
 10
33.90875419378281
 20
-7.999999970197677
 30
65.14610985517503
 70
   192
  0
VERTEX
  5
336
330
332
100
AcDbEntity
  8
A-GENM
370
    18
100
AcDbVertex
100
AcDbPolyFaceMeshVertex
 10
33.90875419378281
 20
-9.000000250339509
 30
65.14610985517503
 70
   192
  0
VERTEX
  5
337
330
332
100
AcDbEntity
  8
A-GENM
370
    18
100
AcDbFaceRecord
 10
0.0
 20
0.0
 30
0.0
 70
   128
 71
     1
 72
     2
 73
     3
 74
     4
  0
SEQEND
  5
338
330
332
100
AcDbEntity
  8
A-GENM
370
    18
  0
POLYLINE
  5
339
330
B4
100
AcDbEntity
  8
A-GENM
370
    18
100
AcDbPolyFaceMesh
 66
     1
 10
0.0
 20
0.0
 30
0.0
 70
    64
 71
     4
 72
     1
1001
REVIT
1002
{
1070
     4
1000
14732
1002
}
  0
VERTEX
  5
33A
330
339
100
AcDbEntity
  8
A-GENM
370
    18
100
AcDbVertex
100
AcDbPolyFaceMeshVertex
 10
33.90875419378281
 20
-9.000000250339509
 30
65.14610985517503
 70
   192
  0
VERTEX
  5
33B
330
339
100
AcDbEntity
  8
A-GENM
370
    18
100
AcDbVertex
100
AcDbPolyFaceMeshVertex
 10
33.90875419378281
 20
-7.999999970197677
 30
65.14610985517503
 70
   192
  0
VERTEX
  5
33C
330
339
100
AcDbEntity
  8
A-GENM
370
    18
100
AcDbVertex
100
AcDbPolyFaceMeshVertex
 10
34.74828552603721
 20
-7.999999970197677
 30
66.20782738924027
 70
   192
  0
VERTEX
  5
33D
330
339
100
AcDbEntity
  8
A-GENM
370
    18
100
AcDbVertex
100
AcDbPolyFaceMeshVertex
 10
34.74828552603721
 20
-9.000000250339509
 30
66.20782738924027
 70
   192
  0
VERTEX
  5
33E
330
339
100
AcDbEntity
  8
A-GENM
370
    18
100
AcDbFaceRecord
 10
0.0
 20
0.0
 30
0.0
 70
   128
 71
     1
 72
     2
 73
     3
 74
     4
  0
SEQEND
  5
33F
330
339
100
AcDbEntity
  8
A-GENM
370
    18
  0
POLYLINE
  5
340
330
B4
100
AcDbEntity
  8
A-GENM
370
    18
100
AcDbPolyFaceMesh
 66
     1
 10
0.0
 20
0.0
 30
0.0
 70
    64
 71
     4
 72
     1
1001
REVIT
1002
{
1070
     4
1000
14732
1002
}
  0
VERTEX
  5
341
330
340
100
AcDbEntity
  8
A-GENM
370
    18
100
AcDbVertex
100
AcDbPolyFaceMeshVertex
 10
34.74828552603721
 20
-9.000000250339509
 30
66.20782738924027
 70
   192
  0
VERTEX
  5
342
330
340
100
AcDbEntity
  8
A-GENM
370
    18
100
AcDbVertex
100
AcDbPolyFaceMeshVertex
 10
34.74828552603721
 20
-7.999999970197677
 30
66.20782738924027
 70
   192
  0
VERTEX
  5
343
330
340
100
AcDbEntity
  8
A-GENM
370
    18
100
AcDbVertex
100
AcDbPolyFaceMeshVertex
 10
34.40937997698784
 20
-7.999999970197677
 30
67.00657950639724
 70
   192
  0
VERTEX
  5
344
330
340
100
AcDbEntity
  8
A-GENM
370
    18
100
AcDbVertex
100
AcDbPolyFaceMeshVertex
 10
34.40937997698784
 20
-9.000000250339509
 30
67.00657950639724
 70
   192
  0
VERTEX
  5
345
330
340
100
AcDbEntity
  8
A-GENM
370
    18
100
AcDbFaceRecord
 10
0.0
 20
0.0
 30
0.0
 70
   128
 71
     1
 72
     2
 73
     3
 74
     4
  0
SEQEND
  5
346
330
340
100
AcDbEntity
  8
A-GENM
370
    18
  0
POLYLINE
  5
347
330
B4
100
AcDbEntity
  8
A-GENM
370
    18
100
AcDbPolyFaceMesh
 66
     1
 10
0.0
 20
0.0
 30
0.0
 70
    64
 71
     4
 72
     1
1001
REVIT
1002
{
1070
     4
1000
14732
1002
}
  0
VERTEX
  5
348
330
347
100
AcDbEntity
  8
A-GENM
370
    18
100
AcDbVertex
100
AcDbPolyFaceMeshVertex
 10
34.40937997698784
 20
-9.000000250339509
 30
67.00657950639724
 70
   192
  0
VERTEX
  5
349
330
347
100
AcDbEntity
  8
A-GENM
370
    18
100
AcDbVertex
100
AcDbPolyFaceMeshVertex
 10
34.40937997698784
 20
-7.999999970197677
 30
67.00657950639724
 70
   192
  0
VERTEX
  5
34A
330
347
100
AcDbEntity
  8
A-GENM
370
    18
100
AcDbVertex
100
AcDbPolyFaceMeshVertex
 10
33.36734692454339
 20
-7.999999970197677
 30
67.35110789537429
 70
   192
  0
VERTEX
  5
34B
330
347
100
AcDbEntity
  8
A-GENM
370
    18
100
AcDbVertex
100
AcDbPolyFaceMeshVertex
 10
33.36734692454339
 20
-9.000000250339509
 30
67.35110789537429
 70
   192
  0
VERTEX
  5
34C
330
347
100
AcDbEntity
  8
A-GENM
370
    18
100
AcDbFaceRecord
 10
0.0
 20
0.0
 30
0.0
 70
   128
 71
     1
 72
     2
 73
     3
 74
     4
  0
SEQEND
  5
34D
330
347
100
AcDbEntity
  8
A-GENM
370
    18
  0
POLYLINE
  5
34E
330
B4
100
AcDbEntity
  8
A-GENM
370
    18
100
AcDbPolyFaceMesh
 66
     1
 10
0.0
 20
0.0
 30
0.0
 70
    64
 71
     4
 72
     1
1001
REVIT
1002
{
1070
     4
1000
14732
1002
}
  0
VERTEX
  5
34F
330
34E
100
AcDbEntity
  8
A-GENM
370
    18
100
AcDbVertex
100
AcDbPolyFaceMeshVertex
 10
33.36734692454339
 20
-9.000000250339509
 30
67.35110789537429
 70
   192
  0
VERTEX
  5
350
330
34E
100
AcDbEntity
  8
A-GENM
370
    18
100
AcDbVertex
100
AcDbPolyFaceMeshVertex
 10
33.36734692454339
 20
-7.999999970197677
 30
67.35110789537429
 70
   192
  0
VERTEX
  5
351
330
34E
100
AcDbEntity
  8
A-GENM
370
    18
100
AcDbVertex
100
AcDbPolyFaceMeshVertex
 10
31.50828525424004
 20
-7.999999970197677
 30
67.35110789537429
 70
   192
  0
VERTEX
  5
352
330
34E
100
AcDbEntity
  8
A-GENM
370
    18
100
AcDbVertex
100
AcDbPolyFaceMeshVertex
 10
31.50828525424004
 20
-9.000000250339509
 30
67.35110789537429
 70
   192
  0
VERTEX
  5
353
330
34E
100
AcDbEntity
  8
A-GENM
370
    18
100
AcDbFaceRecord
 10
0.0
 20
0.0
 30
0.0
 70
   128
 71
     1
 72
     2
 73
     3
 74
     4
  0
SEQEND
  5
354
330
34E
100
AcDbEntity
  8
A-GENM
370
    18
  0
POLYLINE
  5
355
330
B4
100
AcDbEntity
  8
A-GENM
370
    18
100
AcDbPolyFaceMesh
 66
     1
 10
0.0
 20
0.0
 30
0.0
 70
    64
 71
     4
 72
     1
1001
REVIT
1002
{
1070
     4
1000
14732
1002
}
  0
VERTEX
  5
356
330
355
100
AcDbEntity
  8
A-GENM
370
    18
100
AcDbVertex
100
AcDbPolyFaceMeshVertex
 10
31.50828525424004
 20
-9.000000250339509
 30
67.35110789537429
 70
   192
  0
VERTEX
  5
357
330
355
100
AcDbEntity
  8
A-GENM
370
    18
100
AcDbVertex
100
AcDbPolyFaceMeshVertex
 10
31.50828525424004
 20
-7.999999970197677
 30
67.35110789537429
 70
   192
  0
VERTEX
  5
358
330
355
100
AcDbEntity
  8
A-GENM
370
    18
100
AcDbVertex
100
AcDbPolyFaceMeshVertex
 10
31.50828525424004
 20
-7.999999970197677
 30
62.58110926151275
 70
   192
  0
VERTEX
  5
359
330
355
100
AcDbEntity
  8
A-GENM
370
    18
100
AcDbVertex
100
AcDbPolyFaceMeshVertex
 10
31.50828525424004
 20
-9.000000250339509
 30
62.58110926151275
 70
   192
  0
VERTEX
  5
35A
330
355
100
AcDbEntity
  8
A-GENM
370
    18
100
AcDbFaceRecord
 10
0.0
 20
0.0
 30
0.0
 70
   128
 71
     1
 72
     2
 73
     3
 74
     4
  0
SEQEND
  5
35B
330
355
100
AcDbEntity
  8
A-GENM
370
    18
  0
POLYLINE
  5
35C
330
B4
100
AcDbEntity
  8
A-GENM
370
    18
100
AcDbPolyFaceMesh
 66
     1
 10
0.0
 20
0.0
 30
0.0
 70
    64
 71
     4
 72
     1
1001
REVIT
1002
{
1070
     4
1000
14732
1002
}
  0
VERTEX
  5
35D
330
35C
100
AcDbEntity
  8
A-GENM
370
    18
100
AcDbVertex
100
AcDbPolyFaceMeshVertex
 10
32.13828631639481
 20
-9.000000250339509
 30
65.37110974788666
 70
   192
  0
VERTEX
  5
35E
330
35C
100
AcDbEntity
  8
A-GENM
370
    18
100
AcDbVertex
100
AcDbPolyFaceMeshVertex
 10
32.13828631639481
 20
-7.999999970197677
 30
65.37110974788666
 70
   192
  0
VERTEX
  5
35F
330
35C
100
AcDbEntity
  8
A-GENM
370
    18
100
AcDbVertex
100
AcDbPolyFaceMeshVertex
 10
32.13828631639481
 20
-7.999999970197677
 30
66.81111087799073
 70
   192
  0
VERTEX
  5
360
330
35C
100
AcDbEntity
  8
A-GENM
370
    18
100
AcDbVertex
100
AcDbPolyFaceMeshVertex
 10
32.13828631639481
 20
-9.000000250339509
 30
66.81111087799073
 70
   192
  0
VERTEX
  5
361
330
35C
100
AcDbEntity
  8
A-GENM
370
    18
100
AcDbFaceRecord
 10
0.0
 20
0.0
 30
0.0
 70
   128
 71
     1
 72
     2
 73
     3
 74
     4
  0
SEQEND
  5
362
330
35C
100
AcDbEntity
  8
A-GENM
370
    18
  0
POLYLINE
  5
363
330
B4
100
AcDbEntity
  8
A-GENM
370
    18
100
AcDbPolyFaceMesh
 66
     1
 10
0.0
 20
0.0
 30
0.0
 70
    64
 71
     4
 72
     1
1001
REVIT
1002
{
1070
     4
1000
14732
1002
}
  0
VERTEX
  5
364
330
363
100
AcDbEntity
  8
A-GENM
370
    18
100
AcDbVertex
100
AcDbPolyFaceMeshVertex
 10
32.13828631639481
 20
-9.000000250339509
 30
66.81111087799073
 70
   192
  0
VERTEX
  5
365
330
363
100
AcDbEntity
  8
A-GENM
370
    18
100
AcDbVertex
100
AcDbPolyFaceMeshVertex
 10
32.13828631639481
 20
-7.999999970197677
 30
66.81111087799073
 70
   192
  0
VERTEX
  5
366
330
363
100
AcDbEntity
  8
A-GENM
370
    18
100
AcDbVertex
100
AcDbPolyFaceMeshVertex
 10
33.91578501462936
 20
-7.999999970197677
 30
65.59892106056214
 70
   192
  0
VERTEX
  5
367
330
363
100
AcDbEntity
  8
A-GENM
370
    18
100
AcDbVertex
100
AcDbPolyFaceMeshVertex
 10
33.91578501462936
 20
-9.000000250339509
 30
65.59892106056214
 70
   192
  0
VERTEX
  5
368
330
363
100
AcDbEntity
  8
A-GENM
370
    18
100
AcDbFaceRecord
 10
0.0
 20
0.0
 30
0.0
 70
   128
 71
     1
 72
     2
 73
     3
 74
     4
  0
SEQEND
  5
369
330
363
100
AcDbEntity
  8
A-GENM
370
    18
  0
POLYLINE
  5
36A
330
B4
100
AcDbEntity
  8
A-GENM
370
    18
100
AcDbPolyFaceMesh
 66
     1
 10
0.0
 20
0.0
 30
0.0
 70
    64
 71
     4
 72
     1
1001
REVIT
1002
{
1070
     4
1000
14732
1002
}
  0
VERTEX
  5
36B
330
36A
100
AcDbEntity
  8
A-GENM
370
    18
100
AcDbVertex
100
AcDbPolyFaceMeshVertex
 10
33.91578501462936
 20
-9.000000250339509
 30
65.59892106056214
 70
   192
  0
VERTEX
  5
36C
330
36A
100
AcDbEntity
  8
A-GENM
370
    18
100
AcDbVertex
100
AcDbPolyFaceMeshVertex
 10
33.91578501462936
 20
-7.999999970197677
 30
65.59892106056214
 70
   192
  0
VERTEX
  5
36D
330
36A
100
AcDbEntity
  8
A-GENM
370
    18
100
AcDbVertex
100
AcDbPolyFaceMeshVertex
 10
33.10859863758088
 20
-7.999999970197677
 30
65.37110974788666
 70
   192
  0
VERTEX
  5
36E
330
36A
100
AcDbEntity
  8
A-GENM
370
    18
100
AcDbVertex
100
AcDbPolyFaceMeshVertex
 10
33.10859863758088
 20
-9.000000250339509
 30
65.37110974788666
 70
   192
  0
VERTEX
  5
36F
330
36A
100
AcDbEntity
  8
A-GENM
370
    18
100
AcDbFaceRecord
 10
0.0
 20
0.0
 30
0.0
 70
   128
 71
     1
 72
     2
 73
     3
 74
     4
  0
SEQEND
  5
370
330
36A
100
AcDbEntity
  8
A-GENM
370
    18
  0
POLYLINE
  5
371
330
B4
100
AcDbEntity
  8
A-GENM
370
    18
100
AcDbPolyFaceMesh
 66
     1
 10
0.0
 20
0.0
 30
0.0
 70
    64
 71
     4
 72
     1
1001
REVIT
1002
{
1070
     4
1000
14732
1002
}
  0
VERTEX
  5
372
330
371
100
AcDbEntity
  8
A-GENM
370
    18
100
AcDbVertex
100
AcDbPolyFaceMeshVertex
 10
33.10859863758088
 20
-9.000000250339509
 30
65.37110974788666
 70
   192
  0
VERTEX
  5
373
330
371
100
AcDbEntity
  8
A-GENM
370
    18
100
AcDbVertex
100
AcDbPolyFaceMeshVertex
 10
33.10859863758088
 20
-7.999999970197677
 30
65.37110974788666
 70
   192
  0
VERTEX
  5
374
330
371
100
AcDbEntity
  8
A-GENM
370
    18
100
AcDbVertex
100
AcDbPolyFaceMeshVertex
 10
32.13828631639481
 20
-7.999999970197677
 30
65.37110974788666
 70
   192
  0
VERTEX
  5
375
330
371
100
AcDbEntity
  8
A-GENM
370
    18
100
AcDbVertex
100
AcDbPolyFaceMeshVertex
 10
32.13828631639481
 20
-9.000000250339509
 30
65.37110974788666
 70
   192
  0
VERTEX
  5
376
330
371
100
AcDbEntity
  8
A-GENM
370
    18
100
AcDbFaceRecord
 10
0.0
 20
0.0
 30
0.0
 70
   128
 71
     1
 72
     2
 73
     3
 74
     4
  0
SEQEND
  5
377
330
371
100
AcDbEntity
  8
A-GENM
370
    18
  0
POLYLINE
  5
378
330
B4
100
AcDbEntity
  8
A-GENM
370
    18
100
AcDbPolyFaceMesh
 66
     1
 10
0.0
 20
0.0
 30
0.0
 70
    64
 71
     4
 72
     1
1001
REVIT
1002
{
1070
     4
1000
14732
1002
}
  0
VERTEX
  5
379
330
378
100
AcDbEntity
  8
A-GENM
370
    18
100
AcDbVertex
100
AcDbPolyFaceMeshVertex
 10
32.13828631639481
 20
-9.000000250339509
 30
63.12111082077027
 70
   192
  0
VERTEX
  5
37A
330
378
100
AcDbEntity
  8
A-GENM
370
    18
100
AcDbVertex
100
AcDbPolyFaceMeshVertex
 10
32.13828631639481
 20
-7.999999970197677
 30
63.12111082077027
 70
   192
  0
VERTEX
  5
37B
330
378
100
AcDbEntity
  8
A-GENM
370
    18
100
AcDbVertex
100
AcDbPolyFaceMeshVertex
 10
32.13828631639481
 20
-7.999999970197677
 30
64.83110818862916
 70
   192
  0
VERTEX
  5
37C
330
378
100
AcDbEntity
  8
A-GENM
370
    18
100
AcDbVertex
100
AcDbPolyFaceMeshVertex
 10
32.13828631639481
 20
-9.000000250339509
 30
64.83110818862916
 70
   192
  0
VERTEX
  5
37D
330
378
100
AcDbEntity
  8
A-GENM
370
    18
100
AcDbFaceRecord
 10
0.0
 20
0.0
 30
0.0
 70
   128
 71
     1
 72
     2
 73
     3
 74
     4
  0
SEQEND
  5
37E
330
378
100
AcDbEntity
  8
A-GENM
370
    18
  0
POLYLINE
  5
37F
330
B4
100
AcDbEntity
  8
A-GENM
370
    18
100
AcDbPolyFaceMesh
 66
     1
 10
0.0
 20
0.0
 30
0.0
 70
    64
 71
     4
 72
     1
1001
REVIT
1002
{
1070
     4
1000
14732
1002
}
  0
VERTEX
  5
380
330
37F
100
AcDbEntity
  8
A-GENM
370
    18
100
AcDbVertex
100
AcDbPolyFaceMeshVertex
 10
32.13828631639481
 20
-9.000000250339509
 30
64.83110818862916
 70
   192
  0
VERTEX
  5
381
330
37F
100
AcDbEntity
  8
A-GENM
370
    18
100
AcDbVertex
100
AcDbPolyFaceMeshVertex
 10
32.13828631639481
 20
-7.999999970197677
 30
64.83110818862916
 70
   192
  0
VERTEX
  5
382
330
37F
100
AcDbEntity
  8
A-GENM
370
    18
100
AcDbVertex
100
AcDbPolyFaceMeshVertex
 10
33.36172181367874
 20
-7.999999970197677
 30
63.12111082077027
 70
   192
  0
VERTEX
  5
383
330
37F
100
AcDbEntity
  8
A-GENM
370
    18
100
AcDbVertex
100
AcDbPolyFaceMeshVertex
 10
33.36172181367874
 20
-9.000000250339509
 30
63.12111082077027
 70
   192
  0
VERTEX
  5
384
330
37F
100
AcDbEntity
  8
A-GENM
370
    18
100
AcDbFaceRecord
 10
0.0
 20
0.0
 30
0.0
 70
   128
 71
     1
 72
     2
 73
     3
 74
     4
  0
SEQEND
  5
385
330
37F
100
AcDbEntity
  8
A-GENM
370
    18
  0
POLYLINE
  5
386
330
B4
100
AcDbEntity
  8
A-GENM
370
    18
100
AcDbPolyFaceMesh
 66
     1
 10
0.0
 20
0.0
 30
0.0
 70
    64
 71
     4
 72
     1
1001
REVIT
1002
{
1070
     4
1000
14732
1002
}
  0
VERTEX
  5
387
330
386
100
AcDbEntity
  8
A-GENM
370
    18
100
AcDbVertex
100
AcDbPolyFaceMeshVertex
 10
33.36172181367874
 20
-9.000000250339509
 30
63.12111082077027
 70
   192
  0
VERTEX
  5
388
330
386
100
AcDbEntity
  8
A-GENM
370
    18
100
AcDbVertex
100
AcDbPolyFaceMeshVertex
 10
33.36172181367874
 20
-7.999999970197677
 30
63.12111082077027
 70
   192
  0
VERTEX
  5
389
330
386
100
AcDbEntity
  8
A-GENM
370
    18
100
AcDbVertex
100
AcDbPolyFaceMeshVertex
 10
32.13828631639481
 20
-7.999999970197677
 30
63.12111082077027
 70
   192
  0
VERTEX
  5
38A
330
386
100
AcDbEntity
  8
A-GENM
370
    18
100
AcDbVertex
100
AcDbPolyFaceMeshVertex
 10
32.13828631639481
 20
-9.000000250339509
 30
63.12111082077027
 70
   192
  0
VERTEX
  5
38B
330
386
100
AcDbEntity
  8
A-GENM
370
    18
100
AcDbFaceRecord
 10
0.0
 20
0.0
 30
0.0
 70
   128
 71
     1
 72
     2
 73
     3
 74
     4
  0
SEQEND
  5
38C
330
386
100
AcDbEntity
  8
A-GENM
370
    18
  0
POLYLINE
  5
38D
330
B4
100
AcDbEntity
  8
A-GENM
370
    18
100
AcDbPolyFaceMesh
 66
     1
 10
0.0
 20
0.0
 30
0.0
 70
    64
 71
     9
 72
     5
1001
REVIT
1002
{
1070
     4
1000
14732
1002
}
  0
VERTEX
  5
38E
330
38D
100
AcDbEntity
  8
A-GENM
370
    18
100
AcDbVertex
100
AcDbPolyFaceMeshVertex
 10
38.79828586578369
 20
-9.000000250339509
 30
63.12111082077027
 70
   192
  0
VERTEX
  5
38F
330
38D
100
AcDbEntity
  8
A-GENM
370
    18
100
AcDbVertex
100
AcDbPolyFaceMeshVertex
 10
36.45828516483307
 20
-9.000000250339509
 30
63.12111082077027
 70
   192
  0
VERTEX
  5
390
330
38D
100
AcDbEntity
  8
A-GENM
370
    18
100
AcDbVertex
100
AcDbPolyFaceMeshVertex
 10
36.45828516483307
 20
-9.000000250339509
 30
64.83110818862916
 70
   192
  0
VERTEX
  5
391
330
38D
100
AcDbEntity
  8
A-GENM
370
    18
100
AcDbVertex
100
AcDbPolyFaceMeshVertex
 10
38.25828430652619
 20
-9.000000250339509
 30
65.37110974788666
 70
   192
  0
VERTEX
  5
392
330
38D
100
AcDbEntity
  8
A-GENM
370
    18
100
AcDbVertex
100
AcDbPolyFaceMeshVertex
 10
36.45828516483307
 20
-9.000000250339509
 30
65.37110974788666
 70
   192
  0
VERTEX
  5
393
330
38D
100
AcDbEntity
  8
A-GENM
370
    18
100
AcDbVertex
100
AcDbPolyFaceMeshVertex
 10
36.45828516483307
 20
-9.000000250339509
 30
66.81111087799073
 70
   192
  0
VERTEX
  5
394
330
38D
100
AcDbEntity
  8
A-GENM
370
    18
100
AcDbVertex
100
AcDbPolyFaceMeshVertex
 10
38.70828409194947
 20
-9.000000250339509
 30
67.35110789537429
 70
   192
  0
VERTEX
  5
395
330
38D
100
AcDbEntity
  8
A-GENM
370
    18
100
AcDbVertex
100
AcDbPolyFaceMeshVertex
 10
35.82828637361526
 20
-9.000000250339509
 30
67.35110789537429
 70
   192
  0
VERTEX
  5
396
330
38D
100
AcDbEntity
  8
A-GENM
370
    18
100
AcDbVertex
100
AcDbPolyFaceMeshVertex
 10
35.82828637361526
 20
-9.000000250339509
 30
62.58110926151275
 70
   192
  0
VERTEX
  5
397
330
38D
100
AcDbEntity
  8
A-GENM
370
    18
100
AcDbFaceRecord
 10
0.0
 20
0.0
 30
0.0
 70
   128
 71
     3
 72
     4
 73
    -5
  0
VERTEX
  5
398
330
38D
100
AcDbEntity
  8
A-GENM
370
    18
100
AcDbFaceRecord
 10
0.0
 20
0.0
 30
0.0
 70
   128
 71
     5
 72
    -6
 73
    -8
 74
    -3
  0
VERTEX
  5
399
330
38D
100
AcDbEntity
  8
A-GENM
370
    18
100
AcDbFaceRecord
 10
0.0
 20
0.0
 30
0.0
 70
   128
 71
    -8
 72
     6
 73
     7
  0
VERTEX
  5
39A
330
38D
100
AcDbEntity
  8
A-GENM
370
    18
100
AcDbFaceRecord
 10
0.0
 20
0.0
 30
0.0
 70
   128
 71
    -9
 72
     2
 73
    -3
 74
     8
  0
VERTEX
  5
39B
330
38D
100
AcDbEntity
  8
A-GENM
370
    18
100
AcDbFaceRecord
 10
0.0
 20
0.0
 30
0.0
 70
   128
 71
    -2
 72
     9
 73
     1
  0
SEQEND
  5
39C
330
38D
100
AcDbEntity
  8
A-GENM
370
    18
  0
POLYLINE
  5
39D
330
B4
100
AcDbEntity
  8
A-GENM
370
    18
100
AcDbPolyFaceMesh
 66
     1
 10
0.0
 20
0.0
 30
0.0
 70
    64
 71
     9
 72
     5
1001
REVIT
1002
{
1070
     4
1000
14732
1002
}
  0
VERTEX
  5
39E
330
39D
100
AcDbEntity
  8
A-GENM
370
    18
100
AcDbVertex
100
AcDbPolyFaceMeshVertex
 10
38.79828586578369
 20
-7.999999970197677
 30
63.12111082077027
 70
   192
  0
VERTEX
  5
39F
330
39D
100
AcDbEntity
  8
A-GENM
370
    18
100
AcDbVertex
100
AcDbPolyFaceMeshVertex
 10
35.82828637361526
 20
-7.999999970197677
 30
62.58110926151275
 70
   192
  0
VERTEX
  5
3A0
330
39D
100
AcDbEntity
  8
A-GENM
370
    18
100
AcDbVertex
100
AcDbPolyFaceMeshVertex
 10
35.82828637361526
 20
-7.999999970197677
 30
67.35110789537429
 70
   192
  0
VERTEX
  5
3A1
330
39D
100
AcDbEntity
  8
A-GENM
370
    18
100
AcDbVertex
100
AcDbPolyFaceMeshVertex
 10
38.70828409194947
 20
-7.999999970197677
 30
67.35110789537429
 70
   192
  0
VERTEX
  5
3A2
330
39D
100
AcDbEntity
  8
A-GENM
370
    18
100
AcDbVertex
100
AcDbPolyFaceMeshVertex
 10
36.45828516483307
 20
-7.999999970197677
 30
66.81111087799073
 70
   192
  0
VERTEX
  5
3A3
330
39D
100
AcDbEntity
  8
A-GENM
370
    18
100
AcDbVertex
100
AcDbPolyFaceMeshVertex
 10
36.45828516483307
 20
-7.999999970197677
 30
65.37110974788666
 70
   192
  0
VERTEX
  5
3A4
330
39D
100
AcDbEntity
  8
A-GENM
370
    18
100
AcDbVertex
100
AcDbPolyFaceMeshVertex
 10
38.25828430652619
 20
-7.999999970197677
 30
65.37110974788666
 70
   192
  0
VERTEX
  5
3A5
330
39D
100
AcDbEntity
  8
A-GENM
370
    18
100
AcDbVertex
100
AcDbPolyFaceMeshVertex
 10
36.45828516483307
 20
-7.999999970197677
 30
64.83110818862916
 70
   192
  0
VERTEX
  5
3A6
330
39D
100
AcDbEntity
  8
A-GENM
370
    18
100
AcDbVertex
100
AcDbPolyFaceMeshVertex
 10
36.45828516483307
 20
-7.999999970197677
 30
63.12111082077027
 70
   192
  0
VERTEX
  5
3A7
330
39D
100
AcDbEntity
  8
A-GENM
370
    18
100
AcDbFaceRecord
 10
0.0
 20
0.0
 30
0.0
 70
   128
 71
     2
 72
    -3
 73
     8
 74
    -9
  0
VERTEX
  5
3A8
330
39D
100
AcDbEntity
  8
A-GENM
370
    18
100
AcDbFaceRecord
 10
0.0
 20
0.0
 30
0.0
 70
   128
 71
    -5
 72
     3
 73
     4
  0
VERTEX
  5
3A9
330
39D
100
AcDbEntity
  8
A-GENM
370
    18
100
AcDbFaceRecord
 10
0.0
 20
0.0
 30
0.0
 70
   128
 71
    -2
 72
     9
 73
     1
  0
VERTEX
  5
3AA
330
39D
100
AcDbEntity
  8
A-GENM
370
    18
100
AcDbFaceRecord
 10
0.0
 20
0.0
 30
0.0
 70
   128
 71
    -3
 72
     5
 73
    -6
 74
    -8
  0
VERTEX
  5
3AB
330
39D
100
AcDbEntity
  8
A-GENM
370
    18
100
AcDbFaceRecord
 10
0.0
 20
0.0
 30
0.0
 70
   128
 71
     7
 72
    -8
 73
     6
  0
SEQEND
  5
3AC
330
39D
100
AcDbEntity
  8
A-GENM
370
    18
  0
POLYLINE
  5
3AD
330
B4
100
AcDbEntity
  8
A-GENM
370
    18
100
AcDbPolyFaceMesh
 66
     1
 10
0.0
 20
0.0
 30
0.0
 70
    64
 71
     4
 72
     1
1001
REVIT
1002
{
1070
     4
1000
14732
1002
}
  0
VERTEX
  5
3AE
330
3AD
100
AcDbEntity
  8
A-GENM
370
    18
100
AcDbVertex
100
AcDbPolyFaceMeshVertex
 10
38.79828586578369
 20
-9.000000250339509
 30
63.12111082077027
 70
   192
  0
VERTEX
  5
3AF
330
3AD
100
AcDbEntity
  8
A-GENM
370
    18
100
AcDbVertex
100
AcDbPolyFaceMeshVertex
 10
38.79828586578369
 20
-7.999999970197677
 30
63.12111082077027
 70
   192
  0
VERTEX
  5
3B0
330
3AD
100
AcDbEntity
  8
A-GENM
370
    18
100
AcDbVertex
100
AcDbPolyFaceMeshVertex
 10
36.45828516483307
 20
-7.999999970197677
 30
63.12111082077027
 70
   192
  0
VERTEX
  5
3B1
330
3AD
100
AcDbEntity
  8
A-GENM
370
    18
100
AcDbVertex
100
AcDbPolyFaceMeshVertex
 10
36.45828516483307
 20
-9.000000250339509
 30
63.12111082077027
 70
   192
  0
VERTEX
  5
3B2
330
3AD
100
AcDbEntity
  8
A-GENM
370
    18
100
AcDbFaceRecord
 10
0.0
 20
0.0
 30
0.0
 70
   128
 71
     1
 72
     2
 73
     3
 74
     4
  0
SEQEND
  5
3B3
330
3AD
100
AcDbEntity
  8
A-GENM
370
    18
  0
POLYLINE
  5
3B4
330
B4
100
AcDbEntity
  8
A-GENM
370
    18
100
AcDbPolyFaceMesh
 66
     1
 10
0.0
 20
0.0
 30
0.0
 70
    64
 71
     4
 72
     1
1001
REVIT
1002
{
1070
     4
1000
14732
1002
}
  0
VERTEX
  5
3B5
330
3B4
100
AcDbEntity
  8
A-GENM
370
    18
100
AcDbVertex
100
AcDbPolyFaceMeshVertex
 10
36.45828516483307
 20
-9.000000250339509
 30
63.12111082077027
 70
   192
  0
VERTEX
  5
3B6
330
3B4
100
AcDbEntity
  8
A-GENM
370
    18
100
AcDbVertex
100
AcDbPolyFaceMeshVertex
 10
36.45828516483307
 20
-7.999999970197677
 30
63.12111082077027
 70
   192
  0
VERTEX
  5
3B7
330
3B4
100
AcDbEntity
  8
A-GENM
370
    18
100
AcDbVertex
100
AcDbPolyFaceMeshVertex
 10
36.45828516483307
 20
-7.999999970197677
 30
64.83110818862916
 70
   192
  0
VERTEX
  5
3B8
330
3B4
100
AcDbEntity
  8
A-GENM
370
    18
100
AcDbVertex
100
AcDbPolyFaceMeshVertex
 10
36.45828516483307
 20
-9.000000250339509
 30
64.83110818862916
 70
   192
  0
VERTEX
  5
3B9
330
3B4
100
AcDbEntity
  8
A-GENM
370
    18
100
AcDbFaceRecord
 10
0.0
 20
0.0
 30
0.0
 70
   128
 71
     1
 72
     2
 73
     3
 74
     4
  0
SEQEND
  5
3BA
330
3B4
100
AcDbEntity
  8
A-GENM
370
    18
  0
POLYLINE
  5
3BB
330
B4
100
AcDbEntity
  8
A-GENM
370
    18
100
AcDbPolyFaceMesh
 66
     1
 10
0.0
 20
0.0
 30
0.0
 70
    64
 71
     4
 72
     1
1001
REVIT
1002
{
1070
     4
1000
14732
1002
}
  0
VERTEX
  5
3BC
330
3BB
100
AcDbEntity
  8
A-GENM
370
    18
100
AcDbVertex
100
AcDbPolyFaceMeshVertex
 10
36.45828516483307
 20
-9.000000250339509
 30
64.83110818862916
 70
   192
  0
VERTEX
  5
3BD
330
3BB
100
AcDbEntity
  8
A-GENM
370
    18
100
AcDbVertex
100
AcDbPolyFaceMeshVertex
 10
36.45828516483307
 20
-7.999999970197677
 30
64.83110818862916
 70
   192
  0
VERTEX
  5
3BE
330
3BB
100
AcDbEntity
  8
A-GENM
370
    18
100
AcDbVertex
100
AcDbPolyFaceMeshVertex
 10
38.25828430652619
 20
-7.999999970197677
 30
65.37110974788666
 70
   192
  0
VERTEX
  5
3BF
330
3BB
100
AcDbEntity
  8
A-GENM
370
    18
100
AcDbVertex
100
AcDbPolyFaceMeshVertex
 10
38.25828430652619
 20
-9.000000250339509
 30
65.37110974788666
 70
   192
  0
VERTEX
  5
3C0
330
3BB
100
AcDbEntity
  8
A-GENM
370
    18
100
AcDbFaceRecord
 10
0.0
 20
0.0
 30
0.0
 70
   128
 71
     1
 72
     2
 73
     3
 74
     4
  0
SEQEND
  5
3C1
330
3BB
100
AcDbEntity
  8
A-GENM
370
    18
  0
POLYLINE
  5
3C2
330
B4
100
AcDbEntity
  8
A-GENM
370
    18
100
AcDbPolyFaceMesh
 66
     1
 10
0.0
 20
0.0
 30
0.0
 70
    64
 71
     4
 72
     1
1001
REVIT
1002
{
1070
     4
1000
14732
1002
}
  0
VERTEX
  5
3C3
330
3C2
100
AcDbEntity
  8
A-GENM
370
    18
100
AcDbVertex
100
AcDbPolyFaceMeshVertex
 10
38.25828430652619
 20
-9.000000250339509
 30
65.37110974788666
 70
   192
  0
VERTEX
  5
3C4
330
3C2
100
AcDbEntity
  8
A-GENM
370
    18
100
AcDbVertex
100
AcDbPolyFaceMeshVertex
 10
38.25828430652619
 20
-7.999999970197677
 30
65.37110974788666
 70
   192
  0
VERTEX
  5
3C5
330
3C2
100
AcDbEntity
  8
A-GENM
370
    18
100
AcDbVertex
100
AcDbPolyFaceMeshVertex
 10
36.45828516483307
 20
-7.999999970197677
 30
65.37110974788666
 70
   192
  0
VERTEX
  5
3C6
330
3C2
100
AcDbEntity
  8
A-GENM
370
    18
100
AcDbVertex
100
AcDbPolyFaceMeshVertex
 10
36.45828516483307
 20
-9.000000250339509
 30
65.37110974788666
 70
   192
  0
VERTEX
  5
3C7
330
3C2
100
AcDbEntity
  8
A-GENM
370
    18
100
AcDbFaceRecord
 10
0.0
 20
0.0
 30
0.0
 70
   128
 71
     1
 72
     2
 73
     3
 74
     4
  0
SEQEND
  5
3C8
330
3C2
100
AcDbEntity
  8
A-GENM
370
    18
  0
POLYLINE
  5
3C9
330
B4
100
AcDbEntity
  8
A-GENM
370
    18
100
AcDbPolyFaceMesh
 66
     1
 10
0.0
 20
0.0
 30
0.0
 70
    64
 71
     4
 72
     1
1001
REVIT
1002
{
1070
     4
1000
14732
1002
}
  0
VERTEX
  5
3CA
330
3C9
100
AcDbEntity
  8
A-GENM
370
    18
100
AcDbVertex
100
AcDbPolyFaceMeshVertex
 10
36.45828516483307
 20
-9.000000250339509
 30
65.37110974788666
 70
   192
  0
VERTEX
  5
3CB
330
3C9
100
AcDbEntity
  8
A-GENM
370
    18
100
AcDbVertex
100
AcDbPolyFaceMeshVertex
 10
36.45828516483307
 20
-7.999999970197677
 30
65.37110974788666
 70
   192
  0
VERTEX
  5
3CC
330
3C9
100
AcDbEntity
  8
A-GENM
370
    18
100
AcDbVertex
100
AcDbPolyFaceMeshVertex
 10
36.45828516483307
 20
-7.999999970197677
 30
66.81111087799073
 70
   192
  0
VERTEX
  5
3CD
330
3C9
100
AcDbEntity
  8
A-GENM
370
    18
100
AcDbVertex
100
AcDbPolyFaceMeshVertex
 10
36.45828516483307
 20
-9.000000250339509
 30
66.81111087799073
 70
   192
  0
VERTEX
  5
3CE
330
3C9
100
AcDbEntity
  8
A-GENM
370
    18
100
AcDbFaceRecord
 10
0.0
 20
0.0
 30
0.0
 70
   128
 71
     1
 72
     2
 73
     3
 74
     4
  0
SEQEND
  5
3CF
330
3C9
100
AcDbEntity
  8
A-GENM
370
    18
  0
POLYLINE
  5
3D0
330
B4
100
AcDbEntity
  8
A-GENM
370
    18
100
AcDbPolyFaceMesh
 66
     1
 10
0.0
 20
0.0
 30
0.0
 70
    64
 71
     4
 72
     1
1001
REVIT
1002
{
1070
     4
1000
14732
1002
}
  0
VERTEX
  5
3D1
330
3D0
100
AcDbEntity
  8
A-GENM
370
    18
100
AcDbVertex
100
AcDbPolyFaceMeshVertex
 10
36.45828516483307
 20
-9.000000250339509
 30
66.81111087799073
 70
   192
  0
VERTEX
  5
3D2
330
3D0
100
AcDbEntity
  8
A-GENM
370
    18
100
AcDbVertex
100
AcDbPolyFaceMeshVertex
 10
36.45828516483307
 20
-7.999999970197677
 30
66.81111087799073
 70
   192
  0
VERTEX
  5
3D3
330
3D0
100
AcDbEntity
  8
A-GENM
370
    18
100
AcDbVertex
100
AcDbPolyFaceMeshVertex
 10
38.70828409194947
 20
-7.999999970197677
 30
67.35110789537429
 70
   192
  0
VERTEX
  5
3D4
330
3D0
100
AcDbEntity
  8
A-GENM
370
    18
100
AcDbVertex
100
AcDbPolyFaceMeshVertex
 10
38.70828409194947
 20
-9.000000250339509
 30
67.35110789537429
 70
   192
  0
VERTEX
  5
3D5
330
3D0
100
AcDbEntity
  8
A-GENM
370
    18
100
AcDbFaceRecord
 10
0.0
 20
0.0
 30
0.0
 70
   128
 71
     1
 72
     2
 73
     3
 74
     4
  0
SEQEND
  5
3D6
330
3D0
100
AcDbEntity
  8
A-GENM
370
    18
  0
POLYLINE
  5
3D7
330
B4
100
AcDbEntity
  8
A-GENM
370
    18
100
AcDbPolyFaceMesh
 66
     1
 10
0.0
 20
0.0
 30
0.0
 70
    64
 71
     4
 72
     1
1001
REVIT
1002
{
1070
     4
1000
14732
1002
}
  0
VERTEX
  5
3D8
330
3D7
100
AcDbEntity
  8
A-GENM
370
    18
100
AcDbVertex
100
AcDbPolyFaceMeshVertex
 10
38.70828409194947
 20
-9.000000250339509
 30
67.35110789537429
 70
   192
  0
VERTEX
  5
3D9
330
3D7
100
AcDbEntity
  8
A-GENM
370
    18
100
AcDbVertex
100
AcDbPolyFaceMeshVertex
 10
38.70828409194947
 20
-7.999999970197677
 30
67.35110789537429
 70
   192
  0
VERTEX
  5
3DA
330
3D7
100
AcDbEntity
  8
A-GENM
370
    18
100
AcDbVertex
100
AcDbPolyFaceMeshVertex
 10
35.82828637361526
 20
-7.999999970197677
 30
67.35110789537429
 70
   192
  0
VERTEX
  5
3DB
330
3D7
100
AcDbEntity
  8
A-GENM
370
    18
100
AcDbVertex
100
AcDbPolyFaceMeshVertex
 10
35.82828637361526
 20
-9.000000250339509
 30
67.35110789537429
 70
   192
  0
VERTEX
  5
3DC
330
3D7
100
AcDbEntity
  8
A-GENM
370
    18
100
AcDbFaceRecord
 10
0.0
 20
0.0
 30
0.0
 70
   128
 71
     1
 72
     2
 73
     3
 74
     4
  0
SEQEND
  5
3DD
330
3D7
100
AcDbEntity
  8
A-GENM
370
    18
  0
POLYLINE
  5
3DE
330
B4
100
AcDbEntity
  8
A-GENM
370
    18
100
AcDbPolyFaceMesh
 66
     1
 10
0.0
 20
0.0
 30
0.0
 70
    64
 71
     4
 72
     1
1001
REVIT
1002
{
1070
     4
1000
14732
1002
}
  0
VERTEX
  5
3DF
330
3DE
100
AcDbEntity
  8
A-GENM
370
    18
100
AcDbVertex
100
AcDbPolyFaceMeshVertex
 10
35.82828637361526
 20
-9.000000250339509
 30
67.35110789537429
 70
   192
  0
VERTEX
  5
3E0
330
3DE
100
AcDbEntity
  8
A-GENM
370
    18
100
AcDbVertex
100
AcDbPolyFaceMeshVertex
 10
35.82828637361526
 20
-7.999999970197677
 30
67.35110789537429
 70
   192
  0
VERTEX
  5
3E1
330
3DE
100
AcDbEntity
  8
A-GENM
370
    18
100
AcDbVertex
100
AcDbPolyFaceMeshVertex
 10
35.82828637361526
 20
-7.999999970197677
 30
62.58110926151275
 70
   192
  0
VERTEX
  5
3E2
330
3DE
100
AcDbEntity
  8
A-GENM
370
    18
100
AcDbVertex
100
AcDbPolyFaceMeshVertex
 10
35.82828637361526
 20
-9.000000250339509
 30
62.58110926151275
 70
   192
  0
VERTEX
  5
3E3
330
3DE
100
AcDbEntity
  8
A-GENM
370
    18
100
AcDbFaceRecord
 10
0.0
 20
0.0
 30
0.0
 70
   128
 71
     1
 72
     2
 73
     3
 74
     4
  0
SEQEND
  5
3E4
330
3DE
100
AcDbEntity
  8
A-GENM
370
    18
  0
POLYLINE
  5
3E5
330
B4
100
AcDbEntity
  8
A-GENM
370
    18
100
AcDbPolyFaceMesh
 66
     1
 10
0.0
 20
0.0
 30
0.0
 70
    64
 71
     4
 72
     1
1001
REVIT
1002
{
1070
     4
1000
14732
1002
}
  0
VERTEX
  5
3E6
330
3E5
100
AcDbEntity
  8
A-GENM
370
    18
100
AcDbVertex
100
AcDbPolyFaceMeshVertex
 10
35.82828637361526
 20
-9.000000250339509
 30
62.58110926151275
 70
   192
  0
VERTEX
  5
3E7
330
3E5
100
AcDbEntity
  8
A-GENM
370
    18
100
AcDbVertex
100
AcDbPolyFaceMeshVertex
 10
35.82828637361526
 20
-7.999999970197677
 30
62.58110926151275
 70
   192
  0
VERTEX
  5
3E8
330
3E5
100
AcDbEntity
  8
A-GENM
370
    18
100
AcDbVertex
100
AcDbPolyFaceMeshVertex
 10
38.79828586578369
 20
-7.999999970197677
 30
63.12111082077027
 70
   192
  0
VERTEX
  5
3E9
330
3E5
100
AcDbEntity
  8
A-GENM
370
    18
100
AcDbVertex
100
AcDbPolyFaceMeshVertex
 10
38.79828586578369
 20
-9.000000250339509
 30
63.12111082077027
 70
   192
  0
VERTEX
  5
3EA
330
3E5
100
AcDbEntity
  8
A-GENM
370
    18
100
AcDbFaceRecord
 10
0.0
 20
0.0
 30
0.0
 70
   128
 71
     1
 72
     2
 73
     3
 74
     4
  0
SEQEND
  5
3EB
330
3E5
100
AcDbEntity
  8
A-GENM
370
    18
  0
POLYLINE
  5
3EC
330
B4
100
AcDbEntity
  8
A-GENM
370
    18
100
AcDbPolyFaceMesh
 66
     1
 10
0.0
 20
0.0
 30
0.0
 70
    64
 71
    12
 72
     7
1001
REVIT
1002
{
1070
     4
1000
14732
1002
}
  0
VERTEX
  5
3ED
330
3EC
100
AcDbEntity
  8
A-GENM
370
    18
100
AcDbVertex
100
AcDbPolyFaceMeshVertex
 10
43.11828471422195
 20
-9.000000250339509
 30
62.58110926151275
 70
   192
  0
VERTEX
  5
3EE
330
3EC
100
AcDbEntity
  8
A-GENM
370
    18
100
AcDbVertex
100
AcDbPolyFaceMeshVertex
 10
42.2182851433754
 20
-9.000000250339509
 30
64.79314266443252
 70
   192
  0
VERTEX
  5
3EF
330
3EC
100
AcDbEntity
  8
A-GENM
370
    18
100
AcDbVertex
100
AcDbPolyFaceMeshVertex
 10
43.02828748226166
 20
-9.000000250339509
 30
66.02220100164413
 70
   192
  0
VERTEX
  5
3F0
330
3EC
100
AcDbEntity
  8
A-GENM
370
    18
100
AcDbVertex
100
AcDbPolyFaceMeshVertex
 10
42.66547350883484
 20
-9.000000250339509
 30
66.93415478467942
 70
   192
  0
VERTEX
  5
3F1
330
3EC
100
AcDbEntity
  8
A-GENM
370
    18
100
AcDbVertex
100
AcDbPolyFaceMeshVertex
 10
41.54890830516815
 20
-9.000000250339509
 30
67.35110789537429
 70
   192
  0
VERTEX
  5
3F2
330
3EC
100
AcDbEntity
  8
A-GENM
370
    18
100
AcDbVertex
100
AcDbPolyFaceMeshVertex
 10
39.69828543663025
 20
-9.000000250339509
 30
67.35110789537429
 70
   192
  0
VERTEX
  5
3F3
330
3EC
100
AcDbEntity
  8
A-GENM
370
    18
100
AcDbVertex
100
AcDbPolyFaceMeshVertex
 10
40.32828422784805
 20
-9.000000250339509
 30
62.58110926151275
 70
   192
  0
VERTEX
  5
3F4
330
3EC
100
AcDbEntity
  8
A-GENM
370
    18
100
AcDbVertex
100
AcDbPolyFaceMeshVertex
 10
40.32828422784805
 20
-9.000000250339509
 30
64.65110918283463
 70
   192
  0
VERTEX
  5
3F5
330
3EC
100
AcDbEntity
  8
A-GENM
370
    18
100
AcDbVertex
100
AcDbPolyFaceMeshVertex
 10
41.60937881469727
 20
-9.000000250339509
 30
64.65110918283463
 70
   192
  0
VERTEX
  5
3F6
330
3EC
100
AcDbEntity
  8
A-GENM
370
    18
100
AcDbVertex
100
AcDbPolyFaceMeshVertex
 10
40.32828422784805
 20
-9.000000250339509
 30
65.19111074209213
 70
   192
  0
VERTEX
  5
3F7
330
3EC
100
AcDbEntity
  8
A-GENM
370
    18
100
AcDbVertex
100
AcDbPolyFaceMeshVertex
 10
40.32828422784805
 20
-9.000000250339509
 30
66.81111087799073
 70
   192
  0
VERTEX
  5
3F8
330
3EC
100
AcDbEntity
  8
A-GENM
370
    18
100
AcDbVertex
100
AcDbPolyFaceMeshVertex
 10
41.48844233751296
 20
-9.000000250339509
 30
65.19111074209213
 70
   192
  0
VERTEX
  5
3F9
330
3EC
100
AcDbEntity
  8
A-GENM
370
    18
100
AcDbFaceRecord
 10
0.0
 20
0.0
 30
0.0
 70
   128
 71
     9
 72
     1
 73
    -2
 74
   -12
  0
VERTEX
  5
3FA
330
3EC
100
AcDbEntity
  8
A-GENM
370
    18
100
AcDbFaceRecord
 10
0.0
 20
0.0
 30
0.0
 70
   128
 71
   -12
 72
     2
 73
     3
 74
    -4
  0
VERTEX
  5
3FB
330
3EC
100
AcDbEntity
  8
A-GENM
370
    18
100
AcDbFaceRecord
 10
0.0
 20
0.0
 30
0.0
 70
   128
 71
     8
 72
    -9
 73
    12
 74
   -10
  0
VERTEX
  5
3FC
330
3EC
100
AcDbEntity
  8
A-GENM
370
    18
100
AcDbFaceRecord
 10
0.0
 20
0.0
 30
0.0
 70
   128
 71
     7
 72
    -8
 73
     6
  0
VERTEX
  5
3FD
330
3EC
100
AcDbEntity
  8
A-GENM
370
    18
100
AcDbFaceRecord
 10
0.0
 20
0.0
 30
0.0
 70
   128
 71
   -12
 72
     4
 73
    -5
 74
    11
  0
VERTEX
  5
3FE
330
3EC
100
AcDbEntity
  8
A-GENM
370
    18
100
AcDbFaceRecord
 10
0.0
 20
0.0
 30
0.0
 70
   128
 71
    10
 72
   -11
 73
    -6
 74
    -8
  0
VERTEX
  5
3FF
330
3EC
100
AcDbEntity
  8
A-GENM
370
    18
100
AcDbFaceRecord
 10
0.0
 20
0.0
 30
0.0
 70
   128
 71
    -6
 72
   -11
 73
     5
  0
SEQEND
  5
400
330
3EC
100
AcDbEntity
  8
A-GENM
370
    18
  0
POLYLINE
  5
401
330
B4
100
AcDbEntity
  8
A-GENM
370
    18
100
AcDbPolyFaceMesh
 66
     1
 10
0.0
 20
0.0
 30
0.0
 70
    64
 71
    12
 72
     8
1001
REVIT
1002
{
1070
     4
1000
14732
1002
}
  0
VERTEX
  5
402
330
401
100
AcDbEntity
  8
A-GENM
370
    18
100
AcDbVertex
100
AcDbPolyFaceMeshVertex
 10
43.11828471422195
 20
-7.999999970197677
 30
62.58110926151275
 70
   192
  0
VERTEX
  5
403
330
401
100
AcDbEntity
  8
A-GENM
370
    18
100
AcDbVertex
100
AcDbPolyFaceMeshVertex
 10
41.60937881469727
 20
-7.999999970197677
 30
64.65110918283463
 70
   192
  0
VERTEX
  5
404
330
401
100
AcDbEntity
  8
A-GENM
370
    18
100
AcDbVertex
100
AcDbPolyFaceMeshVertex
 10
40.32828422784805
 20
-7.999999970197677
 30
64.65110918283463
 70
   192
  0
VERTEX
  5
405
330
401
100
AcDbEntity
  8
A-GENM
370
    18
100
AcDbVertex
100
AcDbPolyFaceMeshVertex
 10
40.32828422784805
 20
-7.999999970197677
 30
62.58110926151275
 70
   192
  0
VERTEX
  5
406
330
401
100
AcDbEntity
  8
A-GENM
370
    18
100
AcDbVertex
100
AcDbPolyFaceMeshVertex
 10
39.69828543663025
 20
-7.999999970197677
 30
67.35110789537429
 70
   192
  0
VERTEX
  5
407
330
401
100
AcDbEntity
  8
A-GENM
370
    18
100
AcDbVertex
100
AcDbPolyFaceMeshVertex
 10
41.54890830516815
 20
-7.999999970197677
 30
67.35110789537429
 70
   192
  0
VERTEX
  5
408
330
401
100
AcDbEntity
  8
A-GENM
370
    18
100
AcDbVertex
100
AcDbPolyFaceMeshVertex
 10
42.66547350883484
 20
-7.999999970197677
 30
66.93415478467942
 70
   192
  0
VERTEX
  5
409
330
401
100
AcDbEntity
  8
A-GENM
370
    18
100
AcDbVertex
100
AcDbPolyFaceMeshVertex
 10
43.02828748226166
 20
-7.999999970197677
 30
66.02220100164413
 70
   192
  0
VERTEX
  5
40A
330
401
100
AcDbEntity
  8
A-GENM
370
    18
100
AcDbVertex
100
AcDbPolyFaceMeshVertex
 10
42.2182851433754
 20
-7.999999970197677
 30
64.79314266443252
 70
   192
  0
VERTEX
  5
40B
330
401
100
AcDbEntity
  8
A-GENM
370
    18
100
AcDbVertex
100
AcDbPolyFaceMeshVertex
 10
40.32828422784805
 20
-7.999999970197677
 30
65.19111074209213
 70
   192
  0
VERTEX
  5
40C
330
401
100
AcDbEntity
  8
A-GENM
370
    18
100
AcDbVertex
100
AcDbPolyFaceMeshVertex
 10
41.48844233751296
 20
-7.999999970197677
 30
65.19111074209213
 70
   192
  0
VERTEX
  5
40D
330
401
100
AcDbEntity
  8
A-GENM
370
    18
100
AcDbVertex
100
AcDbPolyFaceMeshVertex
 10
40.32828422784805
 20
-7.999999970197677
 30
66.81111087799073
 70
   192
  0
VERTEX
  5
40E
330
401
100
AcDbEntity
  8
A-GENM
370
    18
100
AcDbFaceRecord
 10
0.0
 20
0.0
 30
0.0
 70
   128
 71
     6
 72
    -7
 73
    11
 74
   -12
  0
VERTEX
  5
40F
330
401
100
AcDbEntity
  8
A-GENM
370
    18
100
AcDbFaceRecord
 10
0.0
 20
0.0
 30
0.0
 70
   128
 71
    -5
 72
    12
 73
   -10
 74
    -3
  0
VERTEX
  5
410
330
401
100
AcDbEntity
  8
A-GENM
370
    18
100
AcDbFaceRecord
 10
0.0
 20
0.0
 30
0.0
 70
   128
 71
   -12
 72
     5
 73
    -6
  0
VERTEX
  5
411
330
401
100
AcDbEntity
  8
A-GENM
370
    18
100
AcDbFaceRecord
 10
0.0
 20
0.0
 30
0.0
 70
   128
 71
   -11
 72
     7
 73
    -8
  0
VERTEX
  5
412
330
401
100
AcDbEntity
  8
A-GENM
370
    18
100
AcDbFaceRecord
 10
0.0
 20
0.0
 30
0.0
 70
   128
 71
    -9
 72
    -2
 73
   -11
 74
     8
  0
VERTEX
  5
413
330
401
100
AcDbEntity
  8
A-GENM
370
    18
100
AcDbFaceRecord
 10
0.0
 20
0.0
 30
0.0
 70
   128
 71
    -2
 72
     9
 73
     1
  0
VERTEX
  5
414
330
401
100
AcDbEntity
  8
A-GENM
370
    18
100
AcDbFaceRecord
 10
0.0
 20
0.0
 30
0.0
 70
   128
 71
   -11
 72
     2
 73
    -3
 74
    10
  0
VERTEX
  5
415
330
401
100
AcDbEntity
  8
A-GENM
370
    18
100
AcDbFaceRecord
 10
0.0
 20
0.0
 30
0.0
 70
   128
 71
     3
 72
     4
 73
    -5
  0
SEQEND
  5
416
330
401
100
AcDbEntity
  8
A-GENM
370
    18
  0
POLYLINE
  5
417
330
B4
100
AcDbEntity
  8
A-GENM
370
    18
100
AcDbPolyFaceMesh
 66
     1
 10
0.0
 20
0.0
 30
0.0
 70
    64
 71
     4
 72
     1
1001
REVIT
1002
{
1070
     4
1000
14732
1002
}
  0
VERTEX
  5
418
330
417
100
AcDbEntity
  8
A-GENM
370
    18
100
AcDbVertex
100
AcDbPolyFaceMeshVertex
 10
43.11828471422195
 20
-9.000000250339509
 30
62.58110926151275
 70
   192
  0
VERTEX
  5
419
330
417
100
AcDbEntity
  8
A-GENM
370
    18
100
AcDbVertex
100
AcDbPolyFaceMeshVertex
 10
43.11828471422195
 20
-7.999999970197677
 30
62.58110926151275
 70
   192
  0
VERTEX
  5
41A
330
417
100
AcDbEntity
  8
A-GENM
370
    18
100
AcDbVertex
100
AcDbPolyFaceMeshVertex
 10
42.2182851433754
 20
-7.999999970197677
 30
64.79314266443252
 70
   192
  0
VERTEX
  5
41B
330
417
100
AcDbEntity
  8
A-GENM
370
    18
100
AcDbVertex
100
AcDbPolyFaceMeshVertex
 10
42.2182851433754
 20
-9.000000250339509
 30
64.79314266443252
 70
   192
  0
VERTEX
  5
41C
330
417
100
AcDbEntity
  8
A-GENM
370
    18
100
AcDbFaceRecord
 10
0.0
 20
0.0
 30
0.0
 70
   128
 71
     1
 72
     2
 73
     3
 74
     4
  0
SEQEND
  5
41D
330
417
100
AcDbEntity
  8
A-GENM
370
    18
  0
POLYLINE
  5
41E
330
B4
100
AcDbEntity
  8
A-GENM
370
    18
100
AcDbPolyFaceMesh
 66
     1
 10
0.0
 20
0.0
 30
0.0
 70
    64
 71
     4
 72
     1
1001
REVIT
1002
{
1070
     4
1000
14732
1002
}
  0
VERTEX
  5
41F
330
41E
100
AcDbEntity
  8
A-GENM
370
    18
100
AcDbVertex
100
AcDbPolyFaceMeshVertex
 10
42.2182851433754
 20
-9.000000250339509
 30
64.79314266443252
 70
   192
  0
VERTEX
  5
420
330
41E
100
AcDbEntity
  8
A-GENM
370
    18
100
AcDbVertex
100
AcDbPolyFaceMeshVertex
 10
42.2182851433754
 20
-7.999999970197677
 30
64.79314266443252
 70
   192
  0
VERTEX
  5
421
330
41E
100
AcDbEntity
  8
A-GENM
370
    18
100
AcDbVertex
100
AcDbPolyFaceMeshVertex
 10
43.02828748226166
 20
-7.999999970197677
 30
66.02220100164413
 70
   192
  0
VERTEX
  5
422
330
41E
100
AcDbEntity
  8
A-GENM
370
    18
100
AcDbVertex
100
AcDbPolyFaceMeshVertex
 10
43.02828748226166
 20
-9.000000250339509
 30
66.02220100164413
 70
   192
  0
VERTEX
  5
423
330
41E
100
AcDbEntity
  8
A-GENM
370
    18
100
AcDbFaceRecord
 10
0.0
 20
0.0
 30
0.0
 70
   128
 71
     1
 72
     2
 73
     3
 74
     4
  0
SEQEND
  5
424
330
41E
100
AcDbEntity
  8
A-GENM
370
    18
  0
POLYLINE
  5
425
330
B4
100
AcDbEntity
  8
A-GENM
370
    18
100
AcDbPolyFaceMesh
 66
     1
 10
0.0
 20
0.0
 30
0.0
 70
    64
 71
     4
 72
     1
1001
REVIT
1002
{
1070
     4
1000
14732
1002
}
  0
VERTEX
  5
426
330
425
100
AcDbEntity
  8
A-GENM
370
    18
100
AcDbVertex
100
AcDbPolyFaceMeshVertex
 10
43.02828748226166
 20
-9.000000250339509
 30
66.02220100164413
 70
   192
  0
VERTEX
  5
427
330
425
100
AcDbEntity
  8
A-GENM
370
    18
100
AcDbVertex
100
AcDbPolyFaceMeshVertex
 10
43.02828748226166
 20
-7.999999970197677
 30
66.02220100164413
 70
   192
  0
VERTEX
  5
428
330
425
100
AcDbEntity
  8
A-GENM
370
    18
100
AcDbVertex
100
AcDbPolyFaceMeshVertex
 10
42.66547350883484
 20
-7.999999970197677
 30
66.93415478467942
 70
   192
  0
VERTEX
  5
429
330
425
100
AcDbEntity
  8
A-GENM
370
    18
100
AcDbVertex
100
AcDbPolyFaceMeshVertex
 10
42.66547350883484
 20
-9.000000250339509
 30
66.93415478467942
 70
   192
  0
VERTEX
  5
42A
330
425
100
AcDbEntity
  8
A-GENM
370
    18
100
AcDbFaceRecord
 10
0.0
 20
0.0
 30
0.0
 70
   128
 71
     1
 72
     2
 73
     3
 74
     4
  0
SEQEND
  5
42B
330
425
100
AcDbEntity
  8
A-GENM
370
    18
  0
POLYLINE
  5
42C
330
B4
100
AcDbEntity
  8
A-GENM
370
    18
100
AcDbPolyFaceMesh
 66
     1
 10
0.0
 20
0.0
 30
0.0
 70
    64
 71
     4
 72
     1
1001
REVIT
1002
{
1070
     4
1000
14732
1002
}
  0
VERTEX
  5
42D
330
42C
100
AcDbEntity
  8
A-GENM
370
    18
100
AcDbVertex
100
AcDbPolyFaceMeshVertex
 10
42.66547350883484
 20
-9.000000250339509
 30
66.93415478467942
 70
   192
  0
VERTEX
  5
42E
330
42C
100
AcDbEntity
  8
A-GENM
370
    18
100
AcDbVertex
100
AcDbPolyFaceMeshVertex
 10
42.66547350883484
 20
-7.999999970197677
 30
66.93415478467942
 70
   192
  0
VERTEX
  5
42F
330
42C
100
AcDbEntity
  8
A-GENM
370
    18
100
AcDbVertex
100
AcDbPolyFaceMeshVertex
 10
41.54890830516815
 20
-7.999999970197677
 30
67.35110789537429
 70
   192
  0
VERTEX
  5
430
330
42C
100
AcDbEntity
  8
A-GENM
370
    18
100
AcDbVertex
100
AcDbPolyFaceMeshVertex
 10
41.54890830516815
 20
-9.000000250339509
 30
67.35110789537429
 70
   192
  0
VERTEX
  5
431
330
42C
100
AcDbEntity
  8
A-GENM
370
    18
100
AcDbFaceRecord
 10
0.0
 20
0.0
 30
0.0
 70
   128
 71
     1
 72
     2
 73
     3
 74
     4
  0
SEQEND
  5
432
330
42C
100
AcDbEntity
  8
A-GENM
370
    18
  0
POLYLINE
  5
433
330
B4
100
AcDbEntity
  8
A-GENM
370
    18
100
AcDbPolyFaceMesh
 66
     1
 10
0.0
 20
0.0
 30
0.0
 70
    64
 71
     4
 72
     1
1001
REVIT
1002
{
1070
     4
1000
14732
1002
}
  0
VERTEX
  5
434
330
433
100
AcDbEntity
  8
A-GENM
370
    18
100
AcDbVertex
100
AcDbPolyFaceMeshVertex
 10
41.54890830516815
 20
-9.000000250339509
 30
67.35110789537429
 70
   192
  0
VERTEX
  5
435
330
433
100
AcDbEntity
  8
A-GENM
370
    18
100
AcDbVertex
100
AcDbPolyFaceMeshVertex
 10
41.54890830516815
 20
-7.999999970197677
 30
67.35110789537429
 70
   192
  0
VERTEX
  5
436
330
433
100
AcDbEntity
  8
A-GENM
370
    18
100
AcDbVertex
100
AcDbPolyFaceMeshVertex
 10
39.69828543663025
 20
-7.999999970197677
 30
67.35110789537429
 70
   192
  0
VERTEX
  5
437
330
433
100
AcDbEntity
  8
A-GENM
370
    18
100
AcDbVertex
100
AcDbPolyFaceMeshVertex
 10
39.69828543663025
 20
-9.000000250339509
 30
67.35110789537429
 70
   192
  0
VERTEX
  5
438
330
433
100
AcDbEntity
  8
A-GENM
370
    18
100
AcDbFaceRecord
 10
0.0
 20
0.0
 30
0.0
 70
   128
 71
     1
 72
     2
 73
     3
 74
     4
  0
SEQEND
  5
439
330
433
100
AcDbEntity
  8
A-GENM
370
    18
  0
POLYLINE
  5
43A
330
B4
100
AcDbEntity
  8
A-GENM
370
    18
100
AcDbPolyFaceMesh
 66
     1
 10
0.0
 20
0.0
 30
0.0
 70
    64
 71
     4
 72
     1
1001
REVIT
1002
{
1070
     4
1000
14732
1002
}
  0
VERTEX
  5
43B
330
43A
100
AcDbEntity
  8
A-GENM
370
    18
100
AcDbVertex
100
AcDbPolyFaceMeshVertex
 10
39.69828543663025
 20
-9.000000250339509
 30
67.35110789537429
 70
   192
  0
VERTEX
  5
43C
330
43A
100
AcDbEntity
  8
A-GENM
370
    18
100
AcDbVertex
100
AcDbPolyFaceMeshVertex
 10
39.69828543663025
 20
-7.999999970197677
 30
67.35110789537429
 70
   192
  0
VERTEX
  5
43D
330
43A
100
AcDbEntity
  8
A-GENM
370
    18
100
AcDbVertex
100
AcDbPolyFaceMeshVertex
 10
40.32828422784805
 20
-7.999999970197677
 30
62.58110926151275
 70
   192
  0
VERTEX
  5
43E
330
43A
100
AcDbEntity
  8
A-GENM
370
    18
100
AcDbVertex
100
AcDbPolyFaceMeshVertex
 10
40.32828422784805
 20
-9.000000250339509
 30
62.58110926151275
 70
   192
  0
VERTEX
  5
43F
330
43A
100
AcDbEntity
  8
A-GENM
370
    18
100
AcDbFaceRecord
 10
0.0
 20
0.0
 30
0.0
 70
   128
 71
     1
 72
     2
 73
     3
 74
     4
  0
SEQEND
  5
440
330
43A
100
AcDbEntity
  8
A-GENM
370
    18
  0
POLYLINE
  5
441
330
B4
100
AcDbEntity
  8
A-GENM
370
    18
100
AcDbPolyFaceMesh
 66
     1
 10
0.0
 20
0.0
 30
0.0
 70
    64
 71
     4
 72
     1
1001
REVIT
1002
{
1070
     4
1000
14732
1002
}
  0
VERTEX
  5
442
330
441
100
AcDbEntity
  8
A-GENM
370
    18
100
AcDbVertex
100
AcDbPolyFaceMeshVertex
 10
40.32828422784805
 20
-9.000000250339509
 30
62.58110926151275
 70
   192
  0
VERTEX
  5
443
330
441
100
AcDbEntity
  8
A-GENM
370
    18
100
AcDbVertex
100
AcDbPolyFaceMeshVertex
 10
40.32828422784805
 20
-7.999999970197677
 30
62.58110926151275
 70
   192
  0
VERTEX
  5
444
330
441
100
AcDbEntity
  8
A-GENM
370
    18
100
AcDbVertex
100
AcDbPolyFaceMeshVertex
 10
40.32828422784805
 20
-7.999999970197677
 30
64.65110918283463
 70
   192
  0
VERTEX
  5
445
330
441
100
AcDbEntity
  8
A-GENM
370
    18
100
AcDbVertex
100
AcDbPolyFaceMeshVertex
 10
40.32828422784805
 20
-9.000000250339509
 30
64.65110918283463
 70
   192
  0
VERTEX
  5
446
330
441
100
AcDbEntity
  8
A-GENM
370
    18
100
AcDbFaceRecord
 10
0.0
 20
0.0
 30
0.0
 70
   128
 71
     1
 72
     2
 73
     3
 74
     4
  0
SEQEND
  5
447
330
441
100
AcDbEntity
  8
A-GENM
370
    18
  0
POLYLINE
  5
448
330
B4
100
AcDbEntity
  8
A-GENM
370
    18
100
AcDbPolyFaceMesh
 66
     1
 10
0.0
 20
0.0
 30
0.0
 70
    64
 71
     4
 72
     1
1001
REVIT
1002
{
1070
     4
1000
14732
1002
}
  0
VERTEX
  5
449
330
448
100
AcDbEntity
  8
A-GENM
370
    18
100
AcDbVertex
100
AcDbPolyFaceMeshVertex
 10
40.32828422784805
 20
-9.000000250339509
 30
64.65110918283463
 70
   192
  0
VERTEX
  5
44A
330
448
100
AcDbEntity
  8
A-GENM
370
    18
100
AcDbVertex
100
AcDbPolyFaceMeshVertex
 10
40.32828422784805
 20
-7.999999970197677
 30
64.65110918283463
 70
   192
  0
VERTEX
  5
44B
330
448
100
AcDbEntity
  8
A-GENM
370
    18
100
AcDbVertex
100
AcDbPolyFaceMeshVertex
 10
41.60937881469727
 20
-7.999999970197677
 30
64.65110918283463
 70
   192
  0
VERTEX
  5
44C
330
448
100
AcDbEntity
  8
A-GENM
370
    18
100
AcDbVertex
100
AcDbPolyFaceMeshVertex
 10
41.60937881469727
 20
-9.000000250339509
 30
64.65110918283463
 70
   192
  0
VERTEX
  5
44D
330
448
100
AcDbEntity
  8
A-GENM
370
    18
100
AcDbFaceRecord
 10
0.0
 20
0.0
 30
0.0
 70
   128
 71
     1
 72
     2
 73
     3
 74
     4
  0
SEQEND
  5
44E
330
448
100
AcDbEntity
  8
A-GENM
370
    18
  0
POLYLINE
  5
44F
330
B4
100
AcDbEntity
  8
A-GENM
370
    18
100
AcDbPolyFaceMesh
 66
     1
 10
0.0
 20
0.0
 30
0.0
 70
    64
 71
     4
 72
     1
1001
REVIT
1002
{
1070
     4
1000
14732
1002
}
  0
VERTEX
  5
450
330
44F
100
AcDbEntity
  8
A-GENM
370
    18
100
AcDbVertex
100
AcDbPolyFaceMeshVertex
 10
41.60937881469727
 20
-9.000000250339509
 30
64.65110918283463
 70
   192
  0
VERTEX
  5
451
330
44F
100
AcDbEntity
  8
A-GENM
370
    18
100
AcDbVertex
100
AcDbPolyFaceMeshVertex
 10
41.60937881469727
 20
-7.999999970197677
 30
64.65110918283463
 70
   192
  0
VERTEX
  5
452
330
44F
100
AcDbEntity
  8
A-GENM
370
    18
100
AcDbVertex
100
AcDbPolyFaceMeshVertex
 10
43.11828471422195
 20
-7.999999970197677
 30
62.58110926151275
 70
   192
  0
VERTEX
  5
453
330
44F
100
AcDbEntity
  8
A-GENM
370
    18
100
AcDbVertex
100
AcDbPolyFaceMeshVertex
 10
43.11828471422195
 20
-9.000000250339509
 30
62.58110926151275
 70
   192
  0
VERTEX
  5
454
330
44F
100
AcDbEntity
  8
A-GENM
370
    18
100
AcDbFaceRecord
 10
0.0
 20
0.0
 30
0.0
 70
   128
 71
     1
 72
     2
 73
     3
 74
     4
  0
SEQEND
  5
455
330
44F
100
AcDbEntity
  8
A-GENM
370
    18
  0
POLYLINE
  5
456
330
B4
100
AcDbEntity
  8
A-GENM
370
    18
100
AcDbPolyFaceMesh
 66
     1
 10
0.0
 20
0.0
 30
0.0
 70
    64
 71
     4
 72
     1
1001
REVIT
1002
{
1070
     4
1000
14732
1002
}
  0
VERTEX
  5
457
330
456
100
AcDbEntity
  8
A-GENM
370
    18
100
AcDbVertex
100
AcDbPolyFaceMeshVertex
 10
40.32828422784805
 20
-9.000000250339509
 30
65.19111074209213
 70
   192
  0
VERTEX
  5
458
330
456
100
AcDbEntity
  8
A-GENM
370
    18
100
AcDbVertex
100
AcDbPolyFaceMeshVertex
 10
40.32828422784805
 20
-7.999999970197677
 30
65.19111074209213
 70
   192
  0
VERTEX
  5
459
330
456
100
AcDbEntity
  8
A-GENM
370
    18
100
AcDbVertex
100
AcDbPolyFaceMeshVertex
 10
40.32828422784805
 20
-7.999999970197677
 30
66.81111087799073
 70
   192
  0
VERTEX
  5
45A
330
456
100
AcDbEntity
  8
A-GENM
370
    18
100
AcDbVertex
100
AcDbPolyFaceMeshVertex
 10
40.32828422784805
 20
-9.000000250339509
 30
66.81111087799073
 70
   192
  0
VERTEX
  5
45B
330
456
100
AcDbEntity
  8
A-GENM
370
    18
100
AcDbFaceRecord
 10
0.0
 20
0.0
 30
0.0
 70
   128
 71
     1
 72
     2
 73
     3
 74
     4
  0
SEQEND
  5
45C
330
456
100
AcDbEntity
  8
A-GENM
370
    18
  0
POLYLINE
  5
45D
330
B4
100
AcDbEntity
  8
A-GENM
370
    18
100
AcDbPolyFaceMesh
 66
     1
 10
0.0
 20
0.0
 30
0.0
 70
    64
 71
     4
 72
     1
1001
REVIT
1002
{
1070
     4
1000
14732
1002
}
  0
VERTEX
  5
45E
330
45D
100
AcDbEntity
  8
A-GENM
370
    18
100
AcDbVertex
100
AcDbPolyFaceMeshVertex
 10
40.32828422784805
 20
-9.000000250339509
 30
66.81111087799073
 70
   192
  0
VERTEX
  5
45F
330
45D
100
AcDbEntity
  8
A-GENM
370
    18
100
AcDbVertex
100
AcDbPolyFaceMeshVertex
 10
40.32828422784805
 20
-7.999999970197677
 30
66.81111087799073
 70
   192
  0
VERTEX
  5
460
330
45D
100
AcDbEntity
  8
A-GENM
370
    18
100
AcDbVertex
100
AcDbPolyFaceMeshVertex
 10
41.48844233751296
 20
-7.999999970197677
 30
65.19111074209213
 70
   192
  0
VERTEX
  5
461
330
45D
100
AcDbEntity
  8
A-GENM
370
    18
100
AcDbVertex
100
AcDbPolyFaceMeshVertex
 10
41.48844233751296
 20
-9.000000250339509
 30
65.19111074209213
 70
   192
  0
VERTEX
  5
462
330
45D
100
AcDbEntity
  8
A-GENM
370
    18
100
AcDbFaceRecord
 10
0.0
 20
0.0
 30
0.0
 70
   128
 71
     1
 72
     2
 73
     3
 74
     4
  0
SEQEND
  5
463
330
45D
100
AcDbEntity
  8
A-GENM
370
    18
  0
POLYLINE
  5
464
330
B4
100
AcDbEntity
  8
A-GENM
370
    18
100
AcDbPolyFaceMesh
 66
     1
 10
0.0
 20
0.0
 30
0.0
 70
    64
 71
     4
 72
     1
1001
REVIT
1002
{
1070
     4
1000
14732
1002
}
  0
VERTEX
  5
465
330
464
100
AcDbEntity
  8
A-GENM
370
    18
100
AcDbVertex
100
AcDbPolyFaceMeshVertex
 10
41.48844233751296
 20
-9.000000250339509
 30
65.19111074209213
 70
   192
  0
VERTEX
  5
466
330
464
100
AcDbEntity
  8
A-GENM
370
    18
100
AcDbVertex
100
AcDbPolyFaceMeshVertex
 10
41.48844233751296
 20
-7.999999970197677
 30
65.19111074209213
 70
   192
  0
VERTEX
  5
467
330
464
100
AcDbEntity
  8
A-GENM
370
    18
100
AcDbVertex
100
AcDbPolyFaceMeshVertex
 10
40.32828422784805
 20
-7.999999970197677
 30
65.19111074209213
 70
   192
  0
VERTEX
  5
468
330
464
100
AcDbEntity
  8
A-GENM
370
    18
100
AcDbVertex
100
AcDbPolyFaceMeshVertex
 10
40.32828422784805
 20
-9.000000250339509
 30
65.19111074209213
 70
   192
  0
VERTEX
  5
469
330
464
100
AcDbEntity
  8
A-GENM
370
    18
100
AcDbFaceRecord
 10
0.0
 20
0.0
 30
0.0
 70
   128
 71
     1
 72
     2
 73
     3
 74
     4
  0
SEQEND
  5
46A
330
464
100
AcDbEntity
  8
A-GENM
370
    18
  0
POLYLINE
  5
46B
330
B4
100
AcDbEntity
  8
A-GENM
370
    18
100
AcDbPolyFaceMesh
 66
     1
 10
0.0
 20
0.0
 30
0.0
 70
    64
 71
     4
 72
     1
1001
REVIT
1002
{
1070
     4
1000
14732
1002
}
  0
VERTEX
  5
46C
330
46B
100
AcDbEntity
  8
A-GENM
370
    18
100
AcDbVertex
100
AcDbPolyFaceMeshVertex
 10
44.64828761816025
 20
-9.000000250339509
 30
62.58110926151275
 70
   192
  0
VERTEX
  5
46D
330
46B
100
AcDbEntity
  8
A-GENM
370
    18
100
AcDbVertex
100
AcDbPolyFaceMeshVertex
 10
44.64828761816025
 20
-7.999999970197677
 30
62.58110926151275
 70
   192
  0
VERTEX
  5
46E
330
46B
100
AcDbEntity
  8
A-GENM
370
    18
100
AcDbVertex
100
AcDbPolyFaceMeshVertex
 10
44.01828428506851
 20
-7.999999970197677
 30
67.35110789537429
 70
   192
  0
VERTEX
  5
46F
330
46B
100
AcDbEntity
  8
A-GENM
370
    18
100
AcDbVertex
100
AcDbPolyFaceMeshVertex
 10
44.01828428506851
 20
-9.000000250339509
 30
67.35110789537429
 70
   192
  0
VERTEX
  5
470
330
46B
100
AcDbEntity
  8
A-GENM
370
    18
100
AcDbFaceRecord
 10
0.0
 20
0.0
 30
0.0
 70
   128
 71
     1
 72
     2
 73
     3
 74
     4
  0
SEQEND
  5
471
330
46B
100
AcDbEntity
  8
A-GENM
370
    18
  0
POLYLINE
  5
472
330
B4
100
AcDbEntity
  8
A-GENM
370
    18
100
AcDbPolyFaceMesh
 66
     1
 10
0.0
 20
0.0
 30
0.0
 70
    64
 71
     4
 72
     1
1001
REVIT
1002
{
1070
     4
1000
14732
1002
}
  0
VERTEX
  5
473
330
472
100
AcDbEntity
  8
A-GENM
370
    18
100
AcDbVertex
100
AcDbPolyFaceMeshVertex
 10
44.01828428506851
 20
-9.000000250339509
 30
67.35110789537429
 70
   192
  0
VERTEX
  5
474
330
472
100
AcDbEntity
  8
A-GENM
370
    18
100
AcDbVertex
100
AcDbPolyFaceMeshVertex
 10
44.01828428506851
 20
-7.999999970197677
 30
67.35110789537429
 70
   192
  0
VERTEX
  5
475
330
472
100
AcDbEntity
  8
A-GENM
370
    18
100
AcDbVertex
100
AcDbPolyFaceMeshVertex
 10
44.64828761816025
 20
-7.999999970197677
 30
62.58110926151275
 70
   192
  0
VERTEX
  5
476
330
472
100
AcDbEntity
  8
A-GENM
370
    18
100
AcDbVertex
100
AcDbPolyFaceMeshVertex
 10
44.64828761816025
 20
-9.000000250339509
 30
62.58110926151275
 70
   192
  0
VERTEX
  5
477
330
472
100
AcDbEntity
  8
A-GENM
370
    18
100
AcDbFaceRecord
 10
0.0
 20
0.0
 30
0.0
 70
   128
 71
     1
 72
     2
 73
     3
 74
     4
  0
SEQEND
  5
478
330
472
100
AcDbEntity
  8
A-GENM
370
    18
  0
POLYLINE
  5
479
330
B4
100
AcDbEntity
  8
A-GENM
370
    18
100
AcDbPolyFaceMesh
 66
     1
 10
0.0
 20
0.0
 30
0.0
 70
    64
 71
     5
 72
     2
1001
REVIT
1002
{
1070
     4
1000
14732
1002
}
  0
VERTEX
  5
47A
330
479
100
AcDbEntity
  8
A-GENM
370
    18
100
AcDbVertex
100
AcDbPolyFaceMeshVertex
 10
47.2582845568657
 20
-9.000000250339509
 30
62.58110926151275
 70
   192
  0
VERTEX
  5
47B
330
479
100
AcDbEntity
  8
A-GENM
370
    18
100
AcDbVertex
100
AcDbPolyFaceMeshVertex
 10
47.2582845568657
 20
-9.000000250339509
 30
66.81111087799073
 70
   192
  0
VERTEX
  5
47C
330
479
100
AcDbEntity
  8
A-GENM
370
    18
100
AcDbVertex
100
AcDbPolyFaceMeshVertex
 10
48.60828391313553
 20
-9.000000250339509
 30
67.35110789537429
 70
   192
  0
VERTEX
  5
47D
330
479
100
AcDbEntity
  8
A-GENM
370
    18
100
AcDbVertex
100
AcDbPolyFaceMeshVertex
 10
45.27828640937805
 20
-9.000000250339509
 30
66.81111087799073
 70
   192
  0
VERTEX
  5
47E
330
479
100
AcDbEntity
  8
A-GENM
370
    18
100
AcDbVertex
100
AcDbPolyFaceMeshVertex
 10
46.62828576564788
 20
-9.000000250339509
 30
66.81111087799073
 70
   192
  0
VERTEX
  5
47F
330
479
100
AcDbEntity
  8
A-GENM
370
    18
100
AcDbFaceRecord
 10
0.0
 20
0.0
 30
0.0
 70
   128
 71
     1
 72
    -2
 73
     5
  0
VERTEX
  5
480
330
479
100
AcDbEntity
  8
A-GENM
370
    18
100
AcDbFaceRecord
 10
0.0
 20
0.0
 30
0.0
 70
   128
 71
     3
 72
     4
 73
    -5
 74
     2
  0
SEQEND
  5
481
330
479
100
AcDbEntity
  8
A-GENM
370
    18
  0
POLYLINE
  5
482
330
B4
100
AcDbEntity
  8
A-GENM
370
    18
100
AcDbPolyFaceMesh
 66
     1
 10
0.0
 20
0.0
 30
0.0
 70
    64
 71
     5
 72
     2
1001
REVIT
1002
{
1070
     4
1000
14732
1002
}
  0
VERTEX
  5
483
330
482
100
AcDbEntity
  8
A-GENM
370
    18
100
AcDbVertex
100
AcDbPolyFaceMeshVertex
 10
47.2582845568657
 20
-7.999999970197677
 30
62.58110926151275
 70
   192
  0
VERTEX
  5
484
330
482
100
AcDbEntity
  8
A-GENM
370
    18
100
AcDbVertex
100
AcDbPolyFaceMeshVertex
 10
46.62828576564788
 20
-7.999999970197677
 30
66.81111087799073
 70
   192
  0
VERTEX
  5
485
330
482
100
AcDbEntity
  8
A-GENM
370
    18
100
AcDbVertex
100
AcDbPolyFaceMeshVertex
 10
45.27828640937805
 20
-7.999999970197677
 30
66.81111087799073
 70
   192
  0
VERTEX
  5
486
330
482
100
AcDbEntity
  8
A-GENM
370
    18
100
AcDbVertex
100
AcDbPolyFaceMeshVertex
 10
48.60828391313553
 20
-7.999999970197677
 30
67.35110789537429
 70
   192
  0
VERTEX
  5
487
330
482
100
AcDbEntity
  8
A-GENM
370
    18
100
AcDbVertex
100
AcDbPolyFaceMeshVertex
 10
47.2582845568657
 20
-7.999999970197677
 30
66.81111087799073
 70
   192
  0
VERTEX
  5
488
330
482
100
AcDbEntity
  8
A-GENM
370
    18
100
AcDbFaceRecord
 10
0.0
 20
0.0
 30
0.0
 70
   128
 71
     2
 72
     3
 73
     4
 74
    -5
  0
VERTEX
  5
489
330
482
100
AcDbEntity
  8
A-GENM
370
    18
100
AcDbFaceRecord
 10
0.0
 20
0.0
 30
0.0
 70
   128
 71
    -2
 72
     5
 73
     1
  0
SEQEND
  5
48A
330
482
100
AcDbEntity
  8
A-GENM
370
    18
  0
POLYLINE
  5
48B
330
B4
100
AcDbEntity
  8
A-GENM
370
    18
100
AcDbPolyFaceMesh
 66
     1
 10
0.0
 20
0.0
 30
0.0
 70
    64
 71
     4
 72
     1
1001
REVIT
1002
{
1070
     4
1000
14732
1002
}
  0
VERTEX
  5
48C
330
48B
100
AcDbEntity
  8
A-GENM
370
    18
100
AcDbVertex
100
AcDbPolyFaceMeshVertex
 10
47.2582845568657
 20
-9.000000250339509
 30
62.58110926151275
 70
   192
  0
VERTEX
  5
48D
330
48B
100
AcDbEntity
  8
A-GENM
370
    18
100
AcDbVertex
100
AcDbPolyFaceMeshVertex
 10
47.2582845568657
 20
-7.999999970197677
 30
62.58110926151275
 70
   192
  0
VERTEX
  5
48E
330
48B
100
AcDbEntity
  8
A-GENM
370
    18
100
AcDbVertex
100
AcDbPolyFaceMeshVertex
 10
47.2582845568657
 20
-7.999999970197677
 30
66.81111087799073
 70
   192
  0
VERTEX
  5
48F
330
48B
100
AcDbEntity
  8
A-GENM
370
    18
100
AcDbVertex
100
AcDbPolyFaceMeshVertex
 10
47.2582845568657
 20
-9.000000250339509
 30
66.81111087799073
 70
   192
  0
VERTEX
  5
490
330
48B
100
AcDbEntity
  8
A-GENM
370
    18
100
AcDbFaceRecord
 10
0.0
 20
0.0
 30
0.0
 70
   128
 71
     1
 72
     2
 73
     3
 74
     4
  0
SEQEND
  5
491
330
48B
100
AcDbEntity
  8
A-GENM
370
    18
  0
POLYLINE
  5
492
330
B4
100
AcDbEntity
  8
A-GENM
370
    18
100
AcDbPolyFaceMesh
 66
     1
 10
0.0
 20
0.0
 30
0.0
 70
    64
 71
     4
 72
     1
1001
REVIT
1002
{
1070
     4
1000
14732
1002
}
  0
VERTEX
  5
493
330
492
100
AcDbEntity
  8
A-GENM
370
    18
100
AcDbVertex
100
AcDbPolyFaceMeshVertex
 10
47.2582845568657
 20
-9.000000250339509
 30
66.81111087799073
 70
   192
  0
VERTEX
  5
494
330
492
100
AcDbEntity
  8
A-GENM
370
    18
100
AcDbVertex
100
AcDbPolyFaceMeshVertex
 10
47.2582845568657
 20
-7.999999970197677
 30
66.81111087799073
 70
   192
  0
VERTEX
  5
495
330
492
100
AcDbEntity
  8
A-GENM
370
    18
100
AcDbVertex
100
AcDbPolyFaceMeshVertex
 10
48.60828391313553
 20
-7.999999970197677
 30
67.35110789537429
 70
   192
  0
VERTEX
  5
496
330
492
100
AcDbEntity
  8
A-GENM
370
    18
100
AcDbVertex
100
AcDbPolyFaceMeshVertex
 10
48.60828391313553
 20
-9.000000250339509
 30
67.35110789537429
 70
   192
  0
VERTEX
  5
497
330
492
100
AcDbEntity
  8
A-GENM
370
    18
100
AcDbFaceRecord
 10
0.0
 20
0.0
 30
0.0
 70
   128
 71
     1
 72
     2
 73
     3
 74
     4
  0
SEQEND
  5
498
330
492
100
AcDbEntity
  8
A-GENM
370
    18
  0
POLYLINE
  5
499
330
B4
100
AcDbEntity
  8
A-GENM
370
    18
100
AcDbPolyFaceMesh
 66
     1
 10
0.0
 20
0.0
 30
0.0
 70
    64
 71
     4
 72
     1
1001
REVIT
1002
{
1070
     4
1000
14732
1002
}
  0
VERTEX
  5
49A
330
499
100
AcDbEntity
  8
A-GENM
370
    18
100
AcDbVertex
100
AcDbPolyFaceMeshVertex
 10
48.60828391313553
 20
-9.000000250339509
 30
67.35110789537429
 70
   192
  0
VERTEX
  5
49B
330
499
100
AcDbEntity
  8
A-GENM
370
    18
100
AcDbVertex
100
AcDbPolyFaceMeshVertex
 10
48.60828391313553
 20
-7.999999970197677
 30
67.35110789537429
 70
   192
  0
VERTEX
  5
49C
330
499
100
AcDbEntity
  8
A-GENM
370
    18
100
AcDbVertex
100
AcDbPolyFaceMeshVertex
 10
45.27828640937805
 20
-7.999999970197677
 30
66.81111087799073
 70
   192
  0
VERTEX
  5
49D
330
499
100
AcDbEntity
  8
A-GENM
370
    18
100
AcDbVertex
100
AcDbPolyFaceMeshVertex
 10
45.27828640937805
 20
-9.000000250339509
 30
66.81111087799073
 70
   192
  0
VERTEX
  5
49E
330
499
100
AcDbEntity
  8
A-GENM
370
    18
100
AcDbFaceRecord
 10
0.0
 20
0.0
 30
0.0
 70
   128
 71
     1
 72
     2
 73
     3
 74
     4
  0
SEQEND
  5
49F
330
499
100
AcDbEntity
  8
A-GENM
370
    18
  0
POLYLINE
  5
4A0
330
B4
100
AcDbEntity
  8
A-GENM
370
    18
100
AcDbPolyFaceMesh
 66
     1
 10
0.0
 20
0.0
 30
0.0
 70
    64
 71
     4
 72
     1
1001
REVIT
1002
{
1070
     4
1000
14732
1002
}
  0
VERTEX
  5
4A1
330
4A0
100
AcDbEntity
  8
A-GENM
370
    18
100
AcDbVertex
100
AcDbPolyFaceMeshVertex
 10
45.27828640937805
 20
-9.000000250339509
 30
66.81111087799073
 70
   192
  0
VERTEX
  5
4A2
330
4A0
100
AcDbEntity
  8
A-GENM
370
    18
100
AcDbVertex
100
AcDbPolyFaceMeshVertex
 10
45.27828640937805
 20
-7.999999970197677
 30
66.81111087799073
 70
   192
  0
VERTEX
  5
4A3
330
4A0
100
AcDbEntity
  8
A-GENM
370
    18
100
AcDbVertex
100
AcDbPolyFaceMeshVertex
 10
46.62828576564788
 20
-7.999999970197677
 30
66.81111087799073
 70
   192
  0
VERTEX
  5
4A4
330
4A0
100
AcDbEntity
  8
A-GENM
370
    18
100
AcDbVertex
100
AcDbPolyFaceMeshVertex
 10
46.62828576564788
 20
-9.000000250339509
 30
66.81111087799073
 70
   192
  0
VERTEX
  5
4A5
330
4A0
100
AcDbEntity
  8
A-GENM
370
    18
100
AcDbFaceRecord
 10
0.0
 20
0.0
 30
0.0
 70
   128
 71
     1
 72
     2
 73
     3
 74
     4
  0
SEQEND
  5
4A6
330
4A0
100
AcDbEntity
  8
A-GENM
370
    18
  0
POLYLINE
  5
4A7
330
B4
100
AcDbEntity
  8
A-GENM
370
    18
100
AcDbPolyFaceMesh
 66
     1
 10
0.0
 20
0.0
 30
0.0
 70
    64
 71
     4
 72
     1
1001
REVIT
1002
{
1070
     4
1000
14732
1002
}
  0
VERTEX
  5
4A8
330
4A7
100
AcDbEntity
  8
A-GENM
370
    18
100
AcDbVertex
100
AcDbPolyFaceMeshVertex
 10
46.62828576564788
 20
-9.000000250339509
 30
66.81111087799073
 70
   192
  0
VERTEX
  5
4A9
330
4A7
100
AcDbEntity
  8
A-GENM
370
    18
100
AcDbVertex
100
AcDbPolyFaceMeshVertex
 10
46.62828576564788
 20
-7.999999970197677
 30
66.81111087799073
 70
   192
  0
VERTEX
  5
4AA
330
4A7
100
AcDbEntity
  8
A-GENM
370
    18
100
AcDbVertex
100
AcDbPolyFaceMeshVertex
 10
47.2582845568657
 20
-7.999999970197677
 30
62.58110926151275
 70
   192
  0
VERTEX
  5
4AB
330
4A7
100
AcDbEntity
  8
A-GENM
370
    18
100
AcDbVertex
100
AcDbPolyFaceMeshVertex
 10
47.2582845568657
 20
-9.000000250339509
 30
62.58110926151275
 70
   192
  0
VERTEX
  5
4AC
330
4A7
100
AcDbEntity
  8
A-GENM
370
    18
100
AcDbFaceRecord
 10
0.0
 20
0.0
 30
0.0
 70
   128
 71
     1
 72
     2
 73
     3
 74
     4
  0
SEQEND
  5
4AD
330
4A7
100
AcDbEntity
  8
A-GENM
370
    18
  0
POLYLINE
  5
4AE
330
B4
100
AcDbEntity
  8
A-GENM
370
    18
100
AcDbPolyFaceMesh
 66
     1
 10
0.0
 20
0.0
 30
0.0
 70
    64
 71
    20
 72
    13
1001
REVIT
1002
{
1070
     4
1000
4860
1002
}
  0
VERTEX
  5
4AF
330
4AE
100
AcDbEntity
  8
A-GENM
370
    18
100
AcDbVertex
100
AcDbPolyFaceMeshVertex
 10
62.50000047683716
 20
-7.999999970197677
 30
1.999999992549419
 70
   192
  0
VERTEX
  5
4B0
330
4AE
100
AcDbEntity
  8
A-GENM
370
    18
100
AcDbVertex
100
AcDbPolyFaceMeshVertex
 10
62.50000047683716
 20
-7.999999970197677
 30
72.00000200271607
 70
   192
  0
VERTEX
  5
4B1
330
4AE
100
AcDbEntity
  8
A-GENM
370
    18
100
AcDbVertex
100
AcDbPolyFaceMeshVertex
 10
-62.50000047683716
 20
-7.999999970197677
 30
72.00000200271607
 70
   192
  0
VERTEX
  5
4B2
330
4AE
100
AcDbEntity
  8
A-GENM
370
    18
100
AcDbVertex
100
AcDbPolyFaceMeshVertex
 10
-62.50000047683716
 20
-7.999999970197677
 30
1.999999992549419
 70
   192
  0
VERTEX
  5
4B3
330
4AE
100
AcDbEntity
  8
A-GENM
370
    18
100
AcDbVertex
100
AcDbPolyFaceMeshVertex
 10
12.50000009536743
 20
-7.999999970197677
 30
20.97949932217598
 70
   192
  0
VERTEX
  5
4B4
330
4AE
100
AcDbEntity
  8
A-GENM
370
    18
100
AcDbVertex
100
AcDbPolyFaceMeshVertex
 10
12.50000009536743
 20
-7.999999970197677
 30
53.02050096988678
 70
   192
  0
VERTEX
  5
4B5
330
4AE
100
AcDbEntity
  8
A-GENM
370
    18
100
AcDbVertex
100
AcDbPolyFaceMeshVertex
 10
13.97949849665165
 20
-7.999999970197677
 30
54.49999823570252
 70
   192
  0
VERTEX
  5
4B6
330
4AE
100
AcDbEntity
  8
A-GENM
370
    18
100
AcDbVertex
100
AcDbPolyFaceMeshVertex
 10
46.02050127983093
 20
-7.999999970197677
 30
54.49999823570252
 70
   192
  0
VERTEX
  5
4B7
330
4AE
100
AcDbEntity
  8
A-GENM
370
    18
100
AcDbVertex
100
AcDbPolyFaceMeshVertex
 10
47.49999854564666
 20
-7.999999970197677
 30
53.02050096988678
 70
   192
  0
VERTEX
  5
4B8
330
4AE
100
AcDbEntity
  8
A-GENM
370
    18
100
AcDbVertex
100
AcDbPolyFaceMeshVertex
 10
47.49999854564666
 20
-7.999999970197677
 30
20.97949932217598
 70
   192
  0
VERTEX
  5
4B9
330
4AE
100
AcDbEntity
  8
A-GENM
370
    18
100
AcDbVertex
100
AcDbPolyFaceMeshVertex
 10
46.02050127983093
 20
-7.999999970197677
 30
19.49999978542328
 70
   192
  0
VERTEX
  5
4BA
330
4AE
100
AcDbEntity
  8
A-GENM
370
    18
100
AcDbVertex
100
AcDbPolyFaceMeshVertex
 10
13.97949849665165
 20
-7.999999970197677
 30
19.49999978542328
 70
   192
  0
VERTEX
  5
4BB
330
4AE
100
AcDbEntity
  8
A-GENM
370
    18
100
AcDbVertex
100
AcDbPolyFaceMeshVertex
 10
6.020501428842544
 20
-7.999999970197677
 30
54.49999823570252
 70
   192
  0
VERTEX
  5
4BC
330
4AE
100
AcDbEntity
  8
A-GENM
370
    18
100
AcDbVertex
100
AcDbPolyFaceMeshVertex
 10
7.499999830126762
 20
-7.999999970197677
 30
53.02050096988678
 70
   192
  0
VERTEX
  5
4BD
330
4AE
100
AcDbEntity
  8
A-GENM
370
    18
100
AcDbVertex
100
AcDbPolyFaceMeshVertex
 10
7.499999830126762
 20
-7.999999970197677
 30
20.97949932217598
 70
   192
  0
VERTEX
  5
4BE
330
4AE
100
AcDbEntity
  8
A-GENM
370
    18
100
AcDbVertex
100
AcDbPolyFaceMeshVertex
 10
6.020501428842544
 20
-7.999999970197677
 30
19.49999978542328
 70
   192
  0
VERTEX
  5
4BF
330
4AE
100
AcDbEntity
  8
A-GENM
370
    18
100
AcDbVertex
100
AcDbPolyFaceMeshVertex
 10
-46.02050127983093
 20
-7.999999970197677
 30
19.49999978542328
 70
   192
  0
VERTEX
  5
4C0
330
4AE
100
AcDbEntity
  8
A-GENM
370
    18
100
AcDbVertex
100
AcDbPolyFaceMeshVertex
 10
-47.49999854564666
 20
-7.999999970197677
 30
20.97949932217598
 70
   192
  0
VERTEX
  5
4C1
330
4AE
100
AcDbEntity
  8
A-GENM
370
    18
100
AcDbVertex
100
AcDbPolyFaceMeshVertex
 10
-47.49999854564666
 20
-7.999999970197677
 30
53.02050096988678
 70
   192
  0
VERTEX
  5
4C2
330
4AE
100
AcDbEntity
  8
A-GENM
370
    18
100
AcDbVertex
100
AcDbPolyFaceMeshVertex
 10
-46.02050127983093
 20
-7.999999970197677
 30
54.49999823570252
 70
   192
  0
VERTEX
  5
4C3
330
4AE
100
AcDbEntity
  8
A-GENM
370
    18
100
AcDbFaceRecord
 10
0.0
 20
0.0
 30
0.0
 70
   128
 71
    -2
 72
     9
 73
   -10
 74
     1
  0
VERTEX
  5
4C4
330
4AE
100
AcDbEntity
  8
A-GENM
370
    18
100
AcDbFaceRecord
 10
0.0
 20
0.0
 30
0.0
 70
   128
 71
    -9
 72
    -2
 73
     8
  0
VERTEX
  5
4C5
330
4AE
100
AcDbEntity
  8
A-GENM
370
    18
100
AcDbFaceRecord
 10
0.0
 20
0.0
 30
0.0
 70
   128
 71
     7
 72
    -8
 73
    -2
 74
   -13
  0
VERTEX
  5
4C6
330
4AE
100
AcDbEntity
  8
A-GENM
370
    18
100
AcDbFaceRecord
 10
0.0
 20
0.0
 30
0.0
 70
   128
 71
     6
 72
    -7
 73
    13
 74
   -14
  0
VERTEX
  5
4C7
330
4AE
100
AcDbEntity
  8
A-GENM
370
    18
100
AcDbFaceRecord
 10
0.0
 20
0.0
 30
0.0
 70
   128
 71
    -1
 72
    10
 73
   -11
  0
VERTEX
  5
4C8
330
4AE
100
AcDbEntity
  8
A-GENM
370
    18
100
AcDbFaceRecord
 10
0.0
 20
0.0
 30
0.0
 70
   128
 71
   -16
 72
    12
 73
    -5
 74
    15
  0
VERTEX
  5
4C9
330
4AE
100
AcDbEntity
  8
A-GENM
370
    18
100
AcDbFaceRecord
 10
0.0
 20
0.0
 30
0.0
 70
   128
 71
    -1
 72
    11
 73
   -12
 74
   -16
  0
VERTEX
  5
4CA
330
4AE
100
AcDbEntity
  8
A-GENM
370
    18
100
AcDbFaceRecord
 10
0.0
 20
0.0
 30
0.0
 70
   128
 71
     5
 72
    -6
 73
    14
 74
   -15
  0
VERTEX
  5
4CB
330
4AE
100
AcDbEntity
  8
A-GENM
370
    18
100
AcDbFaceRecord
 10
0.0
 20
0.0
 30
0.0
 70
   128
 71
   -20
 72
    -3
 73
    19
  0
VERTEX
  5
4CC
330
4AE
100
AcDbEntity
  8
A-GENM
370
    18
100
AcDbFaceRecord
 10
0.0
 20
0.0
 30
0.0
 70
   128
 71
    -3
 72
    20
 73
   -13
 74
     2
  0
VERTEX
  5
4CD
330
4AE
100
AcDbEntity
  8
A-GENM
370
    18
100
AcDbFaceRecord
 10
0.0
 20
0.0
 30
0.0
 70
   128
 71
    18
 72
   -19
 73
     3
 74
    -4
  0
VERTEX
  5
4CE
330
4AE
100
AcDbEntity
  8
A-GENM
370
    18
100
AcDbFaceRecord
 10
0.0
 20
0.0
 30
0.0
 70
   128
 71
    17
 72
   -18
 73
    -4
  0
VERTEX
  5
4CF
330
4AE
100
AcDbEntity
  8
A-GENM
370
    18
100
AcDbFaceRecord
 10
0.0
 20
0.0
 30
0.0
 70
   128
 71
    16
 72
   -17
 73
     4
 74
    -1
  0
SEQEND
  5
4D0
330
4AE
100
AcDbEntity
  8
A-GENM
370
    18
  0
POLYLINE
  5
4D1
330
B4
100
AcDbEntity
  8
A-GENM
370
    18
100
AcDbPolyFaceMesh
 66
     1
 10
0.0
 20
0.0
 30
0.0
 70
    64
 71
    20
 72
    13
1001
REVIT
1002
{
1070
     4
1000
4860
1002
}
  0
VERTEX
  5
4D2
330
4D1
100
AcDbEntity
  8
A-GENM
370
    18
100
AcDbVertex
100
AcDbPolyFaceMeshVertex
 10
62.50000047683716
 20
-5.999999977648258
 30
72.00000200271607
 70
   192
  0
VERTEX
  5
4D3
330
4D1
100
AcDbEntity
  8
A-GENM
370
    18
100
AcDbVertex
100
AcDbPolyFaceMeshVertex
 10
62.50000047683716
 20
-5.999999977648258
 30
1.999999992549419
 70
   192
  0
VERTEX
  5
4D4
330
4D1
100
AcDbEntity
  8
A-GENM
370
    18
100
AcDbVertex
100
AcDbPolyFaceMeshVertex
 10
-62.50000047683716
 20
-5.999999977648258
 30
1.999999992549419
 70
   192
  0
VERTEX
  5
4D5
330
4D1
100
AcDbEntity
  8
A-GENM
370
    18
100
AcDbVertex
100
AcDbPolyFaceMeshVertex
 10
-62.50000047683716
 20
-5.999999977648258
 30
72.00000200271607
 70
   192
  0
VERTEX
  5
4D6
330
4D1
100
AcDbEntity
  8
A-GENM
370
    18
100
AcDbVertex
100
AcDbPolyFaceMeshVertex
 10
6.020501428842544
 20
-5.999999977648258
 30
54.49999823570252
 70
   192
  0
VERTEX
  5
4D7
330
4D1
100
AcDbEntity
  8
A-GENM
370
    18
100
AcDbVertex
100
AcDbPolyFaceMeshVertex
 10
-46.02050127983093
 20
-5.999999977648258
 30
54.49999823570252
 70
   192
  0
VERTEX
  5
4D8
330
4D1
100
AcDbEntity
  8
A-GENM
370
    18
100
AcDbVertex
100
AcDbPolyFaceMeshVertex
 10
-47.49999854564666
 20
-5.999999977648258
 30
53.02050096988678
 70
   192
  0
VERTEX
  5
4D9
330
4D1
100
AcDbEntity
  8
A-GENM
370
    18
100
AcDbVertex
100
AcDbPolyFaceMeshVertex
 10
-47.49999854564666
 20
-5.999999977648258
 30
20.97949932217598
 70
   192
  0
VERTEX
  5
4DA
330
4D1
100
AcDbEntity
  8
A-GENM
370
    18
100
AcDbVertex
100
AcDbPolyFaceMeshVertex
 10
-46.02050127983093
 20
-5.999999977648258
 30
19.49999978542328
 70
   192
  0
VERTEX
  5
4DB
330
4D1
100
AcDbEntity
  8
A-GENM
370
    18
100
AcDbVertex
100
AcDbPolyFaceMeshVertex
 10
6.020501428842544
 20
-5.999999977648258
 30
19.49999978542328
 70
   192
  0
VERTEX
  5
4DC
330
4D1
100
AcDbEntity
  8
A-GENM
370
    18
100
AcDbVertex
100
AcDbPolyFaceMeshVertex
 10
7.499999830126762
 20
-5.999999977648258
 30
20.97949932217598
 70
   192
  0
VERTEX
  5
4DD
330
4D1
100
AcDbEntity
  8
A-GENM
370
    18
100
AcDbVertex
100
AcDbPolyFaceMeshVertex
 10
7.499999830126762
 20
-5.999999977648258
 30
53.02050096988678
 70
   192
  0
VERTEX
  5
4DE
330
4D1
100
AcDbEntity
  8
A-GENM
370
    18
100
AcDbVertex
100
AcDbPolyFaceMeshVertex
 10
12.50000009536743
 20
-5.999999977648258
 30
20.97949932217598
 70
   192
  0
VERTEX
  5
4DF
330
4D1
100
AcDbEntity
  8
A-GENM
370
    18
100
AcDbVertex
100
AcDbPolyFaceMeshVertex
 10
13.97949849665165
 20
-5.999999977648258
 30
19.49999978542328
 70
   192
  0
VERTEX
  5
4E0
330
4D1
100
AcDbEntity
  8
A-GENM
370
    18
100
AcDbVertex
100
AcDbPolyFaceMeshVertex
 10
46.02050127983093
 20
-5.999999977648258
 30
19.49999978542328
 70
   192
  0
VERTEX
  5
4E1
330
4D1
100
AcDbEntity
  8
A-GENM
370
    18
100
AcDbVertex
100
AcDbPolyFaceMeshVertex
 10
47.49999854564666
 20
-5.999999977648258
 30
20.97949932217598
 70
   192
  0
VERTEX
  5
4E2
330
4D1
100
AcDbEntity
  8
A-GENM
370
    18
100
AcDbVertex
100
AcDbPolyFaceMeshVertex
 10
47.49999854564666
 20
-5.999999977648258
 30
53.02050096988678
 70
   192
  0
VERTEX
  5
4E3
330
4D1
100
AcDbEntity
  8
A-GENM
370
    18
100
AcDbVertex
100
AcDbPolyFaceMeshVertex
 10
46.02050127983093
 20
-5.999999977648258
 30
54.49999823570252
 70
   192
  0
VERTEX
  5
4E4
330
4D1
100
AcDbEntity
  8
A-GENM
370
    18
100
AcDbVertex
100
AcDbPolyFaceMeshVertex
 10
13.97949849665165
 20
-5.999999977648258
 30
54.49999823570252
 70
   192
  0
VERTEX
  5
4E5
330
4D1
100
AcDbEntity
  8
A-GENM
370
    18
100
AcDbVertex
100
AcDbPolyFaceMeshVertex
 10
12.50000009536743
 20
-5.999999977648258
 30
53.02050096988678
 70
   192
  0
VERTEX
  5
4E6
330
4D1
100
AcDbEntity
  8
A-GENM
370
    18
100
AcDbFaceRecord
 10
0.0
 20
0.0
 30
0.0
 70
   128
 71
    -4
 72
     7
 73
    -8
 74
     3
  0
VERTEX
  5
4E7
330
4D1
100
AcDbEntity
  8
A-GENM
370
    18
100
AcDbFaceRecord
 10
0.0
 20
0.0
 30
0.0
 70
   128
 71
    -7
 72
    -4
 73
     6
  0
VERTEX
  5
4E8
330
4D1
100
AcDbEntity
  8
A-GENM
370
    18
100
AcDbFaceRecord
 10
0.0
 20
0.0
 30
0.0
 70
   128
 71
     5
 72
    -6
 73
     4
 74
    -1
  0
VERTEX
  5
4E9
330
4D1
100
AcDbEntity
  8
A-GENM
370
    18
100
AcDbFaceRecord
 10
0.0
 20
0.0
 30
0.0
 70
   128
 71
   -20
 72
    12
 73
    -5
 74
    19
  0
VERTEX
  5
4EA
330
4D1
100
AcDbEntity
  8
A-GENM
370
    18
100
AcDbFaceRecord
 10
0.0
 20
0.0
 30
0.0
 70
   128
 71
    -3
 72
     8
 73
    -9
  0
VERTEX
  5
4EB
330
4D1
100
AcDbEntity
  8
A-GENM
370
    18
100
AcDbFaceRecord
 10
0.0
 20
0.0
 30
0.0
 70
   128
 71
    10
 72
   -11
 73
    13
 74
   -14
  0
VERTEX
  5
4EC
330
4D1
100
AcDbEntity
  8
A-GENM
370
    18
100
AcDbFaceRecord
 10
0.0
 20
0.0
 30
0.0
 70
   128
 71
    -3
 72
     9
 73
   -10
 74
     2
  0
VERTEX
  5
4ED
330
4D1
100
AcDbEntity
  8
A-GENM
370
    18
100
AcDbFaceRecord
 10
0.0
 20
0.0
 30
0.0
 70
   128
 71
   -13
 72
    11
 73
   -12
 74
    20
  0
VERTEX
  5
4EE
330
4D1
100
AcDbEntity
  8
A-GENM
370
    18
100
AcDbFaceRecord
 10
0.0
 20
0.0
 30
0.0
 70
   128
 71
   -18
 72
    -1
 73
    17
  0
VERTEX
  5
4EF
330
4D1
100
AcDbEntity
  8
A-GENM
370
    18
100
AcDbFaceRecord
 10
0.0
 20
0.0
 30
0.0
 70
   128
 71
    -1
 72
    18
 73
   -19
 74
    -5
  0
VERTEX
  5
4F0
330
4D1
100
AcDbEntity
  8
A-GENM
370
    18
100
AcDbFaceRecord
 10
0.0
 20
0.0
 30
0.0
 70
   128
 71
    16
 72
   -17
 73
     1
 74
    -2
  0
VERTEX
  5
4F1
330
4D1
100
AcDbEntity
  8
A-GENM
370
    18
100
AcDbFaceRecord
 10
0.0
 20
0.0
 30
0.0
 70
   128
 71
    15
 72
   -16
 73
    -2
  0
VERTEX
  5
4F2
330
4D1
100
AcDbEntity
  8
A-GENM
370
    18
100
AcDbFaceRecord
 10
0.0
 20
0.0
 30
0.0
 70
   128
 71
    14
 72
   -15
 73
    -2
 74
   -10
  0
SEQEND
  5
4F3
330
4D1
100
AcDbEntity
  8
A-GENM
370
    18
  0
POLYLINE
  5
4F4
330
B4
100
AcDbEntity
  8
A-GENM
370
    18
100
AcDbPolyFaceMesh
 66
     1
 10
0.0
 20
0.0
 30
0.0
 70
    64
 71
     4
 72
     1
1001
REVIT
1002
{
1070
     4
1000
4860
1002
}
  0
VERTEX
  5
4F5
330
4F4
100
AcDbEntity
  8
A-GENM
370
    18
100
AcDbVertex
100
AcDbPolyFaceMeshVertex
 10
7.499999830126762
 20
-7.999999970197677
 30
53.02050096988678
 70
   192
  0
VERTEX
  5
4F6
330
4F4
100
AcDbEntity
  8
A-GENM
370
    18
100
AcDbVertex
100
AcDbPolyFaceMeshVertex
 10
7.499999830126762
 20
-5.999999977648258
 30
53.02050096988678
 70
   192
  0
VERTEX
  5
4F7
330
4F4
100
AcDbEntity
  8
A-GENM
370
    18
100
AcDbVertex
100
AcDbPolyFaceMeshVertex
 10
7.499999830126762
 20
-5.999999977648258
 30
20.97949932217598
 70
   192
  0
VERTEX
  5
4F8
330
4F4
100
AcDbEntity
  8
A-GENM
370
    18
100
AcDbVertex
100
AcDbPolyFaceMeshVertex
 10
7.499999830126762
 20
-7.999999970197677
 30
20.97949932217598
 70
   192
  0
VERTEX
  5
4F9
330
4F4
100
AcDbEntity
  8
A-GENM
370
    18
100
AcDbFaceRecord
 10
0.0
 20
0.0
 30
0.0
 70
   128
 71
     1
 72
     2
 73
     3
 74
     4
  0
SEQEND
  5
4FA
330
4F4
100
AcDbEntity
  8
A-GENM
370
    18
  0
POLYLINE
  5
4FB
330
B4
100
AcDbEntity
  8
A-GENM
370
    18
100
AcDbPolyFaceMesh
 66
     1
 10
0.0
 20
0.0
 30
0.0
 70
    64
 71
     4
 72
     1
1001
REVIT
1002
{
1070
     4
1000
4860
1002
}
  0
VERTEX
  5
4FC
330
4FB
100
AcDbEntity
  8
A-GENM
370
    18
100
AcDbVertex
100
AcDbPolyFaceMeshVertex
 10
6.020501428842544
 20
-7.999999970197677
 30
19.49999978542328
 70
   192
  0
VERTEX
  5
4FD
330
4FB
100
AcDbEntity
  8
A-GENM
370
    18
100
AcDbVertex
100
AcDbPolyFaceMeshVertex
 10
6.020501428842544
 20
-5.999999977648258
 30
19.49999978542328
 70
   192
  0
VERTEX
  5
4FE
330
4FB
100
AcDbEntity
  8
A-GENM
370
    18
100
AcDbVertex
100
AcDbPolyFaceMeshVertex
 10
-46.02050127983093
 20
-5.999999977648258
 30
19.49999978542328
 70
   192
  0
VERTEX
  5
4FF
330
4FB
100
AcDbEntity
  8
A-GENM
370
    18
100
AcDbVertex
100
AcDbPolyFaceMeshVertex
 10
-46.02050127983093
 20
-7.999999970197677
 30
19.49999978542328
 70
   192
  0
VERTEX
  5
500
330
4FB
100
AcDbEntity
  8
A-GENM
370
    18
100
AcDbFaceRecord
 10
0.0
 20
0.0
 30
0.0
 70
   128
 71
     1
 72
     2
 73
     3
 74
     4
  0
SEQEND
  5
501
330
4FB
100
AcDbEntity
  8
A-GENM
370
    18
  0
POLYLINE
  5
502
330
B4
100
AcDbEntity
  8
A-GENM
370
    18
100
AcDbPolyFaceMesh
 66
     1
 10
0.0
 20
0.0
 30
0.0
 70
    64
 71
     4
 72
     1
1001
REVIT
1002
{
1070
     4
1000
4860
1002
}
  0
VERTEX
  5
503
330
502
100
AcDbEntity
  8
A-GENM
370
    18
100
AcDbVertex
100
AcDbPolyFaceMeshVertex
 10
-47.49999854564666
 20
-7.999999970197677
 30
20.97949932217598
 70
   192
  0
VERTEX
  5
504
330
502
100
AcDbEntity
  8
A-GENM
370
    18
100
AcDbVertex
100
AcDbPolyFaceMeshVertex
 10
-47.49999854564666
 20
-5.999999977648258
 30
20.97949932217598
 70
   192
  0
VERTEX
  5
505
330
502
100
AcDbEntity
  8
A-GENM
370
    18
100
AcDbVertex
100
AcDbPolyFaceMeshVertex
 10
-47.49999854564666
 20
-5.999999977648258
 30
53.02050096988678
 70
   192
  0
VERTEX
  5
506
330
502
100
AcDbEntity
  8
A-GENM
370
    18
100
AcDbVertex
100
AcDbPolyFaceMeshVertex
 10
-47.49999854564666
 20
-7.999999970197677
 30
53.02050096988678
 70
   192
  0
VERTEX
  5
507
330
502
100
AcDbEntity
  8
A-GENM
370
    18
100
AcDbFaceRecord
 10
0.0
 20
0.0
 30
0.0
 70
   128
 71
     1
 72
     2
 73
     3
 74
     4
  0
SEQEND
  5
508
330
502
100
AcDbEntity
  8
A-GENM
370
    18
  0
POLYLINE
  5
509
330
B4
100
AcDbEntity
  8
A-GENM
370
    18
100
AcDbPolyFaceMesh
 66
     1
 10
0.0
 20
0.0
 30
0.0
 70
    64
 71
     4
 72
     1
1001
REVIT
1002
{
1070
     4
1000
4860
1002
}
  0
VERTEX
  5
50A
330
509
100
AcDbEntity
  8
A-GENM
370
    18
100
AcDbVertex
100
AcDbPolyFaceMeshVertex
 10
-46.02050127983093
 20
-7.999999970197677
 30
54.49999823570252
 70
   192
  0
VERTEX
  5
50B
330
509
100
AcDbEntity
  8
A-GENM
370
    18
100
AcDbVertex
100
AcDbPolyFaceMeshVertex
 10
-46.02050127983093
 20
-5.999999977648258
 30
54.49999823570252
 70
   192
  0
VERTEX
  5
50C
330
509
100
AcDbEntity
  8
A-GENM
370
    18
100
AcDbVertex
100
AcDbPolyFaceMeshVertex
 10
6.020501428842544
 20
-5.999999977648258
 30
54.49999823570252
 70
   192
  0
VERTEX
  5
50D
330
509
100
AcDbEntity
  8
A-GENM
370
    18
100
AcDbVertex
100
AcDbPolyFaceMeshVertex
 10
6.020501428842544
 20
-7.999999970197677
 30
54.49999823570252
 70
   192
  0
VERTEX
  5
50E
330
509
100
AcDbEntity
  8
A-GENM
370
    18
100
AcDbFaceRecord
 10
0.0
 20
0.0
 30
0.0
 70
   128
 71
     1
 72
     2
 73
     3
 74
     4
  0
SEQEND
  5
50F
330
509
100
AcDbEntity
  8
A-GENM
370
    18
  0
POLYLINE
  5
510
330
B4
100
AcDbEntity
  8
A-GENM
370
    18
100
AcDbPolyFaceMesh
 66
     1
 10
0.0
 20
0.0
 30
0.0
 70
    64
 71
     4
 72
     1
1001
REVIT
1002
{
1070
     4
1000
4860
1002
}
  0
VERTEX
  5
511
330
510
100
AcDbEntity
  8
A-GENM
370
    18
100
AcDbVertex
100
AcDbPolyFaceMeshVertex
 10
12.50000009536743
 20
-7.999999970197677
 30
20.97949932217598
 70
   192
  0
VERTEX
  5
512
330
510
100
AcDbEntity
  8
A-GENM
370
    18
100
AcDbVertex
100
AcDbPolyFaceMeshVertex
 10
12.50000009536743
 20
-5.999999977648258
 30
20.97949932217598
 70
   192
  0
VERTEX
  5
513
330
510
100
AcDbEntity
  8
A-GENM
370
    18
100
AcDbVertex
100
AcDbPolyFaceMeshVertex
 10
12.50000009536743
 20
-5.999999977648258
 30
53.02050096988678
 70
   192
  0
VERTEX
  5
514
330
510
100
AcDbEntity
  8
A-GENM
370
    18
100
AcDbVertex
100
AcDbPolyFaceMeshVertex
 10
12.50000009536743
 20
-7.999999970197677
 30
53.02050096988678
 70
   192
  0
VERTEX
  5
515
330
510
100
AcDbEntity
  8
A-GENM
370
    18
100
AcDbFaceRecord
 10
0.0
 20
0.0
 30
0.0
 70
   128
 71
     1
 72
     2
 73
     3
 74
     4
  0
SEQEND
  5
516
330
510
100
AcDbEntity
  8
A-GENM
370
    18
  0
POLYLINE
  5
517
330
B4
100
AcDbEntity
  8
A-GENM
370
    18
100
AcDbPolyFaceMesh
 66
     1
 10
0.0
 20
0.0
 30
0.0
 70
    64
 71
     4
 72
     1
1001
REVIT
1002
{
1070
     4
1000
4860
1002
}
  0
VERTEX
  5
518
330
517
100
AcDbEntity
  8
A-GENM
370
    18
100
AcDbVertex
100
AcDbPolyFaceMeshVertex
 10
13.97949849665165
 20
-7.999999970197677
 30
54.49999823570252
 70
   192
  0
VERTEX
  5
519
330
517
100
AcDbEntity
  8
A-GENM
370
    18
100
AcDbVertex
100
AcDbPolyFaceMeshVertex
 10
13.97949849665165
 20
-5.999999977648258
 30
54.49999823570252
 70
   192
  0
VERTEX
  5
51A
330
517
100
AcDbEntity
  8
A-GENM
370
    18
100
AcDbVertex
100
AcDbPolyFaceMeshVertex
 10
46.02050127983093
 20
-5.999999977648258
 30
54.49999823570252
 70
   192
  0
VERTEX
  5
51B
330
517
100
AcDbEntity
  8
A-GENM
370
    18
100
AcDbVertex
100
AcDbPolyFaceMeshVertex
 10
46.02050127983093
 20
-7.999999970197677
 30
54.49999823570252
 70
   192
  0
VERTEX
  5
51C
330
517
100
AcDbEntity
  8
A-GENM
370
    18
100
AcDbFaceRecord
 10
0.0
 20
0.0
 30
0.0
 70
   128
 71
     1
 72
     2
 73
     3
 74
     4
  0
SEQEND
  5
51D
330
517
100
AcDbEntity
  8
A-GENM
370
    18
  0
POLYLINE
  5
51E
330
B4
100
AcDbEntity
  8
A-GENM
370
    18
100
AcDbPolyFaceMesh
 66
     1
 10
0.0
 20
0.0
 30
0.0
 70
    64
 71
     4
 72
     1
1001
REVIT
1002
{
1070
     4
1000
4860
1002
}
  0
VERTEX
  5
51F
330
51E
100
AcDbEntity
  8
A-GENM
370
    18
100
AcDbVertex
100
AcDbPolyFaceMeshVertex
 10
47.49999854564666
 20
-7.999999970197677
 30
53.02050096988678
 70
   192
  0
VERTEX
  5
520
330
51E
100
AcDbEntity
  8
A-GENM
370
    18
100
AcDbVertex
100
AcDbPolyFaceMeshVertex
 10
47.49999854564666
 20
-5.999999977648258
 30
53.02050096988678
 70
   192
  0
VERTEX
  5
521
330
51E
100
AcDbEntity
  8
A-GENM
370
    18
100
AcDbVertex
100
AcDbPolyFaceMeshVertex
 10
47.49999854564666
 20
-5.999999977648258
 30
20.97949932217598
 70
   192
  0
VERTEX
  5
522
330
51E
100
AcDbEntity
  8
A-GENM
370
    18
100
AcDbVertex
100
AcDbPolyFaceMeshVertex
 10
47.49999854564666
 20
-7.999999970197677
 30
20.97949932217598
 70
   192
  0
VERTEX
  5
523
330
51E
100
AcDbEntity
  8
A-GENM
370
    18
100
AcDbFaceRecord
 10
0.0
 20
0.0
 30
0.0
 70
   128
 71
     1
 72
     2
 73
     3
 74
     4
  0
SEQEND
  5
524
330
51E
100
AcDbEntity
  8
A-GENM
370
    18
  0
POLYLINE
  5
525
330
B4
100
AcDbEntity
  8
A-GENM
370
    18
100
AcDbPolyFaceMesh
 66
     1
 10
0.0
 20
0.0
 30
0.0
 70
    64
 71
     4
 72
     1
1001
REVIT
1002
{
1070
     4
1000
4860
1002
}
  0
VERTEX
  5
526
330
525
100
AcDbEntity
  8
A-GENM
370
    18
100
AcDbVertex
100
AcDbPolyFaceMeshVertex
 10
46.02050127983093
 20
-7.999999970197677
 30
19.49999978542328
 70
   192
  0
VERTEX
  5
527
330
525
100
AcDbEntity
  8
A-GENM
370
    18
100
AcDbVertex
100
AcDbPolyFaceMeshVertex
 10
46.02050127983093
 20
-5.999999977648258
 30
19.49999978542328
 70
   192
  0
VERTEX
  5
528
330
525
100
AcDbEntity
  8
A-GENM
370
    18
100
AcDbVertex
100
AcDbPolyFaceMeshVertex
 10
13.97949849665165
 20
-5.999999977648258
 30
19.49999978542328
 70
   192
  0
VERTEX
  5
529
330
525
100
AcDbEntity
  8
A-GENM
370
    18
100
AcDbVertex
100
AcDbPolyFaceMeshVertex
 10
13.97949849665165
 20
-7.999999970197677
 30
19.49999978542328
 70
   192
  0
VERTEX
  5
52A
330
525
100
AcDbEntity
  8
A-GENM
370
    18
100
AcDbFaceRecord
 10
0.0
 20
0.0
 30
0.0
 70
   128
 71
     1
 72
     2
 73
     3
 74
     4
  0
SEQEND
  5
52B
330
525
100
AcDbEntity
  8
A-GENM
370
    18
  0
POLYLINE
  5
52C
330
B4
100
AcDbEntity
  8
A-GENM
370
    18
100
AcDbPolyFaceMesh
 66
     1
 10
0.0
 20
0.0
 30
0.0
 70
    64
 71
     4
 72
     1
1001
REVIT
1002
{
1070
     4
1000
4860
1002
}
  0
VERTEX
  5
52D
330
52C
100
AcDbEntity
  8
A-GENM
370
    18
100
AcDbVertex
100
AcDbPolyFaceMeshVertex
 10
64.50000103712082
 20
-5.999999977648258
 30
73.99999802112579
 70
   192
  0
VERTEX
  5
52E
330
52C
100
AcDbEntity
  8
A-GENM
370
    18
100
AcDbVertex
100
AcDbPolyFaceMeshVertex
 10
64.50000103712082
 20
-5.999999977648258
 30
0.0000000000000169
 70
   192
  0
VERTEX
  5
52F
330
52C
100
AcDbEntity
  8
A-GENM
370
    18
100
AcDbVertex
100
AcDbPolyFaceMeshVertex
 10
64.50000103712082
 20
0.0000000000000053
 30
0.0000000000000677
 70
   192
  0
VERTEX
  5
530
330
52C
100
AcDbEntity
  8
A-GENM
370
    18
100
AcDbVertex
100
AcDbPolyFaceMeshVertex
 10
64.50000103712082
 20
0.0000000000000053
 30
73.99999802112579
 70
   192
  0
VERTEX
  5
531
330
52C
100
AcDbEntity
  8
A-GENM
370
    18
100
AcDbFaceRecord
 10
0.0
 20
0.0
 30
0.0
 70
   128
 71
     1
 72
     2
 73
     3
 74
     4
  0
SEQEND
  5
532
330
52C
100
AcDbEntity
  8
A-GENM
370
    18
  0
POLYLINE
  5
533
330
B4
100
AcDbEntity
  8
A-GENM
370
    18
100
AcDbPolyFaceMesh
 66
     1
 10
0.0
 20
0.0
 30
0.0
 70
    64
 71
     4
 72
     1
1001
REVIT
1002
{
1070
     4
1000
4860
1002
}
  0
VERTEX
  5
534
330
533
100
AcDbEntity
  8
A-GENM
370
    18
100
AcDbVertex
100
AcDbPolyFaceMeshVertex
 10
64.50000103712082
 20
-5.999999977648258
 30
73.99999802112579
 70
   192
  0
VERTEX
  5
535
330
533
100
AcDbEntity
  8
A-GENM
370
    18
100
AcDbVertex
100
AcDbPolyFaceMeshVertex
 10
62.50000047683716
 20
-7.999999970197677
 30
72.00000200271607
 70
   192
  0
VERTEX
  5
536
330
533
100
AcDbEntity
  8
A-GENM
370
    18
100
AcDbVertex
100
AcDbPolyFaceMeshVertex
 10
62.50000047683716
 20
-7.999999970197677
 30
1.999999992549419
 70
   192
  0
VERTEX
  5
537
330
533
100
AcDbEntity
  8
A-GENM
370
    18
100
AcDbVertex
100
AcDbPolyFaceMeshVertex
 10
64.50000103712082
 20
-5.999999977648258
 30
0.0000000000000085
 70
   192
  0
VERTEX
  5
538
330
533
100
AcDbEntity
  8
A-GENM
370
    18
100
AcDbFaceRecord
 10
0.0
 20
0.0
 30
0.0
 70
   128
 71
     1
 72
     2
 73
     3
 74
     4
  0
SEQEND
  5
539
330
533
100
AcDbEntity
  8
A-GENM
370
    18
  0
POLYLINE
  5
53A
330
B4
100
AcDbEntity
  8
A-GENM
370
    18
100
AcDbPolyFaceMesh
 66
     1
 10
0.0
 20
0.0
 30
0.0
 70
    64
 71
     4
 72
     1
1001
REVIT
1002
{
1070
     4
1000
4860
1002
}
  0
VERTEX
  5
53B
330
53A
100
AcDbEntity
  8
A-GENM
370
    18
100
AcDbVertex
100
AcDbPolyFaceMeshVertex
 10
64.50000103712082
 20
-5.999999977648258
 30
0.0000000000000095
 70
   192
  0
VERTEX
  5
53C
330
53A
100
AcDbEntity
  8
A-GENM
370
    18
100
AcDbVertex
100
AcDbPolyFaceMeshVertex
 10
-64.50000103712082
 20
-5.999999977648258
 30
-0.0000000000000032
 70
   192
  0
VERTEX
  5
53D
330
53A
100
AcDbEntity
  8
A-GENM
370
    18
100
AcDbVertex
100
AcDbPolyFaceMeshVertex
 10
-64.50000103712082
 20
0.0000000000000053
 30
0.0000000000000539
 70
   192
  0
VERTEX
  5
53E
330
53A
100
AcDbEntity
  8
A-GENM
370
    18
100
AcDbVertex
100
AcDbPolyFaceMeshVertex
 10
64.50000103712082
 20
0.0000000000000053
 30
0.0000000000000666
 70
   192
  0
VERTEX
  5
53F
330
53A
100
AcDbEntity
  8
A-GENM
370
    18
100
AcDbFaceRecord
 10
0.0
 20
0.0
 30
0.0
 70
   128
 71
     1
 72
     2
 73
     3
 74
     4
  0
SEQEND
  5
540
330
53A
100
AcDbEntity
  8
A-GENM
370
    18
  0
POLYLINE
  5
541
330
B4
100
AcDbEntity
  8
A-GENM
370
    18
100
AcDbPolyFaceMesh
 66
     1
 10
0.0
 20
0.0
 30
0.0
 70
    64
 71
     4
 72
     1
1001
REVIT
1002
{
1070
     4
1000
4860
1002
}
  0
VERTEX
  5
542
330
541
100
AcDbEntity
  8
A-GENM
370
    18
100
AcDbVertex
100
AcDbPolyFaceMeshVertex
 10
62.50000047683716
 20
-7.999999970197677
 30
1.999999992549419
 70
   192
  0
VERTEX
  5
543
330
541
100
AcDbEntity
  8
A-GENM
370
    18
100
AcDbVertex
100
AcDbPolyFaceMeshVertex
 10
-62.50000047683716
 20
-7.999999970197677
 30
1.999999992549419
 70
   192
  0
VERTEX
  5
544
330
541
100
AcDbEntity
  8
A-GENM
370
    18
100
AcDbVertex
100
AcDbPolyFaceMeshVertex
 10
-64.50000103712082
 20
-5.999999977648258
 30
0.0000000000000085
 70
   192
  0
VERTEX
  5
545
330
541
100
AcDbEntity
  8
A-GENM
370
    18
100
AcDbVertex
100
AcDbPolyFaceMeshVertex
 10
64.50000103712082
 20
-5.999999977648258
 30
0.0000000000000087
 70
   192
  0
VERTEX
  5
546
330
541
100
AcDbEntity
  8
A-GENM
370
    18
100
AcDbFaceRecord
 10
0.0
 20
0.0
 30
0.0
 70
   128
 71
     1
 72
     2
 73
     3
 74
     4
  0
SEQEND
  5
547
330
541
100
AcDbEntity
  8
A-GENM
370
    18
  0
POLYLINE
  5
548
330
B4
100
AcDbEntity
  8
A-GENM
370
    18
100
AcDbPolyFaceMesh
 66
     1
 10
0.0
 20
0.0
 30
0.0
 70
    64
 71
     4
 72
     1
1001
REVIT
1002
{
1070
     4
1000
4860
1002
}
  0
VERTEX
  5
549
330
548
100
AcDbEntity
  8
A-GENM
370
    18
100
AcDbVertex
100
AcDbPolyFaceMeshVertex
 10
-64.50000103712082
 20
-5.999999977648258
 30
0.0000000000000085
 70
   192
  0
VERTEX
  5
54A
330
548
100
AcDbEntity
  8
A-GENM
370
    18
100
AcDbVertex
100
AcDbPolyFaceMeshVertex
 10
-64.50000103712082
 20
-5.999999977648258
 30
73.99999802112579
 70
   192
  0
VERTEX
  5
54B
330
548
100
AcDbEntity
  8
A-GENM
370
    18
100
AcDbVertex
100
AcDbPolyFaceMeshVertex
 10
-64.50000103712082
 20
0.0000000000000053
 30
73.99999802112579
 70
   192
  0
VERTEX
  5
54C
330
548
100
AcDbEntity
  8
A-GENM
370
    18
100
AcDbVertex
100
AcDbPolyFaceMeshVertex
 10
-64.50000103712082
 20
0.0000000000000053
 30
0.0000000000000677
 70
   192
  0
VERTEX
  5
54D
330
548
100
AcDbEntity
  8
A-GENM
370
    18
100
AcDbFaceRecord
 10
0.0
 20
0.0
 30
0.0
 70
   128
 71
     1
 72
     2
 73
     3
 74
     4
  0
SEQEND
  5
54E
330
548
100
AcDbEntity
  8
A-GENM
370
    18
  0
POLYLINE
  5
54F
330
B4
100
AcDbEntity
  8
A-GENM
370
    18
100
AcDbPolyFaceMesh
 66
     1
 10
0.0
 20
0.0
 30
0.0
 70
    64
 71
     4
 72
     1
1001
REVIT
1002
{
1070
     4
1000
4860
1002
}
  0
VERTEX
  5
550
330
54F
100
AcDbEntity
  8
A-GENM
370
    18
100
AcDbVertex
100
AcDbPolyFaceMeshVertex
 10
-62.50000047683716
 20
-7.999999970197677
 30
1.999999992549419
 70
   192
  0
VERTEX
  5
551
330
54F
100
AcDbEntity
  8
A-GENM
370
    18
100
AcDbVertex
100
AcDbPolyFaceMeshVertex
 10
-62.50000047683716
 20
-7.999999970197677
 30
72.00000200271607
 70
   192
  0
VERTEX
  5
552
330
54F
100
AcDbEntity
  8
A-GENM
370
    18
100
AcDbVertex
100
AcDbPolyFaceMeshVertex
 10
-64.50000103712082
 20
-5.999999977648258
 30
73.99999802112579
 70
   192
  0
VERTEX
  5
553
330
54F
100
AcDbEntity
  8
A-GENM
370
    18
100
AcDbVertex
100
AcDbPolyFaceMeshVertex
 10
-64.50000103712082
 20
-5.999999977648258
 30
0.0000000000000085
 70
   192
  0
VERTEX
  5
554
330
54F
100
AcDbEntity
  8
A-GENM
370
    18
100
AcDbFaceRecord
 10
0.0
 20
0.0
 30
0.0
 70
   128
 71
     1
 72
     2
 73
     3
 74
     4
  0
SEQEND
  5
555
330
54F
100
AcDbEntity
  8
A-GENM
370
    18
  0
POLYLINE
  5
556
330
B4
100
AcDbEntity
  8
A-GENM
370
    18
100
AcDbPolyFaceMesh
 66
     1
 10
0.0
 20
0.0
 30
0.0
 70
    64
 71
     4
 72
     1
1001
REVIT
1002
{
1070
     4
1000
4860
1002
}
  0
VERTEX
  5
557
330
556
100
AcDbEntity
  8
A-GENM
370
    18
100
AcDbVertex
100
AcDbPolyFaceMeshVertex
 10
64.50000103712082
 20
0.0000000000000053
 30
73.99999802112579
 70
   192
  0
VERTEX
  5
558
330
556
100
AcDbEntity
  8
A-GENM
370
    18
100
AcDbVertex
100
AcDbPolyFaceMeshVertex
 10
-64.50000103712082
 20
0.0000000000000053
 30
73.99999802112579
 70
   192
  0
VERTEX
  5
559
330
556
100
AcDbEntity
  8
A-GENM
370
    18
100
AcDbVertex
100
AcDbPolyFaceMeshVertex
 10
-64.50000103712082
 20
-5.999999977648258
 30
73.99999802112579
 70
   192
  0
VERTEX
  5
55A
330
556
100
AcDbEntity
  8
A-GENM
370
    18
100
AcDbVertex
100
AcDbPolyFaceMeshVertex
 10
64.50000103712082
 20
-5.999999977648258
 30
73.99999802112579
 70
   192
  0
VERTEX
  5
55B
330
556
100
AcDbEntity
  8
A-GENM
370
    18
100
AcDbFaceRecord
 10
0.0
 20
0.0
 30
0.0
 70
   128
 71
     1
 72
     2
 73
     3
 74
     4
  0
SEQEND
  5
55C
330
556
100
AcDbEntity
  8
A-GENM
370
    18
  0
POLYLINE
  5
55D
330
B4
100
AcDbEntity
  8
A-GENM
370
    18
100
AcDbPolyFaceMesh
 66
     1
 10
0.0
 20
0.0
 30
0.0
 70
    64
 71
     8
 72
     4
1001
REVIT
1002
{
1070
     4
1000
4860
1002
}
  0
VERTEX
  5
55E
330
55D
100
AcDbEntity
  8
A-GENM
370
    18
100
AcDbVertex
100
AcDbPolyFaceMeshVertex
 10
64.50000103712082
 20
0.0000000000000053
 30
73.99999802112579
 70
   192
  0
VERTEX
  5
55F
330
55D
100
AcDbEntity
  8
A-GENM
370
    18
100
AcDbVertex
100
AcDbPolyFaceMeshVertex
 10
64.50000103712082
 20
-0.0000000000001143
 30
0.0000000000000677
 70
   192
  0
VERTEX
  5
560
330
55D
100
AcDbEntity
  8
A-GENM
370
    18
100
AcDbVertex
100
AcDbPolyFaceMeshVertex
 10
-64.50000103712082
 20
-0.0000000000001143
 30
0.0000000000000677
 70
   192
  0
VERTEX
  5
561
330
55D
100
AcDbEntity
  8
A-GENM
370
    18
100
AcDbVertex
100
AcDbPolyFaceMeshVertex
 10
-64.50000103712082
 20
0.0000000000000053
 30
73.99999802112579
 70
   192
  0
VERTEX
  5
562
330
55D
100
AcDbEntity
  8
A-GENM
370
    18
100
AcDbVertex
100
AcDbPolyFaceMeshVertex
 10
62.50000047683716
 20
0.0000000000000021
 30
72.00000200271607
 70
   192
  0
VERTEX
  5
563
330
55D
100
AcDbEntity
  8
A-GENM
370
    18
100
AcDbVertex
100
AcDbPolyFaceMeshVertex
 10
-62.50000047683716
 20
0.0000000000000021
 30
72.00000200271607
 70
   192
  0
VERTEX
  5
564
330
55D
100
AcDbEntity
  8
A-GENM
370
    18
100
AcDbVertex
100
AcDbPolyFaceMeshVertex
 10
-62.50000047683716
 20
-0.000000000000111
 30
1.999999992549419
 70
   192
  0
VERTEX
  5
565
330
55D
100
AcDbEntity
  8
A-GENM
370
    18
100
AcDbVertex
100
AcDbPolyFaceMeshVertex
 10
62.50000047683716
 20
-0.000000000000111
 30
1.999999992549419
 70
   192
  0
VERTEX
  5
566
330
55D
100
AcDbEntity
  8
A-GENM
370
    18
100
AcDbFaceRecord
 10
0.0
 20
0.0
 30
0.0
 70
   128
 71
    -4
 72
     6
 73
    -7
 74
     3
  0
VERTEX
  5
567
330
55D
100
AcDbEntity
  8
A-GENM
370
    18
100
AcDbFaceRecord
 10
0.0
 20
0.0
 30
0.0
 70
   128
 71
     5
 72
    -6
 73
     4
 74
    -1
  0
VERTEX
  5
568
330
55D
100
AcDbEntity
  8
A-GENM
370
    18
100
AcDbFaceRecord
 10
0.0
 20
0.0
 30
0.0
 70
   128
 71
    -3
 72
     7
 73
    -8
 74
     2
  0
VERTEX
  5
569
330
55D
100
AcDbEntity
  8
A-GENM
370
    18
100
AcDbFaceRecord
 10
0.0
 20
0.0
 30
0.0
 70
   128
 71
     8
 72
    -5
 73
     1
 74
    -2
  0
SEQEND
  5
56A
330
55D
100
AcDbEntity
  8
A-GENM
370
    18
  0
POLYLINE
  5
56B
330
B4
100
AcDbEntity
  8
A-GENM
370
    18
100
AcDbPolyFaceMesh
 66
     1
 10
0.0
 20
0.0
 30
0.0
 70
    64
 71
     4
 72
     1
1001
REVIT
1002
{
1070
     4
1000
4860
1002
}
  0
VERTEX
  5
56C
330
56B
100
AcDbEntity
  8
A-GENM
370
    18
100
AcDbVertex
100
AcDbPolyFaceMeshVertex
 10
64.50000103712082
 20
-5.999999977648258
 30
73.99999802112579
 70
   192
  0
VERTEX
  5
56D
330
56B
100
AcDbEntity
  8
A-GENM
370
    18
100
AcDbVertex
100
AcDbPolyFaceMeshVertex
 10
-64.50000103712082
 20
-5.999999977648258
 30
73.99999802112579
 70
   192
  0
VERTEX
  5
56E
330
56B
100
AcDbEntity
  8
A-GENM
370
    18
100
AcDbVertex
100
AcDbPolyFaceMeshVertex
 10
-62.50000047683716
 20
-7.999999970197677
 30
72.00000200271607
 70
   192
  0
VERTEX
  5
56F
330
56B
100
AcDbEntity
  8
A-GENM
370
    18
100
AcDbVertex
100
AcDbPolyFaceMeshVertex
 10
62.50000047683716
 20
-7.999999970197677
 30
72.00000200271607
 70
   192
  0
VERTEX
  5
570
330
56B
100
AcDbEntity
  8
A-GENM
370
    18
100
AcDbFaceRecord
 10
0.0
 20
0.0
 30
0.0
 70
   128
 71
     1
 72
     2
 73
     3
 74
     4
  0
SEQEND
  5
571
330
56B
100
AcDbEntity
  8
A-GENM
370
    18
  0
POLYLINE
  5
572
330
B4
100
AcDbEntity
  8
A-GENM
370
    18
100
AcDbPolyFaceMesh
 66
     1
 10
0.0
 20
0.0
 30
0.0
 70
    64
 71
     4
 72
     1
1001
REVIT
1002
{
1070
     4
1000
4860
1002
}
  0
VERTEX
  5
573
330
572
100
AcDbEntity
  8
A-GENM
370
    18
100
AcDbVertex
100
AcDbPolyFaceMeshVertex
 10
62.50000047683716
 20
0.0000000000000021
 30
1.999999992549419
 70
   192
  0
VERTEX
  5
574
330
572
100
AcDbEntity
  8
A-GENM
370
    18
100
AcDbVertex
100
AcDbPolyFaceMeshVertex
 10
62.50000047683716
 20
-5.999999977648258
 30
1.999999992549419
 70
   192
  0
VERTEX
  5
575
330
572
100
AcDbEntity
  8
A-GENM
370
    18
100
AcDbVertex
100
AcDbPolyFaceMeshVertex
 10
62.50000047683716
 20
-5.999999977648258
 30
72.00000200271607
 70
   192
  0
VERTEX
  5
576
330
572
100
AcDbEntity
  8
A-GENM
370
    18
100
AcDbVertex
100
AcDbPolyFaceMeshVertex
 10
62.50000047683716
 20
0.0000000000000021
 30
72.00000200271607
 70
   192
  0
VERTEX
  5
577
330
572
100
AcDbEntity
  8
A-GENM
370
    18
100
AcDbFaceRecord
 10
0.0
 20
0.0
 30
0.0
 70
   128
 71
     1
 72
     2
 73
     3
 74
     4
  0
SEQEND
  5
578
330
572
100
AcDbEntity
  8
A-GENM
370
    18
  0
POLYLINE
  5
579
330
B4
100
AcDbEntity
  8
A-GENM
370
    18
100
AcDbPolyFaceMesh
 66
     1
 10
0.0
 20
0.0
 30
0.0
 70
    64
 71
     4
 72
     1
1001
REVIT
1002
{
1070
     4
1000
4860
1002
}
  0
VERTEX
  5
57A
330
579
100
AcDbEntity
  8
A-GENM
370
    18
100
AcDbVertex
100
AcDbPolyFaceMeshVertex
 10
-62.50000047683716
 20
0.0000000000000021
 30
1.999999992549419
 70
   192
  0
VERTEX
  5
57B
330
579
100
AcDbEntity
  8
A-GENM
370
    18
100
AcDbVertex
100
AcDbPolyFaceMeshVertex
 10
-62.50000047683716
 20
-5.999999977648258
 30
1.999999992549419
 70
   192
  0
VERTEX
  5
57C
330
579
100
AcDbEntity
  8
A-GENM
370
    18
100
AcDbVertex
100
AcDbPolyFaceMeshVertex
 10
62.50000047683716
 20
-5.999999977648258
 30
1.999999992549419
 70
   192
  0
VERTEX
  5
57D
330
579
100
AcDbEntity
  8
A-GENM
370
    18
100
AcDbVertex
100
AcDbPolyFaceMeshVertex
 10
62.50000047683716
 20
0.0000000000000021
 30
1.999999992549419
 70
   192
  0
VERTEX
  5
57E
330
579
100
AcDbEntity
  8
A-GENM
370
    18
100
AcDbFaceRecord
 10
0.0
 20
0.0
 30
0.0
 70
   128
 71
     1
 72
     2
 73
     3
 74
     4
  0
SEQEND
  5
57F
330
579
100
AcDbEntity
  8
A-GENM
370
    18
  0
POLYLINE
  5
580
330
B4
100
AcDbEntity
  8
A-GENM
370
    18
100
AcDbPolyFaceMesh
 66
     1
 10
0.0
 20
0.0
 30
0.0
 70
    64
 71
     4
 72
     1
1001
REVIT
1002
{
1070
     4
1000
4860
1002
}
  0
VERTEX
  5
581
330
580
100
AcDbEntity
  8
A-GENM
370
    18
100
AcDbVertex
100
AcDbPolyFaceMeshVertex
 10
-62.50000047683716
 20
0.0000000000000021
 30
72.00000200271607
 70
   192
  0
VERTEX
  5
582
330
580
100
AcDbEntity
  8
A-GENM
370
    18
100
AcDbVertex
100
AcDbPolyFaceMeshVertex
 10
-62.50000047683716
 20
-5.999999977648258
 30
72.00000200271607
 70
   192
  0
VERTEX
  5
583
330
580
100
AcDbEntity
  8
A-GENM
370
    18
100
AcDbVertex
100
AcDbPolyFaceMeshVertex
 10
-62.50000047683716
 20
-5.999999977648258
 30
1.999999992549419
 70
   192
  0
VERTEX
  5
584
330
580
100
AcDbEntity
  8
A-GENM
370
    18
100
AcDbVertex
100
AcDbPolyFaceMeshVertex
 10
-62.50000047683716
 20
0.0000000000000021
 30
1.999999992549419
 70
   192
  0
VERTEX
  5
585
330
580
100
AcDbEntity
  8
A-GENM
370
    18
100
AcDbFaceRecord
 10
0.0
 20
0.0
 30
0.0
 70
   128
 71
     1
 72
     2
 73
     3
 74
     4
  0
SEQEND
  5
586
330
580
100
AcDbEntity
  8
A-GENM
370
    18
  0
POLYLINE
  5
587
330
B4
100
AcDbEntity
  8
A-GENM
370
    18
100
AcDbPolyFaceMesh
 66
     1
 10
0.0
 20
0.0
 30
0.0
 70
    64
 71
     4
 72
     1
1001
REVIT
1002
{
1070
     4
1000
4860
1002
}
  0
VERTEX
  5
588
330
587
100
AcDbEntity
  8
A-GENM
370
    18
100
AcDbVertex
100
AcDbPolyFaceMeshVertex
 10
62.50000047683716
 20
0.0000000000000021
 30
72.00000200271607
 70
   192
  0
VERTEX
  5
589
330
587
100
AcDbEntity
  8
A-GENM
370
    18
100
AcDbVertex
100
AcDbPolyFaceMeshVertex
 10
62.50000047683716
 20
-5.999999977648258
 30
72.00000200271607
 70
   192
  0
VERTEX
  5
58A
330
587
100
AcDbEntity
  8
A-GENM
370
    18
100
AcDbVertex
100
AcDbPolyFaceMeshVertex
 10
-62.50000047683716
 20
-5.999999977648258
 30
72.00000200271607
 70
   192
  0
VERTEX
  5
58B
330
587
100
AcDbEntity
  8
A-GENM
370
    18
100
AcDbVertex
100
AcDbPolyFaceMeshVertex
 10
-62.50000047683716
 20
0.0000000000000021
 30
72.00000200271607
 70
   192
  0
VERTEX
  5
58C
330
587
100
AcDbEntity
  8
A-GENM
370
    18
100
AcDbFaceRecord
 10
0.0
 20
0.0
 30
0.0
 70
   128
 71
     1
 72
     2
 73
     3
 74
     4
  0
SEQEND
  5
58D
330
587
100
AcDbEntity
  8
A-GENM
370
    18
  0
POLYLINE
  5
58E
330
B4
100
AcDbEntity
  8
A-GENM
370
    18
100
AcDbPolyFaceMesh
 66
     1
 10
0.0
 20
0.0
 30
0.0
 70
    64
 71
     4
 72
     1
1001
REVIT
1002
{
1070
     4
1000
4860
1002
}
  0
VERTEX
  5
58F
330
58E
100
AcDbEntity
  8
A-GENM
370
    18
100
AcDbVertex
100
AcDbPolyFaceMeshVertex
 10
6.020501428842544
 20
-7.999999970197677
 30
54.49999823570252
 70
   192
  0
VERTEX
  5
590
330
58E
100
AcDbEntity
  8
A-GENM
370
    18
100
AcDbVertex
100
AcDbPolyFaceMeshVertex
 10
6.020501428842544
 20
-5.999999977648258
 30
54.49999823570252
 70
   192
  0
VERTEX
  5
591
330
58E
100
AcDbEntity
  8
A-GENM
370
    18
100
AcDbVertex
100
AcDbPolyFaceMeshVertex
 10
7.499999830126762
 20
-5.999999977648258
 30
53.02050096988678
 70
   192
  0
VERTEX
  5
592
330
58E
100
AcDbEntity
  8
A-GENM
370
    18
100
AcDbVertex
100
AcDbPolyFaceMeshVertex
 10
7.499999830126762
 20
-7.999999970197677
 30
53.02050096988678
 70
   192
  0
VERTEX
  5
593
330
58E
100
AcDbEntity
  8
A-GENM
370
    18
100
AcDbFaceRecord
 10
0.0
 20
0.0
 30
0.0
 70
   128
 71
     1
 72
     2
 73
     3
 74
     4
  0
SEQEND
  5
594
330
58E
100
AcDbEntity
  8
A-GENM
370
    18
  0
POLYLINE
  5
595
330
B4
100
AcDbEntity
  8
A-GENM
370
    18
100
AcDbPolyFaceMesh
 66
     1
 10
0.0
 20
0.0
 30
0.0
 70
    64
 71
     4
 72
     1
1001
REVIT
1002
{
1070
     4
1000
4860
1002
}
  0
VERTEX
  5
596
330
595
100
AcDbEntity
  8
A-GENM
370
    18
100
AcDbVertex
100
AcDbPolyFaceMeshVertex
 10
7.499999830126762
 20
-7.999999970197677
 30
20.97949932217598
 70
   192
  0
VERTEX
  5
597
330
595
100
AcDbEntity
  8
A-GENM
370
    18
100
AcDbVertex
100
AcDbPolyFaceMeshVertex
 10
7.499999830126762
 20
-5.999999977648258
 30
20.97949932217598
 70
   192
  0
VERTEX
  5
598
330
595
100
AcDbEntity
  8
A-GENM
370
    18
100
AcDbVertex
100
AcDbPolyFaceMeshVertex
 10
6.020501428842544
 20
-5.999999977648258
 30
19.49999978542328
 70
   192
  0
VERTEX
  5
599
330
595
100
AcDbEntity
  8
A-GENM
370
    18
100
AcDbVertex
100
AcDbPolyFaceMeshVertex
 10
6.020501428842544
 20
-7.999999970197677
 30
19.49999978542328
 70
   192
  0
VERTEX
  5
59A
330
595
100
AcDbEntity
  8
A-GENM
370
    18
100
AcDbFaceRecord
 10
0.0
 20
0.0
 30
0.0
 70
   128
 71
     1
 72
     2
 73
     3
 74
     4
  0
SEQEND
  5
59B
330
595
100
AcDbEntity
  8
A-GENM
370
    18
  0
POLYLINE
  5
59C
330
B4
100
AcDbEntity
  8
A-GENM
370
    18
100
AcDbPolyFaceMesh
 66
     1
 10
0.0
 20
0.0
 30
0.0
 70
    64
 71
     4
 72
     1
1001
REVIT
1002
{
1070
     4
1000
4860
1002
}
  0
VERTEX
  5
59D
330
59C
100
AcDbEntity
  8
A-GENM
370
    18
100
AcDbVertex
100
AcDbPolyFaceMeshVertex
 10
-46.02050127983093
 20
-7.999999970197677
 30
19.49999978542328
 70
   192
  0
VERTEX
  5
59E
330
59C
100
AcDbEntity
  8
A-GENM
370
    18
100
AcDbVertex
100
AcDbPolyFaceMeshVertex
 10
-46.02050127983093
 20
-5.999999977648258
 30
19.49999978542328
 70
   192
  0
VERTEX
  5
59F
330
59C
100
AcDbEntity
  8
A-GENM
370
    18
100
AcDbVertex
100
AcDbPolyFaceMeshVertex
 10
-47.49999854564666
 20
-5.999999977648258
 30
20.97949932217598
 70
   192
  0
VERTEX
  5
5A0
330
59C
100
AcDbEntity
  8
A-GENM
370
    18
100
AcDbVertex
100
AcDbPolyFaceMeshVertex
 10
-47.49999854564666
 20
-7.999999970197677
 30
20.97949932217598
 70
   192
  0
VERTEX
  5
5A1
330
59C
100
AcDbEntity
  8
A-GENM
370
    18
100
AcDbFaceRecord
 10
0.0
 20
0.0
 30
0.0
 70
   128
 71
     1
 72
     2
 73
     3
 74
     4
  0
SEQEND
  5
5A2
330
59C
100
AcDbEntity
  8
A-GENM
370
    18
  0
POLYLINE
  5
5A3
330
B4
100
AcDbEntity
  8
A-GENM
370
    18
100
AcDbPolyFaceMesh
 66
     1
 10
0.0
 20
0.0
 30
0.0
 70
    64
 71
     4
 72
     1
1001
REVIT
1002
{
1070
     4
1000
4860
1002
}
  0
VERTEX
  5
5A4
330
5A3
100
AcDbEntity
  8
A-GENM
370
    18
100
AcDbVertex
100
AcDbPolyFaceMeshVertex
 10
-47.49999854564666
 20
-7.999999970197677
 30
53.02050096988678
 70
   192
  0
VERTEX
  5
5A5
330
5A3
100
AcDbEntity
  8
A-GENM
370
    18
100
AcDbVertex
100
AcDbPolyFaceMeshVertex
 10
-47.49999854564666
 20
-5.999999977648258
 30
53.02050096988678
 70
   192
  0
VERTEX
  5
5A6
330
5A3
100
AcDbEntity
  8
A-GENM
370
    18
100
AcDbVertex
100
AcDbPolyFaceMeshVertex
 10
-46.02050127983093
 20
-5.999999977648258
 30
54.49999823570252
 70
   192
  0
VERTEX
  5
5A7
330
5A3
100
AcDbEntity
  8
A-GENM
370
    18
100
AcDbVertex
100
AcDbPolyFaceMeshVertex
 10
-46.02050127983093
 20
-7.999999970197677
 30
54.49999823570252
 70
   192
  0
VERTEX
  5
5A8
330
5A3
100
AcDbEntity
  8
A-GENM
370
    18
100
AcDbFaceRecord
 10
0.0
 20
0.0
 30
0.0
 70
   128
 71
     1
 72
     2
 73
     3
 74
     4
  0
SEQEND
  5
5A9
330
5A3
100
AcDbEntity
  8
A-GENM
370
    18
  0
POLYLINE
  5
5AA
330
B4
100
AcDbEntity
  8
A-GENM
370
    18
100
AcDbPolyFaceMesh
 66
     1
 10
0.0
 20
0.0
 30
0.0
 70
    64
 71
     4
 72
     1
1001
REVIT
1002
{
1070
     4
1000
4860
1002
}
  0
VERTEX
  5
5AB
330
5AA
100
AcDbEntity
  8
A-GENM
370
    18
100
AcDbVertex
100
AcDbPolyFaceMeshVertex
 10
12.50000009536743
 20
-7.999999970197677
 30
53.02050096988678
 70
   192
  0
VERTEX
  5
5AC
330
5AA
100
AcDbEntity
  8
A-GENM
370
    18
100
AcDbVertex
100
AcDbPolyFaceMeshVertex
 10
12.50000009536743
 20
-5.999999977648258
 30
53.02050096988678
 70
   192
  0
VERTEX
  5
5AD
330
5AA
100
AcDbEntity
  8
A-GENM
370
    18
100
AcDbVertex
100
AcDbPolyFaceMeshVertex
 10
13.97949849665165
 20
-5.999999977648258
 30
54.49999823570252
 70
   192
  0
VERTEX
  5
5AE
330
5AA
100
AcDbEntity
  8
A-GENM
370
    18
100
AcDbVertex
100
AcDbPolyFaceMeshVertex
 10
13.97949849665165
 20
-7.999999970197677
 30
54.49999823570252
 70
   192
  0
VERTEX
  5
5AF
330
5AA
100
AcDbEntity
  8
A-GENM
370
    18
100
AcDbFaceRecord
 10
0.0
 20
0.0
 30
0.0
 70
   128
 71
     1
 72
     2
 73
     3
 74
     4
  0
SEQEND
  5
5B0
330
5AA
100
AcDbEntity
  8
A-GENM
370
    18
  0
POLYLINE
  5
5B1
330
B4
100
AcDbEntity
  8
A-GENM
370
    18
100
AcDbPolyFaceMesh
 66
     1
 10
0.0
 20
0.0
 30
0.0
 70
    64
 71
     4
 72
     1
1001
REVIT
1002
{
1070
     4
1000
4860
1002
}
  0
VERTEX
  5
5B2
330
5B1
100
AcDbEntity
  8
A-GENM
370
    18
100
AcDbVertex
100
AcDbPolyFaceMeshVertex
 10
46.02050127983093
 20
-7.999999970197677
 30
54.49999823570252
 70
   192
  0
VERTEX
  5
5B3
330
5B1
100
AcDbEntity
  8
A-GENM
370
    18
100
AcDbVertex
100
AcDbPolyFaceMeshVertex
 10
46.02050127983093
 20
-5.999999977648258
 30
54.49999823570252
 70
   192
  0
VERTEX
  5
5B4
330
5B1
100
AcDbEntity
  8
A-GENM
370
    18
100
AcDbVertex
100
AcDbPolyFaceMeshVertex
 10
47.49999854564666
 20
-5.999999977648258
 30
53.02050096988678
 70
   192
  0
VERTEX
  5
5B5
330
5B1
100
AcDbEntity
  8
A-GENM
370
    18
100
AcDbVertex
100
AcDbPolyFaceMeshVertex
 10
47.49999854564666
 20
-7.999999970197677
 30
53.02050096988678
 70
   192
  0
VERTEX
  5
5B6
330
5B1
100
AcDbEntity
  8
A-GENM
370
    18
100
AcDbFaceRecord
 10
0.0
 20
0.0
 30
0.0
 70
   128
 71
     1
 72
     2
 73
     3
 74
     4
  0
SEQEND
  5
5B7
330
5B1
100
AcDbEntity
  8
A-GENM
370
    18
  0
POLYLINE
  5
5B8
330
B4
100
AcDbEntity
  8
A-GENM
370
    18
100
AcDbPolyFaceMesh
 66
     1
 10
0.0
 20
0.0
 30
0.0
 70
    64
 71
     4
 72
     1
1001
REVIT
1002
{
1070
     4
1000
4860
1002
}
  0
VERTEX
  5
5B9
330
5B8
100
AcDbEntity
  8
A-GENM
370
    18
100
AcDbVertex
100
AcDbPolyFaceMeshVertex
 10
47.49999854564666
 20
-7.999999970197677
 30
20.97949932217598
 70
   192
  0
VERTEX
  5
5BA
330
5B8
100
AcDbEntity
  8
A-GENM
370
    18
100
AcDbVertex
100
AcDbPolyFaceMeshVertex
 10
47.49999854564666
 20
-5.999999977648258
 30
20.97949932217598
 70
   192
  0
VERTEX
  5
5BB
330
5B8
100
AcDbEntity
  8
A-GENM
370
    18
100
AcDbVertex
100
AcDbPolyFaceMeshVertex
 10
46.02050127983093
 20
-5.999999977648258
 30
19.49999978542328
 70
   192
  0
VERTEX
  5
5BC
330
5B8
100
AcDbEntity
  8
A-GENM
370
    18
100
AcDbVertex
100
AcDbPolyFaceMeshVertex
 10
46.02050127983093
 20
-7.999999970197677
 30
19.49999978542328
 70
   192
  0
VERTEX
  5
5BD
330
5B8
100
AcDbEntity
  8
A-GENM
370
    18
100
AcDbFaceRecord
 10
0.0
 20
0.0
 30
0.0
 70
   128
 71
     1
 72
     2
 73
     3
 74
     4
  0
SEQEND
  5
5BE
330
5B8
100
AcDbEntity
  8
A-GENM
370
    18
  0
POLYLINE
  5
5BF
330
B4
100
AcDbEntity
  8
A-GENM
370
    18
100
AcDbPolyFaceMesh
 66
     1
 10
0.0
 20
0.0
 30
0.0
 70
    64
 71
     4
 72
     1
1001
REVIT
1002
{
1070
     4
1000
4860
1002
}
  0
VERTEX
  5
5C0
330
5BF
100
AcDbEntity
  8
A-GENM
370
    18
100
AcDbVertex
100
AcDbPolyFaceMeshVertex
 10
13.97949849665165
 20
-7.999999970197677
 30
19.49999978542328
 70
   192
  0
VERTEX
  5
5C1
330
5BF
100
AcDbEntity
  8
A-GENM
370
    18
100
AcDbVertex
100
AcDbPolyFaceMeshVertex
 10
13.97949849665165
 20
-5.999999977648258
 30
19.49999978542328
 70
   192
  0
VERTEX
  5
5C2
330
5BF
100
AcDbEntity
  8
A-GENM
370
    18
100
AcDbVertex
100
AcDbPolyFaceMeshVertex
 10
12.50000009536743
 20
-5.999999977648258
 30
20.97949932217598
 70
   192
  0
VERTEX
  5
5C3
330
5BF
100
AcDbEntity
  8
A-GENM
370
    18
100
AcDbVertex
100
AcDbPolyFaceMeshVertex
 10
12.50000009536743
 20
-7.999999970197677
 30
20.97949932217598
 70
   192
  0
VERTEX
  5
5C4
330
5BF
100
AcDbEntity
  8
A-GENM
370
    18
100
AcDbFaceRecord
 10
0.0
 20
0.0
 30
0.0
 70
   128
 71
     1
 72
     2
 73
     3
 74
     4
  0
SEQEND
  5
5C5
330
5BF
100
AcDbEntity
  8
A-GENM
370
    18
  0
POLYLINE
  5
5C6
330
B4
100
AcDbEntity
  8
A-GENM
370
    18
100
AcDbPolyFaceMesh
 66
     1
 10
0.0
 20
0.0
 30
0.0
 70
    64
 71
     4
 72
     1
1001
REVIT
1002
{
1070
     4
1000
14732
1002
}
  0
VERTEX
  5
5C7
330
5C6
100
AcDbEntity
  8
A-GENM
370
    18
100
AcDbVertex
100
AcDbPolyFaceMeshVertex
 10
16.11291319727898
 20
-9.000000250339509
 30
67.37319048643112
 70
   192
  0
VERTEX
  5
5C8
330
5C6
100
AcDbEntity
  8
A-GENM
370
    18
100
AcDbVertex
100
AcDbPolyFaceMeshVertex
 10
16.11291319727898
 20
-9.000000250339509
 30
62.37319135665893
 70
   192
  0
VERTEX
  5
5C9
330
5C6
100
AcDbEntity
  8
A-GENM
370
    18
100
AcDbVertex
100
AcDbPolyFaceMeshVertex
 10
21.11291459798813
 20
-9.000000250339509
 30
62.37319135665893
 70
   192
  0
VERTEX
  5
5CA
330
5C6
100
AcDbEntity
  8
A-GENM
370
    18
100
AcDbVertex
100
AcDbPolyFaceMeshVertex
 10
21.11291459798813
 20
-9.000000250339509
 30
67.37319048643112
 70
   192
  0
VERTEX
  5
5CB
330
5C6
100
AcDbEntity
  8
A-GENM
370
    18
100
AcDbFaceRecord
 10
0.0
 20
0.0
 30
0.0
 70
   128
 71
     1
 72
     2
 73
     3
 74
     4
  0
SEQEND
  5
5CC
330
5C6
100
AcDbEntity
  8
A-GENM
370
    18
  0
POLYLINE
  5
5CD
330
B4
100
AcDbEntity
  8
A-GENM
370
    18
100
AcDbPolyFaceMesh
 66
     1
 10
0.0
 20
0.0
 30
0.0
 70
    64
 71
     4
 72
     1
1001
REVIT
1002
{
1070
     4
1000
14732
1002
}
  0
VERTEX
  5
5CE
330
5CD
100
AcDbEntity
  8
A-GENM
370
    18
100
AcDbVertex
100
AcDbPolyFaceMeshVertex
 10
21.11291459798813
 20
-7.000000257790088
 30
62.37319135665893
 70
   192
  0
VERTEX
  5
5CF
330
5CD
100
AcDbEntity
  8
A-GENM
370
    18
100
AcDbVertex
100
AcDbPolyFaceMeshVertex
 10
16.11291319727898
 20
-7.000000257790088
 30
62.37319135665893
 70
   192
  0
VERTEX
  5
5D0
330
5CD
100
AcDbEntity
  8
A-GENM
370
    18
100
AcDbVertex
100
AcDbPolyFaceMeshVertex
 10
16.11291319727898
 20
-7.000000257790088
 30
67.37319048643112
 70
   192
  0
VERTEX
  5
5D1
330
5CD
100
AcDbEntity
  8
A-GENM
370
    18
100
AcDbVertex
100
AcDbPolyFaceMeshVertex
 10
21.11291459798813
 20
-7.000000257790088
 30
67.37319048643112
 70
   192
  0
VERTEX
  5
5D2
330
5CD
100
AcDbEntity
  8
A-GENM
370
    18
100
AcDbFaceRecord
 10
0.0
 20
0.0
 30
0.0
 70
   128
 71
     1
 72
     2
 73
     3
 74
     4
  0
SEQEND
  5
5D3
330
5CD
100
AcDbEntity
  8
A-GENM
370
    18
  0
POLYLINE
  5
5D4
330
B4
100
AcDbEntity
  8
A-GENM
370
    18
100
AcDbPolyFaceMesh
 66
     1
 10
0.0
 20
0.0
 30
0.0
 70
    64
 71
     4
 72
     1
1001
REVIT
1002
{
1070
     4
1000
14732
1002
}
  0
VERTEX
  5
5D5
330
5D4
100
AcDbEntity
  8
A-GENM
370
    18
100
AcDbVertex
100
AcDbPolyFaceMeshVertex
 10
21.11291459798813
 20
-7.000000257790088
 30
67.37319048643112
 70
   192
  0
VERTEX
  5
5D6
330
5D4
100
AcDbEntity
  8
A-GENM
370
    18
100
AcDbVertex
100
AcDbPolyFaceMeshVertex
 10
21.11291459798813
 20
-9.000000250339509
 30
67.37319048643112
 70
   192
  0
VERTEX
  5
5D7
330
5D4
100
AcDbEntity
  8
A-GENM
370
    18
100
AcDbVertex
100
AcDbPolyFaceMeshVertex
 10
21.11291459798813
 20
-9.000000250339509
 30
62.37319135665893
 70
   192
  0
VERTEX
  5
5D8
330
5D4
100
AcDbEntity
  8
A-GENM
370
    18
100
AcDbVertex
100
AcDbPolyFaceMeshVertex
 10
21.11291459798813
 20
-7.000000257790088
 30
62.37319135665893
 70
   192
  0
VERTEX
  5
5D9
330
5D4
100
AcDbEntity
  8
A-GENM
370
    18
100
AcDbFaceRecord
 10
0.0
 20
0.0
 30
0.0
 70
   128
 71
     1
 72
     2
 73
     3
 74
     4
  0
SEQEND
  5
5DA
330
5D4
100
AcDbEntity
  8
A-GENM
370
    18
  0
POLYLINE
  5
5DB
330
B4
100
AcDbEntity
  8
A-GENM
370
    18
100
AcDbPolyFaceMesh
 66
     1
 10
0.0
 20
0.0
 30
0.0
 70
    64
 71
     4
 72
     1
1001
REVIT
1002
{
1070
     4
1000
14732
1002
}
  0
VERTEX
  5
5DC
330
5DB
100
AcDbEntity
  8
A-GENM
370
    18
100
AcDbVertex
100
AcDbPolyFaceMeshVertex
 10
21.11291459798813
 20
-7.000000257790088
 30
62.37319135665893
 70
   192
  0
VERTEX
  5
5DD
330
5DB
100
AcDbEntity
  8
A-GENM
370
    18
100
AcDbVertex
100
AcDbPolyFaceMeshVertex
 10
21.11291459798813
 20
-9.000000250339509
 30
62.37319135665893
 70
   192
  0
VERTEX
  5
5DE
330
5DB
100
AcDbEntity
  8
A-GENM
370
    18
100
AcDbVertex
100
AcDbPolyFaceMeshVertex
 10
16.11291319727898
 20
-9.000000250339509
 30
62.37319135665893
 70
   192
  0
VERTEX
  5
5DF
330
5DB
100
AcDbEntity
  8
A-GENM
370
    18
100
AcDbVertex
100
AcDbPolyFaceMeshVertex
 10
16.11291319727898
 20
-7.000000257790088
 30
62.37319135665893
 70
   192
  0
VERTEX
  5
5E0
330
5DB
100
AcDbEntity
  8
A-GENM
370
    18
100
AcDbFaceRecord
 10
0.0
 20
0.0
 30
0.0
 70
   128
 71
     1
 72
     2
 73
     3
 74
     4
  0
SEQEND
  5
5E1
330
5DB
100
AcDbEntity
  8
A-GENM
370
    18
  0
POLYLINE
  5
5E2
330
B4
100
AcDbEntity
  8
A-GENM
370
    18
100
AcDbPolyFaceMesh
 66
     1
 10
0.0
 20
0.0
 30
0.0
 70
    64
 71
     4
 72
     1
1001
REVIT
1002
{
1070
     4
1000
14732
1002
}
  0
VERTEX
  5
5E3
330
5E2
100
AcDbEntity
  8
A-GENM
370
    18
100
AcDbVertex
100
AcDbPolyFaceMeshVertex
 10
16.11291319727898
 20
-7.000000257790088
 30
62.37319135665893
 70
   192
  0
VERTEX
  5
5E4
330
5E2
100
AcDbEntity
  8
A-GENM
370
    18
100
AcDbVertex
100
AcDbPolyFaceMeshVertex
 10
16.11291319727898
 20
-9.000000250339509
 30
62.37319135665893
 70
   192
  0
VERTEX
  5
5E5
330
5E2
100
AcDbEntity
  8
A-GENM
370
    18
100
AcDbVertex
100
AcDbPolyFaceMeshVertex
 10
16.11291319727898
 20
-9.000000250339509
 30
67.37319048643112
 70
   192
  0
VERTEX
  5
5E6
330
5E2
100
AcDbEntity
  8
A-GENM
370
    18
100
AcDbVertex
100
AcDbPolyFaceMeshVertex
 10
16.11291319727898
 20
-7.000000257790088
 30
67.37319048643112
 70
   192
  0
VERTEX
  5
5E7
330
5E2
100
AcDbEntity
  8
A-GENM
370
    18
100
AcDbFaceRecord
 10
0.0
 20
0.0
 30
0.0
 70
   128
 71
     1
 72
     2
 73
     3
 74
     4
  0
SEQEND
  5
5E8
330
5E2
100
AcDbEntity
  8
A-GENM
370
    18
  0
POLYLINE
  5
5E9
330
B4
100
AcDbEntity
  8
A-GENM
370
    18
100
AcDbPolyFaceMesh
 66
     1
 10
0.0
 20
0.0
 30
0.0
 70
    64
 71
     4
 72
     1
1001
REVIT
1002
{
1070
     4
1000
14732
1002
}
  0
VERTEX
  5
5EA
330
5E9
100
AcDbEntity
  8
A-GENM
370
    18
100
AcDbVertex
100
AcDbPolyFaceMeshVertex
 10
16.11291319727898
 20
-7.000000257790088
 30
67.37319048643112
 70
   192
  0
VERTEX
  5
5EB
330
5E9
100
AcDbEntity
  8
A-GENM
370
    18
100
AcDbVertex
100
AcDbPolyFaceMeshVertex
 10
16.11291319727898
 20
-9.000000250339509
 30
67.37319048643112
 70
   192
  0
VERTEX
  5
5EC
330
5E9
100
AcDbEntity
  8
A-GENM
370
    18
100
AcDbVertex
100
AcDbPolyFaceMeshVertex
 10
21.11291459798813
 20
-9.000000250339509
 30
67.37319048643112
 70
   192
  0
VERTEX
  5
5ED
330
5E9
100
AcDbEntity
  8
A-GENM
370
    18
100
AcDbVertex
100
AcDbPolyFaceMeshVertex
 10
21.11291459798813
 20
-7.000000257790088
 30
67.37319048643112
 70
   192
  0
VERTEX
  5
5EE
330
5E9
100
AcDbEntity
  8
A-GENM
370
    18
100
AcDbFaceRecord
 10
0.0
 20
0.0
 30
0.0
 70
   128
 71
     1
 72
     2
 73
     3
 74
     4
  0
SEQEND
  5
5EF
330
5E9
100
AcDbEntity
  8
A-GENM
370
    18
  0
ENDBLK
  5
5F1
330
B4
100
AcDbEntity
  8
0
100
AcDbBlockEnd
  0
ENDSEC
  0
SECTION
  2
ENTITIES
  0
POLYLINE
  5
89
330
70
100
AcDbEntity
  8
A-WALL
370
    25
100
AcDbPolyFaceMesh
 66
     1
 10
0.0
 20
0.0
 30
0.0
 70
    64
 71
     4
 72
     1
1001
REVIT
1002
{
1070
     1
1000
2383
1002
}
1002
{
1070
     5
1000
2382
1002
}
1002
{
1070
     4
1000
1309
1002
}
1002
{
1070
     2
1000
-2000011
1002
}
  0
VERTEX
  5
8A
330
89
100
AcDbEntity
  8
A-WALL
370
    25
100
AcDbVertex
100
AcDbPolyFaceMeshVertex
 10
2124.999943542481
 20
-75.0000005722046
 30
0.0
 70
   192
  0
VERTEX
  5
8B
330
89
100
AcDbEntity
  8
A-WALL
370
    25
100
AcDbVertex
100
AcDbPolyFaceMeshVertex
 10
2124.999943542481
 20
-75.0000005722046
 30
3000.000022888184
 70
   192
  0
VERTEX
  5
8C
330
89
100
AcDbEntity
  8
A-WALL
370
    25
100
AcDbVertex
100
AcDbPolyFaceMeshVertex
 10
-1874.999941635132
 20
-75.0000005722046
 30
3000.000022888184
 70
   192
  0
VERTEX
  5
8D
330
89
100
AcDbEntity
  8
A-WALL
370
    25
100
AcDbVertex
100
AcDbPolyFaceMeshVertex
 10
-1874.999941635132
 20
-75.0000005722046
 30
0.0
 70
   192
  0
VERTEX
  5
8E
330
89
100
AcDbEntity
  8
A-WALL
370
    25
100
AcDbFaceRecord
 10
0.0
 20
0.0
 30
0.0
 70
   128
 71
     1
 72
     2
 73
     3
 74
     4
  0
SEQEND
  5
8F
330
89
100
AcDbEntity
  8
A-WALL
370
    25
  0
POLYLINE
  5
90
330
70
100
AcDbEntity
  8
A-WALL
370
    25
100
AcDbPolyFaceMesh
 66
     1
 10
0.0
 20
0.0
 30
0.0
 70
    64
 71
     4
 72
     1
1001
REVIT
1002
{
1070
     1
1000
2383
1002
}
1002
{
1070
     5
1000
2382
1002
}
1002
{
1070
     4
1000
1309
1002
}
1002
{
1070
     2
1000
-2000011
1002
}
  0
VERTEX
  5
91
330
90
100
AcDbEntity
  8
A-WALL
370
    25
100
AcDbVertex
100
AcDbPolyFaceMeshVertex
 10
-1874.999941635132
 20
75.0000005722046
 30
0.0
 70
   192
  0
VERTEX
  5
92
330
90
100
AcDbEntity
  8
A-WALL
370
    25
100
AcDbVertex
100
AcDbPolyFaceMeshVertex
 10
-1874.999941635132
 20
75.0000005722046
 30
3000.000022888184
 70
   192
  0
VERTEX
  5
93
330
90
100
AcDbEntity
  8
A-WALL
370
    25
100
AcDbVertex
100
AcDbPolyFaceMeshVertex
 10
2124.999943542481
 20
75.0000005722046
 30
3000.000022888184
 70
   192
  0
VERTEX
  5
94
330
90
100
AcDbEntity
  8
A-WALL
370
    25
100
AcDbVertex
100
AcDbPolyFaceMeshVertex
 10
2124.999943542481
 20
75.0000005722046
 30
0.0
 70
   192
  0
VERTEX
  5
95
330
90
100
AcDbEntity
  8
A-WALL
370
    25
100
AcDbFaceRecord
 10
0.0
 20
0.0
 30
0.0
 70
   128
 71
     3
 72
     4
 73
     1
 74
     2
  0
SEQEND
  5
96
330
90
100
AcDbEntity
  8
A-WALL
370
    25
  0
POLYLINE
  5
97
330
70
100
AcDbEntity
  8
A-WALL
370
    25
100
AcDbPolyFaceMesh
 66
     1
 10
0.0
 20
0.0
 30
0.0
 70
    64
 71
     4
 72
     1
1001
REVIT
1002
{
1070
     1
1000
2383
1002
}
1002
{
1070
     5
1000
2382
1002
}
1002
{
1070
     4
1000
1309
1002
}
1002
{
1070
     2
1000
-2000011
1002
}
  0
VERTEX
  5
98
330
97
100
AcDbEntity
  8
A-WALL
370
    25
100
AcDbVertex
100
AcDbPolyFaceMeshVertex
 10
-1874.999941635132
 20
-75.0000005722046
 30
0.0
 70
   192
  0
VERTEX
  5
99
330
97
100
AcDbEntity
  8
A-WALL
370
    25
100
AcDbVertex
100
AcDbPolyFaceMeshVertex
 10
-1874.999941635132
 20
75.0000005722046
 30
0.0
 70
   192
  0
VERTEX
  5
9A
330
97
100
AcDbEntity
  8
A-WALL
370
    25
100
AcDbVertex
100
AcDbPolyFaceMeshVertex
 10
2124.999943542481
 20
75.0000005722046
 30
0.0
 70
   192
  0
VERTEX
  5
9B
330
97
100
AcDbEntity
  8
A-WALL
370
    25
100
AcDbVertex
100
AcDbPolyFaceMeshVertex
 10
2124.999943542481
 20
-75.0000005722046
 30
0.0
 70
   192
  0
VERTEX
  5
9C
330
97
100
AcDbEntity
  8
A-WALL
370
    25
100
AcDbFaceRecord
 10
0.0
 20
0.0
 30
0.0
 70
   128
 71
     1
 72
     2
 73
     3
 74
     4
  0
SEQEND
  5
9D
330
97
100
AcDbEntity
  8
A-WALL
370
    25
  0
POLYLINE
  5
9E
330
70
100
AcDbEntity
  8
A-WALL
370
    25
100
AcDbPolyFaceMesh
 66
     1
 10
0.0
 20
0.0
 30
0.0
 70
    64
 71
     4
 72
     1
1001
REVIT
1002
{
1070
     1
1000
2383
1002
}
1002
{
1070
     5
1000
2382
1002
}
1002
{
1070
     4
1000
1309
1002
}
1002
{
1070
     2
1000
-2000011
1002
}
  0
VERTEX
  5
9F
330
9E
100
AcDbEntity
  8
A-WALL
370
    25
100
AcDbVertex
100
AcDbPolyFaceMeshVertex
 10
2124.999943542481
 20
-75.0000005722046
 30
0.0
 70
   192
  0
VERTEX
  5
A0
330
9E
100
AcDbEntity
  8
A-WALL
370
    25
100
AcDbVertex
100
AcDbPolyFaceMeshVertex
 10
2124.999943542481
 20
75.0000005722046
 30
0.0
 70
   192
  0
VERTEX
  5
A1
330
9E
100
AcDbEntity
  8
A-WALL
370
    25
100
AcDbVertex
100
AcDbPolyFaceMeshVertex
 10
2124.999943542481
 20
75.0000005722046
 30
3000.000022888184
 70
   192
  0
VERTEX
  5
A2
330
9E
100
AcDbEntity
  8
A-WALL
370
    25
100
AcDbVertex
100
AcDbPolyFaceMeshVertex
 10
2124.999943542481
 20
-75.0000005722046
 30
3000.000022888184
 70
   192
  0
VERTEX
  5
A3
330
9E
100
AcDbEntity
  8
A-WALL
370
    25
100
AcDbFaceRecord
 10
0.0
 20
0.0
 30
0.0
 70
   128
 71
     1
 72
     2
 73
     3
 74
     4
  0
SEQEND
  5
A4
330
9E
100
AcDbEntity
  8
A-WALL
370
    25
  0
POLYLINE
  5
A5
330
70
100
AcDbEntity
  8
A-WALL
370
    25
100
AcDbPolyFaceMesh
 66
     1
 10
0.0
 20
0.0
 30
0.0
 70
    64
 71
     4
 72
     1
1001
REVIT
1002
{
1070
     1
1000
2383
1002
}
1002
{
1070
     5
1000
2382
1002
}
1002
{
1070
     4
1000
1309
1002
}
1002
{
1070
     2
1000
-2000011
1002
}
  0
VERTEX
  5
A6
330
A5
100
AcDbEntity
  8
A-WALL
370
    25
100
AcDbVertex
100
AcDbPolyFaceMeshVertex
 10
2124.999943542481
 20
-75.0000005722046
 30
3000.000022888184
 70
   192
  0
VERTEX
  5
A7
330
A5
100
AcDbEntity
  8
A-WALL
370
    25
100
AcDbVertex
100
AcDbPolyFaceMeshVertex
 10
2124.999943542481
 20
75.0000005722046
 30
3000.000022888184
 70
   192
  0
VERTEX
  5
A8
330
A5
100
AcDbEntity
  8
A-WALL
370
    25
100
AcDbVertex
100
AcDbPolyFaceMeshVertex
 10
-1874.999941635132
 20
75.0000005722046
 30
3000.000022888184
 70
   192
  0
VERTEX
  5
A9
330
A5
100
AcDbEntity
  8
A-WALL
370
    25
100
AcDbVertex
100
AcDbPolyFaceMeshVertex
 10
-1874.999941635132
 20
-75.0000005722046
 30
3000.000022888184
 70
   192
  0
VERTEX
  5
AA
330
A5
100
AcDbEntity
  8
A-WALL
370
    25
100
AcDbFaceRecord
 10
0.0
 20
0.0
 30
0.0
 70
   128
 71
     1
 72
     2
 73
     3
 74
     4
  0
SEQEND
  5
AB
330
A5
100
AcDbEntity
  8
A-WALL
370
    25
  0
POLYLINE
  5
AC
330
70
100
AcDbEntity
  8
A-WALL
370
    25
100
AcDbPolyFaceMesh
 66
     1
 10
0.0
 20
0.0
 30
0.0
 70
    64
 71
     4
 72
     1
1001
REVIT
1002
{
1070
     1
1000
2383
1002
}
1002
{
1070
     5
1000
2382
1002
}
1002
{
1070
     4
1000
1309
1002
}
1002
{
1070
     2
1000
-2000011
1002
}
  0
VERTEX
  5
AD
330
AC
100
AcDbEntity
  8
A-WALL
370
    25
100
AcDbVertex
100
AcDbPolyFaceMeshVertex
 10
-1874.999941635132
 20
-75.0000005722046
 30
3000.000022888184
 70
   192
  0
VERTEX
  5
AE
330
AC
100
AcDbEntity
  8
A-WALL
370
    25
100
AcDbVertex
100
AcDbPolyFaceMeshVertex
 10
-1874.999941635132
 20
75.0000005722046
 30
3000.000022888184
 70
   192
  0
VERTEX
  5
AF
330
AC
100
AcDbEntity
  8
A-WALL
370
    25
100
AcDbVertex
100
AcDbPolyFaceMeshVertex
 10
-1874.999941635132
 20
75.0000005722046
 30
0.0
 70
   192
  0
VERTEX
  5
B0
330
AC
100
AcDbEntity
  8
A-WALL
370
    25
100
AcDbVertex
100
AcDbPolyFaceMeshVertex
 10
-1874.999941635132
 20
-75.0000005722046
 30
0.0
 70
   192
  0
VERTEX
  5
B1
330
AC
100
AcDbEntity
  8
A-WALL
370
    25
100
AcDbFaceRecord
 10
0.0
 20
0.0
 30
0.0
 70
   128
 71
     1
 72
     2
 73
     3
 74
     4
  0
SEQEND
  5
B2
330
AC
100
AcDbEntity
  8
A-WALL
370
    25
  0
INSERT
  5
5F2
330
70
100
AcDbEntity
  8
A-GENM
370
    18
100
AcDbBlockReference
  2
Geberit_sigma_pneumatic - Geberit_sigma_pneumatic-16576-_3D_
 10
124.9999999999925
 20
-74.99999999999059
 30
800.0
1001
REVIT
1002
{
1070
     1
1000
16737
1002
}
1002
{
1070
     5
1000
16576
1002
}
1002
{
1070
     4
1000
14732
1002
}
1002
{
1070
     2
1000
-2000151
1002
}
  0
ENDSEC
  0
SECTION
  2
OBJECTS
  0
DICTIONARY
  5
C
330
0
100
AcDbDictionary
281
     1
  3
ACAD_CIP_PREVIOUS_PRODUCT_INFO
350
79
  3
ACAD_COLOR
350
63
  3
ACAD_DETAILVIEWSTYLE
350
6A
  3
ACAD_GROUP
350
D
  3
ACAD_IMAGE_VARS
350
7A
  3
ACAD_LAYOUT
350
62
  3
ACAD_MATERIAL
350
10
  3
ACAD_MLEADERSTYLE
350
66
  3
ACAD_MLINESTYLE
350
5F
  3
ACAD_PLOTSETTINGS
350
61
  3
ACAD_PLOTSTYLENAME
350
E
  3
ACAD_SCALELIST
350
42
  3
ACAD_SECTIONVIEWSTYLE
350
68
  3
ACAD_TABLESTYLE
350
64
  3
ACAD_VISUALSTYLE
350
29
  3
ACDB_RECOMPOSE_DATA
350
607
  3
AcDbVariableDictionary
350
7B
  3
REVIT_DICTIONARY
350
5FD
  0
XRECORD
  5
79
102
{ACAD_REACTORS
330
C
102
}
330
C
100
AcDbXrecord
280
     1
300
RVT
300
2014
300
RVT2014
  0
DICTIONARY
  5
63
102
{ACAD_REACTORS
330
C
102
}
330
C
100
AcDbDictionary
281
     1
  0
DICTIONARY
  5
6A
102
{ACAD_REACTORS
330
C
102
}
330
C
100
AcDbDictionary
281
     1
  3
Imperial24
350
6B
  0
DICTIONARY
  5
D
102
{ACAD_REACTORS
330
C
102
}
330
C
100
AcDbDictionary
281
     1
  0
RASTERVARIABLES
  5
7A
102
{ACAD_REACTORS
330
C
102
}
330
C
100
AcDbRasterVariables
 90
        0
 70
     0
 71
     1
 72
     1
  0
DICTIONARY
  5
62
102
{ACAD_REACTORS
330
C
102
}
330
C
100
AcDbDictionary
281
     1
  3
Layout1
350
6F
  3
Layout2
350
77
  3
Model
350
73
  0
DICTIONARY
  5
10
102
{ACAD_REACTORS
330
C
102
}
330
C
100
AcDbDictionary
281
     1
  3
ByBlock
350
19
  3
ByLayer
350
11
  3
Global
350
21
  3
RevitMaterialDefinition1309
350
5F4
  3
RevitMaterialDefinition14732
350
5FA
  3
RevitMaterialDefinition4860
350
5F7
  0
DICTIONARY
  5
66
102
{ACAD_REACTORS
330
C
102
}
330
C
100
AcDbDictionary
281
     1
  3
Standard
350
67
  0
DICTIONARY
  5
5F
102
{ACAD_REACTORS
330
C
102
}
330
C
100
AcDbDictionary
281
     1
  3
Standard
350
60
  0
DICTIONARY
  5
61
102
{ACAD_REACTORS
330
C
102
}
330
C
100
AcDbDictionary
281
     1
  0
ACDBDICTIONARYWDFLT
  5
E
102
{ACAD_REACTORS
330
C
102
}
330
C
100
AcDbDictionary
281
     1
  3
Normal
350
F
100
AcDbDictionaryWithDefault
340
F
  0
DICTIONARY
  5
42
102
{ACAD_REACTORS
330
C
102
}
330
C
100
AcDbDictionary
281
     1
  3
A0
350
43
  3
A1
350
44
  3
A2
350
45
  3
A3
350
46
  3
A4
350
47
  3
A5
350
48
  3
A6
350
49
  3
A7
350
4A
  3
A8
350
4B
  3
A9
350
4C
  3
B0
350
4D
  3
B1
350
4E
  3
B2
350
4F
  3
B3
350
50
  3
B4
350
51
  3
B5
350
52
  3
B6
350
53
  0
DICTIONARY
  5
68
102
{ACAD_REACTORS
330
C
102
}
330
C
100
AcDbDictionary
281
     1
  3
Imperial24
350
69
  0
DICTIONARY
  5
64
102
{ACAD_REACTORS
330
C
102
}
330
C
100
AcDbDictionary
281
     1
  3
Standard
350
65
  0
DICTIONARY
  5
29
102
{ACAD_REACTORS
330
C
102
}
330
C
100
AcDbDictionary
281
     1
  3
2dWireframe
350
2F
  3
Basic
350
2E
  3
Brighten
350
35
  3
ColorChange
350
39
  3
Conceptual
350
32
  3
Dim
350
34
  3
EdgeColorOff
350
41
  3
Facepattern
350
38
  3
Flat
350
2A
  3
FlatWithEdges
350
2B
  3
Gouraud
350
2C
  3
GouraudWithEdges
350
2D
  3
Hidden
350
31
  3
JitterOff
350
3F
  3
Linepattern
350
37
  3
OverhangOff
350
40
  3
Realistic
350
33
  3
Shaded
350
3E
  3
Shaded with edges
350
3D
  3
Shades of Gray
350
3A
  3
Sketchy
350
3B
  3
Thicken
350
36
  3
Wireframe
350
30
  3
X-Ray
350
3C
  0
XRECORD
  5
607
102
{ACAD_REACTORS
330
C
102
}
330
C
100
AcDbXrecord
280
     1
 90
        1
330
65
330
69
330
6B
  0
DICTIONARY
  5
7B
102
{ACAD_REACTORS
330
C
102
}
330
C
100
AcDbDictionary
281
     1
  3
CANNOSCALE
350
80
  3
CMLEADERSTYLE
350
7D
  3
CTABLESTYLE
350
7C
  3
CVIEWDETAILSTYLE
350
7E
  3
CVIEWSECTIONSTYLE
350
7F
  0
DICTIONARY
  5
5FD
102
{ACAD_REACTORS
330
C
102
}
330
C
100
AcDbDictionary
281
     1
  3
DRAWING_TOOL
350
600
  3
REVIT_CATEGORY_MAPPING
350
5FF
  3
REVIT_TYPE_MAPPING
350
5FE
  0
ACDBDETAILVIEWSTYLE
  5
6B
102
{ACAD_XDICTIONARY
360
605
102
}
102
{ACAD_REACTORS
330
6A
102
}
330
6A
100
AcDbModelDocViewStyle
 70
     0
  3
Imperial24
290
     0
100
AcDbDetailViewStyle
 70
     0
 71
     0
 90
        3
 71
     1
340
55
 62
   256
 40
0.24
340
0
 62
   256
 40
0.24
300

 40
0.36
280
     3
 71
     2
340
5D
 90
       25
 62
   256
 71
     3
340
55
 62
   256
 40
0.24
 90
        1
 40
0.75
 90
        1
300
%<\AcVar ViewType \f "%tc1">% %<\AcVar ViewDetailId>%\PSCALE %<\AcVar ViewScale \f "%sn">%
 71
     4
340
5D
 90
       25
 62
   256
340
5D
 90
       25
 62
   256
280
     0
  0
LAYOUT
  5
6F
102
{ACAD_REACTORS
330
62
102
}
330
62
100
AcDbPlotSettings
  1

  2

  4

  6

 40
0.0
 41
0.0
 42
0.0
 43
0.0
 44
0.0
 45
0.0
 46
0.0
 47
0.0
 48
0.0
 49
0.0
140
0.0
141
0.0
142
1.0
143
1.0
 70
   688
 72
     0
 73
     0
 74
     5
  7

 75
    16
147
1.0
 76
     0
 77
     2
 78
   300
148
0.0
149
0.0
100
AcDbLayout
  1
Layout1
 70
     1
 71
     1
 10
0.0
 20
0.0
 11
12.0
 21
9.0
 12
0.0
 22
0.0
 32
0.0
 14
0.0
 24
0.0
 34
0.0
 15
0.0
 25
0.0
 35
0.0
146
0.0
 13
0.0
 23
0.0
 33
0.0
 16
1.0
 26
0.0
 36
0.0
 17
0.0
 27
1.0
 37
0.0
 76
     0
330
6C
  0
LAYOUT
  5
77
102
{ACAD_REACTORS
330
62
102
}
330
62
100
AcDbPlotSettings
  1

  2

  4

  6

 40
0.0
 41
0.0
 42
0.0
 43
0.0
 44
0.0
 45
0.0
 46
0.0
 47
0.0
 48
0.0
 49
0.0
140
0.0
141
0.0
142
1.0
143
1.0
 70
   688
 72
     0
 73
     0
 74
     5
  7

 75
    16
147
1.0
 76
     0
 77
     2
 78
   300
148
0.0
149
0.0
100
AcDbLayout
  1
Layout2
 70
     1
 71
     2
 10
0.0
 20
0.0
 11
12.0
 21
9.0
 12
0.0
 22
0.0
 32
0.0
 14
0.0
 24
0.0
 34
0.0
 15
0.0
 25
0.0
 35
0.0
146
0.0
 13
0.0
 23
0.0
 33
0.0
 16
1.0
 26
0.0
 36
0.0
 17
0.0
 27
1.0
 37
0.0
 76
     0
330
74
  0
LAYOUT
  5
73
102
{ACAD_REACTORS
330
62
102
}
330
62
100
AcDbPlotSettings
  1

  2

  4

  6

 40
0.0
 41
0.0
 42
0.0
 43
0.0
 44
0.0
 45
0.0
 46
0.0
 47
0.0
 48
0.0
 49
0.0
140
0.0
141
0.0
142
1.0
143
1.0
 70
  1712
 72
     0
 73
     0
 74
     0
  7

 75
     0
147
1.0
 76
     0
 77
     2
 78
   300
148
0.0
149
0.0
100
AcDbLayout
  1
Model
 70
     1
 71
     0
 10
0.0
 20
0.0
 11
12.0
 21
9.0
 12
0.0
 22
0.0
 32
0.0
 14
0.0
 24
0.0
 34
0.0
 15
0.0
 25
0.0
 35
0.0
146
0.0
 13
0.0
 23
0.0
 33
0.0
 16
1.0
 26
0.0
 36
0.0
 17
0.0
 27
1.0
 37
0.0
 76
     0
330
70
  0
MATERIAL
  5
19
102
{ACAD_XDICTIONARY
360
1A
102
}
102
{ACAD_REACTORS
330
10
102
}
330
10
100
AcDbMaterial
  1
ByBlock
 72
     0
 43
0.0208333333333333
 43
0.0
 43
0.0
 43
0.0
 43
0.0
 43
0.0208333333333333
 43
0.0
 43
0.0
 43
0.0
 43
0.0
 43
1.0
 43
0.0
 43
0.0
 43
0.0
 43
0.0
 43
1.0
 77
     0
 47
0.0208333333333333
 47
0.0
 47
0.0
 47
0.0
 47
0.0
 47
0.0208333333333333
 47
0.0
 47
0.0
 47
0.0
 47
0.0
 47
1.0
 47
0.0
 47
0.0
 47
0.0
 47
0.0
 47
1.0
171
     0
 49
0.0208333333333333
 49
0.0
 49
0.0
 49
0.0
 49
0.0
 49
0.0208333333333333
 49
0.0
 49
0.0
 49
0.0
 49
0.0
 49
1.0
 49
0.0
 49
0.0
 49
0.0
 49
0.0
 49
1.0
175
     0
142
0.0208333333333333
142
0.0
142
0.0
142
0.0
142
0.0
142
0.0208333333333333
142
0.0
142
0.0
142
0.0
142
0.0
142
1.0
142
0.0
142
0.0
142
0.0
142
0.0
142
1.0
179
     0
144
0.0208333333333333
144
0.0
144
0.0
144
0.0
144
0.0
144
0.0208333333333333
144
0.0
144
0.0
144
0.0
144
0.0
144
1.0
144
0.0
144
0.0
144
0.0
144
0.0
144
1.0
147
0.0208333333333333
147
0.0
147
0.0
147
0.0
147
0.0
147
0.0208333333333333
147
0.0
147
0.0
147
0.0
147
0.0
147
1.0
147
0.0
147
0.0
147
0.0
147
0.0
147
1.0
  0
MATERIAL
  5
11
102
{ACAD_XDICTIONARY
360
12
102
}
102
{ACAD_REACTORS
330
10
102
}
330
10
100
AcDbMaterial
  1
ByLayer
 72
     0
 43
0.0208333333333333
 43
0.0
 43
0.0
 43
0.0
 43
0.0
 43
0.0208333333333333
 43
0.0
 43
0.0
 43
0.0
 43
0.0
 43
1.0
 43
0.0
 43
0.0
 43
0.0
 43
0.0
 43
1.0
 77
     0
 47
0.0208333333333333
 47
0.0
 47
0.0
 47
0.0
 47
0.0
 47
0.0208333333333333
 47
0.0
 47
0.0
 47
0.0
 47
0.0
 47
1.0
 47
0.0
 47
0.0
 47
0.0
 47
0.0
 47
1.0
171
     0
 49
0.0208333333333333
 49
0.0
 49
0.0
 49
0.0
 49
0.0
 49
0.0208333333333333
 49
0.0
 49
0.0
 49
0.0
 49
0.0
 49
1.0
 49
0.0
 49
0.0
 49
0.0
 49
0.0
 49
1.0
175
     0
142
0.0208333333333333
142
0.0
142
0.0
142
0.0
142
0.0
142
0.0208333333333333
142
0.0
142
0.0
142
0.0
142
0.0
142
1.0
142
0.0
142
0.0
142
0.0
142
0.0
142
1.0
179
     0
144
0.0208333333333333
144
0.0
144
0.0
144
0.0
144
0.0
144
0.0208333333333333
144
0.0
144
0.0
144
0.0
144
0.0
144
1.0
144
0.0
144
0.0
144
0.0
144
0.0
144
1.0
147
0.0208333333333333
147
0.0
147
0.0
147
0.0
147
0.0
147
0.0208333333333333
147
0.0
147
0.0
147
0.0
147
0.0
147
1.0
147
0.0
147
0.0
147
0.0
147
0.0
147
1.0
  0
MATERIAL
  5
21
102
{ACAD_XDICTIONARY
360
22
102
}
102
{ACAD_REACTORS
330
10
102
}
330
10
100
AcDbMaterial
  1
Global
 72
     0
 43
0.0208333333333333
 43
0.0
 43
0.0
 43
0.0
 43
0.0
 43
0.0208333333333333
 43
0.0
 43
0.0
 43
0.0
 43
0.0
 43
1.0
 43
0.0
 43
0.0
 43
0.0
 43
0.0
 43
1.0
 77
     0
 47
0.0208333333333333
 47
0.0
 47
0.0
 47
0.0
 47
0.0
 47
0.0208333333333333
 47
0.0
 47
0.0
 47
0.0
 47
0.0
 47
1.0
 47
0.0
 47
0.0
 47
0.0
 47
0.0
 47
1.0
171
     0
 49
0.0208333333333333
 49
0.0
 49
0.0
 49
0.0
 49
0.0
 49
0.0208333333333333
 49
0.0
 49
0.0
 49
0.0
 49
0.0
 49
1.0
 49
0.0
 49
0.0
 49
0.0
 49
0.0
 49
1.0
175
     0
142
0.0208333333333333
142
0.0
142
0.0
142
0.0
142
0.0
142
0.0208333333333333
142
0.0
142
0.0
142
0.0
142
0.0
142
1.0
142
0.0
142
0.0
142
0.0
142
0.0
142
1.0
179
     0
144
0.0208333333333333
144
0.0
144
0.0
144
0.0
144
0.0
144
0.0208333333333333
144
0.0
144
0.0
144
0.0
144
0.0
144
1.0
144
0.0
144
0.0
144
0.0
144
0.0
144
1.0
147
0.0208333333333333
147
0.0
147
0.0
147
0.0
147
0.0
147
0.0208333333333333
147
0.0
147
0.0
147
0.0
147
0.0
147
1.0
147
0.0
147
0.0
147
0.0
147
0.0
147
1.0
  0
MATERIAL
  5
5F4
102
{ACAD_XDICTIONARY
360
5F5
102
}
102
{ACAD_REACTORS
330
10
102
}
330
10
100
AcDbMaterial
  1
RevitMaterialDefinition1309
 70
     1
 90
-1024791830
 71
     1
 91
-1024791830
 73
     1
 44
1.0
 76
     1
 77
     0
175
     0
145
0.0
  0
MATERIAL
  5
5FA
102
{ACAD_XDICTIONARY
360
5FB
102
}
102
{ACAD_REACTORS
330
10
102
}
330
10
100
AcDbMaterial
  1
RevitMaterialDefinition14732
 70
     1
 90
-1036042433
 71
     1
 91
-1036042433
 73
     1
 76
     1
 45
0.5
 77
     0
175
     0
145
0.0
  0
MATERIAL
  5
5F7
102
{ACAD_XDICTIONARY
360
5F8
102
}
102
{ACAD_REACTORS
330
10
102
}
330
10
100
AcDbMaterial
  1
RevitMaterialDefinition4860
 70
     1
 90
-1024133900
 71
     1
 91
-1024133900
 73
     1
 76
     1
 45
0.5
 77
     0
175
     0
145
0.0
  0
MLEADERSTYLE
  5
67
102
{ACAD_REACTORS
330
66
102
}
330
66
100
AcDbMLeaderStyle
179
     2
170
     2
171
     1
172
     0
 90
        2
 40
0.0
 41
0.0
173
     1
 91
-1056964608
340
5B
 92
       -2
290
     1
 42
0.09
291
     1
 43
0.36
  3
Standard
 44
0.18
300

342
55
174
     1
178
     6
175
     1
176
     0
 93
-1056964608
 45
0.18
292
     0
297
     0
 46
0.18
 94
-1056964608
 47
1.0
 49
1.0
140
1.0
293
     1
141
0.0
294
     1
177
     0
142
1.0
295
     1
296
     0
143
0.125
271
     0
272
     9
273
     9
298
     1
  0
MLINESTYLE
  5
60
102
{ACAD_REACTORS
330
5F
102
}
330
5F
100
AcDbMlineStyle
  2
STANDARD
 70
     0
  3

 62
   256
 51
90.0
 52
90.0
 71
     2
 49
0.5
 62
   256
  6
BYLAYER
 49
-0.5
 62
   256
  6
BYLAYER
  0
ACDBPLACEHOLDER
  5
F
102
{ACAD_REACTORS
330
E
102
}
330
E
  0
SCALE
  5
43
102
{ACAD_REACTORS
330
42
102
}
330
42
100
AcDbScale
 70
     0
300
1:1
140
1.0
141
1.0
290
     1
  0
SCALE
  5
44
102
{ACAD_REACTORS
330
42
102
}
330
42
100
AcDbScale
 70
     0
300
1/128" = 1'-0"
140
0.0078125
141
12.0
290
     0
  0
SCALE
  5
45
102
{ACAD_REACTORS
330
42
102
}
330
42
100
AcDbScale
 70
     0
300
1/64" = 1'-0"
140
0.015625
141
12.0
290
     0
  0
SCALE
  5
46
102
{ACAD_REACTORS
330
42
102
}
330
42
100
AcDbScale
 70
     0
300
1/32" = 1'-0"
140
0.03125
141
12.0
290
     0
  0
SCALE
  5
47
102
{ACAD_REACTORS
330
42
102
}
330
42
100
AcDbScale
 70
     0
300
1/16" = 1'-0"
140
0.0625
141
12.0
290
     0
  0
SCALE
  5
48
102
{ACAD_REACTORS
330
42
102
}
330
42
100
AcDbScale
 70
     0
300
3/32" = 1'-0"
140
0.09375
141
12.0
290
     0
  0
SCALE
  5
49
102
{ACAD_REACTORS
330
42
102
}
330
42
100
AcDbScale
 70
     0
300
1/8" = 1'-0"
140
0.125
141
12.0
290
     0
  0
SCALE
  5
4A
102
{ACAD_REACTORS
330
42
102
}
330
42
100
AcDbScale
 70
     0
300
3/16" = 1'-0"
140
0.1875
141
12.0
290
     0
  0
SCALE
  5
4B
102
{ACAD_REACTORS
330
42
102
}
330
42
100
AcDbScale
 70
     0
300
1/4" = 1'-0"
140
0.25
141
12.0
290
     0
  0
SCALE
  5
4C
102
{ACAD_REACTORS
330
42
102
}
330
42
100
AcDbScale
 70
     0
300
3/8" = 1'-0"
140
0.375
141
12.0
290
     0
  0
SCALE
  5
4D
102
{ACAD_REACTORS
330
42
102
}
330
42
100
AcDbScale
 70
     0
300
1/2" = 1'-0"
140
0.5
141
12.0
290
     0
  0
SCALE
  5
4E
102
{ACAD_REACTORS
330
42
102
}
330
42
100
AcDbScale
 70
     0
300
3/4" = 1'-0"
140
0.75
141
12.0
290
     0
  0
SCALE
  5
4F
102
{ACAD_REACTORS
330
42
102
}
330
42
100
AcDbScale
 70
     0
300
1" = 1'-0"
140
1.0
141
12.0
290
     0
  0
SCALE
  5
50
102
{ACAD_REACTORS
330
42
102
}
330
42
100
AcDbScale
 70
     0
300
1-1/2" = 1'-0"
140
1.5
141
12.0
290
     0
  0
SCALE
  5
51
102
{ACAD_REACTORS
330
42
102
}
330
42
100
AcDbScale
 70
     0
300
3" = 1'-0"
140
3.0
141
12.0
290
     0
  0
SCALE
  5
52
102
{ACAD_REACTORS
330
42
102
}
330
42
100
AcDbScale
 70
     0
300
6" = 1'-0"
140
6.0
141
12.0
290
     0
  0
SCALE
  5
53
102
{ACAD_REACTORS
330
42
102
}
330
42
100
AcDbScale
 70
     0
300
1'-0" = 1'-0"
140
12.0
141
12.0
290
     0
  0
ACDBSECTIONVIEWSTYLE
  5
69
102
{ACAD_XDICTIONARY
360
603
102
}
102
{ACAD_REACTORS
330
68
102
}
330
68
100
AcDbModelDocViewStyle
 70
     0
  3
Imperial24
290
     0
100
AcDbSectionViewStyle
 70
     0
 71
     0
 90
       78
 71
     1
340
55
 62
   256
 40
0.24
340
0
340
0
 62
   256
 40
0.24
300
I, O, Q, S, X, Z
 40
0.48
 90
        3
 40
0.18
 90
        1
 71
     2
340
5D
 90
       25
 62
   256
340
5D
 90
       50
 62
   256
 40
0.24
 40
0.0
 40
0.24
 71
     3
340
55
 62
   256
 40
0.24
 90
        1
 40
0.75
 90
        1
300
%<\AcVar ViewType \f "%tc1">% %<\AcVar ViewSectionStartId>%-%<\AcVar ViewSectionEndId>%\PSCALE %<\AcVar ViewScale \f "%sn">%
 71
     4
 62
   256
 62
   257
300
ANSI31
 40
1.0
 90
        0
290
     0
290
     0
 90
        6
 40
0.0
 40
1.570796326794896
 40
0.2617993877991494
 40
1.308996938995747
 40
-0.2617993877991494
 40
1.832595714594046
  0
TABLESTYLE
  5
65
102
{ACAD_XDICTIONARY
360
601
102
}
102
{ACAD_REACTORS
330
64
102
}
330
64
100
AcDbTableStyle
280
     0
  3
Standard
 70
     0
 71
     0
 40
0.06
 41
0.06
280
     0
281
     0
  7
Standard
140
0.18
170
     2
 62
     0
 63
     7
283
     0
 90
      512
 91
        0
  1

274
    -2
284
     1
 64
     0
275
    -2
285
     1
 65
     0
276
    -2
286
     1
 66
     0
277
    -2
287
     1
 67
     0
278
    -2
288
     1
 68
     0
279
    -2
289
     1
 69
     0
  7
Standard
140
0.25
170
     5
 62
     0
 63
     7
283
     0
 90
      512
 91
        0
  1

274
    -2
284
     1
 64
     0
275
    -2
285
     1
 65
     0
276
    -2
286
     1
 66
     0
277
    -2
287
     1
 67
     0
278
    -2
288
     1
 68
     0
279
    -2
289
     1
 69
     0
  7
Standard
140
0.18
170
     5
 62
     0
 63
     7
283
     0
 90
      512
 91
        0
  1

274
    -2
284
     1
 64
     0
275
    -2
285
     1
 65
     0
276
    -2
286
     1
 66
     0
277
    -2
287
     1
 67
     0
278
    -2
288
     1
 68
     0
279
    -2
289
     1
 69
     0
  0
VISUALSTYLE
  5
2F
102
{ACAD_REACTORS
330
29
102
}
330
29
100
AcDbVisualStyle
  2
2dWireframe
 70
     4
177
     3
291
     0
 70
    58
 90
        0
176
     1
 90
        2
176
     1
 90
        0
176
     1
 90
        0
176
     1
 40
0.6
176
     1
 40
30.0
176
     1
 62
     7
420
 16777215
176
     1
 90
        1
176
     1
 90
        4
176
     1
 62
     7
176
     1
 62
   257
176
     1
 90
        1
176
     1
 90
        1
176
     1
 40
1.0
176
     1
 90
        0
176
     1
 62
   257
176
     1
 40
1.0
176
     1
 90
        1
176
     1
 90
        6
176
     1
 90
        2
176
     1
 62
     7
176
     1
 90
        5
176
     1
 90
        0
176
     1
 90
        0
176
     1
290
     0
176
     1
 90
        1
176
     1
 40
0.0
176
     1
 90
        0
176
     1
290
     1
176
     1
290
     1
176
     1
290
     0
176
     1
290
     0
176
     1
290
     0
176
     1
290
     0
176
     1
290
     0
176
     1
290
     0
176
     1
290
     0
176
     1
 90
       50
176
     1
 40
0.0
176
     1
 40
1.0
176
     1
 90
        0
176
     1
 62
    18
420
        0
176
     1
 90
       50
176
     1
 90
        3
176
     1
 62
     5
420
      255
176
     1
290
     0
176
     1
 90
       50
176
     1
 90
       50
176
     1
 90
       50
176
     1
290
     0
176
     1
 90
       50
176
     1
 62
   256
176
     0
 40
1.0
176
     0
 90
        2
176
     1
  1
strokes_ogs.tif
176
     1
290
     0
176
     1
 40
1.0
176
     1
 40
1.0
176
     1
  0
VISUALSTYLE
  5
2E
102
{ACAD_REACTORS
330
29
102
}
330
29
100
AcDbVisualStyle
  2
Basic
 70
     7
177
     3
291
     1
 70
    58
 90
        1
176
     1
 90
        0
176
     1
 90
        1
176
     1
 90
        0
176
     1
 40
0.6
176
     1
 40
30.0
176
     1
 62
     7
420
 16777215
176
     1
 90
        0
176
     1
 90
        4
176
     1
 62
     7
176
     1
 62
   257
176
     1
 90
        1
176
     1
 90
        1
176
     1
 40
1.0
176
     1
 90
        8
176
     1
 62
     7
176
     1
 40
1.0
176
     1
 90
        1
176
     1
 90
        6
176
     1
 90
        2
176
     1
 62
     7
176
     1
 90
        5
176
     1
 90
        0
176
     1
 90
        0
176
     1
290
     0
176
     1
 90
        1
176
     1
 40
0.0
176
     1
 90
        0
176
     1
290
     0
176
     1
290
     1
176
     1
290
     1
176
     1
290
     0
176
     1
290
     0
176
     1
290
     0
176
     1
290
     0
176
     1
290
     0
176
     1
290
     0
176
     1
 90
       50
176
     1
 40
0.0
176
     1
 40
1.0
176
     1
 90
        0
176
     1
 62
    18
420
        0
176
     1
 90
       50
176
     1
 90
        3
176
     1
 62
     5
420
      255
176
     1
290
     0
176
     1
 90
       50
176
     1
 90
       50
176
     1
 90
       50
176
     1
290
     0
176
     1
 90
       50
176
     1
 62
   256
176
     0
 40
1.0
176
     0
 90
        2
176
     1
  1
strokes_ogs.tif
176
     1
290
     0
176
     1
 40
1.0
176
     1
 40
1.0
176
     1
  0
VISUALSTYLE
  5
35
102
{ACAD_REACTORS
330
29
102
}
330
29
100
AcDbVisualStyle
  2
Brighten
 70
    12
177
     3
291
     1
 70
    58
 90
        2
176
     1
 90
        2
176
     1
 90
        0
176
     1
 90
        0
176
     1
 40
0.6
176
     1
 40
30.0
176
     1
 62
     7
420
 16777215
176
     1
 90
        1
176
     1
 90
        4
176
     1
 62
     7
176
     1
 62
   257
176
     1
 90
        1
176
     1
 90
        1
176
     1
 40
1.0
176
     1
 90
        8
176
     1
 62
     7
176
     1
 40
1.0
176
     1
 90
        1
176
     1
 90
        6
176
     1
 90
        2
176
     1
 62
     7
176
     1
 90
        5
176
     1
 90
        0
176
     1
 90
        0
176
     1
290
     0
176
     1
 90
        1
176
     1
 40
50.0
176
     1
 90
        0
176
     1
290
     0
176
     1
290
     1
176
     1
290
     1
176
     1
290
     0
176
     1
290
     0
176
     1
290
     0
176
     1
290
     0
176
     1
290
     0
176
     1
290
     0
176
     1
 90
       50
176
     1
 40
0.0
176
     1
 40
1.0
176
     1
 90
        0
176
     1
 62
    18
420
        0
176
     1
 90
       50
176
     1
 90
        3
176
     1
 62
     5
420
      255
176
     1
290
     0
176
     1
 90
       50
176
     1
 90
       50
176
     1
 90
       50
176
     1
290
     0
176
     1
 90
       50
176
     1
 62
   256
176
     0
 40
1.0
176
     0
 90
        2
176
     1
  1
strokes_ogs.tif
176
     1
290
     0
176
     1
 40
1.0
176
     1
 40
1.0
176
     1
  0
VISUALSTYLE
  5
39
102
{ACAD_REACTORS
330
29
102
}
330
29
100
AcDbVisualStyle
  2
ColorChange
 70
    16
177
     3
291
     1
 70
    58
 90
        2
176
     1
 90
        2
176
     1
 90
        3
176
     1
 90
        0
176
     1
 40
0.6
176
     1
 40
30.0
176
     1
 62
     8
420
  8421504
176
     1
 90
        1
176
     1
 90
        4
176
     1
 62
     7
176
     1
 62
   257
176
     1
 90
        1
176
     1
 90
        1
176
     1
 40
1.0
176
     1
 90
        8
176
     1
 62
     8
420
  8421504
176
     1
 40
1.0
176
     1
 90
        1
176
     1
 90
        6
176
     1
 90
        2
176
     1
 62
     7
176
     1
 90
        5
176
     1
 90
        0
176
     1
 90
        0
176
     1
290
     0
176
     1
 90
        1
176
     1
 40
0.0
176
     1
 90
        0
176
     1
290
     0
176
     1
290
     1
176
     1
290
     1
176
     1
290
     0
176
     1
290
     0
176
     1
290
     0
176
     1
290
     0
176
     1
290
     0
176
     1
290
     0
176
     1
 90
       50
176
     1
 40
0.0
176
     1
 40
1.0
176
     1
 90
        0
176
     1
 62
    18
420
        0
176
     1
 90
       50
176
     1
 90
        3
176
     1
 62
     5
420
      255
176
     1
290
     0
176
     1
 90
       50
176
     1
 90
       50
176
     1
 90
       50
176
     1
290
     0
176
     1
 90
       50
176
     1
 62
   256
176
     0
 40
1.0
176
     0
 90
        2
176
     1
  1
strokes_ogs.tif
176
     1
290
     0
176
     1
 40
1.0
176
     1
 40
1.0
176
     1
  0
VISUALSTYLE
  5
32
102
{ACAD_REACTORS
330
29
102
}
330
29
100
AcDbVisualStyle
  2
Conceptual
 70
     9
177
     3
291
     0
 70
    58
 90
        3
176
     1
 90
        2
176
     1
 90
        0
176
     1
 90
        0
176
     1
 40
0.6
176
     1
 40
30.0
176
     1
 62
     7
420
 16777215
176
     1
 90
        2
176
     1
 90
        2
176
     1
 62
     7
176
     1
 62
   257
176
     1
 90
        1
176
     1
 90
        1
176
     1
 40
179.0
176
     1
 90
        8
176
     1
 62
     7
176
     1
 40
1.0
176
     1
 90
        1
176
     1
 90
        6
176
     1
 90
        2
176
     1
 62
     7
176
     1
 90
        3
176
     1
 90
        0
176
     1
 90
        0
176
     1
290
     0
176
     1
 90
        1
176
     1
 40
0.0
176
     1
 90
        0
176
     1
290
     0
176
     1
290
     1
176
     1
290
     1
176
     1
290
     0
176
     1
290
     0
176
     1
290
     0
176
     1
290
     0
176
     1
290
     0
176
     1
290
     0
176
     1
 90
       50
176
     1
 40
0.0
176
     1
 40
1.0
176
     1
 90
        0
176
     1
 62
    18
420
        0
176
     1
 90
       50
176
     1
 90
        3
176
     1
 62
     5
420
      255
176
     1
290
     0
176
     1
 90
       50
176
     1
 90
       50
176
     1
 90
       50
176
     1
290
     0
176
     1
 90
       50
176
     1
 62
   256
176
     0
 40
1.0
176
     0
 90
        2
176
     1
  1
strokes_ogs.tif
176
     1
290
     0
176
     1
 40
1.0
176
     1
 40
1.0
176
     1
  0
VISUALSTYLE
  5
34
102
{ACAD_REACTORS
330
29
102
}
330
29
100
AcDbVisualStyle
  2
Dim
 70
    11
177
     3
291
     1
 70
    58
 90
        2
176
     1
 90
        2
176
     1
 90
        0
176
     1
 90
        0
176
     1
 40
0.6
176
     1
 40
30.0
176
     1
 62
     7
420
 16777215
176
     1
 90
        1
176
     1
 90
        4
176
     1
 62
     7
176
     1
 62
   257
176
     1
 90
        1
176
     1
 90
        1
176
     1
 40
1.0
176
     1
 90
        8
176
     1
 62
     7
176
     1
 40
1.0
176
     1
 90
        1
176
     1
 90
        6
176
     1
 90
        2
176
     1
 62
     7
176
     1
 90
        5
176
     1
 90
        0
176
     1
 90
        0
176
     1
290
     0
176
     1
 90
        1
176
     1
 40
-50.0
176
     1
 90
        0
176
     1
290
     0
176
     1
290
     1
176
     1
290
     1
176
     1
290
     0
176
     1
290
     0
176
     1
290
     0
176
     1
290
     0
176
     1
290
     0
176
     1
290
     0
176
     1
 90
       50
176
     1
 40
0.0
176
     1
 40
1.0
176
     1
 90
        0
176
     1
 62
    18
420
        0
176
     1
 90
       50
176
     1
 90
        3
176
     1
 62
     5
420
      255
176
     1
290
     0
176
     1
 90
       50
176
     1
 90
       50
176
     1
 90
       50
176
     1
290
     0
176
     1
 90
       50
176
     1
 62
   256
176
     0
 40
1.0
176
     0
 90
        2
176
     1
  1
strokes_ogs.tif
176
     1
290
     0
176
     1
 40
1.0
176
     1
 40
1.0
176
     1
  0
VISUALSTYLE
  5
41
102
{ACAD_REACTORS
330
29
102
}
330
29
100
AcDbVisualStyle
  2
EdgeColorOff
 70
    22
177
     3
291
     1
 70
    58
 90
        2
176
     0
 90
        2
176
     0
 90
        0
176
     0
 90
        0
176
     0
 40
0.6
176
     0
 40
30.0
176
     0
 62
     7
420
 16777215
176
     0
 90
        1
176
     0
 90
        4
176
     0
 62
     7
176
     0
 62
   257
176
     0
 90
        1
176
     0
 90
        1
176
     0
 40
1.0
176
     0
 90
        8
176
     2
 62
     7
176
     0
 40
1.0
176
     0
 90
        1
176
     0
 90
        6
176
     0
 90
        2
176
     0
 62
     7
176
     0
 90
        5
176
     0
 90
        0
176
     0
 90
        0
176
     0
290
     0
176
     0
 90
        1
176
     0
 40
0.0
176
     0
 90
        0
176
     0
290
     0
176
     0
290
     1
176
     0
290
     1
176
     0
290
     0
176
     0
290
     0
176
     0
290
     0
176
     0
290
     0
176
     0
290
     0
176
     0
290
     0
176
     0
 90
       50
176
     0
 40
0.0
176
     0
 40
1.0
176
     0
 90
        0
176
     0
 62
    18
420
        0
176
     0
 90
       50
176
     0
 90
        3
176
     0
 62
     5
420
      255
176
     0
290
     0
176
     0
 90
       50
176
     0
 90
       50
176
     0
 90
       50
176
     0
290
     0
176
     0
 90
       50
176
     0
 62
   256
176
     0
 40
1.0
176
     0
 90
        2
176
     0
  1
strokes_ogs.tif
176
     0
290
     0
176
     0
 40
1.0
176
     0
 40
1.0
176
     0
  0
VISUALSTYLE
  5
38
102
{ACAD_REACTORS
330
29
102
}
330
29
100
AcDbVisualStyle
  2
Facepattern
 70
    15
177
     3
291
     1
 70
    58
 90
        2
176
     1
 90
        2
176
     1
 90
        0
176
     1
 90
        0
176
     1
 40
0.6
176
     1
 40
30.0
176
     1
 62
     7
420
 16777215
176
     1
 90
        1
176
     1
 90
        4
176
     1
 62
     7
176
     1
 62
   257
176
     1
 90
        1
176
     1
 90
        1
176
     1
 40
1.0
176
     1
 90
        8
176
     1
 62
     7
176
     1
 40
1.0
176
     1
 90
        1
176
     1
 90
        6
176
     1
 90
        2
176
     1
 62
     7
176
     1
 90
        5
176
     1
 90
        0
176
     1
 90
        0
176
     1
290
     0
176
     1
 90
        1
176
     1
 40
0.0
176
     1
 90
        0
176
     1
290
     0
176
     1
290
     1
176
     1
290
     1
176
     1
290
     0
176
     1
290
     0
176
     1
290
     0
176
     1
290
     0
176
     1
290
     0
176
     1
290
     0
176
     1
 90
       50
176
     1
 40
0.0
176
     1
 40
1.0
176
     1
 90
        0
176
     1
 62
    18
420
        0
176
     1
 90
       50
176
     1
 90
        3
176
     1
 62
     5
420
      255
176
     1
290
     0
176
     1
 90
       50
176
     1
 90
       50
176
     1
 90
       50
176
     1
290
     0
176
     1
 90
       50
176
     1
 62
   256
176
     0
 40
1.0
176
     0
 90
        2
176
     1
  1
strokes_ogs.tif
176
     1
290
     0
176
     1
 40
1.0
176
     1
 40
1.0
176
     1
  0
VISUALSTYLE
  5
2A
102
{ACAD_REACTORS
330
29
102
}
330
29
100
AcDbVisualStyle
  2
Flat
 70
     0
177
     3
291
     1
 70
    58
 90
        2
176
     1
 90
        1
176
     1
 90
        1
176
     1
 90
        2
176
     1
 40
0.6
176
     1
 40
30.0
176
     1
 62
     7
420
 16777215
176
     1
 90
        0
176
     1
 90
        0
176
     1
 62
     7
176
     1
 62
   257
176
     1
 90
        1
176
     1
 90
        1
176
     1
 40
1.0
176
     1
 90
        8
176
     1
 62
     7
176
     1
 40
1.0
176
     1
 90
        1
176
     1
 90
        6
176
     1
 90
        2
176
     1
 62
     7
176
     1
 90
        5
176
     1
 90
        0
176
     1
 90
        0
176
     1
290
     0
176
     1
 90
       13
176
     1
 40
0.0
176
     1
 90
        0
176
     1
290
     0
176
     1
290
     1
176
     1
290
     1
176
     1
290
     0
176
     1
290
     0
176
     1
290
     0
176
     1
290
     0
176
     1
290
     0
176
     1
290
     0
176
     1
 90
       50
176
     1
 40
0.0
176
     1
 40
1.0
176
     1
 90
        0
176
     1
 62
    18
420
        0
176
     1
 90
       50
176
     1
 90
        3
176
     1
 62
     5
420
      255
176
     1
290
     0
176
     1
 90
       50
176
     1
 90
       50
176
     1
 90
       50
176
     1
290
     0
176
     1
 90
       50
176
     1
 62
   256
176
     0
 40
1.0
176
     0
 90
        2
176
     1
  1
strokes_ogs.tif
176
     1
290
     0
176
     1
 40
1.0
176
     1
 40
1.0
176
     1
  0
VISUALSTYLE
  5
2B
102
{ACAD_REACTORS
330
29
102
}
330
29
100
AcDbVisualStyle
  2
FlatWithEdges
 70
     1
177
     3
291
     1
 70
    58
 90
        2
176
     1
 90
        1
176
     1
 90
        1
176
     1
 90
        2
176
     1
 40
0.6
176
     1
 40
30.0
176
     1
 62
     7
420
 16777215
176
     1
 90
        1
176
     1
 90
        0
176
     1
 62
     7
176
     1
 62
   257
176
     1
 90
        1
176
     1
 90
        1
176
     1
 40
1.0
176
     1
 90
        0
176
     1
 62
   257
176
     1
 40
1.0
176
     1
 90
        1
176
     1
 90
        6
176
     1
 90
        2
176
     1
 62
     7
176
     1
 90
        5
176
     1
 90
        0
176
     1
 90
        0
176
     1
290
     0
176
     1
 90
       13
176
     1
 40
0.0
176
     1
 90
        0
176
     1
290
     0
176
     1
290
     1
176
     1
290
     1
176
     1
290
     0
176
     1
290
     0
176
     1
290
     0
176
     1
290
     0
176
     1
290
     0
176
     1
290
     0
176
     1
 90
       50
176
     1
 40
0.0
176
     1
 40
1.0
176
     1
 90
        0
176
     1
 62
    18
420
        0
176
     1
 90
       50
176
     1
 90
        3
176
     1
 62
     5
420
      255
176
     1
290
     0
176
     1
 90
       50
176
     1
 90
       50
176
     1
 90
       50
176
     1
290
     0
176
     1
 90
       50
176
     1
 62
   256
176
     0
 40
1.0
176
     0
 90
        2
176
     1
  1
strokes_ogs.tif
176
     1
290
     0
176
     1
 40
1.0
176
     1
 40
1.0
176
     1
  0
VISUALSTYLE
  5
2C
102
{ACAD_REACTORS
330
29
102
}
330
29
100
AcDbVisualStyle
  2
Gouraud
 70
     2
177
     3
291
     1
 70
    58
 90
        2
176
     1
 90
        2
176
     1
 90
        1
176
     1
 90
        2
176
     1
 40
0.6
176
     1
 40
30.0
176
     1
 62
     7
420
 16777215
176
     1
 90
        0
176
     1
 90
        0
176
     1
 62
     7
176
     1
 62
   257
176
     1
 90
        1
176
     1
 90
        1
176
     1
 40
1.0
176
     1
 90
        0
176
     1
 62
     7
176
     1
 40
1.0
176
     1
 90
        1
176
     1
 90
        6
176
     1
 90
        2
176
     1
 62
     7
176
     1
 90
        5
176
     1
 90
        0
176
     1
 90
        0
176
     1
290
     0
176
     1
 90
       13
176
     1
 40
0.0
176
     1
 90
        0
176
     1
290
     0
176
     1
290
     1
176
     1
290
     1
176
     1
290
     0
176
     1
290
     0
176
     1
290
     0
176
     1
290
     0
176
     1
290
     0
176
     1
290
     0
176
     1
 90
       50
176
     1
 40
0.0
176
     1
 40
1.0
176
     1
 90
        0
176
     1
 62
    18
420
        0
176
     1
 90
       50
176
     1
 90
        3
176
     1
 62
     5
420
      255
176
     1
290
     0
176
     1
 90
       50
176
     1
 90
       50
176
     1
 90
       50
176
     1
290
     0
176
     1
 90
       50
176
     1
 62
   256
176
     0
 40
1.0
176
     0
 90
        2
176
     1
  1
strokes_ogs.tif
176
     1
290
     0
176
     1
 40
1.0
176
     1
 40
1.0
176
     1
  0
VISUALSTYLE
  5
2D
102
{ACAD_REACTORS
330
29
102
}
330
29
100
AcDbVisualStyle
  2
GouraudWithEdges
 70
     3
177
     3
291
     1
 70
    58
 90
        2
176
     1
 90
        2
176
     1
 90
        1
176
     1
 90
        2
176
     1
 40
0.6
176
     1
 40
30.0
176
     1
 62
     7
420
 16777215
176
     1
 90
        1
176
     1
 90
        0
176
     1
 62
     7
176
     1
 62
   257
176
     1
 90
        1
176
     1
 90
        1
176
     1
 40
1.0
176
     1
 90
        0
176
     1
 62
   257
176
     1
 40
1.0
176
     1
 90
        1
176
     1
 90
        6
176
     1
 90
        2
176
     1
 62
     7
176
     1
 90
        5
176
     1
 90
        0
176
     1
 90
        0
176
     1
290
     0
176
     1
 90
       13
176
     1
 40
0.0
176
     1
 90
        0
176
     1
290
     0
176
     1
290
     1
176
     1
290
     1
176
     1
290
     0
176
     1
290
     0
176
     1
290
     0
176
     1
290
     0
176
     1
290
     0
176
     1
290
     0
176
     1
 90
       50
176
     1
 40
0.0
176
     1
 40
1.0
176
     1
 90
        0
176
     1
 62
    18
420
        0
176
     1
 90
       50
176
     1
 90
        3
176
     1
 62
     5
420
      255
176
     1
290
     0
176
     1
 90
       50
176
     1
 90
       50
176
     1
 90
       50
176
     1
290
     0
176
     1
 90
       50
176
     1
 62
   256
176
     0
 40
1.0
176
     0
 90
        2
176
     1
  1
strokes_ogs.tif
176
     1
290
     0
176
     1
 40
1.0
176
     1
 40
1.0
176
     1
  0
VISUALSTYLE
  5
31
102
{ACAD_REACTORS
330
29
102
}
330
29
100
AcDbVisualStyle
  2
Hidden
 70
     6
177
     3
291
     0
 70
    58
 90
        1
176
     1
 90
        2
176
     1
 90
        2
176
     1
 90
        0
176
     1
 40
0.6
176
     1
 40
30.0
176
     1
 62
     7
420
 16777215
176
     1
 90
        2
176
     1
 90
        2
176
     1
 62
     7
176
     1
 62
   257
176
     1
 90
        2
176
     1
 90
        1
176
     1
 40
40.0
176
     1
 90
        0
176
     1
 62
   257
176
     1
 40
1.0
176
     1
 90
        1
176
     1
 90
        6
176
     1
 90
        2
176
     1
 62
     7
176
     1
 90
        3
176
     1
 90
        0
176
     1
 90
        0
176
     1
290
     0
176
     1
 90
        1
176
     1
 40
0.0
176
     1
 90
        0
176
     1
290
     0
176
     1
290
     1
176
     1
290
     1
176
     1
290
     0
176
     1
290
     0
176
     1
290
     0
176
     1
290
     0
176
     1
290
     0
176
     1
290
     0
176
     1
 90
       50
176
     1
 40
0.0
176
     1
 40
1.0
176
     1
 90
        0
176
     1
 62
    18
420
        0
176
     1
 90
       50
176
     1
 90
        3
176
     1
 62
     5
420
      255
176
     1
290
     0
176
     1
 90
       50
176
     1
 90
       50
176
     1
 90
       50
176
     1
290
     0
176
     1
 90
       50
176
     1
 62
   256
176
     0
 40
1.0
176
     0
 90
        2
176
     1
  1
strokes_ogs.tif
176
     1
290
     0
176
     1
 40
1.0
176
     1
 40
1.0
176
     1
  0
VISUALSTYLE
  5
3F
102
{ACAD_REACTORS
330
29
102
}
330
29
100
AcDbVisualStyle
  2
JitterOff
 70
    20
177
     3
291
     1
 70
    58
 90
        2
176
     0
 90
        2
176
     0
 90
        0
176
     0
 90
        0
176
     0
 40
0.6
176
     0
 40
30.0
176
     0
 62
     7
420
 16777215
176
     0
 90
        1
176
     0
 90
        4
176
     0
 62
     7
176
     0
 62
   257
176
     0
 90
        1
176
     0
 90
        1
176
     0
 40
1.0
176
     0
 90
       10
176
     2
 62
     7
176
     0
 40
1.0
176
     0
 90
        1
176
     0
 90
        6
176
     0
 90
        2
176
     0
 62
     7
176
     0
 90
        5
176
     0
 90
        0
176
     0
 90
        0
176
     0
290
     0
176
     0
 90
        1
176
     0
 40
0.0
176
     0
 90
        0
176
     0
290
     0
176
     0
290
     1
176
     0
290
     1
176
     0
290
     0
176
     0
290
     0
176
     0
290
     0
176
     0
290
     0
176
     0
290
     0
176
     0
290
     0
176
     0
 90
       50
176
     0
 40
0.0
176
     0
 40
1.0
176
     0
 90
        0
176
     0
 62
    18
420
        0
176
     0
 90
       50
176
     0
 90
        3
176
     0
 62
     5
420
      255
176
     0
290
     0
176
     0
 90
       50
176
     0
 90
       50
176
     0
 90
       50
176
     0
290
     0
176
     0
 90
       50
176
     0
 62
   256
176
     0
 40
1.0
176
     0
 90
        2
176
     0
  1
strokes_ogs.tif
176
     0
290
     0
176
     0
 40
1.0
176
     0
 40
1.0
176
     0
  0
VISUALSTYLE
  5
37
102
{ACAD_REACTORS
330
29
102
}
330
29
100
AcDbVisualStyle
  2
Linepattern
 70
    14
177
     3
291
     1
 70
    58
 90
        2
176
     1
 90
        2
176
     1
 90
        0
176
     1
 90
        0
176
     1
 40
0.6
176
     1
 40
30.0
176
     1
 62
     7
420
 16777215
176
     1
 90
        1
176
     1
 90
        4
176
     1
 62
     7
176
     1
 62
   257
176
     1
 90
        7
176
     1
 90
        7
176
     1
 40
1.0
176
     1
 90
        8
176
     1
 62
     7
176
     1
 40
1.0
176
     1
 90
        1
176
     1
 90
        6
176
     1
 90
        2
176
     1
 62
     7
176
     1
 90
        5
176
     1
 90
        0
176
     1
 90
        0
176
     1
290
     0
176
     1
 90
        1
176
     1
 40
0.0
176
     1
 90
        0
176
     1
290
     0
176
     1
290
     1
176
     1
290
     1
176
     1
290
     0
176
     1
290
     0
176
     1
290
     0
176
     1
290
     0
176
     1
290
     0
176
     1
290
     0
176
     1
 90
       50
176
     1
 40
0.0
176
     1
 40
1.0
176
     1
 90
        0
176
     1
 62
    18
420
        0
176
     1
 90
       50
176
     1
 90
        3
176
     1
 62
     5
420
      255
176
     1
290
     0
176
     1
 90
       50
176
     1
 90
       50
176
     1
 90
       50
176
     1
290
     0
176
     1
 90
       50
176
     1
 62
   256
176
     0
 40
1.0
176
     0
 90
        2
176
     1
  1
strokes_ogs.tif
176
     1
290
     0
176
     1
 40
1.0
176
     1
 40
1.0
176
     1
  0
VISUALSTYLE
  5
40
102
{ACAD_REACTORS
330
29
102
}
330
29
100
AcDbVisualStyle
  2
OverhangOff
 70
    21
177
     3
291
     1
 70
    58
 90
        2
176
     0
 90
        2
176
     0
 90
        0
176
     0
 90
        0
176
     0
 40
0.6
176
     0
 40
30.0
176
     0
 62
     7
420
 16777215
176
     0
 90
        1
176
     0
 90
        4
176
     0
 62
     7
176
     0
 62
   257
176
     0
 90
        1
176
     0
 90
        1
176
     0
 40
1.0
176
     0
 90
        9
176
     2
 62
     7
176
     0
 40
1.0
176
     0
 90
        1
176
     0
 90
        6
176
     0
 90
        2
176
     0
 62
     7
176
     0
 90
        5
176
     0
 90
        0
176
     0
 90
        0
176
     0
290
     0
176
     0
 90
        1
176
     0
 40
0.0
176
     0
 90
        0
176
     0
290
     0
176
     0
290
     1
176
     0
290
     1
176
     0
290
     0
176
     0
290
     0
176
     0
290
     0
176
     0
290
     0
176
     0
290
     0
176
     0
290
     0
176
     0
 90
       50
176
     0
 40
0.0
176
     0
 40
1.0
176
     0
 90
        0
176
     0
 62
    18
420
        0
176
     0
 90
       50
176
     0
 90
        3
176
     0
 62
     5
420
      255
176
     0
290
     0
176
     0
 90
       50
176
     0
 90
       50
176
     0
 90
       50
176
     0
290
     0
176
     0
 90
       50
176
     0
 62
   256
176
     0
 40
1.0
176
     0
 90
        2
176
     0
  1
strokes_ogs.tif
176
     0
290
     0
176
     0
 40
1.0
176
     0
 40
1.0
176
     0
  0
VISUALSTYLE
  5
33
102
{ACAD_REACTORS
330
29
102
}
330
29
100
AcDbVisualStyle
  2
Realistic
 70
     8
177
     3
291
     0
 70
    58
 90
        2
176
     1
 90
        3
176
     1
 90
        0
176
     1
 90
        2
176
     1
 40
0.6
176
     1
 40
30.0
176
     1
 62
     7
420
 16777215
176
     1
 90
        0
176
     1
 90
        0
176
     1
 62
     7
176
     1
 62
   257
176
     1
 90
        1
176
     1
 90
        1
176
     1
 40
1.0
176
     1
 90
        8
176
     1
 62
   257
176
     1
 40
1.0
176
     1
 90
        1
176
     1
 90
        6
176
     1
 90
        2
176
     1
 62
     7
176
     1
 90
        3
176
     1
 90
        0
176
     1
 90
        0
176
     1
290
     0
176
     1
 90
       13
176
     1
 40
0.0
176
     1
 90
        0
176
     1
290
     0
176
     1
290
     1
176
     1
290
     1
176
     1
290
     0
176
     1
290
     0
176
     1
290
     0
176
     1
290
     0
176
     1
290
     0
176
     1
290
     0
176
     1
 90
       50
176
     1
 40
0.0
176
     1
 40
1.0
176
     1
 90
        0
176
     1
 62
    18
420
        0
176
     1
 90
       50
176
     1
 90
        3
176
     1
 62
     5
420
      255
176
     1
290
     0
176
     1
 90
       50
176
     1
 90
       50
176
     1
 90
       50
176
     1
290
     0
176
     1
 90
       50
176
     1
 62
   256
176
     0
 40
1.0
176
     0
 90
        2
176
     1
  1
strokes_ogs.tif
176
     1
290
     0
176
     1
 40
1.0
176
     1
 40
1.0
176
     1
  0
VISUALSTYLE
  5
3E
102
{ACAD_REACTORS
330
29
102
}
330
29
100
AcDbVisualStyle
  2
Shaded
 70
    27
177
     3
291
     0
 70
    58
 90
        2
176
     1
 90
        2
176
     1
 90
        1
176
     1
 90
        2
176
     1
 40
0.6
176
     1
 40
30.0
176
     1
 62
     7
420
 16777215
176
     1
 90
        0
176
     1
 90
        4
176
     1
 62
     7
176
     1
 62
   257
176
     1
 90
        1
176
     1
 90
        1
176
     1
 40
1.0
176
     1
 90
        8
176
     1
 62
   257
176
     1
 40
1.0
176
     1
 90
        1
176
     1
 90
        6
176
     1
 90
        2
176
     1
 62
     8
420
  7895160
176
     1
 90
        3
176
     1
 90
        0
176
     1
 90
        0
176
     1
290
     0
176
     1
 90
        5
176
     1
 40
0.0
176
     1
 90
        0
176
     1
290
     0
176
     1
290
     1
176
     1
290
     1
176
     1
290
     0
176
     1
290
     0
176
     1
290
     0
176
     1
290
     0
176
     1
290
     0
176
     1
290
     0
176
     1
 90
       50
176
     1
 40
0.0
176
     1
 40
1.0
176
     1
 90
        0
176
     1
 62
    18
420
        0
176
     1
 90
       50
176
     1
 90
        3
176
     1
 62
     5
420
      255
176
     1
290
     0
176
     1
 90
       50
176
     1
 90
       50
176
     1
 90
       50
176
     1
290
     0
176
     1
 90
       50
176
     1
 62
   256
176
     0
 40
1.0
176
     0
 90
        2
176
     1
  1
strokes_ogs.tif
176
     1
290
     0
176
     1
 40
1.0
176
     1
 40
1.0
176
     1
  0
VISUALSTYLE
  5
3D
102
{ACAD_REACTORS
330
29
102
}
330
29
100
AcDbVisualStyle
  2
Shaded with edges
 70
    26
177
     3
291
     0
 70
    58
 90
        2
176
     1
 90
        2
176
     1
 90
        1
176
     1
 90
        2
176
     1
 40
0.6
176
     1
 40
30.0
176
     1
 62
     7
420
 16777215
176
     1
 90
        1
176
     1
 90
       10
176
     1
 62
     7
176
     1
 62
   257
176
     1
 90
        2
176
     1
 90
        1
176
     1
 40
1.0
176
     1
 90
        8
176
     1
 62
   257
176
     1
 40
1.0
176
     1
 90
        1
176
     1
 90
        6
176
     1
 90
        2
176
     1
 62
     7
176
     1
 90
        3
176
     1
 90
        0
176
     1
 90
        0
176
     1
290
     0
176
     1
 90
        5
176
     1
 40
0.0
176
     1
 90
        0
176
     1
290
     0
176
     1
290
     1
176
     1
290
     1
176
     1
290
     0
176
     1
290
     0
176
     1
290
     0
176
     1
290
     0
176
     1
290
     0
176
     1
290
     0
176
     1
 90
       50
176
     1
 40
0.0
176
     1
 40
1.0
176
     1
 90
        0
176
     1
 62
    18
420
        0
176
     1
 90
       50
176
     1
 90
        3
176
     1
 62
     5
420
      255
176
     1
290
     0
176
     1
 90
       50
176
     1
 90
       50
176
     1
 90
       50
176
     1
290
     0
176
     1
 90
       50
176
     1
 62
   256
176
     0
 40
1.0
176
     0
 90
        2
176
     1
  1
strokes_ogs.tif
176
     1
290
     0
176
     1
 40
1.0
176
     1
 40
1.0
176
     1
  0
VISUALSTYLE
  5
3A
102
{ACAD_REACTORS
330
29
102
}
330
29
100
AcDbVisualStyle
  2
Shades of Gray
 70
    23
177
     3
291
     0
 70
    58
 90
        2
176
     1
 90
        2
176
     1
 90
        3
176
     1
 90
        0
176
     1
 40
0.6
176
     1
 40
30.0
176
     1
 62
     7
420
 16777215
176
     1
 90
        2
176
     1
 90
        2
176
     1
 62
     7
176
     1
 62
     7
176
     1
 90
        1
176
     1
 90
        1
176
     1
 40
40.0
176
     1
 90
        8
176
     1
 62
     7
176
     1
 40
1.0
176
     1
 90
        1
176
     1
 90
        6
176
     1
 90
        2
176
     1
 62
     7
176
     1
 90
        3
176
     1
 90
        0
176
     1
 90
        0
176
     1
290
     0
176
     1
 90
        1
176
     1
 40
0.0
176
     1
 90
        0
176
     1
290
     0
176
     1
290
     1
176
     1
290
     1
176
     1
290
     0
176
     1
290
     0
176
     1
290
     0
176
     1
290
     0
176
     1
290
     0
176
     1
290
     0
176
     1
 90
       50
176
     1
 40
0.0
176
     1
 40
1.0
176
     1
 90
        0
176
     1
 62
    18
420
        0
176
     1
 90
       50
176
     1
 90
        3
176
     1
 62
     5
420
      255
176
     1
290
     0
176
     1
 90
       50
176
     1
 90
       50
176
     1
 90
       50
176
     1
290
     0
176
     1
 90
       50
176
     1
 62
   256
176
     0
 40
1.0
176
     0
 90
        2
176
     1
  1
strokes_ogs.tif
176
     1
290
     0
176
     1
 40
1.0
176
     1
 40
1.0
176
     1
  0
VISUALSTYLE
  5
3B
102
{ACAD_REACTORS
330
29
102
}
330
29
100
AcDbVisualStyle
  2
Sketchy
 70
    24
177
     3
291
     0
 70
    58
 90
        1
176
     1
 90
        2
176
     1
 90
        2
176
     1
 90
        0
176
     1
 40
0.6
176
     1
 40
30.0
176
     1
 62
     7
420
 16777215
176
     1
 90
        2
176
     1
 90
        2
176
     1
 62
     7
176
     1
 62
     7
176
     1
 90
        1
176
     1
 90
        1
176
     1
 40
40.0
176
     1
 90
       11
176
     1
 62
     7
176
     1
 40
1.0
176
     1
 90
        1
176
     1
 90
        6
176
     1
 90
        2
176
     1
 62
     7
176
     1
 90
        6
176
     1
 90
        0
176
     1
 90
        0
176
     1
290
     0
176
     1
 90
        1
176
     1
 40
0.0
176
     1
 90
        0
176
     1
290
     0
176
     1
290
     1
176
     1
290
     1
176
     1
290
     0
176
     1
290
     0
176
     1
290
     0
176
     1
290
     0
176
     1
290
     0
176
     1
290
     0
176
     1
 90
       50
176
     1
 40
0.0
176
     1
 40
1.0
176
     1
 90
        0
176
     1
 62
    18
420
        0
176
     1
 90
       50
176
     1
 90
        3
176
     1
 62
     5
420
      255
176
     1
290
     0
176
     1
 90
       50
176
     1
 90
       50
176
     1
 90
       50
176
     1
290
     0
176
     1
 90
       50
176
     1
 62
   256
176
     0
 40
1.0
176
     0
 90
        2
176
     1
  1
strokes_ogs.tif
176
     1
290
     0
176
     1
 40
1.0
176
     1
 40
1.0
176
     1
  0
VISUALSTYLE
  5
36
102
{ACAD_REACTORS
330
29
102
}
330
29
100
AcDbVisualStyle
  2
Thicken
 70
    13
177
     3
291
     1
 70
    58
 90
        2
176
     1
 90
        2
176
     1
 90
        0
176
     1
 90
        0
176
     1
 40
0.6
176
     1
 40
30.0
176
     1
 62
     7
420
 16777215
176
     1
 90
        1
176
     1
 90
        4
176
     1
 62
     7
176
     1
 62
   257
176
     1
 90
        1
176
     1
 90
        1
176
     1
 40
1.0
176
     1
 90
       12
176
     1
 62
     7
176
     1
 40
1.0
176
     1
 90
        1
176
     1
 90
        6
176
     1
 90
        2
176
     1
 62
     7
176
     1
 90
        5
176
     1
 90
        0
176
     1
 90
        0
176
     1
290
     0
176
     1
 90
        1
176
     1
 40
0.0
176
     1
 90
        0
176
     1
290
     0
176
     1
290
     1
176
     1
290
     1
176
     1
290
     0
176
     1
290
     0
176
     1
290
     0
176
     1
290
     0
176
     1
290
     0
176
     1
290
     0
176
     1
 90
       50
176
     1
 40
0.0
176
     1
 40
1.0
176
     1
 90
        0
176
     1
 62
    18
420
        0
176
     1
 90
       50
176
     1
 90
        3
176
     1
 62
     5
420
      255
176
     1
290
     0
176
     1
 90
       50
176
     1
 90
       50
176
     1
 90
       50
176
     1
290
     0
176
     1
 90
       50
176
     1
 62
   256
176
     0
 40
1.0
176
     0
 90
        2
176
     1
  1
strokes_ogs.tif
176
     1
290
     0
176
     1
 40
1.0
176
     1
 40
1.0
176
     1
  0
VISUALSTYLE
  5
30
102
{ACAD_REACTORS
330
29
102
}
330
29
100
AcDbVisualStyle
  2
Wireframe
 70
     5
177
     3
291
     0
 70
    58
 90
        0
176
     1
 90
        2
176
     1
 90
        0
176
     1
 90
        0
176
     1
 40
0.6
176
     1
 40
30.0
176
     1
 62
     7
420
 16777215
176
     1
 90
        1
176
     1
 90
        4
176
     1
 62
     7
176
     1
 62
   257
176
     1
 90
        1
176
     1
 90
        1
176
     1
 40
1.0
176
     1
 90
        0
176
     1
 62
   257
176
     1
 40
1.0
176
     1
 90
        1
176
     1
 90
        6
176
     1
 90
        2
176
     1
 62
     7
176
     1
 90
        3
176
     1
 90
        0
176
     1
 90
        0
176
     1
290
     0
176
     1
 90
        1
176
     1
 40
0.0
176
     1
 90
        0
176
     1
290
     0
176
     1
290
     1
176
     1
290
     1
176
     1
290
     0
176
     1
290
     0
176
     1
290
     0
176
     1
290
     0
176
     1
290
     0
176
     1
290
     0
176
     1
 90
       50
176
     1
 40
0.0
176
     1
 40
1.0
176
     1
 90
        0
176
     1
 62
    18
420
        0
176
     1
 90
       50
176
     1
 90
        3
176
     1
 62
     5
420
      255
176
     1
290
     0
176
     1
 90
       50
176
     1
 90
       50
176
     1
 90
       50
176
     1
290
     0
176
     1
 90
       50
176
     1
 62
   256
176
     0
 40
1.0
176
     0
 90
        2
176
     1
  1
strokes_ogs.tif
176
     1
290
     0
176
     1
 40
1.0
176
     1
 40
1.0
176
     1
  0
VISUALSTYLE
  5
3C
102
{ACAD_REACTORS
330
29
102
}
330
29
100
AcDbVisualStyle
  2
X-Ray
 70
    25
177
     3
291
     0
 70
    58
 90
        2
176
     1
 90
        2
176
     1
 90
        1
176
     1
 90
        1
176
     1
 40
0.5
176
     1
 40
30.0
176
     1
 62
     7
420
 16777215
176
     1
 90
        1
176
     1
 90
        0
176
     1
 62
     7
176
     1
 62
   257
176
     1
 90
        1
176
     1
 90
        1
176
     1
 40
1.0
176
     1
 90
        8
176
     1
 62
     7
176
     1
 40
1.0
176
     1
 90
        1
176
     1
 90
        6
176
     1
 90
        2
176
     1
 62
     7
176
     1
 90
        3
176
     1
 90
        0
176
     1
 90
        0
176
     1
290
     0
176
     1
 90
       13
176
     1
 40
0.0
176
     1
 90
        0
176
     1
290
     0
176
     1
290
     1
176
     1
290
     1
176
     1
290
     0
176
     1
290
     0
176
     1
290
     0
176
     1
290
     0
176
     1
290
     0
176
     1
290
     0
176
     1
 90
       50
176
     1
 40
0.0
176
     1
 40
1.0
176
     1
 90
        0
176
     1
 62
    18
420
        0
176
     1
 90
       50
176
     1
 90
        3
176
     1
 62
     5
420
      255
176
     1
290
     0
176
     1
 90
       50
176
     1
 90
       50
176
     1
 90
       50
176
     1
290
     0
176
     1
 90
       50
176
     1
 62
   256
176
     0
 40
1.0
176
     0
 90
        2
176
     1
  1
strokes_ogs.tif
176
     1
290
     0
176
     1
 40
1.0
176
     1
 40
1.0
176
     1
  0
DICTIONARYVAR
  5
80
102
{ACAD_REACTORS
330
7B
102
}
330
7B
100
DictionaryVariables
280
     0
  1
1:1
  0
DICTIONARYVAR
  5
7D
102
{ACAD_REACTORS
330
7B
102
}
330
7B
100
DictionaryVariables
280
     0
  1
STANDARD
  0
DICTIONARYVAR
  5
7C
102
{ACAD_REACTORS
330
7B
102
}
330
7B
100
DictionaryVariables
280
     0
  1
STANDARD
  0
DICTIONARYVAR
  5
7E
102
{ACAD_REACTORS
330
7B
102
}
330
7B
100
DictionaryVariables
280
     0
  1
Imperial24
  0
DICTIONARYVAR
  5
7F
102
{ACAD_REACTORS
330
7B
102
}
330
7B
100
DictionaryVariables
280
     0
  1
Imperial24
  0
XRECORD
  5
600
102
{ACAD_REACTORS
330
5FD
102
}
330
5FD
100
AcDbXrecord
280
     1
  1
BUILDING_ID
  1
Sigma Care Pneumatic Remote Dual Flush
  1
FLOOR_ID
  1
3062
  0
XRECORD
  5
5FF
102
{ACAD_REACTORS
330
5FD
102
}
330
5FD
100
AcDbXrecord
280
     1
  1
-2000011
  1
Walls
  1
-2000151
  1
Generic Models
  0
XRECORD
  5
5FE
102
{ACAD_REACTORS
330
5FD
102
}
330
5FD
100
AcDbXrecord
280
     1
  1
16576
  1
Geberit_sigma_pneumatic : Geberit_sigma_pneumatic
  1
2382
  1
Basic Wall : Wall 1 : Wall 1
  0
DICTIONARY
  5
605
330
6B
100
AcDbDictionary
280
     1
281
     1
  3
ACAD_XREC_ROUNDTRIP
360
606
  0
DICTIONARY
  5
1A
330
19
100
AcDbDictionary
280
     1
281
     1
  3
BUMPTILE
360
1C
  3
DIFFUSETILE
360
1B
  3
OPACITYTILE
360
1F
  3
REFLECTIONTILE
360
1E
  3
REFRACTIONTILE
360
20
  3
SPECULARTILE
360
1D
  0
DICTIONARY
  5
12
330
11
100
AcDbDictionary
280
     1
281
     1
  3
BUMPTILE
360
14
  3
DIFFUSETILE
360
13
  3
OPACITYTILE
360
17
  3
REFLECTIONTILE
360
16
  3
REFRACTIONTILE
360
18
  3
SPECULARTILE
360
15
  0
DICTIONARY
  5
22
330
21
100
AcDbDictionary
280
     1
281
     1
  3
BUMPTILE
360
24
  3
DIFFUSETILE
360
23
  3
OPACITYTILE
360
27
  3
REFLECTIONTILE
360
26
  3
REFRACTIONTILE
360
28
  3
SPECULARTILE
360
25
  0
DICTIONARY
  5
5F5
330
5F4
100
AcDbDictionary
280
     1
281
     1
  3
VIZ XML Material Definition
360
5F6
  0
DICTIONARY
  5
5FB
330
5FA
100
AcDbDictionary
280
     1
281
     1
  3
VIZ XML Material Definition
360
5FC
  0
DICTIONARY
  5
5F8
330
5F7
100
AcDbDictionary
280
     1
281
     1
  3
VIZ XML Material Definition
360
5F9
  0
DICTIONARY
  5
603
330
69
100
AcDbDictionary
280
     1
281
     1
  3
ACAD_XREC_ROUNDTRIP
360
604
  0
DICTIONARY
  5
601
330
65
100
AcDbDictionary
280
     1
281
     1
  3
ACAD_ROUNDTRIP_2008_TABLESTYLE_CELLSTYLEMAP
360
602
  0
XRECORD
  5
606
102
{ACAD_REACTORS
330
605
102
}
330
605
100
AcDbXrecord
280
     1
102
DISPLAYNAME
  1
Imperial24
102
FLAGS
 90
        0
  0
XRECORD
  5
1C
102
{ACAD_REACTORS
330
1A
102
}
330
1A
100
AcDbXrecord
280
     1
270
     1
271
     1
  0
XRECORD
  5
1B
102
{ACAD_REACTORS
330
1A
102
}
330
1A
100
AcDbXrecord
280
     1
270
     1
271
     1
  0
XRECORD
  5
1F
102
{ACAD_REACTORS
330
1A
102
}
330
1A
100
AcDbXrecord
280
     1
270
     1
271
     1
  0
XRECORD
  5
1E
102
{ACAD_REACTORS
330
1A
102
}
330
1A
100
AcDbXrecord
280
     1
270
     1
271
     1
  0
XRECORD
  5
20
102
{ACAD_REACTORS
330
1A
102
}
330
1A
100
AcDbXrecord
280
     1
270
     1
271
     1
  0
XRECORD
  5
1D
102
{ACAD_REACTORS
330
1A
102
}
330
1A
100
AcDbXrecord
280
     1
270
     1
271
     1
  0
XRECORD
  5
14
102
{ACAD_REACTORS
330
12
102
}
330
12
100
AcDbXrecord
280
     1
270
     1
271
     1
  0
XRECORD
  5
13
102
{ACAD_REACTORS
330
12
102
}
330
12
100
AcDbXrecord
280
     1
270
     1
271
     1
  0
XRECORD
  5
17
102
{ACAD_REACTORS
330
12
102
}
330
12
100
AcDbXrecord
280
     1
270
     1
271
     1
  0
XRECORD
  5
16
102
{ACAD_REACTORS
330
12
102
}
330
12
100
AcDbXrecord
280
     1
270
     1
271
     1
  0
XRECORD
  5
18
102
{ACAD_REACTORS
330
12
102
}
330
12
100
AcDbXrecord
280
     1
270
     1
271
     1
  0
XRECORD
  5
15
102
{ACAD_REACTORS
330
12
102
}
330
12
100
AcDbXrecord
280
     1
270
     1
271
     1
  0
XRECORD
  5
24
102
{ACAD_REACTORS
330
22
102
}
330
22
100
AcDbXrecord
280
     1
270
     1
271
     1
  0
XRECORD
  5
23
102
{ACAD_REACTORS
330
22
102
}
330
22
100
AcDbXrecord
280
     1
270
     1
271
     1
  0
XRECORD
  5
27
102
{ACAD_REACTORS
330
22
102
}
330
22
100
AcDbXrecord
280
     1
270
     1
271
     1
  0
XRECORD
  5
26
102
{ACAD_REACTORS
330
22
102
}
330
22
100
AcDbXrecord
280
     1
270
     1
271
     1
  0
XRECORD
  5
28
102
{ACAD_REACTORS
330
22
102
}
330
22
100
AcDbXrecord
280
     1
270
     1
271
     1
  0
XRECORD
  5
25
102
{ACAD_REACTORS
330
22
102
}
330
22
100
AcDbXrecord
280
     1
270
     1
271
     1
  0
XRECORD
  5
5F6
102
{ACAD_REACTORS
330
5F5
102
}
330
5F5
100
AcDbXrecord
280
     1
300
<Material id="RevitMaterialDefinition1309" app="REVIT" Background="0" Backlight="1" Sample="0" Tiling="0">^J<LinearUnits unitType="foot" unitScale="1.0"/>^J<ArchitecturalMaterial name="Default Wall">^J<ArchTemplateParameters name="Default Wall" classid_A="20
300
08828122" classid_B="14503598">^J</ArchTemplateParameters>^J<ArchMatParameters>^J<ArchDiffuseColor>^J<RGBf r="0.9176" g="0.9176" b="0.9176"/>^J</ArchDiffuseColor>^J<ArchIndexOfRefraction>2.0000</ArchIndexOfRefraction>^J<ArchTransparency>0.0000</ArchTransparency>
300
^J<ArchLuminance>0.0000</ArchLuminance>^J</ArchMatParameters>^J</ArchitecturalMaterial>^J</Material>^J
  0
XRECORD
  5
5FC
102
{ACAD_REACTORS
330
5FB
102
}
330
5FB
100
AcDbXrecord
280
     1
300
<Material id="RevitMaterialDefinition14732" app="REVIT" Background="0" Backlight="1" Sample="0" Tiling="0">^J<LinearUnits unitType="foot" unitScale="1.0"/>^J<ArchitecturalMaterial name="Rubber, Black">^J<ArchTemplateParameters name="Rubber, Black" classid_A=
300
"2008828122" classid_B="14503598">^J</ArchTemplateParameters>^J<ArchMatParameters>^J<ArchDiffuseColor>^J<RGBf r="0.2471" g="0.2471" b="0.2471"/>^J</ArchDiffuseColor>^J<ArchIndexOfRefraction>1.5000</ArchIndexOfRefraction>^J<ArchTransparency>0.0000</ArchTransparen
300
cy>^J<ArchLuminance>0.0000</ArchLuminance>^J</ArchMatParameters>^J</ArchitecturalMaterial>^J</Material>^J
  0
XRECORD
  5
5F9
102
{ACAD_REACTORS
330
5F8
102
}
330
5F8
100
AcDbXrecord
280
     1
300
<Material id="RevitMaterialDefinition4860" app="REVIT" Background="0" Backlight="1" Sample="0" Tiling="0">^J<LinearUnits unitType="foot" unitScale="1.0"/>^J<ArchitecturalMaterial name="Steel, Chrome Plated">^J<ArchTemplateParameters name="Steel, Chrome Plate
300
d" classid_A="2008828122" classid_B="14503598">^J</ArchTemplateParameters>^J<ArchMatParameters>^J<ArchDiffuseColor>^J<RGBf r="0.9569" g="0.9569" b="0.9569"/>^J</ArchDiffuseColor>^J<ArchIndexOfRefraction>1.5000</ArchIndexOfRefraction>^J<ArchTransparency>0.0000</A
300
rchTransparency>^J<ArchLuminance>0.0000</ArchLuminance>^J</ArchMatParameters>^J</ArchitecturalMaterial>^J</Material>^J
  0
XRECORD
  5
604
102
{ACAD_REACTORS
330
603
102
}
330
603
100
AcDbXrecord
280
     1
102
DISPLAYNAME
  1
Imperial24
102
FLAGS
 90
        0
  0
CELLSTYLEMAP
  5
602
102
{ACAD_REACTORS
330
601
102
}
330
601
100
AcDbCellStyleMap
 90
        3
300
CELLSTYLE
  1
TABLEFORMAT_BEGIN
 90
        5
170
     1
 91
        0
 92
    32768
 62
   257
 93
        1
300
CONTENTFORMAT
  1
CONTENTFORMAT_BEGIN
 90
        0
 91
        0
 92
      512
 93
        0
300

 40
0.0
140
1.0
 94
        5
 62
     0
340
55
144
0.25
309
CONTENTFORMAT_END
171
     0
 94
        0
309
TABLEFORMAT_END
  1
CELLSTYLE_BEGIN
 90
        1
 91
        1
300
_TITLE
309
CELLSTYLE_END
300
CELLSTYLE
  1
TABLEFORMAT_BEGIN
 90
        5
170
     1
 91
        0
 92
        0
 62
   257
 93
        1
300
CONTENTFORMAT
  1
CONTENTFORMAT_BEGIN
 90
        0
 91
        0
 92
      512
 93
        0
300

 40
0.0
140
1.0
 94
        5
 62
     0
340
55
144
0.18
309
CONTENTFORMAT_END
171
     0
 94
        0
309
TABLEFORMAT_END
  1
CELLSTYLE_BEGIN
 90
        2
 91
        1
300
_HEADER
309
CELLSTYLE_END
300
CELLSTYLE
  1
TABLEFORMAT_BEGIN
 90
        5
170
     1
 91
        0
 92
        0
 62
   257
 93
        1
300
CONTENTFORMAT
  1
CONTENTFORMAT_BEGIN
 90
        0
 91
        0
 92
      512
 93
        0
300

 40
0.0
140
1.0
 94
        2
 62
     0
340
55
144
0.18
309
CONTENTFORMAT_END
171
     0
 94
        0
309
TABLEFORMAT_END
  1
CELLSTYLE_BEGIN
 90
        3
 91
        2
300
_DATA
309
CELLSTYLE_END
  0
ENDSEC
  0
EOF
