  0
SECTION
  2
HEADER
  9
$ACADVER
  1
AC1015
  9
$ACADMAINTVER
 70
     6
  9
$DWGCODEPAGE
  3
ANSI_1252
  9
$INSBASE
 10
0.0
 20
0.0
 30
0.0
  9
$EXTMIN
 10
0.0
 20
0.0
 30
0.0
  9
$EXTMAX
 10
297.0
 20
210.0
 30
0.0
  9
$LIMMIN
 10
0.0
 20
0.0
  9
$LIMMAX
 10
297.0
 20
210.0
  9
$ORTHOMODE
 70
     0
  9
$REGENMODE
 70
     1
  9
$FILLMODE
 70
     1
  9
$QTEXTMODE
 70
     0
  9
$MIRRTEXT
 70
     1
  9
$LTSCALE
 40
1.0
  9
$ATTMODE
 70
     1
  9
$TEXTSIZE
 40
3.5
  9
$TRACEWID
 40
1.0
  9
$TEXTSTYLE
  7
Standard
  9
$CLAYER
  8
0
  9
$CELTYPE
  6
ByLayer
  9
$CECOLOR
 62
   256
  9
$CELTSCALE
 40
1.0
  9
$DISPSILH
 70
     0
  9
$DIMSCALE
 40
1.0
  9
$DIMASZ
 40
1.5
  9
$DIMEXO
 40
1.0
  9
$DIMDLI
 40
3.75
  9
$DIMRND
 40
0.0
  9
$DIMDLE
 40
0.0
  9
$DIMEXE
 40
1.0
  9
$DIMTP
 40
0.0
  9
$DIMTM
 40
0.0
  9
$DIMTXT
 40
2.0
  9
$DIMCEN
 40
2.5
  9
$DIMTSZ
 40
0.0
  9
$DIMTOL
 70
     0
  9
$DIMLIM
 70
     0
  9
$DIMTIH
 70
     1
  9
$DIMTOH
 70
     1
  9
$DIMSE1
 70
     0
  9
$DIMSE2
 70
     0
  9
$DIMTAD
 70
     1
  9
$DIMZIN
 70
     1
  9
$DIMBLK
  1

  9
$DIMASO
 70
     1
  9
$DIMSHO
 70
     1
  9
$DIMPOST
  1

  9
$DIMAPOST
  1

  9
$DIMALT
 70
     0
  9
$DIMALTD
 70
     3
  9
$DIMALTF
 40
0.0393700787
  9
$DIMLFAC
 40
1.0
  9
$DIMTOFL
 70
     1
  9
$DIMTVP
 40
0.0
  9
$DIMTIX
 70
     0
  9
$DIMSOXD
 70
     0
  9
$DIMSAH
 70
     0
  9
$DIMBLK1
  1

  9
$DIMBLK2
  1

  9
$DIMSTYLE
  2
ISO-25
  9
$DIMCLRD
 70
     0
  9
$DIMCLRE
 70
     0
  9
$DIMCLRT
 70
     0
  9
$DIMTFAC
 40
1.0
  9
$DIMGAP
 40
1.524
  9
$DIMJUST
 70
     0
  9
$DIMSD1
 70
     0
  9
$DIMSD2
 70
     0
  9
$DIMTOLJ
 70
     0
  9
$DIMTZIN
 70
     1
  9
$DIMALTZ
 70
     0
  9
$DIMALTTZ
 70
     0
  9
$DIMUPT
 70
     0
  9
$DIMDEC
 70
     1
  9
$DIMTDEC
 70
     1
  9
$DIMALTU
 70
     2
  9
$DIMALTTD
 70
     3
  9
$DIMTXSTY
  7
Standard
  9
$DIMAUNIT
 70
     0
  9
$DIMADEC
 70
     2
  9
$DIMALTRND
 40
0.0
  9
$DIMAZIN
 70
     0
  9
$DIMDSEP
 70
    44
  9
$DIMATFIT
 70
     3
  9
$DIMFRAC
 70
     0
  9
$DIMLDRBLK
  1

  9
$DIMLUNIT
 70
     2
  9
$DIMLWD
 70
    -2
  9
$DIMLWE
 70
    -2
  9
$DIMTMOVE
 70
     0
  9
$LUNITS
 70
     2
  9
$LUPREC
 70
     2
  9
$SKETCHINC
 40
1.0
  9
$FILLETRAD
 40
10.0
  9
$AUNITS
 70
     0
  9
$AUPREC
 70
     2
  9
$MENU
  1
.
  9
$ELEVATION
 40
0.0
  9
$PELEVATION
 40
0.0
  9
$THICKNESS
 40
0.0
  9
$LIMCHECK
 70
     0
  9
$CHAMFERA
 40
0.0
  9
$CHAMFERB
 40
0.0
  9
$CHAMFERC
 40
0.0
  9
$CHAMFERD
 40
0.0
  9
$SKPOLY
 70
     0
  9
$TDCREATE
 40
2457472.393552778
  9
$TDUCREATE
 40
2457471.935219444
  9
$TDUPDATE
 40
2457472.393552986
  9
$TDUUPDATE
 40
2457471.935219653
  9
$TDINDWG
 40
0.0000000116
  9
$TDUSRTIMER
 40
0.0000000116
  9
$USRTIMER
 70
     1
  9
$ANGBASE
 50
0.0
  9
$ANGDIR
 70
     0
  9
$PDMODE
 70
     0
  9
$PDSIZE
 40
-1.0
  9
$PLINEWID
 40
0.0
  9
$SPLFRAME
 70
     0
  9
$SPLINETYPE
 70
     6
  9
$SPLINESEGS
 70
     8
  9
$HANDSEED
  5
95
  9
$SURFTAB1
 70
     6
  9
$SURFTAB2
 70
     6
  9
$SURFTYPE
 70
     6
  9
$SURFU
 70
     6
  9
$SURFV
 70
     6
  9
$UCSBASE
  2

  9
$UCSNAME
  2

  9
$UCSORG
 10
0.0
 20
0.0
 30
0.0
  9
$UCSXDIR
 10
1.0
 20
0.0
 30
0.0
  9
$UCSYDIR
 10
0.0
 20
1.0
 30
0.0
  9
$UCSORTHOREF
  2

  9
$UCSORTHOVIEW
 70
     0
  9
$UCSORGTOP
 10
0.0
 20
0.0
 30
0.0
  9
$UCSORGBOTTOM
 10
0.0
 20
0.0
 30
0.0
  9
$UCSORGLEFT
 10
0.0
 20
0.0
 30
0.0
  9
$UCSORGRIGHT
 10
0.0
 20
0.0
 30
0.0
  9
$UCSORGFRONT
 10
0.0
 20
0.0
 30
0.0
  9
$UCSORGBACK
 10
0.0
 20
0.0
 30
0.0
  9
$PUCSBASE
  2

  9
$PUCSNAME
  2

  9
$PUCSORG
 10
0.0
 20
0.0
 30
0.0
  9
$PUCSXDIR
 10
1.0
 20
0.0
 30
0.0
  9
$PUCSYDIR
 10
0.0
 20
1.0
 30
0.0
  9
$PUCSORTHOREF
  2

  9
$PUCSORTHOVIEW
 70
     0
  9
$PUCSORGTOP
 10
0.0
 20
0.0
 30
0.0
  9
$PUCSORGBOTTOM
 10
0.0
 20
0.0
 30
0.0
  9
$PUCSORGLEFT
 10
0.0
 20
0.0
 30
0.0
  9
$PUCSORGRIGHT
 10
0.0
 20
0.0
 30
0.0
  9
$PUCSORGFRONT
 10
0.0
 20
0.0
 30
0.0
  9
$PUCSORGBACK
 10
0.0
 20
0.0
 30
0.0
  9
$USERI1
 70
     0
  9
$USERI2
 70
     0
  9
$USERI3
 70
     0
  9
$USERI4
 70
     0
  9
$USERI5
 70
     0
  9
$USERR1
 40
0.0
  9
$USERR2
 40
0.0
  9
$USERR3
 40
0.0
  9
$USERR4
 40
0.0
  9
$USERR5
 40
0.0
  9
$WORLDVIEW
 70
     1
  9
$SHADEDGE
 70
     3
  9
$SHADEDIF
 70
    70
  9
$TILEMODE
 70
     1
  9
$MAXACTVP
 70
    64
  9
$PINSBASE
 10
0.0
 20
0.0
 30
0.0
  9
$PLIMCHECK
 70
     0
  9
$PEXTMIN
 10
1.0000000000E+20
 20
1.0000000000E+20
 30
1.0000000000E+20
  9
$PEXTMAX
 10
-1.0000000000E+20
 20
-1.0000000000E+20
 30
-1.0000000000E+20
  9
$PLIMMIN
 10
0.0
 20
0.0
  9
$PLIMMAX
 10
420.0
 20
297.0
  9
$UNITMODE
 70
     0
  9
$VISRETAIN
 70
     1
  9
$PLINEGEN
 70
     0
  9
$PSLTSCALE
 70
     1
  9
$TREEDEPTH
 70
  3020
  9
$CMLSTYLE
  2
Standard
  9
$CMLJUST
 70
     0
  9
$CMLSCALE
 40
20.0
  9
$PROXYGRAPHICS
 70
     1
  9
$MEASUREMENT
 70
     1
  9
$CELWEIGHT
370
    -1
  9
$ENDCAPS
280
     0
  9
$JOINSTYLE
280
     0
  9
$LWDISPLAY
290
     1
  9
$INSUNITS
 70
     4
  9
$HYPERLINKBASE
  1

  9
$STYLESHEET
  1

  9
$XEDIT
290
     1
  9
$CEPSNTYPE
380
     0
  9
$PSTYLEMODE
290
     1
  9
$FINGERPRINTGUID
  2
{F7B81253-A47F-4F89-AF18-AB0B6D6F10B8}
  9
$VERSIONGUID
  2
{FAEB1C32-E019-11D5-929B-00C0DF256EC4}
  9
$EXTNAMES
290
     1
  9
$PSVPSCALE
 40
0.0
  9
$OLESTARTUP
290
     0
  0
ENDSEC
  0
SECTION
  2
CLASSES
  0
CLASS
  1
ACDBDICTIONARYWDFLT
  2
AcDbDictionaryWithDefault
  3
ObjectDBX Classes
 90
        0
280
     0
281
     0
  0
CLASS
  1
VISUALSTYLE
  2
AcDbVisualStyle
  3
ObjectDBX Classes
 90
     4095
280
     0
281
     0
  0
CLASS
  1
MATERIAL
  2
AcDbMaterial
  3
ObjectDBX Classes
 90
     1153
280
     0
281
     0
  0
CLASS
  1
SCALE
  2
AcDbScale
  3
ObjectDBX Classes
 90
     1153
280
     0
281
     0
  0
CLASS
  1
TABLESTYLE
  2
AcDbTableStyle
  3
ObjectDBX Classes
 90
     4095
280
     0
281
     0
  0
CLASS
  1
MLEADERSTYLE
  2
AcDbMLeaderStyle
  3
ACDB_MLEADERSTYLE_CLASS
 90
     4095
280
     0
281
     0
  0
CLASS
  1
SUN
  2
AcDbSun
  3
SCENEOE
 90
     1153
280
     0
281
     0
  0
CLASS
  1
ACDBPLACEHOLDER
  2
AcDbPlaceHolder
  3
ObjectDBX Classes
 90
        0
280
     0
281
     0
  0
CLASS
  1
LAYOUT
  2
AcDbLayout
  3
ObjectDBX Classes
 90
        0
280
     0
281
     0
  0
ENDSEC
  0
SECTION
  2
TABLES
  0
TABLE
  2
VPORT
  5
8
330
0
100
AcDbSymbolTable
 70
     1
  0
VPORT
  5
29
330
8
100
AcDbSymbolTableRecord
100
AcDbViewportTableRecord
  2
*Active
 70
     0
 10
0.0
 20
0.0
 11
1.0
 21
1.0
 12
148.5
 22
105.0
 13
0.0
 23
0.0
 14
10.0
 24
10.0
 15
10.0
 25
10.0
 16
0.0
 26
0.0
 36
1.0
 17
0.0
 27
0.0
 37
0.0
 40
210.0
 41
1.4142857143
 42
50.0
 43
0.0
 44
0.0
 50
0.0
 51
0.0
 71
     0
 72
  2000
 73
     1
 74
     3
 75
     0
 76
     0
 77
     0
 78
     0
281
     0
 65
     1
110
0.0
120
0.0
130
0.0
111
1.0
121
0.0
131
0.0
112
0.0
122
1.0
132
0.0
 79
     0
146
0.0
  0
ENDTAB
  0
TABLE
  2
LTYPE
  5
5
330
0
100
AcDbSymbolTable
 70
     6
  0
LTYPE
  5
14
330
5
100
AcDbSymbolTableRecord
100
AcDbLinetypeTableRecord
  2
ByBlock
 70
     0
  3

 72
    65
 73
     0
 40
0.0
  0
LTYPE
  5
15
330
5
100
AcDbSymbolTableRecord
100
AcDbLinetypeTableRecord
  2
ByLayer
 70
     0
  3

 72
    65
 73
     0
 40
0.0
  0
LTYPE
  5
16
330
5
100
AcDbSymbolTableRecord
100
AcDbLinetypeTableRecord
  2
Continuous
 70
     0
  3
Solid line
 72
    65
 73
     0
 40
0.0
  0
LTYPE
  5
6E
330
5
100
AcDbSymbolTableRecord
100
AcDbLinetypeTableRecord
  2
HIDDEN
 70
     0
  3
Hidden __ __ __ __ __ __ __ __ __ __ __ __ __ __
 72
    65
 73
     2
 40
1.905
 49
1.27
 74
     0
 49
-0.635
 74
     0
  0
LTYPE
  5
6F
330
5
100
AcDbSymbolTableRecord
100
AcDbLinetypeTableRecord
  2
PHANTOM
 70
     0
  3
Phantom ______  __  __  ______  __  __  ______
 72
    65
 73
     6
 40
12.7
 49
6.35
 74
     0
 49
-1.27
 74
     0
 49
1.27
 74
     0
 49
-1.27
 74
     0
 49
1.27
 74
     0
 49
-1.27
 74
     0
  0
LTYPE
  5
70
330
5
100
AcDbSymbolTableRecord
100
AcDbLinetypeTableRecord
  2
CENTER
 70
     0
  3
Center ____ _ ____ _ ____ _ ____ _ ____ _ ____
 72
    65
 73
     4
 40
10.16
 49
6.35
 74
     0
 49
-1.27
 74
     0
 49
1.27
 74
     0
 49
-1.27
 74
     0
  0
LTYPE
  5
71
330
5
100
AcDbSymbolTableRecord
100
AcDbLinetypeTableRecord
  2
CENTERX2
 70
     0
  3
Center (2x) ________  __  ________  __  _____
 72
    65
 73
     4
 40
20.32
 49
12.7
 74
     0
 49
-2.54
 74
     0
 49
2.54
 74
     0
 49
-2.54
 74
     0
  0
LTYPE
  5
72
330
5
100
AcDbSymbolTableRecord
100
AcDbLinetypeTableRecord
  2
DOT2
 70
     0
  3
Dot (.5x) ........................................
 72
    65
 73
     2
 40
0.635
 49
0.0
 74
     0
 49
-0.635
 74
     0
  0
ENDTAB
  0
TABLE
  2
LAYER
  5
2
330
0
100
AcDbSymbolTable
 70
     4
  0
LAYER
  5
10
330
2
100
AcDbSymbolTableRecord
100
AcDbLayerTableRecord
  2
0
 70
     0
 62
     7
  6
Continuous
370
    -3
390
F
  0
LAYER
  5
73
330
2
100
AcDbSymbolTableRecord
100
AcDbLayerTableRecord
  2
FORMAT
 70
     0
 62
     7
  6
Continuous
370
    -3
390
F
  0
LAYER
  5
74
330
2
100
AcDbSymbolTableRecord
100
AcDbLayerTableRecord
  2
BORDER
 70
     0
 62
     7
  6
Continuous
370
    40
390
F
  0
LAYER
  5
75
330
2
100
AcDbSymbolTableRecord
100
AcDbLayerTableRecord
  2
REVISION_TABLE
 70
     0
 62
    -7
  6
Continuous
290
     0
370
    -3
390
F
  0
ENDTAB
  0
TABLE
  2
STYLE
  5
3
330
0
100
AcDbSymbolTable
 70
     1
  0
STYLE
  5
11
330
3
100
AcDbSymbolTableRecord
100
AcDbTextStyleTableRecord
  2
Standard
 70
     0
 40
0.0
 41
1.0
 50
0.0
 71
     0
 42
3.5
  3
txt
  4

  0
ENDTAB
  0
TABLE
  2
VIEW
  5
6
330
0
100
AcDbSymbolTable
 70
     0
  0
ENDTAB
  0
TABLE
  2
UCS
  5
7
330
0
100
AcDbSymbolTable
 70
     0
  0
ENDTAB
  0
TABLE
  2
APPID
  5
9
330
0
100
AcDbSymbolTable
 70
     1
  0
APPID
  5
12
330
9
100
AcDbSymbolTableRecord
100
AcDbRegAppTableRecord
  2
ACAD
 70
     0
  0
ENDTAB
  0
TABLE
  2
DIMSTYLE
  5
A
330
0
100
AcDbSymbolTable
 70
     1
100
AcDbDimStyleTable
  0
DIMSTYLE
105
27
330
A
100
AcDbSymbolTableRecord
100
AcDbDimStyleTableRecord
  2
ISO-25
 70
     0
 41
2.5
 42
0.625
 43
3.75
 44
1.25
 73
     0
 74
     0
 77
     1
 78
     8
140
2.5
141
2.5
143
0.0393700787
147
0.625
171
     3
172
     1
178
     0
271
     2
272
     2
274
     3
278
    44
283
     0
284
     8
340
11
  0
ENDTAB
  0
TABLE
  2
BLOCK_RECORD
  5
1
330
0
100
AcDbSymbolTable
 70
     1
  0
BLOCK_RECORD
  5
1F
330
1
100
AcDbSymbolTableRecord
100
AcDbBlockTableRecord
  2
*Model_Space
340
22
  0
BLOCK_RECORD
  5
1B
330
1
100
AcDbSymbolTableRecord
100
AcDbBlockTableRecord
  2
*Paper_Space
340
1E
  0
BLOCK_RECORD
  5
23
330
1
100
AcDbSymbolTableRecord
100
AcDbBlockTableRecord
  2
*Paper_Space0
340
26
  0
ENDTAB
  0
ENDSEC
  0
SECTION
  2
BLOCKS
  0
BLOCK
  5
20
330
1F
100
AcDbEntity
  8
0
100
AcDbBlockBegin
  2
*Model_Space
 70
     0
 10
0.0
 20
0.0
 30
0.0
  3
*Model_Space
  1

  0
ENDBLK
  5
21
330
1F
100
AcDbEntity
  8
0
100
AcDbBlockEnd
  0
BLOCK
  5
1C
330
1B
100
AcDbEntity
 67
     1
  8
0
100
AcDbBlockBegin
  2
*Paper_Space
 70
     0
 10
0.0
 20
0.0
 30
0.0
  3
*Paper_Space
  1

  0
ENDBLK
  5
1D
330
1B
100
AcDbEntity
 67
     1
  8
0
100
AcDbBlockEnd
  0
BLOCK
  5
24
330
23
100
AcDbEntity
  8
0
100
AcDbBlockBegin
  2
*Paper_Space0
 70
     0
 10
0.0
 20
0.0
 30
0.0
  3
*Paper_Space0
  1

  0
ENDBLK
  5
25
330
23
100
AcDbEntity
  8
0
100
AcDbBlockEnd
  0
ENDSEC
  0
SECTION
  2
ENTITIES
  0
LINE
  5
76
330
1F
100
AcDbEntity
  8
0
  6
Continuous
 62
     7
370
    15
100
AcDbLine
 10
375.9633256408
 20
122.9167940333
 30
0.0
 11
372.7883294733
 21
121.9682841082
 31
0.0
  0
LINE
  5
77
330
1F
100
AcDbEntity
  8
0
  6
Continuous
 62
     7
370
    15
100
AcDbLine
 10
411.5831527827
 20
133.5579909959
 30
0.0
 11
390.129826402
 21
127.1489460948
 31
0.0
  0
LINE
  5
78
330
1F
100
AcDbEntity
  8
0
  6
Continuous
 62
     7
370
    15
100
AcDbLine
 10
378.2269522415
 20
103.7633017576
 30
0.0
 11
417.0217755509
 21
115.3530086453
 31
0.0
  0
LINE
  5
79
330
1F
100
AcDbEntity
  8
0
  6
Continuous
 62
     7
370
    15
100
AcDbLine
 10
419.5979652832
 20
106.7295959529
 30
0.0
 11
425.5663996385
 21
108.5126277818
 31
0.0
  0
LINE
  5
7A
330
1F
100
AcDbEntity
  8
0
  6
Continuous
 62
     7
370
    15
100
AcDbLine
 10
414.9753974057
 20
143.9644355171
 30
0.0
 11
409.0069630504
 21
142.1814036883
 31
0.0
  0
SPLINE
  5
7B
330
1F
100
AcDbEntity
  8
0
  6
Continuous
 62
     7
370
    15
100
AcDbSpline
210
0.0
220
0.0
230
1.0
 70
     8
 71
     3
 72
    16
 73
    12
 74
     0
 42
0.000000001
 43
0.00000001
 40
0.0
 40
0.0
 40
0.0
 40
0.0
 40
0.0721455940752403
 40
0.1968227184025366
 40
0.3247319131740489
 40
0.4538801831922742
 40
0.5661661521151041
 40
0.6794107864517485
 40
0.7957901108696368
 40
0.9133014238517776
 40
1.0
 40
1.0
 40
1.0
 40
1.0
 10
383.082146274716
 20
119.3591346169642
 30
0.0
 10
383.1664312273505
 20
119.4576288780057
 30
0.0
 10
383.3963717207456
 20
119.7263342432291
 30
0.0
 10
383.7605589566383
 20
120.2058390410062
 30
0.0
 10
384.1782052410036
 20
120.7893758061321
 30
0.0
 10
384.5700879610788
 20
121.3731608699585
 30
0.0
 10
384.9370001218941
 20
121.9409278703897
 30
0.0
 10
385.2829035521457
 20
122.4883825812767
 30
0.0
 10
385.6267796195363
 20
123.0358653273034
 30
0.0
 10
385.9386804542869
 20
123.5283437974555
 30
0.0
 10
386.1340200899306
 20
123.8264049293692
 30
0.0
 10
386.2169527448953
 20
123.9529486332617
 30
0.0
  0
ELLIPSE
  5
7C
330
1F
100
AcDbEntity
  8
0
  6
Continuous
 62
     7
370
    15
100
AcDbEllipse
 10
380.8566412803
 20
114.4637728115
 30
0.0
 11
-5.574297781524364
 21
8.13012166080007
 31
0.0
210
0.0
220
0.0
230
1.0
 40
0.4878340911
 41
4.668052311397717
 42
6.127796166990624
  0
SPLINE
  5
7D
330
1F
100
AcDbEntity
  8
0
  6
Continuous
 62
     7
370
    15
100
AcDbSpline
210
0.0
220
0.0
230
1.0
 70
     8
 71
     3
 72
    44
 73
    40
 74
     0
 42
0.000000001
 43
0.00000001
 40
0.0
 40
0.0
 40
0.0
 40
0.0
 40
0.0624999999999997
 40
0.0624999999999997
 40
0.0937499999999996
 40
0.0937499999999996
 40
0.1249999999999994
 40
0.1249999999999994
 40
0.1874999999999993
 40
0.1874999999999993
 40
0.2499999999999991
 40
0.2499999999999991
 40
0.3124999999999988
 40
0.3124999999999988
 40
0.3437499999999988
 40
0.3437499999999988
 40
0.3749999999999987
 40
0.3749999999999987
 40
0.4374999999999984
 40
0.4374999999999984
 40
0.4999999999999982
 40
0.4999999999999982
 40
0.562499999999998
 40
0.562499999999998
 40
0.6249999999999978
 40
0.6249999999999978
 40
0.6874999999999977
 40
0.6874999999999977
 40
0.7499999999999974
 40
0.7499999999999974
 40
0.8124999999999972
 40
0.8124999999999972
 40
0.8437499999999976
 40
0.8437499999999976
 40
0.8749999999999978
 40
0.8749999999999978
 40
0.937499999999999
 40
0.937499999999999
 40
1.0
 40
1.0
 40
1.0
 40
1.0
 10
397.2159329274781
 20
120.4498160332439
 30
0.0
 10
397.2752922390411
 20
120.0098912082345
 30
0.0
 10
397.2888099596874
 20
119.5704819913187
 30
0.0
 10
397.2414659543884
 20
118.9148509469887
 30
0.0
 10
397.214388858443
 20
118.6968864266262
 30
0.0
 10
397.1375155083576
 20
118.2625871048098
 30
0.0
 10
397.087363393043
 20
118.0453272810566
 30
0.0
 10
396.9066288552419
 20
117.4100365471444
 30
0.0
 10
396.7456932687569
 20
117.0047608169995
 30
0.0
 10
396.3532695679486
 20
116.2305164022801
 30
0.0
 10
396.1195853306793
 20
115.8594590317688
 30
0.0
 10
395.6062959084547
 20
115.1775983966354
 30
0.0
 10
395.3256953602742
 20
114.8637585915554
 30
0.0
 10
394.875645392958
 20
114.431851099717
 30
0.0
 10
394.720068407786
 20
114.2938801141878
 30
0.0
 10
394.4041163257006
 20
114.0344490914926
 30
0.0
 10
394.2436460518292
 20
113.912788416405
 30
0.0
 10
393.7561428647891
 20
113.5710146924335
 30
0.0
 10
393.4231292328707
 20
113.373938971136
 30
0.0
 10
392.7455191195216
 20
113.0405508262402
 30
0.0
 10
392.4005040172702
 20
112.9048287246701
 30
0.0
 10
391.7245663187631
 20
112.7037177396138
 30
0.0
 10
391.3905731521601
 20
112.6366208285241
 30
0.0
 10
390.728904592545
 20
112.5702666225077
 30
0.0
 10
390.3993123594411
 20
112.5717328148511
 30
0.0
 10
389.7638964009481
 20
112.6452286071656
 30
0.0
 10
389.455521096261
 20
112.71659374504
 30
0.0
 10
388.8500208380464
 20
112.9307578782496
 30
0.0
 10
388.5502317677808
 20
113.075572763713
 30
0.0
 10
387.9723302358603
 20
113.4318243731509
 30
0.0
 10
387.6929134538065
 20
113.6429817788296
 30
0.0
 10
387.2803913557061
 20
114.0098984674561
 30
0.0
 10
387.1439869996243
 20
114.1406020903544
 30
0.0
 10
386.8720321284914
 20
114.4193405989681
 30
0.0
 10
386.7360831477083
 20
114.5679425411628
 30
0.0
 10
386.3370344850266
 20
115.0291038380457
 30
0.0
 10
386.0796037796264
 20
115.3599050572814
 30
0.0
 10
385.5703415902703
 20
116.0622662766251
 30
0.0
 10
385.316654843066
 20
116.4369274706254
 30
0.0
 10
385.0659590516885
 20
116.8200885618544
 30
0.0
  0
ELLIPSE
  5
7E
330
1F
100
AcDbEntity
  8
0
  6
Continuous
 62
     7
370
    15
100
AcDbEllipse
 10
390.6751335308
 20
117.396984966
 30
0.0
 11
1.397916617062435
 21
9.909245955828879
 31
0.0
210
0.0
220
0.0
230
1.0
 40
0.6575914403
 41
5.116680968649352
 42
7.227299116813384
  0
LWPOLYLINE
  5
7F
330
1F
100
AcDbEntity
  8
0
  6
Continuous
 62
     7
370
    15
100
AcDbPolyline
 90
       43
 70
   128
 43
0.0
 10
411.5831527827
 20
133.5579909959
 10
411.8419956003
 20
133.6253461456
 10
412.2897912258
 20
133.6971319437
 10
412.7491152597
 20
133.71598251
 10
413.2173367354
 20
133.68178987
 10
413.6917737228
 20
133.5947498761
 10
414.1697086897
 20
133.4553610856
 10
414.648404068
 20
133.2644219047
 10
415.1251179339
 20
133.0230260159
 10
415.5971197134
 20
132.7325561129
 10
416.0617058233
 20
132.3946759811
 10
416.5162151563
 20
132.0113209671
 10
416.958044324
 20
131.5846868939
 10
417.3846625692
 20
131.1172174827
 10
417.793626261
 20
130.611590356
 10
418.1825928924
 20
130.0707017003
 10
418.5493344979
 20
129.4976496767
 10
418.8917504148
 20
128.8957166753
 10
419.2078793156
 20
128.2683505139
 10
419.4959104427
 20
127.619144689
 10
419.7541939798
 20
126.9518177928
 10
419.9812505023
 20
126.2701922133
 10
420.1757794509
 20
125.5781722401
 10
420.3366665815
 20
124.879721701
 10
420.462990347
 20
124.1788412574
 10
420.5540271765
 20
123.4795454889
 10
420.6092556192
 20
122.7858398985
 10
420.6283593316
 20
122.1016979689
 10
420.6112288894
 20
121.4310384032
 10
420.5579624142
 20
120.7777026786
 10
420.4688650115
 20
120.1454330429
 10
420.3444470232
 20
119.5378510794
 10
420.1854211042
 20
118.9584369626
 10
419.9926981407
 20
118.410509524
 10
419.7673820322
 20
117.8972072425
 10
419.5107633691
 20
117.4214702668
 10
419.2243120399
 20
116.9860235755
 10
418.9096688118
 20
116.5933613677
 10
418.5686359326
 20
116.2457327769
 10
418.203166808
 20
115.9451289883
 10
417.8153548118
 20
115.6932718331
 10
417.4074212962
 20
115.4916039264
 10
417.0217755509
 20
115.3530086453
  0
LWPOLYLINE
  5
80
330
1F
100
AcDbEntity
  8
0
  6
Continuous
 62
     7
370
    15
100
AcDbPolyline
 90
       84
 70
   128
 43
0.0
 10
369.1867702556
 20
114.8789657451
 10
369.1857829133
 20
115.5568520255
 10
369.2210066009
 20
116.2193241632
 10
369.2922395601
 20
116.8625875776
 10
369.3990737751
 20
117.4829577143
 10
369.5408973092
 20
118.0768811493
 10
369.7168978099
 20
118.6409559428
 10
369.9260671625
 20
119.1719511256
 10
370.1672072637
 20
119.6668252054
 10
370.4389368849
 20
120.1227435882
 10
370.7396995834
 20
120.5370948149
 10
371.0677726177
 20
120.9075055191
 10
371.4212768153
 20
121.2318540218
 10
371.7981873361
 20
121.5082824843
 10
372.1963452706
 20
121.7352075492
 10
372.6134700065
 20
121.9113294104
 10
373.0471722909
 20
122.0356392579
 10
373.4949679164
 20
122.107425056
 10
373.9542919502
 20
122.1262756222
 10
374.4225134259
 20
122.0920829823
 10
374.8969504133
 20
122.0050429884
 10
375.3748853803
 20
121.8656541978
 10
375.8535807586
 20
121.674715017
 10
376.3302946244
 20
121.4333191282
 10
376.802296404
 20
121.1428492252
 10
377.2668825139
 20
120.8049690933
 10
377.7213918468
 20
120.4216140794
 10
378.1632210146
 20
119.9949800061
 10
378.5898392597
 20
119.527510595
 10
378.9988029515
 20
119.0218834683
 10
379.387769583
 20
118.4809948126
 10
379.7545111885
 20
117.907942789
 10
380.0969271054
 20
117.3060097876
 10
380.4130560062
 20
116.6786436262
 10
380.7010871333
 20
116.0294378013
 10
380.9593706704
 20
115.3621109051
 10
381.1864271929
 20
114.6804853256
 10
381.3809561415
 20
113.9884653524
 10
381.541843272
 20
113.2900148133
 10
381.6681670376
 20
112.5891343696
 10
381.7592038671
 20
111.8898386012
 10
381.8144323098
 20
111.1961330108
 10
381.8335360222
 20
110.5119910812
 10
381.81640558
 20
109.8413315155
 10
381.7631391047
 20
109.1879957908
 10
381.674041702
 20
108.5557261552
 10
381.5496237137
 20
107.9481441917
 10
381.3905977948
 20
107.3687300749
 10
381.1978748312
 20
106.8208026363
 10
380.9725587228
 20
106.3075003547
 10
380.7159400597
 20
105.8317633791
 10
380.4294887305
 20
105.3963166878
 10
380.1148455023
 20
105.0036544799
 10
379.7738126232
 20
104.6560258892
 10
379.4083434985
 20
104.3554221006
 10
379.0205315024
 20
104.1035649454
 10
378.6125979868
 20
103.9018970386
 10
378.1868795579
 20
103.7515735158
 10
377.7458146923
 20
103.6534554164
 10
377.2919297698
 20
103.608104752
 10
376.8278246019
 20
103.6157812872
 10
376.3561575411
 20
103.6764410514
 10
375.8796302536
 20
103.789736591
 10
375.4009722444
 20
103.9550189594
 10
374.9229252235
 20
104.1713414341
 10
374.4482274007
 20
104.4374649397
 10
373.9795978023
 20
104.7518651448
 10
373.5197206962
 20
105.1127411934
 10
373.0712302166
 20
105.5180260203
 10
372.6366952766
 20
105.9653981907
 10
372.2186048529
 20
106.4522951972
 10
371.8193537296
 20
106.975928138
 10
371.4412287809
 20
107.5332976909
 10
371.0863958724
 20
108.1212112937
 10
370.7568874547
 20
108.7363014305
 10
370.4545909223
 20
109.3750449206
 10
370.1812378024
 20
110.0337830992
 10
369.9383938367
 20
110.7087427736
 10
369.7274500137
 20
111.3960578361
 10
369.5496146004
 20
112.091791408
 10
369.4059062219
 20
112.7919583906
 10
369.2971480268
 20
113.4925482908
 10
369.2239629723
 20
114.1895481931
 10
369.1867702556
 20
114.8789657451
  0
SPLINE
  5
81
330
1F
100
AcDbEntity
  8
0
  6
Continuous
 62
     7
370
    15
100
AcDbSpline
210
0.0
220
0.0
230
1.0
 70
     8
 71
     3
 72
     9
 73
     5
 74
     0
 42
0.000000001
 43
0.00000001
 40
0.0
 40
0.0
 40
0.0
 40
0.0
 40
0.5
 40
1.0
 40
1.0
 40
1.0
 40
1.0
 10
400.326526436918
 20
129.8786307043579
 30
0.0
 10
400.3229749632023
 20
129.8760874328487
 30
0.0
 10
400.3160866562023
 20
129.8710017698026
 30
0.0
 10
400.309628690842
 20
129.8659157500734
 30
0.0
 10
400.3065076984247
 20
129.8633721075843
 30
0.0
  0
SPLINE
  5
82
330
1F
100
AcDbEntity
  8
0
  6
Continuous
 62
     7
370
    15
100
AcDbSpline
210
0.0
220
0.0
230
1.0
 70
     8
 71
     3
 72
    36
 73
    32
 74
     0
 42
0.000000001
 43
0.00000001
 40
0.0
 40
0.0
 40
0.0
 40
0.0
 40
0.0625
 40
0.0625
 40
0.1249999999999999
 40
0.1249999999999999
 40
0.1874999999999999
 40
0.1874999999999999
 40
0.2499999999999998
 40
0.2499999999999998
 40
0.3124999999999998
 40
0.3124999999999998
 40
0.3749999999999998
 40
0.3749999999999998
 40
0.4374999999999997
 40
0.4374999999999997
 40
0.4999999999999997
 40
0.4999999999999997
 40
0.5624999999999997
 40
0.5624999999999997
 40
0.6249999999999996
 40
0.6249999999999996
 40
0.6874999999999996
 40
0.6874999999999996
 40
0.7499999999999996
 40
0.7499999999999996
 40
0.8124999999999994
 40
0.8124999999999994
 40
0.8749999999999994
 40
0.8749999999999994
 40
1.0
 40
1.0
 40
1.0
 40
1.0
 10
400.3065076984247
 20
129.8633721075843
 30
0.0
 10
400.2400749362145
 20
129.8304419399134
 30
0.0
 10
400.1880843331517
 20
129.7979553081777
 30
0.0
 10
400.1135888392797
 20
129.732352097775
 30
0.0
 10
400.0912428723512
 20
129.6988157368559
 30
0.0
 10
400.0820897275314
 20
129.6325840080377
 30
0.0
 10
400.0934605800607
 20
129.5994919716894
 30
0.0
 10
400.1520936405662
 20
129.5314943017003
 30
0.0
 10
400.1985583800255
 20
129.4979338205295
 30
0.0
 10
400.3263720978604
 20
129.4313697692709
 30
0.0
 10
400.4093528504603
 20
129.3979281225496
 30
0.0
 10
400.6016793788892
 20
129.33549450701
 30
0.0
 10
400.7138218392112
 20
129.305525788378
 30
0.0
 10
400.9554939667589
 20
129.2520771513297
 30
0.0
 10
401.0859426604476
 20
129.2283028915385
 30
0.0
 10
401.3563704217382
 20
129.1887885397694
 30
0.0
 10
401.4937329271318
 20
129.1729974685571
 30
0.0
 10
401.7721976200833
 20
129.1493718199086
 30
0.0
 10
401.9137263239592
 20
129.1417060818898
 30
0.0
 10
402.1896956049197
 20
129.1359670083986
 30
0.0
 10
402.3259069674742
 20
129.1377585562377
 30
0.0
 10
402.5928542829622
 20
129.151568566087
 30
0.0
 10
402.7207840322647
 20
129.1634225764715
 30
0.0
 10
402.966306633969
 20
129.1972698131803
 30
0.0
 10
403.0847646446277
 20
129.2194957381757
 30
0.0
 10
403.3065170932637
 20
129.2738101160091
 30
0.0
 10
403.4099467186617
 20
129.3052387158565
 30
0.0
 10
403.6023672562443
 20
129.3763635221864
 30
0.0
 10
403.6919595577561
 20
129.4164573038391
 30
0.0
 10
403.9322057782235
 20
129.5464307597887
 30
0.0
 10
404.0549842598012
 20
129.6450319115019
 30
0.0
 10
404.1361288012183
 20
129.7530535870671
 30
0.0
  0
SPLINE
  5
83
330
1F
100
AcDbEntity
  8
0
  6
Continuous
 62
     7
370
    15
100
AcDbSpline
210
0.0
220
0.0
230
1.0
 70
     8
 71
     3
 72
    26
 73
    22
 74
     0
 42
0.000000001
 43
0.00000001
 40
0.0
 40
0.0
 40
0.0
 40
0.0
 40
0.1249999999999996
 40
0.1249999999999996
 40
0.2499999999999991
 40
0.2499999999999991
 40
0.3749999999999987
 40
0.3749999999999987
 40
0.4999999999999982
 40
0.4999999999999982
 40
0.6249999999999978
 40
0.6249999999999978
 40
0.7499999999999973
 40
0.7499999999999973
 40
0.812499999999998
 40
0.812499999999998
 40
0.8749999999999987
 40
0.8749999999999987
 40
0.9374999999999993
 40
0.9374999999999993
 40
1.0
 40
1.0
 40
1.0
 40
1.0
 10
404.1361288012183
 20
129.7530535870671
 30
0.0
 10
404.0671226580958
 20
129.8526952459128
 30
0.0
 10
403.9778002342414
 20
129.943098407646
 30
0.0
 10
403.7545538107892
 20
130.102604710887
 30
0.0
 10
403.6163179220714
 20
130.1720702342738
 30
0.0
 10
403.3031778795878
 20
130.279275016808
 30
0.0
 10
403.1279863103134
 20
130.3181037540185
 30
0.0
 10
402.7372275334579
 20
130.3662258720386
 30
0.0
 10
402.5291765741823
 20
130.3749005903257
 30
0.0
 10
402.0910143473602
 20
130.3627063877754
 30
0.0
 10
401.8569473450997
 20
130.3410354065742
 30
0.0
 10
401.3958526423615
 20
130.2741125631452
 30
0.0
 10
401.1647721304363
 20
130.228343875103
 30
0.0
 10
400.8636318628575
 20
130.1529238290391
 30
0.0
 10
400.7727173741871
 20
130.1272237809867
 30
0.0
 10
400.610323194657
 20
130.0748794945097
 30
0.0
 10
400.541065938778
 20
130.0487614484803
 30
0.0
 10
400.4328278643031
 20
129.9982379042452
 30
0.0
 10
400.3924504346571
 20
129.9733090193392
 30
0.0
 10
400.3399855131079
 20
129.9253763814296
 30
0.0
 10
400.3270915241134
 20
129.9018727786794
 30
0.0
 10
400.326526436918
 20
129.8786307043579
 30
0.0
  0
SPLINE
  5
84
330
1F
100
AcDbEntity
  8
0
  6
Continuous
 62
     7
370
    15
100
AcDbSpline
210
0.0
220
0.0
230
1.0
 70
     8
 71
     3
 72
     9
 73
     5
 74
     0
 42
0.000000001
 43
0.00000001
 40
0.0
 40
0.0
 40
0.0
 40
0.0
 40
0.5
 40
1.0
 40
1.0
 40
1.0
 40
1.0
 10
407.414042233835
 20
131.9959810011547
 30
0.0
 10
407.4104907601193
 20
131.9934377296456
 30
0.0
 10
407.4036024531193
 20
131.9883520665995
 30
0.0
 10
407.397144487759
 20
131.9832660468703
 30
0.0
 10
407.3940234953417
 20
131.9807224043812
 30
0.0
  0
SPLINE
  5
85
330
1F
100
AcDbEntity
  8
0
  6
Continuous
 62
     7
370
    15
100
AcDbSpline
210
0.0
220
0.0
230
1.0
 70
     8
 71
     3
 72
    36
 73
    32
 74
     0
 42
0.000000001
 43
0.00000001
 40
0.0
 40
0.0
 40
0.0
 40
0.0
 40
0.0625000000000001
 40
0.0625000000000001
 40
0.1250000000000002
 40
0.1250000000000002
 40
0.1875000000000004
 40
0.1875000000000004
 40
0.2500000000000005
 40
0.2500000000000005
 40
0.3125000000000006
 40
0.3125000000000006
 40
0.3750000000000008
 40
0.3750000000000008
 40
0.4375000000000009
 40
0.4375000000000009
 40
0.500000000000001
 40
0.500000000000001
 40
0.5625000000000011
 40
0.5625000000000011
 40
0.6250000000000012
 40
0.6250000000000012
 40
0.687500000000001
 40
0.687500000000001
 40
0.7500000000000008
 40
0.7500000000000008
 40
0.8125000000000007
 40
0.8125000000000007
 40
0.8750000000000004
 40
0.8750000000000004
 40
1.0
 40
1.0
 40
1.0
 40
1.0
 10
407.3940234953417
 20
131.9807224043812
 30
0.0
 10
407.3275907331314
 20
131.9477922367103
 30
0.0
 10
407.2756001300687
 20
131.9153056049746
 30
0.0
 10
407.2011046361968
 20
131.8497023945719
 30
0.0
 10
407.1787586692682
 20
131.8161660336528
 30
0.0
 10
407.1696055244483
 20
131.7499343048346
 30
0.0
 10
407.1809763769776
 20
131.7168422684862
 30
0.0
 10
407.2396094374832
 20
131.6488445984972
 30
0.0
 10
407.2860741769425
 20
131.6152841173264
 30
0.0
 10
407.4138878947775
 20
131.5487200660678
 30
0.0
 10
407.4968686473773
 20
131.5152784193465
 30
0.0
 10
407.6891951758063
 20
131.4528448038069
 30
0.0
 10
407.8013376361282
 20
131.4228760851749
 30
0.0
 10
408.0430097636759
 20
131.3694274481265
 30
0.0
 10
408.1734584573646
 20
131.3456531883354
 30
0.0
 10
408.4438862186552
 20
131.3061388365663
 30
0.0
 10
408.5812487240488
 20
131.290347765354
 30
0.0
 10
408.8597134170003
 20
131.2667221167055
 30
0.0
 10
409.0012421208762
 20
131.2590563786866
 30
0.0
 10
409.2772114018367
 20
131.2533173051955
 30
0.0
 10
409.4134227643913
 20
131.2551088530346
 30
0.0
 10
409.6803700798792
 20
131.2689188628838
 30
0.0
 10
409.8082998291817
 20
131.2807728732684
 30
0.0
 10
410.053822430886
 20
131.3146201099772
 30
0.0
 10
410.1722804415446
 20
131.3368460349726
 30
0.0
 10
410.3940328901807
 20
131.391160412806
 30
0.0
 10
410.4974625155787
 20
131.4225890126534
 30
0.0
 10
410.6898830531613
 20
131.4937138189833
 30
0.0
 10
410.7794753546732
 20
131.533807600636
 30
0.0
 10
411.0197215751405
 20
131.6637810565855
 30
0.0
 10
411.1425000567183
 20
131.7623822082988
 30
0.0
 10
411.2236445981353
 20
131.870403883864
 30
0.0
  0
SPLINE
  5
86
330
1F
100
AcDbEntity
  8
0
  6
Continuous
 62
     7
370
    15
100
AcDbSpline
210
0.0
220
0.0
230
1.0
 70
     8
 71
     3
 72
    26
 73
    22
 74
     0
 42
0.000000001
 43
0.00000001
 40
0.0
 40
0.0
 40
0.0
 40
0.0
 40
0.125
 40
0.125
 40
0.25
 40
0.25
 40
0.3749999999999999
 40
0.3749999999999999
 40
0.4999999999999999
 40
0.4999999999999999
 40
0.6249999999999999
 40
0.6249999999999999
 40
0.7499999999999999
 40
0.7499999999999999
 40
0.8125
 40
0.8125
 40
0.875
 40
0.875
 40
0.9375
 40
0.9375
 40
1.0
 40
1.0
 40
1.0
 40
1.0
 10
411.2236445981353
 20
131.870403883864
 30
0.0
 10
411.1546384550128
 20
131.9700455427097
 30
0.0
 10
411.0653160311584
 20
132.0604487044429
 30
0.0
 10
410.8420696077063
 20
132.2199550076839
 30
0.0
 10
410.7038337189884
 20
132.2894205310707
 30
0.0
 10
410.3906936765048
 20
132.3966253136049
 30
0.0
 10
410.2155021072304
 20
132.4354540508154
 30
0.0
 10
409.8247433303749
 20
132.4835761688355
 30
0.0
 10
409.6166923710992
 20
132.4922508871226
 30
0.0
 10
409.1785301442773
 20
132.4800566845723
 30
0.0
 10
408.9444631420168
 20
132.4583857033711
 30
0.0
 10
408.4833684392786
 20
132.3914628599421
 30
0.0
 10
408.2522879273533
 20
132.3456941718999
 30
0.0
 10
407.9511476597744
 20
132.270274125836
 30
0.0
 10
407.8602331711041
 20
132.2445740777836
 30
0.0
 10
407.697838991574
 20
132.1922297913066
 30
0.0
 10
407.628581735695
 20
132.1661117452771
 30
0.0
 10
407.5203436612201
 20
132.1155882010421
 30
0.0
 10
407.4799662315741
 20
132.0906593161361
 30
0.0
 10
407.427501310025
 20
132.0427266782265
 30
0.0
 10
407.4146073210305
 20
132.0192230754763
 30
0.0
 10
407.414042233835
 20
131.9959810011548
 30
0.0
  0
LWPOLYLINE
  5
87
330
1F
100
AcDbEntity
  8
0
  6
Continuous
 62
     7
370
    15
100
AcDbPolyline
 90
       97
 70
   128
 43
0.0
 10
402.0390511615
 20
130.7067512979
 10
402.0781702117
 20
131.1957982487
 10
402.1796130291
 20
132.0992288412
 10
402.3172351991
 20
132.979847542
 10
402.4906260029
 20
133.8350262389
 10
402.6992679743
 20
134.6622127425
 10
402.9425384435
 20
135.4589384031
 10
403.2197113959
 20
136.2228254782
 10
403.5299596385
 20
136.9515942287
 10
403.8723572686
 20
137.643069722
 10
404.2458824371
 20
138.2951883235
 10
404.649420398
 20
138.9060038551
 10
405.0817668355
 20
139.4736934032
 10
405.5416314579
 20
139.9965627589
 10
406.0276418484
 20
140.4730514746
 10
406.538347561
 20
140.9017375207
 10
407.0722244491
 20
141.2813415296
 10
407.6276792143
 20
141.6107306138
 10
408.2030541612
 20
141.8889217466
 10
408.7966321448
 20
142.1150846965
 10
409.4066416951
 20
142.2885445042
 10
410.031262304
 20
142.4087834977
 10
410.6686298579
 20
142.4754428364
 10
411.3168422016
 20
142.4883235826
 10
411.9739648147
 20
142.4473872953
 10
412.6380365851
 20
142.3527561443
 10
413.3070756615
 20
142.2047125462
 10
413.9790853685
 20
142.0036983213
 10
414.6520601649
 20
141.750313375
 10
415.3239916294
 20
141.4453139076
 10
415.9928744545
 20
141.0896101573
 10
416.6567124309
 20
140.6842636841
 10
417.3135244052
 20
140.230484201
 10
417.9613501923
 20
139.7296259644
 10
418.5982564254
 20
139.1831837322
 10
419.222342326
 20
138.5927883027
 10
419.8317453765
 20
137.9602016479
 10
420.4246468787
 20
137.287311655
 10
420.9992773815
 20
136.5761264923
 10
421.5539219615
 20
135.8287686158
 10
422.0869253414
 20
135.0474684351
 10
422.5966968296
 20
134.2345576571
 10
423.0817150676
 20
133.3924623269
 10
423.5405325704
 20
132.5236955881
 10
423.9717800462
 20
131.6308501821
 10
424.374170483
 20
130.7165907104
 10
424.7465029896
 20
129.7836456827
 10
425.0876663796
 20
128.8347993736
 10
425.3966424872
 20
127.8728835134
 10
425.6725092062
 20
126.9007688371
 10
425.9144432421
 20
125.921356517
 10
426.1217225685
 20
124.9375695044
 10
426.2937285825
 20
123.9523438064
 10
426.4299479504
 20
122.9686197237
 10
426.5299741402
 20
121.9893330756
 10
426.5935086345
 20
121.0174064383
 10
426.6203618212
 20
120.055740423
 10
426.61045356
 20
119.107205019
 10
426.563813421
 20
118.1746310287
 10
426.4805805967
 20
117.2608016195
 10
426.3610034865
 20
116.3684440175
 10
426.2054389555
 20
115.5002213685
 10
426.0143512696
 20
114.6587247902
 10
425.7883107093
 20
113.846465639
 10
425.5279918686
 20
113.0658680155
 10
425.2341716413
 20
112.3192615298
 10
424.9077269023
 20
111.6088743492
 10
424.549631891
 20
110.9368265481
 10
424.1609553038
 20
110.3051237814
 10
423.7428571043
 20
109.7156512984
 10
423.2965850619
 20
109.1701683166
 10
422.8234710278
 20
108.6703027717
 10
422.3249269601
 20
108.2175464589
 10
421.8024407103
 20
107.813250581
 10
421.2575715828
 20
107.4586217158
 10
420.6919456811
 20
107.1547182152
 10
420.1072510554
 20
106.9024470468
 10
419.5052326641
 20
106.7025610867
 10
418.8876871667
 20
106.5556568734
 10
418.2564575617
 20
106.4621728267
 10
417.6134276864
 20
106.4223879397
 10
416.9605165946
 20
106.4364209462
 10
416.2996728297
 20
106.5042299662
 10
415.6328686091
 20
106.6256126309
 10
414.9620939388
 20
106.8002066868
 10
414.289350674
 20
107.0274910765
 10
413.6166465451
 20
107.306787494
 10
412.9459891654
 20
107.6372624092
 10
412.2793800403
 20
108.017929555
 10
411.6188085934
 20
108.447652871
 10
410.9662462294
 20
108.9251498939
 10
410.3236404511
 20
109.4489955849
 10
409.6929090465
 20
110.0176265827
 10
409.0759343661
 20
110.6293458688
 10
408.4745577049
 20
111.2823278324
 10
407.8905738071
 20
111.9746237188
 10
407.4776739297
 20
112.5017689473
  0
LWPOLYLINE
  5
88
330
1F
100
AcDbEntity
  8
0
  6
Continuous
 62
     7
370
    15
100
AcDbPolyline
 90
       59
 70
   128
 43
0.0
 10
414.9753974057
 20
143.9644355171
 10
415.3750760504
 20
144.0715763331
 10
415.9996966593
 20
144.1918153266
 10
416.6370642132
 20
144.2584746652
 10
417.2852765569
 20
144.2713554115
 10
417.94239917
 20
144.2304191242
 10
418.6064709404
 20
144.1357879732
 10
419.2755100168
 20
143.9877443751
 10
419.9475197238
 20
143.7867301501
 10
420.6204945202
 20
143.5333452038
 10
421.2924259847
 20
143.2283457364
 10
421.9613088098
 20
142.8726419862
 10
422.6251467862
 20
142.467295513
 10
423.2819587605
 20
142.0135160299
 10
423.9297845476
 20
141.5126577933
 10
424.5666907807
 20
140.9662155611
 10
425.1907766813
 20
140.3758201316
 10
425.8001797318
 20
139.7432334768
 10
426.393081234
 20
139.0703434839
 10
426.9677117368
 20
138.3591583212
 10
427.5223563168
 20
137.6118004447
 10
428.0553596967
 20
136.830500264
 10
428.5651311849
 20
136.0175894859
 10
429.0501494229
 20
135.1754941558
 10
429.5089669257
 20
134.306727417
 10
429.9402144015
 20
133.413882011
 10
430.3426048383
 20
132.4996225393
 10
430.7149373449
 20
131.5666775116
 10
431.0561007349
 20
130.6178312025
 10
431.3650768425
 20
129.6559153423
 10
431.6409435615
 20
128.683800666
 10
431.8828775974
 20
127.7043883459
 10
432.0901569238
 20
126.7206013333
 10
432.2621629378
 20
125.7353756353
 10
432.3983823057
 20
124.7516515526
 10
432.4984084955
 20
123.7723649045
 10
432.5619429898
 20
122.8004382672
 10
432.5887961765
 20
121.8387722519
 10
432.5788879153
 20
120.8902368479
 10
432.5322477763
 20
119.9576628576
 10
432.449014952
 20
119.0438334484
 10
432.3294378418
 20
118.1514758464
 10
432.1738733108
 20
117.2832531974
 10
431.9827856249
 20
116.4417566191
 10
431.7567450646
 20
115.6294974679
 10
431.4964262239
 20
114.8488998444
 10
431.2026059966
 20
114.1022933587
 10
430.8761612576
 20
113.3919061781
 10
430.5180662463
 20
112.719858377
 10
430.1293896591
 20
112.0881556103
 10
429.7112914596
 20
111.4986831272
 10
429.2650194172
 20
110.9532001454
 10
428.7919053831
 20
110.4533346005
 10
428.2933613154
 20
110.0005782877
 10
427.7708750656
 20
109.5962824098
 10
427.2260059381
 20
109.2416535447
 10
426.6603800364
 20
108.9377500441
 10
426.0756854107
 20
108.6854788757
 10
425.5663996385
 20
108.5126277818
  0
SPLINE
  5
89
330
1F
100
AcDbEntity
  8
0
  6
Continuous
 62
     7
370
    15
100
AcDbSpline
210
0.0
220
0.0
230
1.0
 70
     8
 71
     3
 72
    12
 73
     8
 74
     0
 42
0.000000001
 43
0.00000001
 40
0.0
 40
0.0
 40
0.0
 40
0.0
 40
0.1920018579973957
 40
0.4098052967025777
 40
0.6276087354077609
 40
0.853168642519878
 40
0.9999999999999999
 40
0.9999999999999999
 40
0.9999999999999999
 40
0.9999999999999999
 10
400.3065076984248
 20
129.8633721075843
 30
0.0
 10
400.2803899173077
 20
129.8169218254178
 30
0.0
 10
400.2246445971766
 20
129.7177791824055
 30
0.0
 10
400.2613333635323
 20
129.5675540041963
 30
0.0
 10
400.404438550036
 20
129.420645676375
 30
0.0
 10
400.6146082081386
 20
129.2987676306326
 30
0.0
 10
400.8056587302449
 20
129.241791834768
 30
0.0
 10
400.8809886592078
 20
129.2193266637348
 30
0.0
  0
SPLINE
  5
8A
330
1F
100
AcDbEntity
  8
0
  6
Continuous
 62
     7
370
    15
100
AcDbSpline
210
0.0
220
0.0
230
1.0
 70
     8
 71
     3
 72
    19
 73
    15
 74
     0
 42
0.000000001
 43
0.00000001
 40
0.0
 40
0.0
 40
0.0
 40
0.0
 40
0.0771055255991721
 40
0.1675239338452263
 40
0.2579423420912803
 40
0.3515807524233214
 40
0.4452191627553581
 40
0.5356375710014082
 40
0.6260559792474653
 40
0.7196943895795005
 40
0.8133327999115367
 40
0.9037512081575891
 40
0.9941696164036424
 40
1.0
 40
1.0
 40
1.0
 40
1.0
 10
403.481948519548
 20
129.3351171900869
 30
0.0
 10
403.5105464848737
 20
129.3637096012832
 30
0.0
 10
403.5726800818381
 20
129.4258311310244
 30
0.0
 10
403.5337992368275
 20
129.5254004722923
 30
0.0
 10
403.3953506484038
 20
129.620980439098
 30
0.0
 10
403.1498619555452
 20
129.6966657972161
 30
0.0
 10
402.8183786066049
 20
129.7463581013938
 30
0.0
 10
402.4288347881231
 20
129.7678019487913
 30
0.0
 10
402.004317217111
 20
129.756061857768
 30
0.0
 10
401.568746229647
 20
129.7059136071855
 30
0.0
 10
401.1537494849528
 20
129.6219190122551
 30
0.0
 10
400.8058638107427
 20
129.5104631072673
 30
0.0
 10
400.5912549353832
 20
129.4231342763144
 30
0.0
 10
400.5269042733695
 20
129.3699034770961
 30
0.0
 10
400.5230061564473
 20
129.3666789589215
 30
0.0
  0
SPLINE
  5
8B
330
1F
100
AcDbEntity
  8
0
  6
Continuous
 62
     7
370
    15
100
AcDbSpline
210
0.0
220
0.0
230
1.0
 70
     8
 71
     3
 72
    13
 73
     9
 74
     0
 42
0.000000001
 43
0.00000001
 40
0.0
 40
0.0
 40
0.0
 40
0.0
 40
0.1216973828193486
 40
0.3054035447191107
 40
0.489109706618872
 40
0.6665251313976638
 40
0.8439405561764391
 40
1.0
 40
1.0
 40
1.0
 40
1.0
 10
400.5722278525426
 20
129.3398631111434
 30
0.0
 10
400.6779105817683
 20
129.372829501784
 30
0.0
 10
400.9431248318481
 20
129.4555597325005
 30
0.0
 10
401.4568127802955
 20
129.5456852567616
 30
0.0
 10
402.0492971404984
 20
129.6044596884943
 30
0.0
 10
402.6259516107966
 20
129.6099998519495
 30
0.0
 10
403.1375500754251
 20
129.5760727204484
 30
0.0
 10
403.399842761655
 20
129.5238991432245
 30
0.0
 10
403.5225903944934
 20
129.499482972141
 30
0.0
  0
SPLINE
  5
8C
330
1F
100
AcDbEntity
  8
0
  6
Continuous
 62
     7
370
    15
100
AcDbSpline
210
0.0
220
0.0
230
1.0
 70
     8
 71
     3
 72
    16
 73
    12
 74
     0
 42
0.000000001
 43
0.00000001
 40
0.0
 40
0.0
 40
0.0
 40
0.0
 40
0.0072335933970592
 40
0.1412371165098049
 40
0.279992091973655
 40
0.4187470674375053
 40
0.5527505905502577
 40
0.6867541136629993
 40
0.8255090891268512
 40
0.9642640645907031
 40
1.0
 40
1.0
 40
1.0
 40
1.0
 10
400.3841016012379
 20
129.9534362315667
 30
0.0
 10
400.3908353559593
 20
129.9564968861418
 30
0.0
 10
400.5223130390324
 20
130.0162566767589
 30
0.0
 10
400.881761077108
 20
130.1061852883554
 30
0.0
 10
401.4340187045619
 20
130.2132063885035
 30
0.0
 10
402.0314368087367
 20
130.2700266801529
 30
0.0
 10
402.6083819792249
 20
130.2766877915397
 30
0.0
 10
403.1417057956078
 20
130.2383193109513
 30
0.0
 10
403.5848850288734
 20
130.1586341643693
 30
0.0
 10
403.864089231715
 20
130.0759060342577
 30
0.0
 10
403.9401939993835
 20
130.0159576347803
 30
0.0
 10
403.9557803416642
 20
130.003680134933
 30
0.0
  0
SPLINE
  5
8D
330
1F
100
AcDbEntity
  8
0
  6
Continuous
 62
     7
370
    15
100
AcDbSpline
210
0.0
220
0.0
230
1.0
 70
     8
 71
     3
 72
     9
 73
     5
 74
     0
 42
0.000000001
 43
0.00000001
 40
0.0
 40
0.0
 40
0.0
 40
0.0
 40
0.8143392524063888
 40
1.0
 40
1.0
 40
1.0
 40
1.0
 10
400.326526436918
 20
129.8786307043579
 30
0.0
 10
400.2840747102098
 20
129.8236016554276
 30
0.0
 10
400.2319444382343
 20
129.7560265646191
 30
0.0
 10
400.2503024358788
 20
129.690250616809
 30
0.0
 10
400.2537107954458
 20
129.6780386051648
 30
0.0
  0
SPLINE
  5
8E
330
1F
100
AcDbEntity
  8
0
  6
Continuous
 62
     7
370
    15
100
AcDbSpline
210
0.0
220
0.0
230
1.0
 70
     8
 71
     3
 72
    18
 73
    14
 74
     0
 42
0.000000001
 43
0.00000001
 40
0.0
 40
0.0
 40
0.0
 40
0.0
 40
0.0768169626544973
 40
0.1774976264273657
 40
0.2817637541965141
 40
0.386029881965658
 40
0.4867105457385216
 40
0.5873912095113945
 40
0.6916573372805379
 40
0.7959234650496814
 40
0.8966041288225451
 40
0.9972847925954177
 40
1.0
 40
1.0
 40
1.0
 40
1.0
 10
403.5420486121772
 20
129.4361559476535
 30
0.0
 10
403.5391252321891
 20
129.4624984652405
 30
0.0
 10
403.5323703047471
 20
129.5233669789676
 30
0.0
 10
403.3927948948919
 20
129.6114592611966
 30
0.0
 10
403.1508958745259
 20
129.687152010678
 30
0.0
 10
402.8184457351153
 20
129.7368424636497
 30
0.0
 10
402.4291550425671
 20
129.7582862926627
 30
0.0
 10
402.0045594020774
 20
129.746548073229
 30
0.0
 10
401.5690507325766
 20
129.69639209881
 30
0.0
 10
401.1538861734244
 20
129.6124263374268
 30
0.0
 10
400.8065891776444
 20
129.5008663886653
 30
0.0
 10
400.5944095936989
 20
129.4153848229131
 30
0.0
 10
400.531817796684
 20
129.3641201007505
 30
0.0
 10
400.5301741168274
 20
129.3627738733661
 30
0.0
  0
SPLINE
  5
8F
330
1F
100
AcDbEntity
  8
0
  6
Continuous
 62
     7
370
    15
100
AcDbSpline
210
0.0
220
0.0
230
1.0
 70
     8
 71
     3
 72
    12
 73
     8
 74
     0
 42
0.000000001
 43
0.00000001
 40
0.0
 40
0.0
 40
0.0
 40
0.0
 40
0.1920018579976839
 40
0.4098052967031939
 40
0.6276087354087038
 40
0.8531686425211596
 40
0.9999999999999999
 40
0.9999999999999999
 40
0.9999999999999999
 40
0.9999999999999999
 10
407.3940234953417
 20
131.9807224043812
 30
0.0
 10
407.3679057142248
 20
131.9342721222147
 30
0.0
 10
407.3121603940936
 20
131.8351294792024
 30
0.0
 10
407.3488491604493
 20
131.6849043009932
 30
0.0
 10
407.4919543469532
 20
131.5379959731719
 30
0.0
 10
407.702124005055
 20
131.4161179274298
 30
0.0
 10
407.8931745271605
 20
131.3591421315654
 30
0.0
 10
407.9685044561226
 20
131.3366769605324
 30
0.0
  0
SPLINE
  5
90
330
1F
100
AcDbEntity
  8
0
  6
Continuous
 62
     7
370
    15
100
AcDbSpline
210
0.0
220
0.0
230
1.0
 70
     8
 71
     3
 72
    19
 73
    15
 74
     0
 42
0.000000001
 43
0.00000001
 40
0.0
 40
0.0
 40
0.0
 40
0.0
 40
0.0771055255991725
 40
0.1675239338452264
 40
0.2579423420912803
 40
0.3515807524233212
 40
0.4452191627553578
 40
0.5356375710014076
 40
0.6260559792474647
 40
0.7196943895795002
 40
0.8133327999115357
 40
0.9037512081575886
 40
0.9941696164036427
 40
1.0
 40
1.0
 40
1.0
 40
1.0
 10
410.5694643164651
 20
131.4524674868838
 30
0.0
 10
410.5980622817907
 20
131.4810598980801
 30
0.0
 10
410.6601958787551
 20
131.5431814278212
 30
0.0
 10
410.6213150337446
 20
131.6427507690892
 30
0.0
 10
410.4828664453208
 20
131.7383307358949
 30
0.0
 10
410.2373777524623
 20
131.814016094013
 30
0.0
 10
409.905894403522
 20
131.8637083981907
 30
0.0
 10
409.5163505850401
 20
131.8851522455882
 30
0.0
 10
409.0918330140279
 20
131.8734121545649
 30
0.0
 10
408.656262026564
 20
131.8232639039824
 30
0.0
 10
408.2412652818697
 20
131.7392693090519
 30
0.0
 10
407.8933796076598
 20
131.6278134040642
 30
0.0
 10
407.6787707323002
 20
131.5404845731113
 30
0.0
 10
407.6144200702865
 20
131.487253773893
 30
0.0
 10
407.6105219533644
 20
131.4840292557183
 30
0.0
  0
SPLINE
  5
91
330
1F
100
AcDbEntity
  8
0
  6
Continuous
 62
     7
370
    15
100
AcDbSpline
210
0.0
220
0.0
230
1.0
 70
     8
 71
     3
 72
    13
 73
     9
 74
     0
 42
0.000000001
 43
0.00000001
 40
0.0
 40
0.0
 40
0.0
 40
0.0
 40
0.1216973828193485
 40
0.3054035447191106
 40
0.4891097066188725
 40
0.6665251313976641
 40
0.8439405561764393
 40
1.0
 40
1.0
 40
1.0
 40
1.0
 10
407.6597436494596
 20
131.4572134079403
 30
0.0
 10
407.7654263786853
 20
131.4901797985809
 30
0.0
 10
408.0306406287651
 20
131.5729100292973
 30
0.0
 10
408.5443285772126
 20
131.6630355535584
 30
0.0
 10
409.1368129374154
 20
131.7218099852912
 30
0.0
 10
409.7134674077136
 20
131.7273501487464
 30
0.0
 10
410.2250658723422
 20
131.6934230172453
 30
0.0
 10
410.4873585585721
 20
131.6412494400214
 30
0.0
 10
410.6101061914104
 20
131.6168332689378
 30
0.0
  0
SPLINE
  5
92
330
1F
100
AcDbEntity
  8
0
  6
Continuous
 62
     7
370
    15
100
AcDbSpline
210
0.0
220
0.0
230
1.0
 70
     8
 71
     3
 72
    16
 73
    12
 74
     0
 42
0.000000001
 43
0.00000001
 40
0.0
 40
0.0
 40
0.0
 40
0.0
 40
0.0072335933970594
 40
0.1412371165098057
 40
0.2799920919736555
 40
0.4187470674375057
 40
0.5527505905502581
 40
0.6867541136629997
 40
0.8255090891268513
 40
0.9642640645907032
 40
1.0
 40
1.0
 40
1.0
 40
1.0
 10
407.4716173981549
 20
132.0707865283636
 30
0.0
 10
407.4783511528763
 20
132.0738471829387
 30
0.0
 10
407.6098288359495
 20
132.1336069735558
 30
0.0
 10
407.969276874025
 20
132.2235355851523
 30
0.0
 10
408.5215345014789
 20
132.3305566853004
 30
0.0
 10
409.1189526056537
 20
132.3873769769498
 30
0.0
 10
409.695897776142
 20
132.3940380883366
 30
0.0
 10
410.2292215925248
 20
132.3556696077481
 30
0.0
 10
410.6724008257904
 20
132.2759844611662
 30
0.0
 10
410.951605028632
 20
132.1932563310545
 30
0.0
 10
411.0277097963005
 20
132.1333079315772
 30
0.0
 10
411.0432961385812
 20
132.1210304317298
 30
0.0
  0
SPLINE
  5
93
330
1F
100
AcDbEntity
  8
0
  6
Continuous
 62
     7
370
    15
100
AcDbSpline
210
0.0
220
0.0
230
1.0
 70
     8
 71
     3
 72
     9
 73
     5
 74
     0
 42
0.000000001
 43
0.00000001
 40
0.0
 40
0.0
 40
0.0
 40
0.0
 40
0.8143392524063886
 40
1.0
 40
1.0
 40
1.0
 40
1.0
 10
407.414042233835
 20
131.9959810011547
 30
0.0
 10
407.3715905071267
 20
131.9409519522245
 30
0.0
 10
407.3194602351513
 20
131.8733768614159
 30
0.0
 10
407.3378182327958
 20
131.8076009136058
 30
0.0
 10
407.3412265923628
 20
131.7953889019617
 30
0.0
  0
SPLINE
  5
94
330
1F
100
AcDbEntity
  8
0
  6
Continuous
 62
     7
370
    15
100
AcDbSpline
210
0.0
220
0.0
230
1.0
 70
     8
 71
     3
 72
    18
 73
    14
 74
     0
 42
0.000000001
 43
0.00000001
 40
0.0
 40
0.0
 40
0.0
 40
0.0
 40
0.0768169626544972
 40
0.1774976264273654
 40
0.2817637541965139
 40
0.3860298819656577
 40
0.4867105457385214
 40
0.5873912095113943
 40
0.6916573372805381
 40
0.7959234650496817
 40
0.8966041288225455
 40
0.9972847925954171
 40
1.0
 40
1.0
 40
1.0
 40
1.0
 10
410.6295644090942
 20
131.5535062444504
 30
0.0
 10
410.6266410291061
 20
131.5798487620374
 30
0.0
 10
410.6198861016642
 20
131.6407172757644
 30
0.0
 10
410.4803106918089
 20
131.7288095579935
 30
0.0
 10
410.2384116714429
 20
131.8045023074748
 30
0.0
 10
409.9059615320323
 20
131.8541927604466
 30
0.0
 10
409.5166708394841
 20
131.8756365894596
 30
0.0
 10
409.0920751989945
 20
131.8638983700258
 30
0.0
 10
408.6565665294936
 20
131.8137423956069
 30
0.0
 10
408.2414019703414
 20
131.7297766342236
 30
0.0
 10
407.8941049745614
 20
131.6182166854621
 30
0.0
 10
407.6819253906159
 20
131.53273511971
 30
0.0
 10
407.6193335936011
 20
131.4814703975474
 30
0.0
 10
407.6176899137444
 20
131.480124170163
 30
0.0
  0
ENDSEC
  0
SECTION
  2
OBJECTS
  0
DICTIONARY
  5
C
330
0
100
AcDbDictionary
281
     1
  3
ACAD_GROUP
350
D
  3
ACAD_LAYOUT
350
1A
  3
ACAD_MLINESTYLE
350
17
  3
ACAD_PLOTSETTINGS
350
19
  3
ACAD_PLOTSTYLENAME
350
E
  3
ACAD_SCALELIST
350
47
  0
DICTIONARY
  5
D
102
{ACAD_REACTORS
330
C
102
}
330
C
100
AcDbDictionary
281
     1
  0
DICTIONARY
  5
1A
102
{ACAD_REACTORS
330
C
102
}
330
C
100
AcDbDictionary
281
     1
  3
Layout1
350
1E
  3
Layout2
350
26
  3
Model
350
22
  0
DICTIONARY
  5
17
102
{ACAD_REACTORS
330
C
102
}
330
C
100
AcDbDictionary
281
     1
  3
Standard
350
18
  0
DICTIONARY
  5
19
102
{ACAD_REACTORS
330
C
102
}
330
C
100
AcDbDictionary
281
     1
  0
ACDBDICTIONARYWDFLT
  5
E
102
{ACAD_REACTORS
330
C
102
}
330
C
100
AcDbDictionary
281
     1
  3
Normal
350
F
100
AcDbDictionaryWithDefault
340
F
  0
DICTIONARY
  5
47
102
{ACAD_REACTORS
330
C
102
}
330
C
100
AcDbDictionary
281
     1
  3
A0
350
48
  3
A1
350
49
  3
A2
350
4A
  3
A3
350
4B
  3
A4
350
4C
  3
A5
350
4D
  3
A6
350
4E
  3
A7
350
4F
  3
A8
350
50
  3
A9
350
51
  3
B0
350
52
  3
B1
350
53
  3
B2
350
54
  3
B3
350
55
  3
B4
350
56
  3
B5
350
57
  3
B6
350
58
  3
B7
350
59
  3
B8
350
5A
  3
B9
350
5B
  3
C0
350
5C
  3
C1
350
5D
  3
C2
350
5E
  3
C3
350
5F
  3
C4
350
60
  3
C5
350
61
  3
C6
350
62
  3
C7
350
63
  3
C8
350
64
  3
C9
350
65
  3
D0
350
66
  3
D1
350
67
  3
D2
350
68
  0
LAYOUT
  5
1E
102
{ACAD_REACTORS
330
1A
102
}
330
1A
100
AcDbPlotSettings
  1

  2
none_device
  4

  6

 40
0.0
 41
0.0
 42
0.0
 43
0.0
 44
0.0
 45
0.0
 46
0.0
 47
0.0
 48
0.0
 49
0.0
140
0.0
141
0.0
142
1.0
143
1.0
 70
   688
 72
     1
 73
     0
 74
     5
  7

 75
    16
147
1.0
148
0.0
149
0.0
100
AcDbLayout
  1
Layout1
 70
     1
 71
     1
 10
0.0
 20
0.0
 11
420.0
 21
297.0
 12
0.0
 22
0.0
 32
0.0
 14
1.0000000000E+20
 24
1.0000000000E+20
 34
1.0000000000E+20
 15
-1.0000000000E+20
 25
-1.0000000000E+20
 35
-1.0000000000E+20
146
0.0
 13
0.0
 23
0.0
 33
0.0
 16
1.0
 26
0.0
 36
0.0
 17
0.0
 27
1.0
 37
0.0
 76
     0
330
1B
  0
LAYOUT
  5
26
102
{ACAD_REACTORS
330
1A
102
}
330
1A
100
AcDbPlotSettings
  1

  2
none_device
  4

  6

 40
0.0
 41
0.0
 42
0.0
 43
0.0
 44
0.0
 45
0.0
 46
0.0
 47
0.0
 48
0.0
 49
0.0
140
0.0
141
0.0
142
1.0
143
1.0
 70
   688
 72
     1
 73
     0
 74
     5
  7

 75
    16
147
1.0
148
0.0
149
0.0
100
AcDbLayout
  1
Layout2
 70
     1
 71
     2
 10
0.0
 20
0.0
 11
0.0
 21
0.0
 12
0.0
 22
0.0
 32
0.0
 14
0.0
 24
0.0
 34
0.0
 15
0.0
 25
0.0
 35
0.0
146
0.0
 13
0.0
 23
0.0
 33
0.0
 16
1.0
 26
0.0
 36
0.0
 17
0.0
 27
1.0
 37
0.0
 76
     0
330
23
  0
LAYOUT
  5
22
102
{ACAD_REACTORS
330
1A
102
}
330
1A
100
AcDbPlotSettings
  1

  2
none_device
  4
Letter_(8.50_x_11.00_Inches)
  6

 40
6.35
 41
6.35
 42
6.35000508
 43
6.35000508
 44
215.9
 45
279.4
 46
0.0
 47
0.0
 48
0.0
 49
0.0
140
0.0
141
0.0
142
1.0
143
1.0
 70
  1712
 72
     1
 73
     0
 74
     0
  7

 75
     0
147
1.0
148
0.0
149
0.0
100
AcDbLayout
  1
Model
 70
     1
 71
     0
 10
0.0
 20
0.0
 11
297.0
 21
210.0
 12
0.0
 22
0.0
 32
0.0
 14
0.0
 24
0.0
 34
0.0
 15
297.0
 25
210.0
 35
0.0
146
0.0
 13
0.0
 23
0.0
 33
0.0
 16
1.0
 26
0.0
 36
0.0
 17
0.0
 27
1.0
 37
0.0
 76
     0
330
1F
331
29
  0
MLINESTYLE
  5
18
102
{ACAD_REACTORS
330
17
102
}
330
17
100
AcDbMlineStyle
  2
Standard
 70
     0
  3

 62
   256
 51
90.0
 52
90.0
 71
     2
 49
0.5
 62
   256
  6
BYLAYER
 49
-0.5
 62
   256
  6
BYLAYER
  0
ACDBPLACEHOLDER
  5
F
102
{ACAD_REACTORS
330
E
102
}
330
E
  0
SCALE
  5
48
102
{ACAD_REACTORS
330
47
102
}
330
47
100
AcDbScale
 70
     0
300
1:1
140
1.0
141
1.0
290
     1
  0
SCALE
  5
49
102
{ACAD_REACTORS
330
47
102
}
330
47
100
AcDbScale
 70
     0
300
1:2
140
1.0
141
2.0
290
     0
  0
SCALE
  5
4A
102
{ACAD_REACTORS
330
47
102
}
330
47
100
AcDbScale
 70
     0
300
1:4
140
1.0
141
4.0
290
     0
  0
SCALE
  5
4B
102
{ACAD_REACTORS
330
47
102
}
330
47
100
AcDbScale
 70
     0
300
1:5
140
1.0
141
5.0
290
     0
  0
SCALE
  5
4C
102
{ACAD_REACTORS
330
47
102
}
330
47
100
AcDbScale
 70
     0
300
1:8
140
1.0
141
8.0
290
     0
  0
SCALE
  5
4D
102
{ACAD_REACTORS
330
47
102
}
330
47
100
AcDbScale
 70
     0
300
1:10
140
1.0
141
10.0
290
     0
  0
SCALE
  5
4E
102
{ACAD_REACTORS
330
47
102
}
330
47
100
AcDbScale
 70
     0
300
1:16
140
1.0
141
16.0
290
     0
  0
SCALE
  5
4F
102
{ACAD_REACTORS
330
47
102
}
330
47
100
AcDbScale
 70
     0
300
1:20
140
1.0
141
20.0
290
     0
  0
SCALE
  5
50
102
{ACAD_REACTORS
330
47
102
}
330
47
100
AcDbScale
 70
     0
300
1:30
140
1.0
141
30.0
290
     0
  0
SCALE
  5
51
102
{ACAD_REACTORS
330
47
102
}
330
47
100
AcDbScale
 70
     0
300
1:40
140
1.0
141
40.0
290
     0
  0
SCALE
  5
52
102
{ACAD_REACTORS
330
47
102
}
330
47
100
AcDbScale
 70
     0
300
1:50
140
1.0
141
50.0
290
     0
  0
SCALE
  5
53
102
{ACAD_REACTORS
330
47
102
}
330
47
100
AcDbScale
 70
     0
300
1:100
140
1.0
141
100.0
290
     0
  0
SCALE
  5
54
102
{ACAD_REACTORS
330
47
102
}
330
47
100
AcDbScale
 70
     0
300
2:1
140
2.0
141
1.0
290
     0
  0
SCALE
  5
55
102
{ACAD_REACTORS
330
47
102
}
330
47
100
AcDbScale
 70
     0
300
4:1
140
4.0
141
1.0
290
     0
  0
SCALE
  5
56
102
{ACAD_REACTORS
330
47
102
}
330
47
100
AcDbScale
 70
     0
300
8:1
140
8.0
141
1.0
290
     0
  0
SCALE
  5
57
102
{ACAD_REACTORS
330
47
102
}
330
47
100
AcDbScale
 70
     0
300
10:1
140
10.0
141
1.0
290
     0
  0
SCALE
  5
58
102
{ACAD_REACTORS
330
47
102
}
330
47
100
AcDbScale
 70
     0
300
100:1
140
100.0
141
1.0
290
     0
  0
SCALE
  5
59
102
{ACAD_REACTORS
330
47
102
}
330
47
100
AcDbScale
 70
     0
300
1/128" = 1'-0"
140
0.0078125
141
12.0
290
     0
  0
SCALE
  5
5A
102
{ACAD_REACTORS
330
47
102
}
330
47
100
AcDbScale
 70
     0
300
1/64" = 1'-0"
140
0.015625
141
12.0
290
     0
  0
SCALE
  5
5B
102
{ACAD_REACTORS
330
47
102
}
330
47
100
AcDbScale
 70
     0
300
1/32" = 1'-0"
140
0.03125
141
12.0
290
     0
  0
SCALE
  5
5C
102
{ACAD_REACTORS
330
47
102
}
330
47
100
AcDbScale
 70
     0
300
1/16" = 1'-0"
140
0.0625
141
12.0
290
     0
  0
SCALE
  5
5D
102
{ACAD_REACTORS
330
47
102
}
330
47
100
AcDbScale
 70
     0
300
3/32" = 1'-0"
140
0.09375
141
12.0
290
     0
  0
SCALE
  5
5E
102
{ACAD_REACTORS
330
47
102
}
330
47
100
AcDbScale
 70
     0
300
1/8" = 1'-0"
140
0.125
141
12.0
290
     0
  0
SCALE
  5
5F
102
{ACAD_REACTORS
330
47
102
}
330
47
100
AcDbScale
 70
     0
300
3/16" = 1'-0"
140
0.1875
141
12.0
290
     0
  0
SCALE
  5
60
102
{ACAD_REACTORS
330
47
102
}
330
47
100
AcDbScale
 70
     0
300
1/4" = 1'-0"
140
0.25
141
12.0
290
     0
  0
SCALE
  5
61
102
{ACAD_REACTORS
330
47
102
}
330
47
100
AcDbScale
 70
     0
300
3/8" = 1'-0"
140
0.375
141
12.0
290
     0
  0
SCALE
  5
62
102
{ACAD_REACTORS
330
47
102
}
330
47
100
AcDbScale
 70
     0
300
1/2" = 1'-0"
140
0.5
141
12.0
290
     0
  0
SCALE
  5
63
102
{ACAD_REACTORS
330
47
102
}
330
47
100
AcDbScale
 70
     0
300
3/4" = 1'-0"
140
0.75
141
12.0
290
     0
  0
SCALE
  5
64
102
{ACAD_REACTORS
330
47
102
}
330
47
100
AcDbScale
 70
     0
300
1" = 1'-0"
140
1.0
141
12.0
290
     0
  0
SCALE
  5
65
102
{ACAD_REACTORS
330
47
102
}
330
47
100
AcDbScale
 70
     0
300
1-1/2" = 1'-0"
140
1.5
141
12.0
290
     0
  0
SCALE
  5
66
102
{ACAD_REACTORS
330
47
102
}
330
47
100
AcDbScale
 70
     0
300
3" = 1'-0"
140
3.0
141
12.0
290
     0
  0
SCALE
  5
67
102
{ACAD_REACTORS
330
47
102
}
330
47
100
AcDbScale
 70
     0
300
6" = 1'-0"
140
6.0
141
12.0
290
     0
  0
SCALE
  5
68
102
{ACAD_REACTORS
330
47
102
}
330
47
100
AcDbScale
 70
     0
300
1'-0" = 1'-0"
140
12.0
141
12.0
290
     0
  0
ENDSEC
  0
EOF
