  0
SECTION
  2
HEADER
  9
$ACADVER
  1
AC1027
  9
$ACADMAINTVER
 70
   125
  9
$DWGCODEPAGE
  3
ANSI_1252
  9
$LASTSAVEDBY
  1
fleminab
  9
$REQUIREDVERSIONS
160
                 0
  9
$INSBASE
 10
0.0
 20
0.0
 30
0.0
  9
$EXTMIN
 10
1.074373964097674
 20
0.8843558823890305
 30
-0.0000000349181948
  9
$EXTMAX
 10
7.09931210638939
 20
11.0046970370188
 30
0.0000000814935746
  9
$LIMMIN
 10
0.0
 20
0.0
  9
$LIMMAX
 10
12.0
 20
9.0
  9
$ORTHOMODE
 70
     0
  9
$REGENMODE
 70
     1
  9
$FILLMODE
 70
     1
  9
$QTEXTMODE
 70
     0
  9
$MIRRTEXT
 70
     0
  9
$LTSCALE
 40
1.0
  9
$ATTMODE
 70
     1
  9
$TEXTSIZE
 40
0.2
  9
$TRACEWID
 40
0.05
  9
$TEXTSTYLE
  7
Standard
  9
$CLAYER
  8
0
  9
$CELTYPE
  6
ByLayer
  9
$CECOLOR
 62
   256
  9
$CELTSCALE
 40
1.0
  9
$DISPSILH
 70
     0
  9
$DIMSCALE
 40
1.0
  9
$DIMASZ
 40
0.18
  9
$DIMEXO
 40
0.0625
  9
$DIMDLI
 40
0.38
  9
$DIMRND
 40
0.0
  9
$DIMDLE
 40
0.0
  9
$DIMEXE
 40
0.18
  9
$DIMTP
 40
0.0
  9
$DIMTM
 40
0.0
  9
$DIMTXT
 40
0.18
  9
$DIMCEN
 40
0.09
  9
$DIMTSZ
 40
0.0
  9
$DIMTOL
 70
     0
  9
$DIMLIM
 70
     0
  9
$DIMTIH
 70
     1
  9
$DIMTOH
 70
     1
  9
$DIMSE1
 70
     0
  9
$DIMSE2
 70
     0
  9
$DIMTAD
 70
     0
  9
$DIMZIN
 70
     0
  9
$DIMBLK
  1

  9
$DIMASO
 70
     1
  9
$DIMSHO
 70
     1
  9
$DIMPOST
  1

  9
$DIMAPOST
  1

  9
$DIMALT
 70
     0
  9
$DIMALTD
 70
     2
  9
$DIMALTF
 40
25.4
  9
$DIMLFAC
 40
1.0
  9
$DIMTOFL
 70
     0
  9
$DIMTVP
 40
0.0
  9
$DIMTIX
 70
     0
  9
$DIMSOXD
 70
     0
  9
$DIMSAH
 70
     0
  9
$DIMBLK1
  1

  9
$DIMBLK2
  1

  9
$DIMSTYLE
  2
Standard
  9
$DIMCLRD
 70
     0
  9
$DIMCLRE
 70
     0
  9
$DIMCLRT
 70
     0
  9
$DIMTFAC
 40
1.0
  9
$DIMGAP
 40
0.09
  9
$DIMJUST
 70
     0
  9
$DIMSD1
 70
     0
  9
$DIMSD2
 70
     0
  9
$DIMTOLJ
 70
     1
  9
$DIMTZIN
 70
     0
  9
$DIMALTZ
 70
     0
  9
$DIMALTTZ
 70
     0
  9
$DIMUPT
 70
     0
  9
$DIMDEC
 70
     4
  9
$DIMTDEC
 70
     4
  9
$DIMALTU
 70
     2
  9
$DIMALTTD
 70
     2
  9
$DIMTXSTY
  7
Standard
  9
$DIMAUNIT
 70
     0
  9
$DIMADEC
 70
     0
  9
$DIMALTRND
 40
0.0
  9
$DIMAZIN
 70
     0
  9
$DIMDSEP
 70
    46
  9
$DIMATFIT
 70
     3
  9
$DIMFRAC
 70
     0
  9
$DIMLDRBLK
  1

  9
$DIMLUNIT
 70
     2
  9
$DIMLWD
 70
    -2
  9
$DIMLWE
 70
    -2
  9
$DIMTMOVE
 70
     0
  9
$DIMFXL
 40
1.0
  9
$DIMFXLON
 70
     0
  9
$DIMJOGANG
 40
0.7853981633974483
  9
$DIMTFILL
 70
     0
  9
$DIMTFILLCLR
 70
     0
  9
$DIMARCSYM
 70
     0
  9
$DIMLTYPE
  6

  9
$DIMLTEX1
  6

  9
$DIMLTEX2
  6

  9
$DIMTXTDIRECTION
 70
     0
  9
$LUNITS
 70
     2
  9
$LUPREC
 70
     4
  9
$SKETCHINC
 40
0.1
  9
$FILLETRAD
 40
0.0
  9
$AUNITS
 70
     0
  9
$AUPREC
 70
     0
  9
$MENU
  1
.
  9
$ELEVATION
 40
0.0
  9
$PELEVATION
 40
0.0
  9
$THICKNESS
 40
0.0
  9
$LIMCHECK
 70
     0
  9
$CHAMFERA
 40
0.0
  9
$CHAMFERB
 40
0.0
  9
$CHAMFERC
 40
0.0
  9
$CHAMFERD
 40
0.0
  9
$SKPOLY
 70
     0
  9
$TDCREATE
 40
2458137.461307870
  9
$TDUCREATE
 40
2458137.002974537
  9
$TDUPDATE
 40
2458137.461990741
  9
$TDUUPDATE
 40
2458137.003657408
  9
$TDINDWG
 40
0.0006828704
  9
$TDUSRTIMER
 40
0.0006828704
  9
$USRTIMER
 70
     1
  9
$ANGBASE
 50
0.0
  9
$ANGDIR
 70
     0
  9
$PDMODE
 70
     0
  9
$PDSIZE
 40
0.0
  9
$PLINEWID
 40
0.0
  9
$SPLFRAME
 70
     0
  9
$SPLINETYPE
 70
     6
  9
$SPLINESEGS
 70
     8
  9
$HANDSEED
  5
410
  9
$SURFTAB1
 70
     6
  9
$SURFTAB2
 70
     6
  9
$SURFTYPE
 70
     6
  9
$SURFU
 70
     6
  9
$SURFV
 70
     6
  9
$UCSBASE
  2

  9
$UCSNAME
  2

  9
$UCSORG
 10
0.0
 20
0.0
 30
0.0
  9
$UCSXDIR
 10
1.0
 20
0.0
 30
0.0
  9
$UCSYDIR
 10
0.0
 20
1.0
 30
0.0
  9
$UCSORTHOREF
  2

  9
$UCSORTHOVIEW
 70
     0
  9
$UCSORGTOP
 10
0.0
 20
0.0
 30
0.0
  9
$UCSORGBOTTOM
 10
0.0
 20
0.0
 30
0.0
  9
$UCSORGLEFT
 10
0.0
 20
0.0
 30
0.0
  9
$UCSORGRIGHT
 10
0.0
 20
0.0
 30
0.0
  9
$UCSORGFRONT
 10
0.0
 20
0.0
 30
0.0
  9
$UCSORGBACK
 10
0.0
 20
0.0
 30
0.0
  9
$PUCSBASE
  2

  9
$PUCSNAME
  2

  9
$PUCSORG
 10
0.0
 20
0.0
 30
0.0
  9
$PUCSXDIR
 10
1.0
 20
0.0
 30
0.0
  9
$PUCSYDIR
 10
0.0
 20
1.0
 30
0.0
  9
$PUCSORTHOREF
  2

  9
$PUCSORTHOVIEW
 70
     0
  9
$PUCSORGTOP
 10
0.0
 20
0.0
 30
0.0
  9
$PUCSORGBOTTOM
 10
0.0
 20
0.0
 30
0.0
  9
$PUCSORGLEFT
 10
0.0
 20
0.0
 30
0.0
  9
$PUCSORGRIGHT
 10
0.0
 20
0.0
 30
0.0
  9
$PUCSORGFRONT
 10
0.0
 20
0.0
 30
0.0
  9
$PUCSORGBACK
 10
0.0
 20
0.0
 30
0.0
  9
$USERI1
 70
     0
  9
$USERI2
 70
     0
  9
$USERI3
 70
     0
  9
$USERI4
 70
     0
  9
$USERI5
 70
     0
  9
$USERR1
 40
0.0
  9
$USERR2
 40
0.0
  9
$USERR3
 40
0.0
  9
$USERR4
 40
0.0
  9
$USERR5
 40
0.0
  9
$WORLDVIEW
 70
     1
  9
$SHADEDGE
 70
     3
  9
$SHADEDIF
 70
    70
  9
$TILEMODE
 70
     1
  9
$MAXACTVP
 70
    64
  9
$PINSBASE
 10
0.0
 20
0.0
 30
0.0
  9
$PLIMCHECK
 70
     0
  9
$PEXTMIN
 10
1.000000000000000E+20
 20
1.000000000000000E+20
 30
1.000000000000000E+20
  9
$PEXTMAX
 10
-1.000000000000000E+20
 20
-1.000000000000000E+20
 30
-1.000000000000000E+20
  9
$PLIMMIN
 10
-0.7524054877282309
 20
-0.5025428238148726
  9
$PLIMMAX
 10
35.24759547345533
 20
23.49745621500156
  9
$UNITMODE
 70
     0
  9
$VISRETAIN
 70
     1
  9
$PLINEGEN
 70
     0
  9
$PSLTSCALE
 70
     1
  9
$TREEDEPTH
 70
  3020
  9
$CMLSTYLE
  2
Standard
  9
$CMLJUST
 70
     0
  9
$CMLSCALE
 40
1.0
  9
$PROXYGRAPHICS
 70
     1
  9
$MEASUREMENT
 70
     0
  9
$CELWEIGHT
370
    -1
  9
$ENDCAPS
280
     0
  9
$JOINSTYLE
280
     0
  9
$LWDISPLAY
290
     0
  9
$INSUNITS
 70
     1
  9
$HYPERLINKBASE
  1

  9
$STYLESHEET
  1

  9
$XEDIT
290
     1
  9
$CEPSNTYPE
380
     0
  9
$PSTYLEMODE
290
     1
  9
$FINGERPRINTGUID
  2
{B9DBA05A-0385-3B49-BF54-10544F34DD44}
  9
$VERSIONGUID
  2
{E11D649A-308D-5E4E-A85A-92E62AFCC78E}
  9
$EXTNAMES
290
     1
  9
$PSVPSCALE
 40
0.0
  9
$OLESTARTUP
290
     0
  9
$SORTENTS
280
   127
  9
$INDEXCTL
280
     0
  9
$HIDETEXT
280
     0
  9
$XCLIPFRAME
280
     0
  9
$HALOGAP
280
     0
  9
$OBSCOLOR
 70
   257
  9
$OBSLTYPE
280
     0
  9
$INTERSECTIONDISPLAY
280
     0
  9
$INTERSECTIONCOLOR
 70
   257
  9
$DIMASSOC
280
     1
  9
$PROJECTNAME
  1

  9
$CAMERADISPLAY
290
     0
  9
$LENSLENGTH
 40
50.0
  9
$CAMERAHEIGHT
 40
0.0
  9
$STEPSPERSEC
 40
2.0
  9
$STEPSIZE
 40
6.0
  9
$3DDWFPREC
 40
2.0
  9
$PSOLWIDTH
 40
0.25
  9
$PSOLHEIGHT
 40
4.0
  9
$LOFTANG1
 40
1.570796326794896
  9
$LOFTANG2
 40
1.570796326794896
  9
$LOFTMAG1
 40
0.0
  9
$LOFTMAG2
 40
0.0
  9
$LOFTPARAM
 70
     7
  9
$LOFTNORMALS
280
     1
  9
$LATITUDE
 40
37.795
  9
$LONGITUDE
 40
-122.394
  9
$NORTHDIRECTION
 40
0.0
  9
$TIMEZONE
 70
 -8000
  9
$LIGHTGLYPHDISPLAY
280
     1
  9
$TILEMODELIGHTSYNCH
280
     1
  9
$CMATERIAL
347
7F
  9
$SOLIDHIST
280
     1
  9
$SHOWHIST
280
     1
  9
$DWFFRAME
280
     2
  9
$DGNFRAME
280
     0
  9
$REALWORLDSCALE
290
     1
  9
$INTERFERECOLOR
 62
     1
  9
$INTERFEREOBJVS
345
8C
  9
$INTERFEREVPVS
346
A5
  9
$CSHADOW
280
     0
  9
$SHADOWPLANELOCATION
 40
0.0
  0
ENDSEC
  0
SECTION
  2
CLASSES
  0
CLASS
  1
ACDBDICTIONARYWDFLT
  2
AcDbDictionaryWithDefault
  3
ObjectDBX Classes
 90
        0
 91
        1
280
     0
281
     0
  0
CLASS
  1
PLOTSETTINGS
  2
AcDbPlotSettings
  3
ObjectDBX Classes
 90
        0
 91
        0
280
     0
281
     0
  0
CLASS
  1
MATERIAL
  2
AcDbMaterial
  3
ObjectDBX Classes
 90
     1153
 91
        3
280
     0
281
     0
  0
CLASS
  1
VISUALSTYLE
  2
AcDbVisualStyle
  3
ObjectDBX Classes
 90
     4095
 91
       26
280
     0
281
     0
  0
CLASS
  1
TABLESTYLE
  2
AcDbTableStyle
  3
ObjectDBX Classes
 90
     4095
 91
        1
280
     0
281
     0
  0
CLASS
  1
DICTIONARYVAR
  2
AcDbDictionaryVar
  3
ObjectDBX Classes
 90
        0
 91
       17
280
     0
281
     0
  0
CLASS
  1
SCALE
  2
AcDbScale
  3
ObjectDBX Classes
 90
     1153
 91
       17
280
     0
281
     0
  0
CLASS
  1
MLEADERSTYLE
  2
AcDbMLeaderStyle
  3
ACDB_MLEADERSTYLE_CLASS
 90
     4095
 91
        1
280
     0
281
     0
  0
CLASS
  1
ACDBSECTIONVIEWSTYLE
  2
AcDbSectionViewStyle
  3
ObjectDBX Classes
 90
     1025
 91
        1
280
     0
281
     0
  0
CLASS
  1
ACDBDETAILVIEWSTYLE
  2
AcDbDetailViewStyle
  3
ObjectDBX Classes
 90
     1025
 91
        1
280
     0
281
     0
  0
CLASS
  1
CELLSTYLEMAP
  2
AcDbCellStyleMap
  3
ObjectDBX Classes
 90
     1152
 91
        1
280
     0
281
     0
  0
ENDSEC
  0
SECTION
  2
TABLES
  0
TABLE
  2
VPORT
  5
19
330
0
100
AcDbSymbolTable
 70
     1
1001
ACAD
1000
DbSaveVer
1071
        5
  0
VPORT
  5
7D
330
19
100
AcDbSymbolTableRecord
100
AcDbViewportTableRecord
  2
*Active
 70
     0
 10
0.0
 20
0.0
 11
1.0
 21
1.0
 12
4.08684303524353
 22
5.944526459703915
 13
0.0
 23
0.0
 14
0.5
 24
0.5
 15
0.5
 25
0.5
 16
0.0
 26
0.0
 36
1.0
 17
0.0
 27
0.0
 37
0.0
 40
10.19280183115456
 41
2.292712066905615
 42
50.0
 43
0.0
 44
0.0
 50
0.0
 51
0.0
 71
     0
 72
  1000
 73
     1
 74
     3
 75
     0
 76
     0
 77
     0
 78
     0
281
     0
 65
     1
110
0.0
120
0.0
130
0.0
111
1.0
121
0.0
131
0.0
112
0.0
122
1.0
132
0.0
 79
     0
146
0.0
348
88
 60
     3
 61
     5
292
     1
282
     1
141
0.0
142
0.0
 63
   250
421
  3355443
1001
ACAD_NAV_VCDISPLAY
1070
     3
  0
ENDTAB
  0
TABLE
  2
LTYPE
  5
14
330
0
100
AcDbSymbolTable
 70
     1
  0
LTYPE
  5
15
330
14
100
AcDbSymbolTableRecord
100
AcDbLinetypeTableRecord
  2
ByBlock
 70
     0
  3

 72
    65
 73
     0
 40
0.0
  0
LTYPE
  5
16
330
14
100
AcDbSymbolTableRecord
100
AcDbLinetypeTableRecord
  2
ByLayer
 70
     0
  3

 72
    65
 73
     0
 40
0.0
  0
LTYPE
  5
8
330
14
100
AcDbSymbolTableRecord
100
AcDbLinetypeTableRecord
  2
Continuous
 70
     0
  3
Solid line
 72
    65
 73
     0
 40
0.0
  0
ENDTAB
  0
TABLE
  2
LAYER
  5
10
330
0
100
AcDbSymbolTable
 70
     4
  0
LAYER
  5
4
102
{ACAD_XDICTIONARY
360
3EB
102
}
330
10
100
AcDbSymbolTableRecord
100
AcDbLayerTableRecord
  2
0
 70
     0
 62
     7
  6
Continuous
370
    -3
390
5
347
81
348
0
  0
LAYER
  5
25
102
{ACAD_XDICTIONARY
360
3ED
102
}
330
10
100
AcDbSymbolTableRecord
100
AcDbLayerTableRecord
  2
Title Block
 70
     0
 62
     7
  6
Continuous
370
    -3
390
5
347
81
348
0
  0
LAYER
  5
CE
102
{ACAD_XDICTIONARY
360
3EF
102
}
330
10
100
AcDbSymbolTableRecord
100
AcDbLayerTableRecord
  2
PDF_Geometry
 70
     0
 62
     7
  6
Continuous
370
    -3
390
5
347
81
348
0
  0
LAYER
  5
CF
102
{ACAD_XDICTIONARY
360
3F1
102
}
330
10
100
AcDbSymbolTableRecord
100
AcDbLayerTableRecord
  2
PDF_Solid Fills
 70
     0
 62
     7
  6
Continuous
370
    -3
390
5
347
81
348
0
  0
ENDTAB
  0
TABLE
  2
STYLE
  5
11
330
0
100
AcDbSymbolTable
 70
     2
  0
STYLE
  5
12
330
11
100
AcDbSymbolTableRecord
100
AcDbTextStyleTableRecord
  2
Standard
 70
     0
 40
0.0
 41
1.0
 50
0.0
 71
     0
 42
0.2
  3
txt
  4

  0
STYLE
  5
27
330
11
100
AcDbSymbolTableRecord
100
AcDbTextStyleTableRecord
  2
Roman
 70
     0
 40
0.0
 41
1.0
 50
0.0
 71
     0
 42
0.2
  3
ROMANS.SHX
  4

  0
ENDTAB
  0
TABLE
  2
VIEW
  5
17
330
0
100
AcDbSymbolTable
 70
     0
  0
ENDTAB
  0
TABLE
  2
UCS
  5
18
330
0
100
AcDbSymbolTable
 70
     0
  0
ENDTAB
  0
TABLE
  2
APPID
  5
1B
330
0
100
AcDbSymbolTable
 70
     2
  0
APPID
  5
1C
330
1B
100
AcDbSymbolTableRecord
100
AcDbRegAppTableRecord
  2
ACAD
 70
     0
  0
APPID
  5
3F3
330
1B
100
AcDbSymbolTableRecord
100
AcDbRegAppTableRecord
  2
ACAD_NAV_VCDISPLAY
 70
     0
  0
ENDTAB
  0
TABLE
  2
DIMSTYLE
  5
1D
330
0
100
AcDbSymbolTable
 70
     1
100
AcDbDimStyleTable
 71
     0
  0
DIMSTYLE
105
23
330
1D
100
AcDbSymbolTableRecord
100
AcDbDimStyleTableRecord
  2
Standard
 70
     0
340
12
  0
ENDTAB
  0
TABLE
  2
BLOCK_RECORD
  5
1
330
0
100
AcDbSymbolTable
 70
     0
  0
BLOCK_RECORD
  5
2
330
1
100
AcDbSymbolTableRecord
100
AcDbBlockTableRecord
  2
*Model_Space
340
A
 70
     0
280
     1
281
     0
  0
BLOCK_RECORD
  5
C
330
1
100
AcDbSymbolTableRecord
100
AcDbBlockTableRecord
  2
*Paper_Space
340
F
 70
     0
280
     1
281
     0
  0
ENDTAB
  0
ENDSEC
  0
SECTION
  2
BLOCKS
  0
BLOCK
  5
3
330
2
100
AcDbEntity
  8
0
100
AcDbBlockBegin
  2
*Model_Space
 70
     2
 10
0.0
 20
0.0
 30
0.0
  3
*Model_Space
  1

  0
ENDBLK
  5
9
330
2
100
AcDbEntity
  8
0
100
AcDbBlockEnd
  0
BLOCK
  5
D
330
C
100
AcDbEntity
 67
     1
  8
0
100
AcDbBlockBegin
  2
*Paper_Space
 70
     0
 10
0.0
 20
0.0
 30
0.0
  3
*Paper_Space
  1

  0
ENDBLK
  5
E
330
C
100
AcDbEntity
 67
     1
  8
0
100
AcDbBlockEnd
  0
ENDSEC
  0
SECTION
  2
ENTITIES
  0
SOLID
  5
D0
330
2
100
AcDbEntity
  8
PDF_Solid Fills
440
 33554559
370
    35
100
AcDbTrace
 10
1.125833333333333
 20
10.87444444444444
 30
0.0
 11
1.0825
 21
10.87444444444444
 31
0.0
 12
1.104166666666666
 22
11.00361111111111
 32
0.0
 13
1.104166666666666
 23
11.00361111111111
 33
0.0
  0
SOLID
  5
D1
330
2
100
AcDbEntity
  8
PDF_Solid Fills
440
 33554559
370
    35
100
AcDbTrace
 10
1.125833333333333
 20
1.890277777777777
 30
0.0
 11
1.0825
 21
1.890277777777777
 31
0.0
 12
1.104166666666666
 22
1.761111111111111
 32
0.0
 13
1.104166666666666
 23
1.761111111111111
 33
0.0
  0
SOLID
  5
D2
330
2
100
AcDbEntity
  8
PDF_Solid Fills
440
 33554559
370
    35
100
AcDbTrace
 10
2.087499999999999
 20
0.933611111111111
 30
0.0
 11
2.087499999999999
 21
0.8902777777777776
 31
0.0
 12
1.957499999999999
 22
0.9119444444444443
 32
0.0
 13
1.957499999999999
 23
0.9119444444444443
 33
0.0
  0
SOLID
  5
D3
330
2
100
AcDbEntity
  8
PDF_Solid Fills
440
 33554559
370
    35
100
AcDbTrace
 10
6.9675
 20
0.933611111111111
 30
0.0
 11
6.9675
 21
0.8902777777777776
 31
0.0
 12
7.097499999999999
 22
0.9119444444444443
 32
0.0
 13
7.097499999999999
 23
0.9119444444444443
 33
0.0
  0
SPLINE
  5
D4
330
2
100
AcDbEntity
  8
PDF_Geometry
370
    35
100
AcDbSpline
210
0.0
220
0.0
230
1.0
 70
     8
 71
     3
 72
     8
 73
     4
 74
     0
 42
0.000000001
 43
0.0000000001
 40
0.0
 40
0.0
 40
0.0
 40
0.0
 40
1.0
 40
1.0
 40
1.0
 40
1.0
 10
6.060833333333333
 20
8.541944444444443
 30
0.0
 10
6.060083333333332
 20
8.566361111111111
 30
0.0
 10
6.041874999999999
 20
8.584527777777777
 30
0.0
 10
6.017499999999999
 20
8.585277777777777
 30
0.0
  0
LWPOLYLINE
  5
D5
330
2
100
AcDbEntity
  8
PDF_Geometry
370
    25
100
AcDbPolyline
 90
        6
 70
     0
 43
0.0
 10
6.077499999999999
 20
8.992777777777776
 10
6.071666666666666
 20
8.988611111111111
 10
6.054166666666666
 20
8.980277777777777
 10
6.035833333333332
 20
8.975277777777778
 10
6.017499999999999
 20
8.973611111111111
 10
5.9675
 20
8.973611111111111
  0
LWPOLYLINE
  5
D6
330
2
100
AcDbEntity
  8
PDF_Geometry
370
    25
100
AcDbPolyline
 90
        2
 70
     0
 43
0.0
 10
5.925833333333333
 20
8.973611111111111
 10
5.844166666666666
 20
8.973611111111111
  0
LWPOLYLINE
  5
D7
330
2
100
AcDbEntity
  8
PDF_Geometry
370
    25
100
AcDbPolyline
 90
        2
 70
     0
 43
0.0
 10
5.802499999999999
 20
8.973611111111111
 10
5.719999999999999
 20
8.973611111111111
  0
LWPOLYLINE
  5
D8
330
2
100
AcDbEntity
  8
PDF_Geometry
370
    25
100
AcDbPolyline
 90
        2
 70
     0
 43
0.0
 10
5.679166666666666
 20
8.973611111111111
 10
5.596666666666665
 20
8.973611111111111
  0
LWPOLYLINE
  5
D9
330
2
100
AcDbEntity
  8
PDF_Geometry
370
    25
100
AcDbPolyline
 90
        2
 70
     0
 43
0.0
 10
5.555833333333333
 20
8.973611111111111
 10
5.473333333333332
 20
8.973611111111111
  0
LWPOLYLINE
  5
DA
330
2
100
AcDbEntity
  8
PDF_Geometry
370
    25
100
AcDbPolyline
 90
        2
 70
     0
 43
0.0
 10
5.4325
 20
8.973611111111111
 10
5.349999999999999
 20
8.973611111111111
  0
LWPOLYLINE
  5
DB
330
2
100
AcDbEntity
  8
PDF_Geometry
370
    25
100
AcDbPolyline
 90
        2
 70
     0
 43
0.0
 10
5.309166666666666
 20
8.973611111111111
 10
5.226666666666666
 20
8.973611111111111
  0
LWPOLYLINE
  5
DC
330
2
100
AcDbEntity
  8
PDF_Geometry
370
    25
100
AcDbPolyline
 90
        2
 70
     0
 43
0.0
 10
5.185833333333333
 20
8.973611111111111
 10
5.103333333333332
 20
8.973611111111111
  0
LWPOLYLINE
  5
DD
330
2
100
AcDbEntity
  8
PDF_Geometry
370
    25
100
AcDbPolyline
 90
        2
 70
     0
 43
0.0
 10
5.0625
 20
8.973611111111111
 10
4.979999999999999
 20
8.973611111111111
  0
LWPOLYLINE
  5
DE
330
2
100
AcDbEntity
  8
PDF_Geometry
370
    25
100
AcDbPolyline
 90
        2
 70
     0
 43
0.0
 10
4.938333333333333
 20
8.973611111111111
 10
4.856666666666666
 20
8.973611111111111
  0
LWPOLYLINE
  5
DF
330
2
100
AcDbEntity
  8
PDF_Geometry
370
    25
100
AcDbPolyline
 90
        2
 70
     0
 43
0.0
 10
4.814999999999999
 20
8.973611111111111
 10
4.733333333333333
 20
8.973611111111111
  0
LWPOLYLINE
  5
E0
330
2
100
AcDbEntity
  8
PDF_Geometry
370
    25
100
AcDbPolyline
 90
        2
 70
     0
 43
0.0
 10
4.691666666666666
 20
8.973611111111111
 10
4.609999999999999
 20
8.973611111111111
  0
LWPOLYLINE
  5
E1
330
2
100
AcDbEntity
  8
PDF_Geometry
370
    25
100
AcDbPolyline
 90
        2
 70
     0
 43
0.0
 10
4.568333333333332
 20
8.973611111111111
 10
4.485833333333332
 20
8.973611111111111
  0
LWPOLYLINE
  5
E2
330
2
100
AcDbEntity
  8
PDF_Geometry
370
    25
100
AcDbPolyline
 90
        2
 70
     0
 43
0.0
 10
4.445
 20
8.973611111111111
 10
4.362499999999999
 20
8.973611111111111
  0
LWPOLYLINE
  5
E3
330
2
100
AcDbEntity
  8
PDF_Geometry
370
    25
100
AcDbPolyline
 90
        2
 70
     0
 43
0.0
 10
4.321666666666667
 20
8.973611111111111
 10
4.239166666666665
 20
8.973611111111111
  0
LWPOLYLINE
  5
E4
330
2
100
AcDbEntity
  8
PDF_Geometry
370
    25
100
AcDbPolyline
 90
        2
 70
     0
 43
0.0
 10
4.198333333333332
 20
8.973611111111111
 10
4.115833333333333
 20
8.973611111111111
  0
LWPOLYLINE
  5
E5
330
2
100
AcDbEntity
  8
PDF_Geometry
370
    25
100
AcDbPolyline
 90
        2
 70
     0
 43
0.0
 10
4.074999999999999
 20
8.973611111111111
 10
3.992499999999999
 20
8.973611111111111
  0
LWPOLYLINE
  5
E6
330
2
100
AcDbEntity
  8
PDF_Geometry
370
    25
100
AcDbPolyline
 90
        2
 70
     0
 43
0.0
 10
3.951666666666666
 20
8.973611111111111
 10
3.869166666666666
 20
8.973611111111111
  0
LWPOLYLINE
  5
E7
330
2
100
AcDbEntity
  8
PDF_Geometry
370
    25
100
AcDbPolyline
 90
        2
 70
     0
 43
0.0
 10
3.828333333333333
 20
8.973611111111111
 10
3.745833333333333
 20
8.973611111111111
  0
LWPOLYLINE
  5
E8
330
2
100
AcDbEntity
  8
PDF_Geometry
370
    25
100
AcDbPolyline
 90
        2
 70
     0
 43
0.0
 10
3.704999999999999
 20
8.973611111111111
 10
3.622499999999999
 20
8.973611111111111
  0
LWPOLYLINE
  5
E9
330
2
100
AcDbEntity
  8
PDF_Geometry
370
    25
100
AcDbPolyline
 90
        2
 70
     0
 43
0.0
 10
3.580833333333333
 20
8.973611111111111
 10
3.499166666666666
 20
8.973611111111111
  0
LWPOLYLINE
  5
EA
330
2
100
AcDbEntity
  8
PDF_Geometry
370
    25
100
AcDbPolyline
 90
        2
 70
     0
 43
0.0
 10
3.457499999999999
 20
8.973611111111111
 10
3.375833333333333
 20
8.973611111111111
  0
LWPOLYLINE
  5
EB
330
2
100
AcDbEntity
  8
PDF_Geometry
370
    25
100
AcDbPolyline
 90
        2
 70
     0
 43
0.0
 10
3.334166666666666
 20
8.973611111111111
 10
3.252499999999999
 20
8.973611111111111
  0
LWPOLYLINE
  5
EC
330
2
100
AcDbEntity
  8
PDF_Geometry
370
    25
100
AcDbPolyline
 90
        2
 70
     0
 43
0.0
 10
3.210833333333333
 20
8.973611111111111
 10
3.128333333333332
 20
8.973611111111111
  0
LWPOLYLINE
  5
ED
330
2
100
AcDbEntity
  8
PDF_Geometry
370
    25
100
AcDbPolyline
 90
        6
 70
     0
 43
0.0
 10
3.087499999999999
 20
8.973611111111111
 10
3.037499999999999
 20
8.973611111111111
 10
3.018333333333333
 20
8.975277777777778
 10
3.000833333333333
 20
8.980277777777777
 10
2.983333333333333
 20
8.988611111111111
 10
2.9775
 20
8.992777777777776
  0
LWPOLYLINE
  5
EE
330
2
100
AcDbEntity
  8
PDF_Geometry
370
    35
100
AcDbPolyline
 90
        2
 70
     0
 43
0.0
 10
6.017499999999999
 20
9.03861111111111
 10
3.037499999999999
 20
9.03861111111111
  0
LWPOLYLINE
  5
EF
330
2
100
AcDbEntity
  8
PDF_Geometry
370
    25
100
AcDbPolyline
 90
        6
 70
     0
 43
0.0
 10
2.929166666666666
 20
9.153611111111109
 10
2.929166666666666
 20
9.081944444444443
 10
2.930833333333333
 20
9.062777777777776
 10
2.935833333333333
 20
9.045277777777776
 10
2.944166666666666
 20
9.027777777777776
 10
2.948333333333333
 20
9.021944444444445
  0
SPLINE
  5
F1
330
2
100
AcDbEntity
  8
PDF_Geometry
370
    35
100
AcDbSpline
210
0.0
220
0.0
230
1.0
 70
     8
 71
     3
 72
     8
 73
     4
 74
     0
 42
0.000000001
 43
0.0000000001
 40
0.0
 40
0.0
 40
0.0
 40
0.0
 40
1.0
 40
1.0
 40
1.0
 40
1.0
 10
2.994166666666666
 20
9.081944444444443
 30
0.0
 10
2.995513888888888
 20
9.056583333333334
 30
0.0
 10
3.012013888888888
 20
9.039611111111108
 30
0.0
 10
3.037499999999999
 20
9.03861111111111
 30
0.0
  0
LWPOLYLINE
  5
F3
330
2
100
AcDbEntity
  8
PDF_Geometry
370
    25
100
AcDbPolyline
 90
        6
 70
     0
 43
0.0
 10
6.106666666666666
 20
9.021944444444445
 10
6.110833333333332
 20
9.027777777777776
 10
6.119166666666665
 20
9.045277777777776
 10
6.123333333333333
 20
9.062777777777776
 10
6.125
 20
9.081944444444443
 10
6.125
 20
9.153611111111109
  0
SPLINE
  5
F4
330
2
100
AcDbEntity
  8
PDF_Geometry
370
    35
100
AcDbSpline
210
0.0
220
0.0
230
1.0
 70
     8
 71
     3
 72
     8
 73
     4
 74
     0
 42
0.000000001
 43
0.0000000001
 40
0.0
 40
0.0
 40
0.0
 40
0.0
 40
1.0
 40
1.0
 40
1.0
 40
1.0
 10
6.017499999999999
 20
9.03861111111111
 30
0.0
 10
6.041874999999999
 20
9.039374999999997
 30
0.0
 10
6.060083333333332
 20
9.057541666666667
 30
0.0
 10
6.060833333333333
 20
9.081944444444443
 30
0.0
  0
LWPOLYLINE
  5
F5
330
2
100
AcDbEntity
  8
PDF_Geometry
370
    25
100
AcDbPolyline
 90
        6
 70
     0
 43
0.0
 10
5.9675
 20
6.05861111111111
 10
6.017499999999999
 20
6.05861111111111
 10
6.035833333333332
 20
6.060277777777778
 10
6.054166666666666
 20
6.065277777777777
 10
6.071666666666666
 20
6.072777777777777
 10
6.077499999999999
 20
6.076944444444444
  0
LWPOLYLINE
  5
F6
330
2
100
AcDbEntity
  8
PDF_Geometry
370
    25
100
AcDbPolyline
 90
        6
 70
     0
 43
0.0
 10
6.106666666666666
 20
6.106111111111111
 10
6.110833333333332
 20
6.112777777777777
 10
6.119166666666665
 20
6.129444444444444
 10
6.123333333333333
 20
6.147777777777777
 10
6.125
 20
6.16611111111111
 10
6.125
 20
6.238611111111111
  0
LWPOLYLINE
  5
F7
330
2
100
AcDbEntity
  8
PDF_Geometry
370
    25
100
AcDbPolyline
 90
        6
 70
     0
 43
0.0
 10
6.125
 20
4.582777777777777
 10
6.125
 20
4.654444444444444
 10
6.123333333333333
 20
4.67361111111111
 10
6.119166666666665
 20
4.691944444444444
 10
6.110833333333332
 20
4.70861111111111
 10
6.106666666666666
 20
4.715277777777777
  0
LWPOLYLINE
  5
F8
330
2
100
AcDbEntity
  8
PDF_Geometry
370
    25
100
AcDbPolyline
 90
        6
 70
     0
 43
0.0
 10
6.077499999999999
 20
4.743611111111111
 10
6.071666666666666
 20
4.74861111111111
 10
6.054166666666666
 20
4.756111111111111
 10
6.035833333333332
 20
4.761111111111111
 10
6.017499999999999
 20
4.762777777777777
 10
5.9675
 20
4.762777777777777
  0
SPLINE
  5
F9
330
2
100
AcDbEntity
  8
PDF_Geometry
370
    35
100
AcDbSpline
210
0.0
220
0.0
230
1.0
 70
     8
 71
     3
 72
     8
 73
     4
 74
     0
 42
0.000000001
 43
0.0000000001
 40
0.0
 40
0.0
 40
0.0
 40
0.0
 40
1.0
 40
1.0
 40
1.0
 40
1.0
 10
2.994166666666666
 20
3.251111111111111
 30
0.0
 10
2.995013888888888
 20
3.226027777777777
 30
0.0
 10
3.012416666666666
 20
3.208625
 30
0.0
 10
3.037499999999999
 20
3.207777777777777
 30
0.0
  0
LWPOLYLINE
  5
FA
330
2
100
AcDbEntity
  8
PDF_Geometry
370
    25
100
AcDbPolyline
 90
        6
 70
     0
 43
0.0
 10
3.087499999999999
 20
6.706111111111111
 10
3.037499999999999
 20
6.706111111111111
 10
3.018333333333333
 20
6.704444444444443
 10
3.000833333333333
 20
6.699444444444444
 10
2.983333333333333
 20
6.691944444444444
 10
2.9775
 20
6.687777777777776
  0
LWPOLYLINE
  5
FB
330
2
100
AcDbEntity
  8
PDF_Geometry
370
    25
100
AcDbPolyline
 90
        6
 70
     0
 43
0.0
 10
2.948333333333333
 20
6.65861111111111
 10
2.944166666666666
 20
6.651944444444444
 10
2.935833333333333
 20
6.635277777777777
 10
2.930833333333333
 20
6.616944444444443
 10
2.929166666666666
 20
6.598611111111111
 10
2.929166666666666
 20
6.52611111111111
  0
LWPOLYLINE
  5
FC
330
2
100
AcDbEntity
  8
PDF_Geometry
370
    25
100
AcDbPolyline
 90
        6
 70
     0
 43
0.0
 10
2.948333333333333
 20
3.743611111111111
 10
2.944166666666666
 20
3.736944444444444
 10
2.935833333333333
 20
3.719444444444444
 10
2.930833333333333
 20
3.701944444444444
 10
2.929166666666666
 20
3.682777777777777
 10
2.929166666666666
 20
3.61111111111111
  0
LWPOLYLINE
  5
FD
330
2
100
AcDbEntity
  8
PDF_Geometry
370
    25
100
AcDbPolyline
 90
        2
 70
     0
 43
0.0
 10
2.929166666666666
 20
3.569444444444444
 10
2.929166666666666
 20
3.487777777777777
  0
LWPOLYLINE
  5
FE
330
2
100
AcDbEntity
  8
PDF_Geometry
370
    25
100
AcDbPolyline
 90
        2
 70
     0
 43
0.0
 10
2.929166666666666
 20
3.446111111111111
 10
2.929166666666666
 20
3.364444444444444
  0
LWPOLYLINE
  5
FF
330
2
100
AcDbEntity
  8
PDF_Geometry
370
    25
100
AcDbPolyline
 90
        6
 70
     0
 43
0.0
 10
2.929166666666666
 20
3.322777777777777
 10
2.929166666666666
 20
3.251111111111111
 10
2.930833333333333
 20
3.231944444444444
 10
2.935833333333333
 20
3.214444444444444
 10
2.944166666666666
 20
3.196944444444444
 10
2.948333333333333
 20
3.19111111111111
  0
LWPOLYLINE
  5
100
330
2
100
AcDbEntity
  8
PDF_Geometry
370
    35
100
AcDbPolyline
 90
        2
 70
     0
 43
0.0
 10
6.060833333333333
 20
6.598611111111111
 10
6.060833333333333
 20
6.16611111111111
  0
LWPOLYLINE
  5
101
330
2
100
AcDbEntity
  8
PDF_Geometry
370
    35
100
AcDbPolyline
 90
        4
 70
     1
 43
0.0
 10
5.855833333333333
 20
5.85361111111111
 10
6.114166666666665
 20
5.85361111111111
 10
6.114166666666665
 20
5.939444444444444
 10
5.855833333333333
 20
5.939444444444444
  0
LWPOLYLINE
  5
102
330
2
100
AcDbEntity
  8
PDF_Geometry
370
    35
100
AcDbPolyline
 90
        4
 70
     1
 43
0.0
 10
5.272499999999999
 20
5.85361111111111
 10
5.531666666666666
 20
5.85361111111111
 10
5.531666666666666
 20
5.939444444444444
 10
5.272499999999999
 20
5.939444444444444
  0
LWPOLYLINE
  5
103
330
2
100
AcDbEntity
  8
PDF_Geometry
370
    35
100
AcDbPolyline
 90
        4
 70
     1
 43
0.0
 10
4.689166666666666
 20
5.85361111111111
 10
4.948333333333332
 20
5.85361111111111
 10
4.948333333333332
 20
5.939444444444444
 10
4.689166666666666
 20
5.939444444444444
  0
LWPOLYLINE
  5
104
330
2
100
AcDbEntity
  8
PDF_Geometry
370
    35
100
AcDbPolyline
 90
        4
 70
     1
 43
0.0
 10
4.106666666666666
 20
5.85361111111111
 10
4.365833333333333
 20
5.85361111111111
 10
4.365833333333333
 20
5.939444444444444
 10
4.106666666666666
 20
5.939444444444444
  0
LWPOLYLINE
  5
105
330
2
100
AcDbEntity
  8
PDF_Geometry
370
    35
100
AcDbPolyline
 90
        4
 70
     1
 43
0.0
 10
3.523333333333333
 20
5.85361111111111
 10
3.7825
 20
5.85361111111111
 10
3.7825
 20
5.939444444444444
 10
3.523333333333333
 20
5.939444444444444
  0
LWPOLYLINE
  5
106
330
2
100
AcDbEntity
  8
PDF_Geometry
370
    35
100
AcDbPolyline
 90
        4
 70
     1
 43
0.0
 10
3.199166666666666
 20
5.85361111111111
 10
3.199166666666666
 20
5.939444444444444
 10
2.939999999999999
 20
5.939444444444444
 10
2.939999999999999
 20
5.85361111111111
  0
LWPOLYLINE
  5
10D
330
2
100
AcDbEntity
  8
PDF_Geometry
370
    25
100
AcDbPolyline
 90
        6
 70
     0
 43
0.0
 10
6.077499999999999
 20
6.687777777777776
 10
6.071666666666666
 20
6.691944444444444
 10
6.054166666666666
 20
6.699444444444444
 10
6.035833333333332
 20
6.704444444444443
 10
6.017499999999999
 20
6.706111111111111
 10
5.9675
 20
6.706111111111111
  0
LWPOLYLINE
  5
10E
330
2
100
AcDbEntity
  8
PDF_Geometry
370
    25
100
AcDbPolyline
 90
        2
 70
     0
 43
0.0
 10
5.925833333333333
 20
6.706111111111111
 10
5.844166666666666
 20
6.706111111111111
  0
LWPOLYLINE
  5
10F
330
2
100
AcDbEntity
  8
PDF_Geometry
370
    25
100
AcDbPolyline
 90
        2
 70
     0
 43
0.0
 10
5.802499999999999
 20
6.706111111111111
 10
5.719999999999999
 20
6.706111111111111
  0
LWPOLYLINE
  5
110
330
2
100
AcDbEntity
  8
PDF_Geometry
370
    25
100
AcDbPolyline
 90
        2
 70
     0
 43
0.0
 10
5.679166666666666
 20
6.706111111111111
 10
5.596666666666665
 20
6.706111111111111
  0
LWPOLYLINE
  5
111
330
2
100
AcDbEntity
  8
PDF_Geometry
370
    25
100
AcDbPolyline
 90
        2
 70
     0
 43
0.0
 10
5.555833333333333
 20
6.706111111111111
 10
5.473333333333332
 20
6.706111111111111
  0
LWPOLYLINE
  5
112
330
2
100
AcDbEntity
  8
PDF_Geometry
370
    25
100
AcDbPolyline
 90
        2
 70
     0
 43
0.0
 10
5.4325
 20
6.706111111111111
 10
5.349999999999999
 20
6.706111111111111
  0
LWPOLYLINE
  5
113
330
2
100
AcDbEntity
  8
PDF_Geometry
370
    25
100
AcDbPolyline
 90
        2
 70
     0
 43
0.0
 10
5.309166666666666
 20
6.706111111111111
 10
5.226666666666666
 20
6.706111111111111
  0
LWPOLYLINE
  5
114
330
2
100
AcDbEntity
  8
PDF_Geometry
370
    25
100
AcDbPolyline
 90
        2
 70
     0
 43
0.0
 10
5.185833333333333
 20
6.706111111111111
 10
5.103333333333332
 20
6.706111111111111
  0
LWPOLYLINE
  5
115
330
2
100
AcDbEntity
  8
PDF_Geometry
370
    25
100
AcDbPolyline
 90
        2
 70
     0
 43
0.0
 10
5.0625
 20
6.706111111111111
 10
4.979999999999999
 20
6.706111111111111
  0
LWPOLYLINE
  5
116
330
2
100
AcDbEntity
  8
PDF_Geometry
370
    25
100
AcDbPolyline
 90
        2
 70
     0
 43
0.0
 10
4.938333333333333
 20
6.706111111111111
 10
4.856666666666666
 20
6.706111111111111
  0
LWPOLYLINE
  5
117
330
2
100
AcDbEntity
  8
PDF_Geometry
370
    25
100
AcDbPolyline
 90
        2
 70
     0
 43
0.0
 10
4.814999999999999
 20
6.706111111111111
 10
4.733333333333333
 20
6.706111111111111
  0
LWPOLYLINE
  5
118
330
2
100
AcDbEntity
  8
PDF_Geometry
370
    25
100
AcDbPolyline
 90
        2
 70
     0
 43
0.0
 10
4.691666666666666
 20
6.706111111111111
 10
4.609999999999999
 20
6.706111111111111
  0
LWPOLYLINE
  5
119
330
2
100
AcDbEntity
  8
PDF_Geometry
370
    25
100
AcDbPolyline
 90
        2
 70
     0
 43
0.0
 10
4.568333333333332
 20
6.706111111111111
 10
4.485833333333332
 20
6.706111111111111
  0
LWPOLYLINE
  5
11A
330
2
100
AcDbEntity
  8
PDF_Geometry
370
    25
100
AcDbPolyline
 90
        2
 70
     0
 43
0.0
 10
4.445
 20
6.706111111111111
 10
4.362499999999999
 20
6.706111111111111
  0
LWPOLYLINE
  5
11B
330
2
100
AcDbEntity
  8
PDF_Geometry
370
    25
100
AcDbPolyline
 90
        2
 70
     0
 43
0.0
 10
4.321666666666667
 20
6.706111111111111
 10
4.239166666666665
 20
6.706111111111111
  0
LWPOLYLINE
  5
11C
330
2
100
AcDbEntity
  8
PDF_Geometry
370
    25
100
AcDbPolyline
 90
        2
 70
     0
 43
0.0
 10
4.198333333333332
 20
6.706111111111111
 10
4.115833333333333
 20
6.706111111111111
  0
LWPOLYLINE
  5
11D
330
2
100
AcDbEntity
  8
PDF_Geometry
370
    25
100
AcDbPolyline
 90
        2
 70
     0
 43
0.0
 10
4.074999999999999
 20
6.706111111111111
 10
3.992499999999999
 20
6.706111111111111
  0
LWPOLYLINE
  5
11E
330
2
100
AcDbEntity
  8
PDF_Geometry
370
    25
100
AcDbPolyline
 90
        2
 70
     0
 43
0.0
 10
3.951666666666666
 20
6.706111111111111
 10
3.869166666666666
 20
6.706111111111111
  0
LWPOLYLINE
  5
11F
330
2
100
AcDbEntity
  8
PDF_Geometry
370
    25
100
AcDbPolyline
 90
        2
 70
     0
 43
0.0
 10
3.828333333333333
 20
6.706111111111111
 10
3.745833333333333
 20
6.706111111111111
  0
LWPOLYLINE
  5
120
330
2
100
AcDbEntity
  8
PDF_Geometry
370
    25
100
AcDbPolyline
 90
        2
 70
     0
 43
0.0
 10
3.704999999999999
 20
6.706111111111111
 10
3.622499999999999
 20
6.706111111111111
  0
LWPOLYLINE
  5
121
330
2
100
AcDbEntity
  8
PDF_Geometry
370
    25
100
AcDbPolyline
 90
        2
 70
     0
 43
0.0
 10
3.580833333333333
 20
6.706111111111111
 10
3.499166666666666
 20
6.706111111111111
  0
LWPOLYLINE
  5
122
330
2
100
AcDbEntity
  8
PDF_Geometry
370
    25
100
AcDbPolyline
 90
        2
 70
     0
 43
0.0
 10
3.457499999999999
 20
6.706111111111111
 10
3.375833333333333
 20
6.706111111111111
  0
LWPOLYLINE
  5
123
330
2
100
AcDbEntity
  8
PDF_Geometry
370
    25
100
AcDbPolyline
 90
        2
 70
     0
 43
0.0
 10
3.334166666666666
 20
6.706111111111111
 10
3.252499999999999
 20
6.706111111111111
  0
LWPOLYLINE
  5
124
330
2
100
AcDbEntity
  8
PDF_Geometry
370
    25
100
AcDbPolyline
 90
        2
 70
     0
 43
0.0
 10
3.210833333333333
 20
6.706111111111111
 10
3.128333333333332
 20
6.706111111111111
  0
LWPOLYLINE
  5
126
330
2
100
AcDbEntity
  8
PDF_Geometry
370
    35
100
AcDbPolyline
 90
        2
 70
     0
 43
0.0
 10
6.017499999999999
 20
6.641944444444443
 10
3.037499999999999
 20
6.641944444444443
  0
LWPOLYLINE
  5
127
330
2
100
AcDbEntity
  8
PDF_Geometry
370
    25
100
AcDbPolyline
 90
        6
 70
     0
 43
0.0
 10
6.125
 20
6.52611111111111
 10
6.125
 20
6.598611111111111
 10
6.123333333333333
 20
6.616944444444443
 10
6.119166666666665
 20
6.635277777777777
 10
6.110833333333332
 20
6.651944444444444
 10
6.106666666666666
 20
6.65861111111111
  0
SPLINE
  5
129
330
2
100
AcDbEntity
  8
PDF_Geometry
370
    35
100
AcDbSpline
210
0.0
220
0.0
230
1.0
 70
     8
 71
     3
 72
     8
 73
     4
 74
     0
 42
0.000000001
 43
0.0000000001
 40
0.0
 40
0.0
 40
0.0
 40
0.0
 40
1.0
 40
1.0
 40
1.0
 40
1.0
 10
6.060833333333333
 20
6.598611111111111
 30
0.0
 10
6.060888888888888
 20
6.621597222222221
 30
0.0
 10
6.040472222222221
 20
6.641999999999999
 30
0.0
 10
6.017499999999999
 20
6.641944444444443
 30
0.0
  0
LWPOLYLINE
  5
12A
330
2
100
AcDbEntity
  8
PDF_Geometry
370
    25
100
AcDbPolyline
 90
        6
 70
     0
 43
0.0
 10
6.077499999999999
 20
7.049444444444444
 10
6.071666666666666
 20
7.044444444444444
 10
6.054166666666666
 20
7.036944444444444
 10
6.035833333333332
 20
7.031944444444444
 10
6.017499999999999
 20
7.030277777777777
 10
5.9675
 20
7.030277777777777
  0
LWPOLYLINE
  5
12B
330
2
100
AcDbEntity
  8
PDF_Geometry
370
    25
100
AcDbPolyline
 90
        2
 70
     0
 43
0.0
 10
5.925833333333333
 20
7.030277777777777
 10
5.844166666666666
 20
7.030277777777777
  0
LWPOLYLINE
  5
12C
330
2
100
AcDbEntity
  8
PDF_Geometry
370
    25
100
AcDbPolyline
 90
        2
 70
     0
 43
0.0
 10
5.802499999999999
 20
7.030277777777777
 10
5.719999999999999
 20
7.030277777777777
  0
LWPOLYLINE
  5
12D
330
2
100
AcDbEntity
  8
PDF_Geometry
370
    25
100
AcDbPolyline
 90
        2
 70
     0
 43
0.0
 10
5.679166666666666
 20
7.030277777777777
 10
5.596666666666665
 20
7.030277777777777
  0
LWPOLYLINE
  5
12E
330
2
100
AcDbEntity
  8
PDF_Geometry
370
    25
100
AcDbPolyline
 90
        2
 70
     0
 43
0.0
 10
5.555833333333333
 20
7.030277777777777
 10
5.473333333333332
 20
7.030277777777777
  0
LWPOLYLINE
  5
12F
330
2
100
AcDbEntity
  8
PDF_Geometry
370
    25
100
AcDbPolyline
 90
        2
 70
     0
 43
0.0
 10
5.4325
 20
7.030277777777777
 10
5.349999999999999
 20
7.030277777777777
  0
LWPOLYLINE
  5
130
330
2
100
AcDbEntity
  8
PDF_Geometry
370
    25
100
AcDbPolyline
 90
        2
 70
     0
 43
0.0
 10
5.309166666666666
 20
7.030277777777777
 10
5.226666666666666
 20
7.030277777777777
  0
LWPOLYLINE
  5
131
330
2
100
AcDbEntity
  8
PDF_Geometry
370
    25
100
AcDbPolyline
 90
        2
 70
     0
 43
0.0
 10
5.185833333333333
 20
7.030277777777777
 10
5.103333333333332
 20
7.030277777777777
  0
LWPOLYLINE
  5
132
330
2
100
AcDbEntity
  8
PDF_Geometry
370
    25
100
AcDbPolyline
 90
        2
 70
     0
 43
0.0
 10
5.0625
 20
7.030277777777777
 10
4.979999999999999
 20
7.030277777777777
  0
LWPOLYLINE
  5
133
330
2
100
AcDbEntity
  8
PDF_Geometry
370
    25
100
AcDbPolyline
 90
        2
 70
     0
 43
0.0
 10
4.938333333333333
 20
7.030277777777777
 10
4.856666666666666
 20
7.030277777777777
  0
LWPOLYLINE
  5
134
330
2
100
AcDbEntity
  8
PDF_Geometry
370
    25
100
AcDbPolyline
 90
        2
 70
     0
 43
0.0
 10
4.814999999999999
 20
7.030277777777777
 10
4.733333333333333
 20
7.030277777777777
  0
LWPOLYLINE
  5
135
330
2
100
AcDbEntity
  8
PDF_Geometry
370
    25
100
AcDbPolyline
 90
        2
 70
     0
 43
0.0
 10
4.691666666666666
 20
7.030277777777777
 10
4.609999999999999
 20
7.030277777777777
  0
LWPOLYLINE
  5
136
330
2
100
AcDbEntity
  8
PDF_Geometry
370
    25
100
AcDbPolyline
 90
        2
 70
     0
 43
0.0
 10
4.568333333333332
 20
7.030277777777777
 10
4.485833333333332
 20
7.030277777777777
  0
LWPOLYLINE
  5
137
330
2
100
AcDbEntity
  8
PDF_Geometry
370
    25
100
AcDbPolyline
 90
        2
 70
     0
 43
0.0
 10
4.445
 20
7.030277777777777
 10
4.362499999999999
 20
7.030277777777777
  0
LWPOLYLINE
  5
138
330
2
100
AcDbEntity
  8
PDF_Geometry
370
    25
100
AcDbPolyline
 90
        2
 70
     0
 43
0.0
 10
4.321666666666667
 20
7.030277777777777
 10
4.239166666666665
 20
7.030277777777777
  0
LWPOLYLINE
  5
139
330
2
100
AcDbEntity
  8
PDF_Geometry
370
    25
100
AcDbPolyline
 90
        2
 70
     0
 43
0.0
 10
4.198333333333332
 20
7.030277777777777
 10
4.115833333333333
 20
7.030277777777777
  0
LWPOLYLINE
  5
13A
330
2
100
AcDbEntity
  8
PDF_Geometry
370
    25
100
AcDbPolyline
 90
        2
 70
     0
 43
0.0
 10
4.074999999999999
 20
7.030277777777777
 10
3.992499999999999
 20
7.030277777777777
  0
LWPOLYLINE
  5
13B
330
2
100
AcDbEntity
  8
PDF_Geometry
370
    25
100
AcDbPolyline
 90
        2
 70
     0
 43
0.0
 10
3.951666666666666
 20
7.030277777777777
 10
3.869166666666666
 20
7.030277777777777
  0
LWPOLYLINE
  5
13C
330
2
100
AcDbEntity
  8
PDF_Geometry
370
    25
100
AcDbPolyline
 90
        2
 70
     0
 43
0.0
 10
3.828333333333333
 20
7.030277777777777
 10
3.745833333333333
 20
7.030277777777777
  0
LWPOLYLINE
  5
13D
330
2
100
AcDbEntity
  8
PDF_Geometry
370
    25
100
AcDbPolyline
 90
        2
 70
     0
 43
0.0
 10
3.704999999999999
 20
7.030277777777777
 10
3.622499999999999
 20
7.030277777777777
  0
LWPOLYLINE
  5
13E
330
2
100
AcDbEntity
  8
PDF_Geometry
370
    25
100
AcDbPolyline
 90
        2
 70
     0
 43
0.0
 10
3.580833333333333
 20
7.030277777777777
 10
3.499166666666666
 20
7.030277777777777
  0
LWPOLYLINE
  5
13F
330
2
100
AcDbEntity
  8
PDF_Geometry
370
    25
100
AcDbPolyline
 90
        2
 70
     0
 43
0.0
 10
3.457499999999999
 20
7.030277777777777
 10
3.375833333333333
 20
7.030277777777777
  0
LWPOLYLINE
  5
140
330
2
100
AcDbEntity
  8
PDF_Geometry
370
    25
100
AcDbPolyline
 90
        2
 70
     0
 43
0.0
 10
3.334166666666666
 20
7.030277777777777
 10
3.252499999999999
 20
7.030277777777777
  0
LWPOLYLINE
  5
141
330
2
100
AcDbEntity
  8
PDF_Geometry
370
    25
100
AcDbPolyline
 90
        2
 70
     0
 43
0.0
 10
3.210833333333333
 20
7.030277777777777
 10
3.128333333333332
 20
7.030277777777777
  0
LWPOLYLINE
  5
142
330
2
100
AcDbEntity
  8
PDF_Geometry
370
    25
100
AcDbPolyline
 90
        6
 70
     0
 43
0.0
 10
3.087499999999999
 20
7.030277777777777
 10
3.037499999999999
 20
7.030277777777777
 10
3.018333333333333
 20
7.031944444444444
 10
3.000833333333333
 20
7.036944444444444
 10
2.983333333333333
 20
7.044444444444444
 10
2.9775
 20
7.049444444444444
  0
LWPOLYLINE
  5
143
330
2
100
AcDbEntity
  8
PDF_Geometry
370
    35
100
AcDbPolyline
 90
        2
 70
     0
 43
0.0
 10
6.017499999999999
 20
7.095277777777777
 10
3.037499999999999
 20
7.095277777777777
  0
LWPOLYLINE
  5
144
330
2
100
AcDbEntity
  8
PDF_Geometry
370
    25
100
AcDbPolyline
 90
        6
 70
     0
 43
0.0
 10
2.929166666666666
 20
7.210277777777776
 10
2.929166666666666
 20
7.13861111111111
 10
2.930833333333333
 20
7.119444444444444
 10
2.935833333333333
 20
7.10111111111111
 10
2.944166666666666
 20
7.084444444444443
 10
2.948333333333333
 20
7.077777777777777
  0
SPLINE
  5
146
330
2
100
AcDbEntity
  8
PDF_Geometry
370
    35
100
AcDbSpline
210
0.0
220
0.0
230
1.0
 70
     8
 71
     3
 72
     8
 73
     4
 74
     0
 42
0.000000001
 43
0.0000000001
 40
0.0
 40
0.0
 40
0.0
 40
0.0
 40
1.0
 40
1.0
 40
1.0
 40
1.0
 10
2.994166666666666
 20
7.13861111111111
 30
0.0
 10
2.995013888888888
 20
7.113527777777778
 30
0.0
 10
3.012416666666666
 20
7.096124999999998
 30
0.0
 10
3.037499999999999
 20
7.095277777777777
 30
0.0
  0
LWPOLYLINE
  5
148
330
2
100
AcDbEntity
  8
PDF_Geometry
370
    25
100
AcDbPolyline
 90
        6
 70
     0
 43
0.0
 10
6.106666666666666
 20
7.077777777777777
 10
6.110833333333332
 20
7.084444444444443
 10
6.119166666666665
 20
7.10111111111111
 10
6.123333333333333
 20
7.119444444444444
 10
6.125
 20
7.13861111111111
 10
6.125
 20
7.210277777777776
  0
SPLINE
  5
149
330
2
100
AcDbEntity
  8
PDF_Geometry
370
    35
100
AcDbSpline
210
0.0
220
0.0
230
1.0
 70
     8
 71
     3
 72
     8
 73
     4
 74
     0
 42
0.000000001
 43
0.0000000001
 40
0.0
 40
0.0
 40
0.0
 40
0.0
 40
1.0
 40
1.0
 40
1.0
 40
1.0
 10
6.017499999999999
 20
7.095277777777777
 30
0.0
 10
6.041583333333332
 20
7.095944444444443
 30
0.0
 10
6.060583333333333
 20
7.114486111111111
 30
0.0
 10
6.060833333333333
 20
7.13861111111111
 30
0.0
  0
LWPOLYLINE
  5
14A
330
2
100
AcDbEntity
  8
PDF_Geometry
370
    25
100
AcDbPolyline
 90
        6
 70
     0
 43
0.0
 10
6.077499999999999
 20
7.659444444444444
 10
6.071666666666666
 20
7.663611111111111
 10
6.054166666666666
 20
7.671944444444443
 10
6.035833333333332
 20
7.676111111111111
 10
6.017499999999999
 20
7.677777777777777
 10
5.9675
 20
7.677777777777777
  0
LWPOLYLINE
  5
14B
330
2
100
AcDbEntity
  8
PDF_Geometry
370
    25
100
AcDbPolyline
 90
        2
 70
     0
 43
0.0
 10
5.925833333333333
 20
7.677777777777777
 10
5.844166666666666
 20
7.677777777777777
  0
LWPOLYLINE
  5
14C
330
2
100
AcDbEntity
  8
PDF_Geometry
370
    25
100
AcDbPolyline
 90
        2
 70
     0
 43
0.0
 10
5.802499999999999
 20
7.677777777777777
 10
5.719999999999999
 20
7.677777777777777
  0
LWPOLYLINE
  5
14D
330
2
100
AcDbEntity
  8
PDF_Geometry
370
    25
100
AcDbPolyline
 90
        2
 70
     0
 43
0.0
 10
5.679166666666666
 20
7.677777777777777
 10
5.596666666666665
 20
7.677777777777777
  0
LWPOLYLINE
  5
14E
330
2
100
AcDbEntity
  8
PDF_Geometry
370
    25
100
AcDbPolyline
 90
        2
 70
     0
 43
0.0
 10
5.555833333333333
 20
7.677777777777777
 10
5.473333333333332
 20
7.677777777777777
  0
LWPOLYLINE
  5
14F
330
2
100
AcDbEntity
  8
PDF_Geometry
370
    25
100
AcDbPolyline
 90
        2
 70
     0
 43
0.0
 10
5.4325
 20
7.677777777777777
 10
5.349999999999999
 20
7.677777777777777
  0
LWPOLYLINE
  5
150
330
2
100
AcDbEntity
  8
PDF_Geometry
370
    25
100
AcDbPolyline
 90
        2
 70
     0
 43
0.0
 10
5.309166666666666
 20
7.677777777777777
 10
5.226666666666666
 20
7.677777777777777
  0
LWPOLYLINE
  5
151
330
2
100
AcDbEntity
  8
PDF_Geometry
370
    25
100
AcDbPolyline
 90
        2
 70
     0
 43
0.0
 10
5.185833333333333
 20
7.677777777777777
 10
5.103333333333332
 20
7.677777777777777
  0
LWPOLYLINE
  5
152
330
2
100
AcDbEntity
  8
PDF_Geometry
370
    25
100
AcDbPolyline
 90
        2
 70
     0
 43
0.0
 10
5.0625
 20
7.677777777777777
 10
4.979999999999999
 20
7.677777777777777
  0
LWPOLYLINE
  5
153
330
2
100
AcDbEntity
  8
PDF_Geometry
370
    25
100
AcDbPolyline
 90
        2
 70
     0
 43
0.0
 10
4.938333333333333
 20
7.677777777777777
 10
4.856666666666666
 20
7.677777777777777
  0
LWPOLYLINE
  5
154
330
2
100
AcDbEntity
  8
PDF_Geometry
370
    25
100
AcDbPolyline
 90
        2
 70
     0
 43
0.0
 10
4.814999999999999
 20
7.677777777777777
 10
4.733333333333333
 20
7.677777777777777
  0
LWPOLYLINE
  5
155
330
2
100
AcDbEntity
  8
PDF_Geometry
370
    25
100
AcDbPolyline
 90
        2
 70
     0
 43
0.0
 10
4.691666666666666
 20
7.677777777777777
 10
4.609999999999999
 20
7.677777777777777
  0
LWPOLYLINE
  5
156
330
2
100
AcDbEntity
  8
PDF_Geometry
370
    25
100
AcDbPolyline
 90
        2
 70
     0
 43
0.0
 10
4.568333333333332
 20
7.677777777777777
 10
4.485833333333332
 20
7.677777777777777
  0
LWPOLYLINE
  5
157
330
2
100
AcDbEntity
  8
PDF_Geometry
370
    25
100
AcDbPolyline
 90
        2
 70
     0
 43
0.0
 10
4.445
 20
7.677777777777777
 10
4.362499999999999
 20
7.677777777777777
  0
LWPOLYLINE
  5
158
330
2
100
AcDbEntity
  8
PDF_Geometry
370
    25
100
AcDbPolyline
 90
        2
 70
     0
 43
0.0
 10
4.321666666666667
 20
7.677777777777777
 10
4.239166666666665
 20
7.677777777777777
  0
LWPOLYLINE
  5
159
330
2
100
AcDbEntity
  8
PDF_Geometry
370
    25
100
AcDbPolyline
 90
        2
 70
     0
 43
0.0
 10
4.198333333333332
 20
7.677777777777777
 10
4.115833333333333
 20
7.677777777777777
  0
LWPOLYLINE
  5
15A
330
2
100
AcDbEntity
  8
PDF_Geometry
370
    25
100
AcDbPolyline
 90
        2
 70
     0
 43
0.0
 10
4.074999999999999
 20
7.677777777777777
 10
3.992499999999999
 20
7.677777777777777
  0
LWPOLYLINE
  5
15B
330
2
100
AcDbEntity
  8
PDF_Geometry
370
    25
100
AcDbPolyline
 90
        2
 70
     0
 43
0.0
 10
3.951666666666666
 20
7.677777777777777
 10
3.869166666666666
 20
7.677777777777777
  0
LWPOLYLINE
  5
15C
330
2
100
AcDbEntity
  8
PDF_Geometry
370
    25
100
AcDbPolyline
 90
        2
 70
     0
 43
0.0
 10
3.828333333333333
 20
7.677777777777777
 10
3.745833333333333
 20
7.677777777777777
  0
LWPOLYLINE
  5
15D
330
2
100
AcDbEntity
  8
PDF_Geometry
370
    25
100
AcDbPolyline
 90
        2
 70
     0
 43
0.0
 10
3.704999999999999
 20
7.677777777777777
 10
3.622499999999999
 20
7.677777777777777
  0
LWPOLYLINE
  5
15E
330
2
100
AcDbEntity
  8
PDF_Geometry
370
    25
100
AcDbPolyline
 90
        2
 70
     0
 43
0.0
 10
3.580833333333333
 20
7.677777777777777
 10
3.499166666666666
 20
7.677777777777777
  0
LWPOLYLINE
  5
15F
330
2
100
AcDbEntity
  8
PDF_Geometry
370
    25
100
AcDbPolyline
 90
        2
 70
     0
 43
0.0
 10
3.457499999999999
 20
7.677777777777777
 10
3.375833333333333
 20
7.677777777777777
  0
LWPOLYLINE
  5
160
330
2
100
AcDbEntity
  8
PDF_Geometry
370
    25
100
AcDbPolyline
 90
        2
 70
     0
 43
0.0
 10
3.334166666666666
 20
7.677777777777777
 10
3.252499999999999
 20
7.677777777777777
  0
LWPOLYLINE
  5
161
330
2
100
AcDbEntity
  8
PDF_Geometry
370
    25
100
AcDbPolyline
 90
        2
 70
     0
 43
0.0
 10
3.210833333333333
 20
7.677777777777777
 10
3.128333333333332
 20
7.677777777777777
  0
LWPOLYLINE
  5
162
330
2
100
AcDbEntity
  8
PDF_Geometry
370
    25
100
AcDbPolyline
 90
        6
 70
     0
 43
0.0
 10
3.087499999999999
 20
7.677777777777777
 10
3.037499999999999
 20
7.677777777777777
 10
3.018333333333333
 20
7.676111111111111
 10
3.000833333333333
 20
7.671944444444443
 10
2.983333333333333
 20
7.663611111111111
 10
2.9775
 20
7.659444444444444
  0
LWPOLYLINE
  5
163
330
2
100
AcDbEntity
  8
PDF_Geometry
370
    35
100
AcDbPolyline
 90
        2
 70
     0
 43
0.0
 10
6.017499999999999
 20
7.613611111111111
 10
3.037499999999999
 20
7.613611111111111
  0
LWPOLYLINE
  5
164
330
2
100
AcDbEntity
  8
PDF_Geometry
370
    25
100
AcDbPolyline
 90
        6
 70
     0
 43
0.0
 10
6.125
 20
7.49861111111111
 10
6.125
 20
7.570277777777776
 10
6.123333333333333
 20
7.58861111111111
 10
6.119166666666665
 20
7.606944444444444
 10
6.110833333333332
 20
7.624444444444442
 10
6.106666666666666
 20
7.630277777777777
  0
SPLINE
  5
166
330
2
100
AcDbEntity
  8
PDF_Geometry
370
    35
100
AcDbSpline
210
0.0
220
0.0
230
1.0
 70
     8
 71
     3
 72
     8
 73
     4
 74
     0
 42
0.000000001
 43
0.0000000001
 40
0.0
 40
0.0
 40
0.0
 40
0.0
 40
1.0
 40
1.0
 40
1.0
 40
1.0
 10
6.060833333333333
 20
7.570277777777776
 30
0.0
 10
6.060083333333332
 20
7.594694444444443
 30
0.0
 10
6.041874999999999
 20
7.612847222222221
 30
0.0
 10
6.017499999999999
 20
7.613611111111111
 30
0.0
  0
LWPOLYLINE
  5
167
330
2
100
AcDbEntity
  8
PDF_Geometry
370
    25
100
AcDbPolyline
 90
        6
 70
     0
 43
0.0
 10
6.077499999999999
 20
8.02111111111111
 10
6.071666666666666
 20
8.016944444444444
 10
6.054166666666666
 20
8.008611111111111
 10
6.035833333333332
 20
8.00361111111111
 10
6.017499999999999
 20
8.001944444444443
 10
5.9675
 20
8.001944444444443
  0
LWPOLYLINE
  5
168
330
2
100
AcDbEntity
  8
PDF_Geometry
370
    25
100
AcDbPolyline
 90
        2
 70
     0
 43
0.0
 10
5.925833333333333
 20
8.001944444444443
 10
5.844166666666666
 20
8.001944444444443
  0
LWPOLYLINE
  5
169
330
2
100
AcDbEntity
  8
PDF_Geometry
370
    25
100
AcDbPolyline
 90
        2
 70
     0
 43
0.0
 10
5.802499999999999
 20
8.001944444444443
 10
5.719999999999999
 20
8.001944444444443
  0
LWPOLYLINE
  5
16A
330
2
100
AcDbEntity
  8
PDF_Geometry
370
    25
100
AcDbPolyline
 90
        2
 70
     0
 43
0.0
 10
5.679166666666666
 20
8.001944444444443
 10
5.596666666666665
 20
8.001944444444443
  0
LWPOLYLINE
  5
16B
330
2
100
AcDbEntity
  8
PDF_Geometry
370
    25
100
AcDbPolyline
 90
        2
 70
     0
 43
0.0
 10
5.555833333333333
 20
8.001944444444443
 10
5.473333333333332
 20
8.001944444444443
  0
LWPOLYLINE
  5
16C
330
2
100
AcDbEntity
  8
PDF_Geometry
370
    25
100
AcDbPolyline
 90
        2
 70
     0
 43
0.0
 10
5.4325
 20
8.001944444444443
 10
5.349999999999999
 20
8.001944444444443
  0
LWPOLYLINE
  5
16D
330
2
100
AcDbEntity
  8
PDF_Geometry
370
    25
100
AcDbPolyline
 90
        2
 70
     0
 43
0.0
 10
5.309166666666666
 20
8.001944444444443
 10
5.226666666666666
 20
8.001944444444443
  0
LWPOLYLINE
  5
16E
330
2
100
AcDbEntity
  8
PDF_Geometry
370
    25
100
AcDbPolyline
 90
        2
 70
     0
 43
0.0
 10
5.185833333333333
 20
8.001944444444443
 10
5.103333333333332
 20
8.001944444444443
  0
LWPOLYLINE
  5
16F
330
2
100
AcDbEntity
  8
PDF_Geometry
370
    25
100
AcDbPolyline
 90
        2
 70
     0
 43
0.0
 10
5.0625
 20
8.001944444444443
 10
4.979999999999999
 20
8.001944444444443
  0
LWPOLYLINE
  5
170
330
2
100
AcDbEntity
  8
PDF_Geometry
370
    25
100
AcDbPolyline
 90
        2
 70
     0
 43
0.0
 10
4.938333333333333
 20
8.001944444444443
 10
4.856666666666666
 20
8.001944444444443
  0
LWPOLYLINE
  5
171
330
2
100
AcDbEntity
  8
PDF_Geometry
370
    25
100
AcDbPolyline
 90
        2
 70
     0
 43
0.0
 10
4.814999999999999
 20
8.001944444444443
 10
4.733333333333333
 20
8.001944444444443
  0
LWPOLYLINE
  5
172
330
2
100
AcDbEntity
  8
PDF_Geometry
370
    25
100
AcDbPolyline
 90
        2
 70
     0
 43
0.0
 10
4.691666666666666
 20
8.001944444444443
 10
4.609999999999999
 20
8.001944444444443
  0
LWPOLYLINE
  5
173
330
2
100
AcDbEntity
  8
PDF_Geometry
370
    25
100
AcDbPolyline
 90
        2
 70
     0
 43
0.0
 10
4.568333333333332
 20
8.001944444444443
 10
4.485833333333332
 20
8.001944444444443
  0
LWPOLYLINE
  5
174
330
2
100
AcDbEntity
  8
PDF_Geometry
370
    25
100
AcDbPolyline
 90
        2
 70
     0
 43
0.0
 10
4.445
 20
8.001944444444443
 10
4.362499999999999
 20
8.001944444444443
  0
LWPOLYLINE
  5
175
330
2
100
AcDbEntity
  8
PDF_Geometry
370
    25
100
AcDbPolyline
 90
        2
 70
     0
 43
0.0
 10
4.321666666666667
 20
8.001944444444443
 10
4.239166666666665
 20
8.001944444444443
  0
LWPOLYLINE
  5
176
330
2
100
AcDbEntity
  8
PDF_Geometry
370
    25
100
AcDbPolyline
 90
        2
 70
     0
 43
0.0
 10
4.198333333333332
 20
8.001944444444443
 10
4.115833333333333
 20
8.001944444444443
  0
LWPOLYLINE
  5
177
330
2
100
AcDbEntity
  8
PDF_Geometry
370
    25
100
AcDbPolyline
 90
        2
 70
     0
 43
0.0
 10
4.074999999999999
 20
8.001944444444443
 10
3.992499999999999
 20
8.001944444444443
  0
LWPOLYLINE
  5
178
330
2
100
AcDbEntity
  8
PDF_Geometry
370
    25
100
AcDbPolyline
 90
        2
 70
     0
 43
0.0
 10
3.951666666666666
 20
8.001944444444443
 10
3.869166666666666
 20
8.001944444444443
  0
LWPOLYLINE
  5
179
330
2
100
AcDbEntity
  8
PDF_Geometry
370
    25
100
AcDbPolyline
 90
        2
 70
     0
 43
0.0
 10
3.828333333333333
 20
8.001944444444443
 10
3.745833333333333
 20
8.001944444444443
  0
LWPOLYLINE
  5
17A
330
2
100
AcDbEntity
  8
PDF_Geometry
370
    25
100
AcDbPolyline
 90
        2
 70
     0
 43
0.0
 10
3.704999999999999
 20
8.001944444444443
 10
3.622499999999999
 20
8.001944444444443
  0
LWPOLYLINE
  5
17B
330
2
100
AcDbEntity
  8
PDF_Geometry
370
    25
100
AcDbPolyline
 90
        2
 70
     0
 43
0.0
 10
3.580833333333333
 20
8.001944444444443
 10
3.499166666666666
 20
8.001944444444443
  0
LWPOLYLINE
  5
17C
330
2
100
AcDbEntity
  8
PDF_Geometry
370
    25
100
AcDbPolyline
 90
        2
 70
     0
 43
0.0
 10
3.457499999999999
 20
8.001944444444443
 10
3.375833333333333
 20
8.001944444444443
  0
LWPOLYLINE
  5
17D
330
2
100
AcDbEntity
  8
PDF_Geometry
370
    25
100
AcDbPolyline
 90
        2
 70
     0
 43
0.0
 10
3.334166666666666
 20
8.001944444444443
 10
3.252499999999999
 20
8.001944444444443
  0
LWPOLYLINE
  5
17E
330
2
100
AcDbEntity
  8
PDF_Geometry
370
    25
100
AcDbPolyline
 90
        2
 70
     0
 43
0.0
 10
3.210833333333333
 20
8.001944444444443
 10
3.128333333333332
 20
8.001944444444443
  0
LWPOLYLINE
  5
17F
330
2
100
AcDbEntity
  8
PDF_Geometry
370
    25
100
AcDbPolyline
 90
        6
 70
     0
 43
0.0
 10
3.087499999999999
 20
8.001944444444443
 10
3.037499999999999
 20
8.001944444444443
 10
3.018333333333333
 20
8.00361111111111
 10
3.000833333333333
 20
8.008611111111111
 10
2.983333333333333
 20
8.016944444444444
 10
2.9775
 20
8.02111111111111
  0
LWPOLYLINE
  5
180
330
2
100
AcDbEntity
  8
PDF_Geometry
370
    35
100
AcDbPolyline
 90
        2
 70
     0
 43
0.0
 10
6.017499999999999
 20
8.066944444444443
 10
3.037499999999999
 20
8.066944444444443
  0
LWPOLYLINE
  5
181
330
2
100
AcDbEntity
  8
PDF_Geometry
370
    25
100
AcDbPolyline
 90
        6
 70
     0
 43
0.0
 10
2.929166666666666
 20
8.181944444444443
 10
2.929166666666666
 20
8.110277777777776
 10
2.930833333333333
 20
8.091111111111109
 10
2.935833333333333
 20
8.072777777777776
 10
2.944166666666666
 20
8.056111111111111
 10
2.948333333333333
 20
8.049444444444443
  0
SPLINE
  5
183
330
2
100
AcDbEntity
  8
PDF_Geometry
370
    35
100
AcDbSpline
210
0.0
220
0.0
230
1.0
 70
     8
 71
     3
 72
     8
 73
     4
 74
     0
 42
0.000000001
 43
0.0000000001
 40
0.0
 40
0.0
 40
0.0
 40
0.0
 40
1.0
 40
1.0
 40
1.0
 40
1.0
 10
2.994166666666666
 20
8.110277777777776
 30
0.0
 10
2.995013888888888
 20
8.085194444444443
 30
0.0
 10
3.012416666666666
 20
8.067791666666666
 30
0.0
 10
3.037499999999999
 20
8.066944444444443
 30
0.0
  0
LWPOLYLINE
  5
185
330
2
100
AcDbEntity
  8
PDF_Geometry
370
    25
100
AcDbPolyline
 90
        6
 70
     0
 43
0.0
 10
6.106666666666666
 20
8.049444444444443
 10
6.110833333333332
 20
8.056111111111111
 10
6.119166666666665
 20
8.072777777777776
 10
6.123333333333333
 20
8.091111111111109
 10
6.125
 20
8.110277777777776
 10
6.125
 20
8.181944444444443
  0
SPLINE
  5
186
330
2
100
AcDbEntity
  8
PDF_Geometry
370
    35
100
AcDbSpline
210
0.0
220
0.0
230
1.0
 70
     8
 71
     3
 72
     8
 73
     4
 74
     0
 42
0.000000001
 43
0.0000000001
 40
0.0
 40
0.0
 40
0.0
 40
0.0
 40
1.0
 40
1.0
 40
1.0
 40
1.0
 10
6.017499999999999
 20
8.066944444444443
 30
0.0
 10
6.041583333333332
 20
8.067611111111109
 30
0.0
 10
6.060583333333333
 20
8.086152777777778
 30
0.0
 10
6.060833333333333
 20
8.110277777777776
 30
0.0
  0
LWPOLYLINE
  5
187
330
2
100
AcDbEntity
  8
PDF_Geometry
370
    25
100
AcDbPolyline
 90
        6
 70
     0
 43
0.0
 10
6.077499999999999
 20
8.63111111111111
 10
6.071666666666666
 20
8.635277777777776
 10
6.054166666666666
 20
8.643611111111109
 10
6.035833333333332
 20
8.648611111111112
 10
6.017499999999999
 20
8.650277777777777
 10
5.9675
 20
8.650277777777777
  0
LWPOLYLINE
  5
188
330
2
100
AcDbEntity
  8
PDF_Geometry
370
    25
100
AcDbPolyline
 90
        2
 70
     0
 43
0.0
 10
5.925833333333333
 20
8.650277777777777
 10
5.844166666666666
 20
8.650277777777777
  0
LWPOLYLINE
  5
189
330
2
100
AcDbEntity
  8
PDF_Geometry
370
    25
100
AcDbPolyline
 90
        2
 70
     0
 43
0.0
 10
5.802499999999999
 20
8.650277777777777
 10
5.719999999999999
 20
8.650277777777777
  0
LWPOLYLINE
  5
18A
330
2
100
AcDbEntity
  8
PDF_Geometry
370
    25
100
AcDbPolyline
 90
        2
 70
     0
 43
0.0
 10
5.679166666666666
 20
8.650277777777777
 10
5.596666666666665
 20
8.650277777777777
  0
LWPOLYLINE
  5
18B
330
2
100
AcDbEntity
  8
PDF_Geometry
370
    25
100
AcDbPolyline
 90
        2
 70
     0
 43
0.0
 10
5.555833333333333
 20
8.650277777777777
 10
5.473333333333332
 20
8.650277777777777
  0
LWPOLYLINE
  5
18C
330
2
100
AcDbEntity
  8
PDF_Geometry
370
    25
100
AcDbPolyline
 90
        2
 70
     0
 43
0.0
 10
5.4325
 20
8.650277777777777
 10
5.349999999999999
 20
8.650277777777777
  0
LWPOLYLINE
  5
18D
330
2
100
AcDbEntity
  8
PDF_Geometry
370
    25
100
AcDbPolyline
 90
        2
 70
     0
 43
0.0
 10
5.309166666666666
 20
8.650277777777777
 10
5.226666666666666
 20
8.650277777777777
  0
LWPOLYLINE
  5
18E
330
2
100
AcDbEntity
  8
PDF_Geometry
370
    25
100
AcDbPolyline
 90
        2
 70
     0
 43
0.0
 10
5.185833333333333
 20
8.650277777777777
 10
5.103333333333332
 20
8.650277777777777
  0
LWPOLYLINE
  5
18F
330
2
100
AcDbEntity
  8
PDF_Geometry
370
    25
100
AcDbPolyline
 90
        2
 70
     0
 43
0.0
 10
5.0625
 20
8.650277777777777
 10
4.979999999999999
 20
8.650277777777777
  0
LWPOLYLINE
  5
190
330
2
100
AcDbEntity
  8
PDF_Geometry
370
    25
100
AcDbPolyline
 90
        2
 70
     0
 43
0.0
 10
4.938333333333333
 20
8.650277777777777
 10
4.856666666666666
 20
8.650277777777777
  0
LWPOLYLINE
  5
191
330
2
100
AcDbEntity
  8
PDF_Geometry
370
    25
100
AcDbPolyline
 90
        2
 70
     0
 43
0.0
 10
4.814999999999999
 20
8.650277777777777
 10
4.733333333333333
 20
8.650277777777777
  0
LWPOLYLINE
  5
192
330
2
100
AcDbEntity
  8
PDF_Geometry
370
    25
100
AcDbPolyline
 90
        2
 70
     0
 43
0.0
 10
4.691666666666666
 20
8.650277777777777
 10
4.609999999999999
 20
8.650277777777777
  0
LWPOLYLINE
  5
193
330
2
100
AcDbEntity
  8
PDF_Geometry
370
    25
100
AcDbPolyline
 90
        2
 70
     0
 43
0.0
 10
4.568333333333332
 20
8.650277777777777
 10
4.485833333333332
 20
8.650277777777777
  0
LWPOLYLINE
  5
194
330
2
100
AcDbEntity
  8
PDF_Geometry
370
    25
100
AcDbPolyline
 90
        2
 70
     0
 43
0.0
 10
4.445
 20
8.650277777777777
 10
4.362499999999999
 20
8.650277777777777
  0
LWPOLYLINE
  5
195
330
2
100
AcDbEntity
  8
PDF_Geometry
370
    25
100
AcDbPolyline
 90
        2
 70
     0
 43
0.0
 10
4.321666666666667
 20
8.650277777777777
 10
4.239166666666665
 20
8.650277777777777
  0
LWPOLYLINE
  5
196
330
2
100
AcDbEntity
  8
PDF_Geometry
370
    25
100
AcDbPolyline
 90
        2
 70
     0
 43
0.0
 10
4.198333333333332
 20
8.650277777777777
 10
4.115833333333333
 20
8.650277777777777
  0
LWPOLYLINE
  5
197
330
2
100
AcDbEntity
  8
PDF_Geometry
370
    25
100
AcDbPolyline
 90
        2
 70
     0
 43
0.0
 10
4.074999999999999
 20
8.650277777777777
 10
3.992499999999999
 20
8.650277777777777
  0
LWPOLYLINE
  5
198
330
2
100
AcDbEntity
  8
PDF_Geometry
370
    25
100
AcDbPolyline
 90
        2
 70
     0
 43
0.0
 10
3.951666666666666
 20
8.650277777777777
 10
3.869166666666666
 20
8.650277777777777
  0
LWPOLYLINE
  5
199
330
2
100
AcDbEntity
  8
PDF_Geometry
370
    25
100
AcDbPolyline
 90
        2
 70
     0
 43
0.0
 10
3.828333333333333
 20
8.650277777777777
 10
3.745833333333333
 20
8.650277777777777
  0
LWPOLYLINE
  5
19A
330
2
100
AcDbEntity
  8
PDF_Geometry
370
    25
100
AcDbPolyline
 90
        2
 70
     0
 43
0.0
 10
3.704999999999999
 20
8.650277777777777
 10
3.622499999999999
 20
8.650277777777777
  0
LWPOLYLINE
  5
19B
330
2
100
AcDbEntity
  8
PDF_Geometry
370
    25
100
AcDbPolyline
 90
        2
 70
     0
 43
0.0
 10
3.580833333333333
 20
8.650277777777777
 10
3.499166666666666
 20
8.650277777777777
  0
LWPOLYLINE
  5
19C
330
2
100
AcDbEntity
  8
PDF_Geometry
370
    25
100
AcDbPolyline
 90
        2
 70
     0
 43
0.0
 10
3.457499999999999
 20
8.650277777777777
 10
3.375833333333333
 20
8.650277777777777
  0
LWPOLYLINE
  5
19D
330
2
100
AcDbEntity
  8
PDF_Geometry
370
    25
100
AcDbPolyline
 90
        2
 70
     0
 43
0.0
 10
3.334166666666666
 20
8.650277777777777
 10
3.252499999999999
 20
8.650277777777777
  0
LWPOLYLINE
  5
19E
330
2
100
AcDbEntity
  8
PDF_Geometry
370
    25
100
AcDbPolyline
 90
        2
 70
     0
 43
0.0
 10
3.210833333333333
 20
8.650277777777777
 10
3.128333333333332
 20
8.650277777777777
  0
LWPOLYLINE
  5
19F
330
2
100
AcDbEntity
  8
PDF_Geometry
370
    25
100
AcDbPolyline
 90
        6
 70
     0
 43
0.0
 10
3.087499999999999
 20
8.650277777777777
 10
3.037499999999999
 20
8.650277777777777
 10
3.018333333333333
 20
8.648611111111112
 10
3.000833333333333
 20
8.643611111111109
 10
2.983333333333333
 20
8.635277777777776
 10
2.9775
 20
8.63111111111111
  0
LWPOLYLINE
  5
1A0
330
2
100
AcDbEntity
  8
PDF_Geometry
370
    35
100
AcDbPolyline
 90
        2
 70
     0
 43
0.0
 10
6.017499999999999
 20
8.585277777777777
 10
3.037499999999999
 20
8.585277777777777
  0
LWPOLYLINE
  5
1A2
330
2
100
AcDbEntity
  8
PDF_Geometry
370
    25
100
AcDbPolyline
 90
        6
 70
     0
 43
0.0
 10
2.948333333333333
 20
8.601944444444443
 10
2.944166666666666
 20
8.59611111111111
 10
2.935833333333333
 20
8.57861111111111
 10
2.930833333333333
 20
8.56111111111111
 10
2.929166666666666
 20
8.541944444444443
 10
2.929166666666666
 20
8.470277777777775
  0
SPLINE
  5
1A3
330
2
100
AcDbEntity
  8
PDF_Geometry
370
    35
100
AcDbSpline
210
0.0
220
0.0
230
1.0
 70
     8
 71
     3
 72
     8
 73
     4
 74
     0
 42
0.000000001
 43
0.0000000001
 40
0.0
 40
0.0
 40
0.0
 40
0.0
 40
1.0
 40
1.0
 40
1.0
 40
1.0
 10
3.037499999999999
 20
8.585277777777777
 30
0.0
 10
3.012013888888888
 20
8.584277777777776
 30
0.0
 10
2.995513888888888
 20
8.567305555555552
 30
0.0
 10
2.994166666666666
 20
8.541944444444443
 30
0.0
  0
LWPOLYLINE
  5
1A4
330
2
100
AcDbEntity
  8
PDF_Geometry
370
    25
100
AcDbPolyline
 90
        6
 70
     0
 43
0.0
 10
6.125
 20
8.470277777777775
 10
6.125
 20
8.541944444444443
 10
6.123333333333333
 20
8.56111111111111
 10
6.119166666666665
 20
8.57861111111111
 10
6.110833333333332
 20
8.59611111111111
 10
6.106666666666666
 20
8.601944444444443
  0
LWPOLYLINE
  5
1A6
330
2
100
AcDbEntity
  8
PDF_Geometry
370
    25
100
AcDbPolyline
 90
        6
 70
     0
 43
0.0
 10
3.092499999999999
 20
9.805277777777776
 10
3.091666666666666
 20
9.805277777777776
 10
3.114166666666666
 20
9.806944444444443
 10
3.136666666666666
 20
9.811944444444442
 10
3.158333333333333
 20
9.820277777777777
 10
3.172499999999999
 20
9.827777777777777
  0
SPLINE
  5
1A7
330
2
100
AcDbEntity
  8
PDF_Geometry
370
    25
100
AcDbSpline
210
0.0
220
0.0
230
1.0
 70
     8
 71
     3
 72
     8
 73
     4
 74
     0
 42
0.000000001
 43
0.0000000001
 40
0.0
 40
0.0
 40
0.0
 40
0.0
 40
1.0
 40
1.0
 40
1.0
 40
1.0
 10
3.205833333333333
 20
9.852777777777776
 30
0.0
 10
3.225124999999999
 20
9.869430555555554
 30
0.0
 10
3.240819444444444
 20
9.901138888888887
 30
0.0
 10
3.2475
 20
9.925277777777777
 30
0.0
  0
LWPOLYLINE
  5
1A8
330
2
100
AcDbEntity
  8
PDF_Geometry
370
    25
100
AcDbPolyline
 90
        5
 70
     0
 43
0.0
 10
3.253333333333332
 20
9.966944444444443
 10
3.251666666666666
 20
9.990277777777777
 10
3.246666666666666
 20
10.01277777777777
 10
3.238333333333333
 20
10.03444444444444
 10
3.231666666666666
 20
10.04777777777777
  0
SPLINE
  5
1A9
330
2
100
AcDbEntity
  8
PDF_Geometry
370
    25
100
AcDbSpline
210
0.0
220
0.0
230
1.0
 70
     8
 71
     3
 72
     8
 73
     4
 74
     0
 42
0.000000001
 43
0.0000000001
 40
0.0
 40
0.0
 40
0.0
 40
0.0
 40
1.0
 40
1.0
 40
1.0
 40
1.0
 10
3.205833333333333
 20
10.08194444444444
 30
0.0
 10
3.184222222222221
 20
10.10313888888888
 30
0.0
 10
3.162333333333333
 20
10.11511111111111
 30
0.0
 10
3.133333333333332
 20
10.12361111111111
 30
0.0
  0
LWPOLYLINE
  5
1AA
330
2
100
AcDbEntity
  8
PDF_Geometry
370
    25
100
AcDbPolyline
 90
        5
 70
     0
 43
0.0
 10
3.091666666666666
 20
10.12944444444444
 10
3.068333333333333
 20
10.12777777777777
 10
3.045833333333333
 20
10.12277777777777
 10
3.024166666666666
 20
10.11444444444444
 10
3.010833333333333
 20
10.10694444444444
  0
SPLINE
  5
1AB
330
2
100
AcDbEntity
  8
PDF_Geometry
370
    25
100
AcDbSpline
210
0.0
220
0.0
230
1.0
 70
     8
 71
     3
 72
     8
 73
     4
 74
     0
 42
0.000000001
 43
0.0000000001
 40
0.0
 40
0.0
 40
0.0
 40
0.0
 40
1.0
 40
1.0
 40
1.0
 40
1.0
 10
2.9775
 20
10.08194444444444
 30
0.0
 10
2.956152777777777
 20
10.06294444444444
 30
0.0
 10
2.942888888888889
 20
10.03652777777777
 30
0.0
 10
2.935
 20
10.00944444444444
 30
0.0
  0
LWPOLYLINE
  5
1AC
330
2
100
AcDbEntity
  8
PDF_Geometry
370
    25
100
AcDbPolyline
 90
        5
 70
     0
 43
0.0
 10
2.929166666666666
 20
9.966944444444443
 10
2.930833333333333
 20
9.944444444444444
 10
2.935833333333333
 20
9.921944444444443
 10
2.944166666666666
 20
9.900277777777775
 10
2.951666666666666
 20
9.886111111111109
  0
SPLINE
  5
1AD
330
2
100
AcDbEntity
  8
PDF_Geometry
370
    25
100
AcDbSpline
210
0.0
220
0.0
230
1.0
 70
     8
 71
     3
 72
     8
 73
     4
 74
     0
 42
0.000000001
 43
0.0000000001
 40
0.0
 40
0.0
 40
0.0
 40
0.0
 40
1.0
 40
1.0
 40
1.0
 40
1.0
 10
2.9775
 20
9.852777777777776
 30
0.0
 10
2.993722222222221
 20
9.834402777777777
 30
0.0
 10
3.025583333333333
 20
9.817069444444443
 30
0.0
 10
3.049166666666666
 20
9.81111111111111
 30
0.0
  0
SPLINE
  5
1AF
330
2
100
AcDbEntity
  8
PDF_Geometry
370
    35
100
AcDbSpline
210
0.0
220
0.0
230
1.0
 70
     8
 71
     3
 72
     8
 73
     4
 74
     0
 42
0.000000001
 43
0.0000000001
 40
0.0
 40
0.0
 40
0.0
 40
0.0
 40
1.0
 40
1.0
 40
1.0
 40
1.0
 10
3.091666666666666
 20
9.859444444444443
 30
0.0
 10
3.234541666666666
 20
9.866083333333332
 30
0.0
 10
3.234541666666666
 20
10.06863888888888
 30
0.0
 10
3.091666666666666
 20
10.07527777777777
 30
0.0
  0
SPLINE
  5
1B0
330
2
100
AcDbEntity
  8
PDF_Geometry
370
    35
100
AcDbSpline
210
0.0
220
0.0
230
1.0
 70
     8
 71
     3
 72
     8
 73
     4
 74
     0
 42
0.000000001
 43
0.0000000001
 40
0.0
 40
0.0
 40
0.0
 40
0.0
 40
1.0
 40
1.0
 40
1.0
 40
1.0
 10
3.091666666666666
 20
10.07527777777777
 30
0.0
 10
2.947694444444444
 20
10.06952777777778
 30
0.0
 10
2.947694444444444
 20
9.865194444444444
 30
0.0
 10
3.091666666666666
 20
9.859444444444443
 30
0.0
  0
LWPOLYLINE
  5
1B1
330
2
100
AcDbEntity
  8
PDF_Geometry
370
    25
100
AcDbPolyline
 90
        6
 70
     0
 43
0.0
 10
5.964166666666665
 20
2.635277777777777
 10
5.963333333333332
 20
2.635277777777777
 10
5.986666666666666
 20
2.636944444444444
 10
6.009166666666666
 20
2.641944444444444
 10
6.030833333333332
 20
2.650277777777777
 10
6.044166666666666
 20
2.657777777777778
  0
SPLINE
  5
1B2
330
2
100
AcDbEntity
  8
PDF_Geometry
370
    25
100
AcDbSpline
210
0.0
220
0.0
230
1.0
 70
     8
 71
     3
 72
     8
 73
     4
 74
     0
 42
0.000000001
 43
0.0000000001
 40
0.0
 40
0.0
 40
0.0
 40
0.0
 40
1.0
 40
1.0
 40
1.0
 40
1.0
 10
6.077499999999999
 20
2.68361111111111
 30
0.0
 10
6.095541666666666
 20
2.696625
 30
0.0
 10
6.114958333333333
 20
2.733944444444444
 30
0.0
 10
6.12
 20
2.755277777777778
 30
0.0
  0
LWPOLYLINE
  5
1B3
330
2
100
AcDbEntity
  8
PDF_Geometry
370
    25
100
AcDbPolyline
 90
        5
 70
     0
 43
0.0
 10
6.125
 20
2.797777777777777
 10
6.123333333333333
 20
2.820277777777777
 10
6.119166666666665
 20
2.842777777777777
 10
6.110833333333332
 20
2.864444444444444
 10
6.103333333333332
 20
2.87861111111111
  0
SPLINE
  5
1B4
330
2
100
AcDbEntity
  8
PDF_Geometry
370
    25
100
AcDbSpline
210
0.0
220
0.0
230
1.0
 70
     8
 71
     3
 72
     8
 73
     4
 74
     0
 42
0.000000001
 43
0.0000000001
 40
0.0
 40
0.0
 40
0.0
 40
0.0
 40
1.0
 40
1.0
 40
1.0
 40
1.0
 10
6.077499999999999
 20
2.911944444444444
 30
0.0
 10
6.063166666666666
 20
2.929138888888889
 30
0.0
 10
6.026569444444443
 20
2.9495
 30
0.0
 10
6.004999999999999
 20
2.95361111111111
 30
0.0
  0
LWPOLYLINE
  5
1B5
330
2
100
AcDbEntity
  8
PDF_Geometry
370
    25
100
AcDbPolyline
 90
        5
 70
     0
 43
0.0
 10
5.963333333333332
 20
2.959444444444444
 10
5.939999999999999
 20
2.957777777777777
 10
5.917499999999999
 20
2.952777777777777
 10
5.895833333333333
 20
2.944444444444444
 10
5.8825
 20
2.937777777777777
  0
SPLINE
  5
1B6
330
2
100
AcDbEntity
  8
PDF_Geometry
370
    25
100
AcDbSpline
210
0.0
220
0.0
230
1.0
 70
     8
 71
     3
 72
     8
 73
     4
 74
     0
 42
0.000000001
 43
0.0000000001
 40
0.0
 40
0.0
 40
0.0
 40
0.0
 40
1.0
 40
1.0
 40
1.0
 40
1.0
 10
5.849166666666667
 20
2.911944444444444
 30
0.0
 10
5.831305555555555
 20
2.896124999999999
 30
0.0
 10
5.811916666666665
 20
2.862999999999999
 30
0.0
 10
5.8075
 20
2.839444444444444
 30
0.0
  0
LWPOLYLINE
  5
1B7
330
2
100
AcDbEntity
  8
PDF_Geometry
370
    25
100
AcDbPolyline
 90
        5
 70
     0
 43
0.0
 10
5.801666666666665
 20
2.797777777777777
 10
5.803333333333333
 20
2.774444444444444
 10
5.808333333333332
 20
2.751944444444444
 10
5.815833333333332
 20
2.730277777777777
 10
5.823333333333332
 20
2.716944444444444
  0
SPLINE
  5
1B8
330
2
100
AcDbEntity
  8
PDF_Geometry
370
    25
100
AcDbSpline
210
0.0
220
0.0
230
1.0
 70
     8
 71
     3
 72
     8
 73
     4
 74
     0
 42
0.000000001
 43
0.0000000001
 40
0.0
 40
0.0
 40
0.0
 40
0.0
 40
1.0
 40
1.0
 40
1.0
 40
1.0
 10
5.849166666666667
 20
2.68361111111111
 30
0.0
 10
5.866249999999999
 20
2.664180555555555
 30
0.0
 10
5.896694444444444
 20
2.646652777777777
 30
0.0
 10
5.921666666666666
 20
2.64111111111111
 30
0.0
  0
SPLINE
  5
1BA
330
2
100
AcDbEntity
  8
PDF_Geometry
370
    35
100
AcDbSpline
210
0.0
220
0.0
230
1.0
 70
     8
 71
     3
 72
     8
 73
     4
 74
     0
 42
0.000000001
 43
0.0000000001
 40
0.0
 40
0.0
 40
0.0
 40
0.0
 40
1.0
 40
1.0
 40
1.0
 40
1.0
 10
5.963333333333332
 20
2.689444444444444
 30
0.0
 10
6.107055555555555
 20
2.696527777777777
 30
0.0
 10
6.107055555555555
 20
2.898208333333333
 30
0.0
 10
5.963333333333332
 20
2.905277777777777
 30
0.0
  0
SPLINE
  5
1BB
330
2
100
AcDbEntity
  8
PDF_Geometry
370
    35
100
AcDbSpline
210
0.0
220
0.0
230
1.0
 70
     8
 71
     3
 72
     8
 73
     4
 74
     0
 42
0.000000001
 43
0.0000000001
 40
0.0
 40
0.0
 40
0.0
 40
0.0
 40
1.0
 40
1.0
 40
1.0
 40
1.0
 10
5.963333333333332
 20
2.905277777777777
 30
0.0
 10
5.81973611111111
 20
2.898152777777777
 30
0.0
 10
5.81973611111111
 20
2.696583333333333
 30
0.0
 10
5.963333333333332
 20
2.689444444444444
 30
0.0
  0
LWPOLYLINE
  5
1BC
330
2
100
AcDbEntity
  8
PDF_Geometry
370
    25
100
AcDbPolyline
 90
        6
 70
     0
 43
0.0
 10
3.092499999999999
 20
2.635277777777777
 10
3.091666666666666
 20
2.635277777777777
 10
3.114166666666666
 20
2.636944444444444
 10
3.136666666666666
 20
2.641944444444444
 10
3.158333333333333
 20
2.650277777777777
 10
3.172499999999999
 20
2.657777777777778
  0
SPLINE
  5
1BD
330
2
100
AcDbEntity
  8
PDF_Geometry
370
    25
100
AcDbSpline
210
0.0
220
0.0
230
1.0
 70
     8
 71
     3
 72
     8
 73
     4
 74
     0
 42
0.000000001
 43
0.0000000001
 40
0.0
 40
0.0
 40
0.0
 40
0.0
 40
1.0
 40
1.0
 40
1.0
 40
1.0
 10
3.205833333333333
 20
2.68361111111111
 30
0.0
 10
3.221624999999999
 20
2.693861111111111
 30
0.0
 10
3.24373611111111
 20
2.737041666666666
 30
0.0
 10
3.2475
 20
2.755277777777778
 30
0.0
  0
LWPOLYLINE
  5
1BE
330
2
100
AcDbEntity
  8
PDF_Geometry
370
    25
100
AcDbPolyline
 90
        5
 70
     0
 43
0.0
 10
3.253333333333332
 20
2.797777777777777
 10
3.251666666666666
 20
2.820277777777777
 10
3.246666666666666
 20
2.842777777777777
 10
3.238333333333333
 20
2.864444444444444
 10
3.231666666666666
 20
2.87861111111111
  0
SPLINE
  5
1BF
330
2
100
AcDbEntity
  8
PDF_Geometry
370
    25
100
AcDbSpline
210
0.0
220
0.0
230
1.0
 70
     8
 71
     3
 72
     8
 73
     4
 74
     0
 42
0.000000001
 43
0.0000000001
 40
0.0
 40
0.0
 40
0.0
 40
0.0
 40
1.0
 40
1.0
 40
1.0
 40
1.0
 10
3.205833333333333
 20
2.911944444444444
 30
0.0
 10
3.189194444444444
 20
2.93125
 30
0.0
 10
3.157472222222222
 20
2.946930555555555
 30
0.0
 10
3.133333333333332
 20
2.95361111111111
 30
0.0
  0
LWPOLYLINE
  5
1C0
330
2
100
AcDbEntity
  8
PDF_Geometry
370
    25
100
AcDbPolyline
 90
        5
 70
     0
 43
0.0
 10
3.091666666666666
 20
2.959444444444444
 10
3.068333333333333
 20
2.957777777777777
 10
3.045833333333333
 20
2.952777777777777
 10
3.024166666666666
 20
2.944444444444444
 10
3.010833333333333
 20
2.937777777777777
  0
SPLINE
  5
1C1
330
2
100
AcDbEntity
  8
PDF_Geometry
370
    25
100
AcDbSpline
210
0.0
220
0.0
230
1.0
 70
     8
 71
     3
 72
     8
 73
     4
 74
     0
 42
0.000000001
 43
0.0000000001
 40
0.0
 40
0.0
 40
0.0
 40
0.0
 40
1.0
 40
1.0
 40
1.0
 40
1.0
 10
2.9775
 20
2.911944444444444
 30
0.0
 10
2.956152777777777
 20
2.892944444444444
 30
0.0
 10
2.942888888888889
 20
2.866527777777777
 30
0.0
 10
2.935
 20
2.839444444444444
 30
0.0
  0
LWPOLYLINE
  5
1C2
330
2
100
AcDbEntity
  8
PDF_Geometry
370
    25
100
AcDbPolyline
 90
        5
 70
     0
 43
0.0
 10
2.929166666666666
 20
2.797777777777777
 10
2.930833333333333
 20
2.774444444444444
 10
2.935833333333333
 20
2.751944444444444
 10
2.944166666666666
 20
2.730277777777777
 10
2.951666666666666
 20
2.716944444444444
  0
SPLINE
  5
1C3
330
2
100
AcDbEntity
  8
PDF_Geometry
370
    25
100
AcDbSpline
210
0.0
220
0.0
230
1.0
 70
     8
 71
     3
 72
     8
 73
     4
 74
     0
 42
0.000000001
 43
0.0000000001
 40
0.0
 40
0.0
 40
0.0
 40
0.0
 40
1.0
 40
1.0
 40
1.0
 40
1.0
 10
2.9775
 20
2.68361111111111
 30
0.0
 10
2.990513888888888
 20
2.665569444444444
 30
0.0
 10
3.027833333333333
 20
2.646166666666666
 30
0.0
 10
3.049166666666666
 20
2.64111111111111
 30
0.0
  0
SPLINE
  5
1C5
330
2
100
AcDbEntity
  8
PDF_Geometry
370
    35
100
AcDbSpline
210
0.0
220
0.0
230
1.0
 70
     8
 71
     3
 72
     8
 73
     4
 74
     0
 42
0.000000001
 43
0.0000000001
 40
0.0
 40
0.0
 40
0.0
 40
0.0
 40
1.0
 40
1.0
 40
1.0
 40
1.0
 10
3.091666666666666
 20
2.689444444444444
 30
0.0
 10
3.234541666666666
 20
2.696097222222221
 30
0.0
 10
3.234541666666666
 20
2.898638888888888
 30
0.0
 10
3.091666666666666
 20
2.905277777777777
 30
0.0
  0
SPLINE
  5
1C6
330
2
100
AcDbEntity
  8
PDF_Geometry
370
    35
100
AcDbSpline
210
0.0
220
0.0
230
1.0
 70
     8
 71
     3
 72
     8
 73
     4
 74
     0
 42
0.000000001
 43
0.0000000001
 40
0.0
 40
0.0
 40
0.0
 40
0.0
 40
1.0
 40
1.0
 40
1.0
 40
1.0
 10
3.091666666666666
 20
2.905277777777777
 30
0.0
 10
2.947694444444444
 20
2.899527777777777
 30
0.0
 10
2.947694444444444
 20
2.695208333333333
 30
0.0
 10
3.091666666666666
 20
2.689444444444444
 30
0.0
  0
LWPOLYLINE
  5
1C7
330
2
100
AcDbEntity
  8
PDF_Geometry
370
    25
100
AcDbPolyline
 90
        6
 70
     0
 43
0.0
 10
6.077499999999999
 20
9.602777777777776
 10
6.071666666666666
 20
9.606944444444444
 10
6.054166666666666
 20
9.615277777777777
 10
6.035833333333332
 20
9.620277777777776
 10
6.017499999999999
 20
9.621944444444444
 10
5.9675
 20
9.621944444444444
  0
LWPOLYLINE
  5
1C8
330
2
100
AcDbEntity
  8
PDF_Geometry
370
    25
100
AcDbPolyline
 90
        2
 70
     0
 43
0.0
 10
5.925833333333333
 20
9.621944444444444
 10
5.844166666666666
 20
9.621944444444444
  0
LWPOLYLINE
  5
1C9
330
2
100
AcDbEntity
  8
PDF_Geometry
370
    25
100
AcDbPolyline
 90
        2
 70
     0
 43
0.0
 10
5.802499999999999
 20
9.621944444444444
 10
5.719999999999999
 20
9.621944444444444
  0
LWPOLYLINE
  5
1CA
330
2
100
AcDbEntity
  8
PDF_Geometry
370
    25
100
AcDbPolyline
 90
        2
 70
     0
 43
0.0
 10
5.679166666666666
 20
9.621944444444444
 10
5.596666666666665
 20
9.621944444444444
  0
LWPOLYLINE
  5
1CB
330
2
100
AcDbEntity
  8
PDF_Geometry
370
    25
100
AcDbPolyline
 90
        2
 70
     0
 43
0.0
 10
5.555833333333333
 20
9.621944444444444
 10
5.473333333333332
 20
9.621944444444444
  0
LWPOLYLINE
  5
1CC
330
2
100
AcDbEntity
  8
PDF_Geometry
370
    25
100
AcDbPolyline
 90
        2
 70
     0
 43
0.0
 10
5.4325
 20
9.621944444444444
 10
5.349999999999999
 20
9.621944444444444
  0
LWPOLYLINE
  5
1CD
330
2
100
AcDbEntity
  8
PDF_Geometry
370
    25
100
AcDbPolyline
 90
        2
 70
     0
 43
0.0
 10
5.309166666666666
 20
9.621944444444444
 10
5.226666666666666
 20
9.621944444444444
  0
LWPOLYLINE
  5
1CE
330
2
100
AcDbEntity
  8
PDF_Geometry
370
    25
100
AcDbPolyline
 90
        2
 70
     0
 43
0.0
 10
5.185833333333333
 20
9.621944444444444
 10
5.103333333333332
 20
9.621944444444444
  0
LWPOLYLINE
  5
1CF
330
2
100
AcDbEntity
  8
PDF_Geometry
370
    25
100
AcDbPolyline
 90
        2
 70
     0
 43
0.0
 10
5.0625
 20
9.621944444444444
 10
4.979999999999999
 20
9.621944444444444
  0
LWPOLYLINE
  5
1D0
330
2
100
AcDbEntity
  8
PDF_Geometry
370
    25
100
AcDbPolyline
 90
        2
 70
     0
 43
0.0
 10
4.938333333333333
 20
9.621944444444444
 10
4.856666666666666
 20
9.621944444444444
  0
LWPOLYLINE
  5
1D1
330
2
100
AcDbEntity
  8
PDF_Geometry
370
    25
100
AcDbPolyline
 90
        2
 70
     0
 43
0.0
 10
4.814999999999999
 20
9.621944444444444
 10
4.733333333333333
 20
9.621944444444444
  0
LWPOLYLINE
  5
1D2
330
2
100
AcDbEntity
  8
PDF_Geometry
370
    25
100
AcDbPolyline
 90
        2
 70
     0
 43
0.0
 10
4.691666666666666
 20
9.621944444444444
 10
4.609999999999999
 20
9.621944444444444
  0
LWPOLYLINE
  5
1D3
330
2
100
AcDbEntity
  8
PDF_Geometry
370
    25
100
AcDbPolyline
 90
        2
 70
     0
 43
0.0
 10
4.568333333333332
 20
9.621944444444444
 10
4.485833333333332
 20
9.621944444444444
  0
LWPOLYLINE
  5
1D4
330
2
100
AcDbEntity
  8
PDF_Geometry
370
    25
100
AcDbPolyline
 90
        2
 70
     0
 43
0.0
 10
4.445
 20
9.621944444444444
 10
4.362499999999999
 20
9.621944444444444
  0
LWPOLYLINE
  5
1D5
330
2
100
AcDbEntity
  8
PDF_Geometry
370
    25
100
AcDbPolyline
 90
        2
 70
     0
 43
0.0
 10
4.321666666666667
 20
9.621944444444444
 10
4.239166666666665
 20
9.621944444444444
  0
LWPOLYLINE
  5
1D6
330
2
100
AcDbEntity
  8
PDF_Geometry
370
    25
100
AcDbPolyline
 90
        2
 70
     0
 43
0.0
 10
4.198333333333332
 20
9.621944444444444
 10
4.115833333333333
 20
9.621944444444444
  0
LWPOLYLINE
  5
1D7
330
2
100
AcDbEntity
  8
PDF_Geometry
370
    25
100
AcDbPolyline
 90
        2
 70
     0
 43
0.0
 10
4.074999999999999
 20
9.621944444444444
 10
3.992499999999999
 20
9.621944444444444
  0
LWPOLYLINE
  5
1D8
330
2
100
AcDbEntity
  8
PDF_Geometry
370
    25
100
AcDbPolyline
 90
        2
 70
     0
 43
0.0
 10
3.951666666666666
 20
9.621944444444444
 10
3.869166666666666
 20
9.621944444444444
  0
LWPOLYLINE
  5
1D9
330
2
100
AcDbEntity
  8
PDF_Geometry
370
    25
100
AcDbPolyline
 90
        2
 70
     0
 43
0.0
 10
3.828333333333333
 20
9.621944444444444
 10
3.745833333333333
 20
9.621944444444444
  0
LWPOLYLINE
  5
1DA
330
2
100
AcDbEntity
  8
PDF_Geometry
370
    25
100
AcDbPolyline
 90
        2
 70
     0
 43
0.0
 10
3.704999999999999
 20
9.621944444444444
 10
3.622499999999999
 20
9.621944444444444
  0
LWPOLYLINE
  5
1DB
330
2
100
AcDbEntity
  8
PDF_Geometry
370
    25
100
AcDbPolyline
 90
        2
 70
     0
 43
0.0
 10
3.580833333333333
 20
9.621944444444444
 10
3.499166666666666
 20
9.621944444444444
  0
LWPOLYLINE
  5
1DC
330
2
100
AcDbEntity
  8
PDF_Geometry
370
    25
100
AcDbPolyline
 90
        2
 70
     0
 43
0.0
 10
3.457499999999999
 20
9.621944444444444
 10
3.375833333333333
 20
9.621944444444444
  0
LWPOLYLINE
  5
1DD
330
2
100
AcDbEntity
  8
PDF_Geometry
370
    25
100
AcDbPolyline
 90
        2
 70
     0
 43
0.0
 10
3.334166666666666
 20
9.621944444444444
 10
3.252499999999999
 20
9.621944444444444
  0
LWPOLYLINE
  5
1DE
330
2
100
AcDbEntity
  8
PDF_Geometry
370
    25
100
AcDbPolyline
 90
        2
 70
     0
 43
0.0
 10
3.210833333333333
 20
9.621944444444444
 10
3.128333333333332
 20
9.621944444444444
  0
LWPOLYLINE
  5
1DF
330
2
100
AcDbEntity
  8
PDF_Geometry
370
    25
100
AcDbPolyline
 90
        6
 70
     0
 43
0.0
 10
3.087499999999999
 20
9.621944444444444
 10
3.037499999999999
 20
9.621944444444444
 10
3.018333333333333
 20
9.620277777777776
 10
3.000833333333333
 20
9.615277777777777
 10
2.983333333333333
 20
9.606944444444444
 10
2.9775
 20
9.602777777777776
  0
LWPOLYLINE
  5
1E0
330
2
100
AcDbEntity
  8
PDF_Geometry
370
    35
100
AcDbPolyline
 90
        2
 70
     0
 43
0.0
 10
6.017499999999999
 20
9.556944444444443
 10
3.037499999999999
 20
9.556944444444443
  0
LWPOLYLINE
  5
1E1
330
2
100
AcDbEntity
  8
PDF_Geometry
370
    25
100
AcDbPolyline
 90
        6
 70
     0
 43
0.0
 10
6.125
 20
9.441944444444443
 10
6.125
 20
9.51361111111111
 10
6.123333333333333
 20
9.532777777777775
 10
6.119166666666665
 20
9.551111111111111
 10
6.110833333333332
 20
9.567777777777777
 10
6.106666666666666
 20
9.574444444444441
  0
SPLINE
  5
1E3
330
2
100
AcDbEntity
  8
PDF_Geometry
370
    35
100
AcDbSpline
210
0.0
220
0.0
230
1.0
 70
     8
 71
     3
 72
     8
 73
     4
 74
     0
 42
0.000000001
 43
0.0000000001
 40
0.0
 40
0.0
 40
0.0
 40
0.0
 40
1.0
 40
1.0
 40
1.0
 40
1.0
 10
6.060833333333333
 20
9.51361111111111
 30
0.0
 10
6.060583333333333
 20
9.53773611111111
 30
0.0
 10
6.041583333333332
 20
9.556291666666666
 30
0.0
 10
6.017499999999999
 20
9.556944444444443
 30
0.0
  0
LWPOLYLINE
  5
1E5
330
2
100
AcDbEntity
  8
PDF_Geometry
370
    25
100
AcDbPolyline
 90
        2
 70
     0
 43
0.0
 10
5.925833333333333
 20
6.05861111111111
 10
5.844166666666666
 20
6.05861111111111
  0
LWPOLYLINE
  5
1E6
330
2
100
AcDbEntity
  8
PDF_Geometry
370
    25
100
AcDbPolyline
 90
        2
 70
     0
 43
0.0
 10
5.802499999999999
 20
6.05861111111111
 10
5.719999999999999
 20
6.05861111111111
  0
LWPOLYLINE
  5
1E7
330
2
100
AcDbEntity
  8
PDF_Geometry
370
    25
100
AcDbPolyline
 90
        2
 70
     0
 43
0.0
 10
5.679166666666666
 20
6.05861111111111
 10
5.596666666666665
 20
6.05861111111111
  0
LWPOLYLINE
  5
1E8
330
2
100
AcDbEntity
  8
PDF_Geometry
370
    25
100
AcDbPolyline
 90
        2
 70
     0
 43
0.0
 10
5.555833333333333
 20
6.05861111111111
 10
5.473333333333332
 20
6.05861111111111
  0
LWPOLYLINE
  5
1E9
330
2
100
AcDbEntity
  8
PDF_Geometry
370
    25
100
AcDbPolyline
 90
        2
 70
     0
 43
0.0
 10
5.4325
 20
6.05861111111111
 10
5.349999999999999
 20
6.05861111111111
  0
LWPOLYLINE
  5
1EA
330
2
100
AcDbEntity
  8
PDF_Geometry
370
    25
100
AcDbPolyline
 90
        2
 70
     0
 43
0.0
 10
5.309166666666666
 20
6.05861111111111
 10
5.226666666666666
 20
6.05861111111111
  0
LWPOLYLINE
  5
1EB
330
2
100
AcDbEntity
  8
PDF_Geometry
370
    25
100
AcDbPolyline
 90
        2
 70
     0
 43
0.0
 10
5.185833333333333
 20
6.05861111111111
 10
5.103333333333332
 20
6.05861111111111
  0
LWPOLYLINE
  5
1EC
330
2
100
AcDbEntity
  8
PDF_Geometry
370
    25
100
AcDbPolyline
 90
        2
 70
     0
 43
0.0
 10
5.0625
 20
6.05861111111111
 10
4.979999999999999
 20
6.05861111111111
  0
LWPOLYLINE
  5
1ED
330
2
100
AcDbEntity
  8
PDF_Geometry
370
    25
100
AcDbPolyline
 90
        2
 70
     0
 43
0.0
 10
4.938333333333333
 20
6.05861111111111
 10
4.856666666666666
 20
6.05861111111111
  0
LWPOLYLINE
  5
1EE
330
2
100
AcDbEntity
  8
PDF_Geometry
370
    25
100
AcDbPolyline
 90
        2
 70
     0
 43
0.0
 10
4.814999999999999
 20
6.05861111111111
 10
4.733333333333333
 20
6.05861111111111
  0
LWPOLYLINE
  5
1EF
330
2
100
AcDbEntity
  8
PDF_Geometry
370
    25
100
AcDbPolyline
 90
        2
 70
     0
 43
0.0
 10
4.691666666666666
 20
6.05861111111111
 10
4.609999999999999
 20
6.05861111111111
  0
LWPOLYLINE
  5
1F0
330
2
100
AcDbEntity
  8
PDF_Geometry
370
    25
100
AcDbPolyline
 90
        2
 70
     0
 43
0.0
 10
4.568333333333332
 20
6.05861111111111
 10
4.485833333333332
 20
6.05861111111111
  0
LWPOLYLINE
  5
1F1
330
2
100
AcDbEntity
  8
PDF_Geometry
370
    25
100
AcDbPolyline
 90
        2
 70
     0
 43
0.0
 10
4.445
 20
6.05861111111111
 10
4.362499999999999
 20
6.05861111111111
  0
LWPOLYLINE
  5
1F2
330
2
100
AcDbEntity
  8
PDF_Geometry
370
    25
100
AcDbPolyline
 90
        2
 70
     0
 43
0.0
 10
4.321666666666667
 20
6.05861111111111
 10
4.239166666666665
 20
6.05861111111111
  0
LWPOLYLINE
  5
1F3
330
2
100
AcDbEntity
  8
PDF_Geometry
370
    25
100
AcDbPolyline
 90
        2
 70
     0
 43
0.0
 10
4.198333333333332
 20
6.05861111111111
 10
4.115833333333333
 20
6.05861111111111
  0
LWPOLYLINE
  5
1F4
330
2
100
AcDbEntity
  8
PDF_Geometry
370
    25
100
AcDbPolyline
 90
        2
 70
     0
 43
0.0
 10
4.074999999999999
 20
6.05861111111111
 10
3.992499999999999
 20
6.05861111111111
  0
LWPOLYLINE
  5
1F5
330
2
100
AcDbEntity
  8
PDF_Geometry
370
    25
100
AcDbPolyline
 90
        2
 70
     0
 43
0.0
 10
3.951666666666666
 20
6.05861111111111
 10
3.869166666666666
 20
6.05861111111111
  0
LWPOLYLINE
  5
1F6
330
2
100
AcDbEntity
  8
PDF_Geometry
370
    25
100
AcDbPolyline
 90
        2
 70
     0
 43
0.0
 10
3.828333333333333
 20
6.05861111111111
 10
3.745833333333333
 20
6.05861111111111
  0
LWPOLYLINE
  5
1F7
330
2
100
AcDbEntity
  8
PDF_Geometry
370
    25
100
AcDbPolyline
 90
        2
 70
     0
 43
0.0
 10
3.704999999999999
 20
6.05861111111111
 10
3.622499999999999
 20
6.05861111111111
  0
LWPOLYLINE
  5
1F8
330
2
100
AcDbEntity
  8
PDF_Geometry
370
    25
100
AcDbPolyline
 90
        2
 70
     0
 43
0.0
 10
3.580833333333333
 20
6.05861111111111
 10
3.499166666666666
 20
6.05861111111111
  0
LWPOLYLINE
  5
1F9
330
2
100
AcDbEntity
  8
PDF_Geometry
370
    25
100
AcDbPolyline
 90
        2
 70
     0
 43
0.0
 10
3.457499999999999
 20
6.05861111111111
 10
3.375833333333333
 20
6.05861111111111
  0
LWPOLYLINE
  5
1FA
330
2
100
AcDbEntity
  8
PDF_Geometry
370
    25
100
AcDbPolyline
 90
        2
 70
     0
 43
0.0
 10
3.334166666666666
 20
6.05861111111111
 10
3.252499999999999
 20
6.05861111111111
  0
LWPOLYLINE
  5
1FB
330
2
100
AcDbEntity
  8
PDF_Geometry
370
    25
100
AcDbPolyline
 90
        2
 70
     0
 43
0.0
 10
3.210833333333333
 20
6.05861111111111
 10
3.128333333333332
 20
6.05861111111111
  0
LWPOLYLINE
  5
1FC
330
2
100
AcDbEntity
  8
PDF_Geometry
370
    25
100
AcDbPolyline
 90
        6
 70
     0
 43
0.0
 10
3.087499999999999
 20
6.05861111111111
 10
3.037499999999999
 20
6.05861111111111
 10
3.018333333333333
 20
6.060277777777778
 10
3.000833333333333
 20
6.065277777777777
 10
2.983333333333333
 20
6.072777777777777
 10
2.9775
 20
6.076944444444444
  0
LWPOLYLINE
  5
1FD
330
2
100
AcDbEntity
  8
PDF_Geometry
370
    35
100
AcDbPolyline
 90
        2
 70
     0
 43
0.0
 10
6.017499999999999
 20
6.12361111111111
 10
3.037499999999999
 20
6.12361111111111
  0
LWPOLYLINE
  5
1FE
330
2
100
AcDbEntity
  8
PDF_Geometry
370
    25
100
AcDbPolyline
 90
        6
 70
     0
 43
0.0
 10
2.929166666666666
 20
6.238611111111111
 10
2.929166666666666
 20
6.16611111111111
 10
2.930833333333333
 20
6.147777777777777
 10
2.935833333333333
 20
6.129444444444444
 10
2.944166666666666
 20
6.112777777777777
 10
2.948333333333333
 20
6.106111111111111
  0
SPLINE
  5
200
330
2
100
AcDbEntity
  8
PDF_Geometry
370
    35
100
AcDbSpline
210
0.0
220
0.0
230
1.0
 70
     8
 71
     3
 72
     8
 73
     4
 74
     0
 42
0.000000001
 43
0.0000000001
 40
0.0
 40
0.0
 40
0.0
 40
0.0
 40
1.0
 40
1.0
 40
1.0
 40
1.0
 10
2.994166666666666
 20
6.16611111111111
 30
0.0
 10
2.993833333333333
 20
6.143416666666666
 30
0.0
 10
3.014583333333333
 20
6.122069444444443
 30
0.0
 10
3.037499999999999
 20
6.12361111111111
 30
0.0
  0
SPLINE
  5
201
330
2
100
AcDbEntity
  8
PDF_Geometry
370
    35
100
AcDbSpline
210
0.0
220
0.0
230
1.0
 70
     8
 71
     3
 72
     8
 73
     4
 74
     0
 42
0.000000001
 43
0.0000000001
 40
0.0
 40
0.0
 40
0.0
 40
0.0
 40
1.0
 40
1.0
 40
1.0
 40
1.0
 10
6.017499999999999
 20
6.12361111111111
 30
0.0
 10
6.040083333333332
 20
6.122430555555554
 30
0.0
 10
6.061180555555554
 20
6.143611111111111
 30
0.0
 10
6.060833333333333
 20
6.16611111111111
 30
0.0
  0
LWPOLYLINE
  5
202
330
2
100
AcDbEntity
  8
PDF_Geometry
370
    25
100
AcDbPolyline
 90
        6
 70
     0
 43
0.0
 10
6.077499999999999
 20
5.715277777777777
 10
6.071666666666666
 20
5.720277777777777
 10
6.054166666666666
 20
5.727777777777776
 10
6.035833333333332
 20
5.732777777777777
 10
6.017499999999999
 20
5.734444444444443
 10
5.9675
 20
5.734444444444443
  0
LWPOLYLINE
  5
203
330
2
100
AcDbEntity
  8
PDF_Geometry
370
    25
100
AcDbPolyline
 90
        2
 70
     0
 43
0.0
 10
5.925833333333333
 20
5.734444444444443
 10
5.844166666666666
 20
5.734444444444443
  0
LWPOLYLINE
  5
204
330
2
100
AcDbEntity
  8
PDF_Geometry
370
    25
100
AcDbPolyline
 90
        2
 70
     0
 43
0.0
 10
5.802499999999999
 20
5.734444444444443
 10
5.719999999999999
 20
5.734444444444443
  0
LWPOLYLINE
  5
205
330
2
100
AcDbEntity
  8
PDF_Geometry
370
    25
100
AcDbPolyline
 90
        2
 70
     0
 43
0.0
 10
5.679166666666666
 20
5.734444444444443
 10
5.596666666666665
 20
5.734444444444443
  0
LWPOLYLINE
  5
206
330
2
100
AcDbEntity
  8
PDF_Geometry
370
    25
100
AcDbPolyline
 90
        2
 70
     0
 43
0.0
 10
5.555833333333333
 20
5.734444444444443
 10
5.473333333333332
 20
5.734444444444443
  0
LWPOLYLINE
  5
207
330
2
100
AcDbEntity
  8
PDF_Geometry
370
    25
100
AcDbPolyline
 90
        2
 70
     0
 43
0.0
 10
5.4325
 20
5.734444444444443
 10
5.349999999999999
 20
5.734444444444443
  0
LWPOLYLINE
  5
208
330
2
100
AcDbEntity
  8
PDF_Geometry
370
    25
100
AcDbPolyline
 90
        2
 70
     0
 43
0.0
 10
5.309166666666666
 20
5.734444444444443
 10
5.226666666666666
 20
5.734444444444443
  0
LWPOLYLINE
  5
209
330
2
100
AcDbEntity
  8
PDF_Geometry
370
    25
100
AcDbPolyline
 90
        2
 70
     0
 43
0.0
 10
5.185833333333333
 20
5.734444444444443
 10
5.103333333333332
 20
5.734444444444443
  0
LWPOLYLINE
  5
20A
330
2
100
AcDbEntity
  8
PDF_Geometry
370
    25
100
AcDbPolyline
 90
        2
 70
     0
 43
0.0
 10
5.0625
 20
5.734444444444443
 10
4.979999999999999
 20
5.734444444444443
  0
LWPOLYLINE
  5
20B
330
2
100
AcDbEntity
  8
PDF_Geometry
370
    25
100
AcDbPolyline
 90
        2
 70
     0
 43
0.0
 10
4.938333333333333
 20
5.734444444444443
 10
4.856666666666666
 20
5.734444444444443
  0
LWPOLYLINE
  5
20C
330
2
100
AcDbEntity
  8
PDF_Geometry
370
    25
100
AcDbPolyline
 90
        2
 70
     0
 43
0.0
 10
4.814999999999999
 20
5.734444444444443
 10
4.733333333333333
 20
5.734444444444443
  0
LWPOLYLINE
  5
20D
330
2
100
AcDbEntity
  8
PDF_Geometry
370
    25
100
AcDbPolyline
 90
        2
 70
     0
 43
0.0
 10
4.691666666666666
 20
5.734444444444443
 10
4.609999999999999
 20
5.734444444444443
  0
LWPOLYLINE
  5
20E
330
2
100
AcDbEntity
  8
PDF_Geometry
370
    25
100
AcDbPolyline
 90
        2
 70
     0
 43
0.0
 10
4.568333333333332
 20
5.734444444444443
 10
4.485833333333332
 20
5.734444444444443
  0
LWPOLYLINE
  5
20F
330
2
100
AcDbEntity
  8
PDF_Geometry
370
    25
100
AcDbPolyline
 90
        2
 70
     0
 43
0.0
 10
4.445
 20
5.734444444444443
 10
4.362499999999999
 20
5.734444444444443
  0
LWPOLYLINE
  5
210
330
2
100
AcDbEntity
  8
PDF_Geometry
370
    25
100
AcDbPolyline
 90
        2
 70
     0
 43
0.0
 10
4.321666666666667
 20
5.734444444444443
 10
4.239166666666665
 20
5.734444444444443
  0
LWPOLYLINE
  5
211
330
2
100
AcDbEntity
  8
PDF_Geometry
370
    25
100
AcDbPolyline
 90
        2
 70
     0
 43
0.0
 10
4.198333333333332
 20
5.734444444444443
 10
4.115833333333333
 20
5.734444444444443
  0
LWPOLYLINE
  5
212
330
2
100
AcDbEntity
  8
PDF_Geometry
370
    25
100
AcDbPolyline
 90
        2
 70
     0
 43
0.0
 10
4.074999999999999
 20
5.734444444444443
 10
3.992499999999999
 20
5.734444444444443
  0
LWPOLYLINE
  5
213
330
2
100
AcDbEntity
  8
PDF_Geometry
370
    25
100
AcDbPolyline
 90
        2
 70
     0
 43
0.0
 10
3.951666666666666
 20
5.734444444444443
 10
3.869166666666666
 20
5.734444444444443
  0
LWPOLYLINE
  5
214
330
2
100
AcDbEntity
  8
PDF_Geometry
370
    25
100
AcDbPolyline
 90
        2
 70
     0
 43
0.0
 10
3.828333333333333
 20
5.734444444444443
 10
3.745833333333333
 20
5.734444444444443
  0
LWPOLYLINE
  5
215
330
2
100
AcDbEntity
  8
PDF_Geometry
370
    25
100
AcDbPolyline
 90
        2
 70
     0
 43
0.0
 10
3.704999999999999
 20
5.734444444444443
 10
3.622499999999999
 20
5.734444444444443
  0
LWPOLYLINE
  5
216
330
2
100
AcDbEntity
  8
PDF_Geometry
370
    25
100
AcDbPolyline
 90
        2
 70
     0
 43
0.0
 10
3.580833333333333
 20
5.734444444444443
 10
3.499166666666666
 20
5.734444444444443
  0
LWPOLYLINE
  5
217
330
2
100
AcDbEntity
  8
PDF_Geometry
370
    25
100
AcDbPolyline
 90
        2
 70
     0
 43
0.0
 10
3.457499999999999
 20
5.734444444444443
 10
3.375833333333333
 20
5.734444444444443
  0
LWPOLYLINE
  5
218
330
2
100
AcDbEntity
  8
PDF_Geometry
370
    25
100
AcDbPolyline
 90
        2
 70
     0
 43
0.0
 10
3.334166666666666
 20
5.734444444444443
 10
3.252499999999999
 20
5.734444444444443
  0
LWPOLYLINE
  5
219
330
2
100
AcDbEntity
  8
PDF_Geometry
370
    25
100
AcDbPolyline
 90
        2
 70
     0
 43
0.0
 10
3.210833333333333
 20
5.734444444444443
 10
3.128333333333332
 20
5.734444444444443
  0
LWPOLYLINE
  5
21A
330
2
100
AcDbEntity
  8
PDF_Geometry
370
    25
100
AcDbPolyline
 90
        6
 70
     0
 43
0.0
 10
3.087499999999999
 20
5.734444444444443
 10
3.037499999999999
 20
5.734444444444443
 10
3.018333333333333
 20
5.732777777777777
 10
3.000833333333333
 20
5.727777777777776
 10
2.983333333333333
 20
5.720277777777777
 10
2.9775
 20
5.715277777777777
  0
LWPOLYLINE
  5
21B
330
2
100
AcDbEntity
  8
PDF_Geometry
370
    35
100
AcDbPolyline
 90
        2
 70
     0
 43
0.0
 10
6.017499999999999
 20
5.669444444444444
 10
3.037499999999999
 20
5.669444444444444
  0
LWPOLYLINE
  5
21C
330
2
100
AcDbEntity
  8
PDF_Geometry
370
    25
100
AcDbPolyline
 90
        6
 70
     0
 43
0.0
 10
6.125
 20
5.554444444444443
 10
6.125
 20
5.626944444444444
 10
6.123333333333333
 20
5.645277777777777
 10
6.119166666666665
 20
5.66361111111111
 10
6.110833333333332
 20
5.680277777777776
 10
6.106666666666666
 20
5.686944444444443
  0
SPLINE
  5
21E
330
2
100
AcDbEntity
  8
PDF_Geometry
370
    35
100
AcDbSpline
210
0.0
220
0.0
230
1.0
 70
     8
 71
     3
 72
     8
 73
     4
 74
     0
 42
0.000000001
 43
0.0000000001
 40
0.0
 40
0.0
 40
0.0
 40
0.0
 40
1.0
 40
1.0
 40
1.0
 40
1.0
 10
6.060833333333333
 20
5.626944444444444
 30
0.0
 10
6.061097222222222
 20
5.648722222222221
 30
0.0
 10
6.039680555555555
 20
5.671208333333333
 30
0.0
 10
6.017499999999999
 20
5.669444444444444
 30
0.0
  0
LWPOLYLINE
  5
21F
330
2
100
AcDbEntity
  8
PDF_Geometry
370
    25
100
AcDbPolyline
 90
        6
 70
     0
 43
0.0
 10
6.077499999999999
 20
5.105277777777777
 10
6.071666666666666
 20
5.10111111111111
 10
6.054166666666666
 20
5.092777777777777
 10
6.035833333333332
 20
5.08861111111111
 10
6.017499999999999
 20
5.086944444444443
 10
5.9675
 20
5.086944444444443
  0
LWPOLYLINE
  5
220
330
2
100
AcDbEntity
  8
PDF_Geometry
370
    25
100
AcDbPolyline
 90
        2
 70
     0
 43
0.0
 10
5.925833333333333
 20
5.086944444444443
 10
5.844166666666666
 20
5.086944444444443
  0
LWPOLYLINE
  5
221
330
2
100
AcDbEntity
  8
PDF_Geometry
370
    25
100
AcDbPolyline
 90
        2
 70
     0
 43
0.0
 10
5.802499999999999
 20
5.086944444444443
 10
5.719999999999999
 20
5.086944444444443
  0
LWPOLYLINE
  5
222
330
2
100
AcDbEntity
  8
PDF_Geometry
370
    25
100
AcDbPolyline
 90
        2
 70
     0
 43
0.0
 10
5.679166666666666
 20
5.086944444444443
 10
5.596666666666665
 20
5.086944444444443
  0
LWPOLYLINE
  5
223
330
2
100
AcDbEntity
  8
PDF_Geometry
370
    25
100
AcDbPolyline
 90
        2
 70
     0
 43
0.0
 10
5.555833333333333
 20
5.086944444444443
 10
5.473333333333332
 20
5.086944444444443
  0
LWPOLYLINE
  5
224
330
2
100
AcDbEntity
  8
PDF_Geometry
370
    25
100
AcDbPolyline
 90
        2
 70
     0
 43
0.0
 10
5.4325
 20
5.086944444444443
 10
5.349999999999999
 20
5.086944444444443
  0
LWPOLYLINE
  5
225
330
2
100
AcDbEntity
  8
PDF_Geometry
370
    25
100
AcDbPolyline
 90
        2
 70
     0
 43
0.0
 10
5.309166666666666
 20
5.086944444444443
 10
5.226666666666666
 20
5.086944444444443
  0
LWPOLYLINE
  5
226
330
2
100
AcDbEntity
  8
PDF_Geometry
370
    25
100
AcDbPolyline
 90
        2
 70
     0
 43
0.0
 10
5.185833333333333
 20
5.086944444444443
 10
5.103333333333332
 20
5.086944444444443
  0
LWPOLYLINE
  5
227
330
2
100
AcDbEntity
  8
PDF_Geometry
370
    25
100
AcDbPolyline
 90
        2
 70
     0
 43
0.0
 10
5.0625
 20
5.086944444444443
 10
4.979999999999999
 20
5.086944444444443
  0
LWPOLYLINE
  5
228
330
2
100
AcDbEntity
  8
PDF_Geometry
370
    25
100
AcDbPolyline
 90
        2
 70
     0
 43
0.0
 10
4.938333333333333
 20
5.086944444444443
 10
4.856666666666666
 20
5.086944444444443
  0
LWPOLYLINE
  5
229
330
2
100
AcDbEntity
  8
PDF_Geometry
370
    25
100
AcDbPolyline
 90
        2
 70
     0
 43
0.0
 10
4.814999999999999
 20
5.086944444444443
 10
4.733333333333333
 20
5.086944444444443
  0
LWPOLYLINE
  5
22A
330
2
100
AcDbEntity
  8
PDF_Geometry
370
    25
100
AcDbPolyline
 90
        2
 70
     0
 43
0.0
 10
4.691666666666666
 20
5.086944444444443
 10
4.609999999999999
 20
5.086944444444443
  0
LWPOLYLINE
  5
22B
330
2
100
AcDbEntity
  8
PDF_Geometry
370
    25
100
AcDbPolyline
 90
        2
 70
     0
 43
0.0
 10
4.568333333333332
 20
5.086944444444443
 10
4.485833333333332
 20
5.086944444444443
  0
LWPOLYLINE
  5
22C
330
2
100
AcDbEntity
  8
PDF_Geometry
370
    25
100
AcDbPolyline
 90
        2
 70
     0
 43
0.0
 10
4.445
 20
5.086944444444443
 10
4.362499999999999
 20
5.086944444444443
  0
LWPOLYLINE
  5
22D
330
2
100
AcDbEntity
  8
PDF_Geometry
370
    25
100
AcDbPolyline
 90
        2
 70
     0
 43
0.0
 10
4.321666666666667
 20
5.086944444444443
 10
4.239166666666665
 20
5.086944444444443
  0
LWPOLYLINE
  5
22E
330
2
100
AcDbEntity
  8
PDF_Geometry
370
    25
100
AcDbPolyline
 90
        2
 70
     0
 43
0.0
 10
4.198333333333332
 20
5.086944444444443
 10
4.115833333333333
 20
5.086944444444443
  0
LWPOLYLINE
  5
22F
330
2
100
AcDbEntity
  8
PDF_Geometry
370
    25
100
AcDbPolyline
 90
        2
 70
     0
 43
0.0
 10
4.074999999999999
 20
5.086944444444443
 10
3.992499999999999
 20
5.086944444444443
  0
LWPOLYLINE
  5
230
330
2
100
AcDbEntity
  8
PDF_Geometry
370
    25
100
AcDbPolyline
 90
        2
 70
     0
 43
0.0
 10
3.951666666666666
 20
5.086944444444443
 10
3.869166666666666
 20
5.086944444444443
  0
LWPOLYLINE
  5
231
330
2
100
AcDbEntity
  8
PDF_Geometry
370
    25
100
AcDbPolyline
 90
        2
 70
     0
 43
0.0
 10
3.828333333333333
 20
5.086944444444443
 10
3.745833333333333
 20
5.086944444444443
  0
LWPOLYLINE
  5
232
330
2
100
AcDbEntity
  8
PDF_Geometry
370
    25
100
AcDbPolyline
 90
        2
 70
     0
 43
0.0
 10
3.704999999999999
 20
5.086944444444443
 10
3.622499999999999
 20
5.086944444444443
  0
LWPOLYLINE
  5
233
330
2
100
AcDbEntity
  8
PDF_Geometry
370
    25
100
AcDbPolyline
 90
        2
 70
     0
 43
0.0
 10
3.580833333333333
 20
5.086944444444443
 10
3.499166666666666
 20
5.086944444444443
  0
LWPOLYLINE
  5
234
330
2
100
AcDbEntity
  8
PDF_Geometry
370
    25
100
AcDbPolyline
 90
        2
 70
     0
 43
0.0
 10
3.457499999999999
 20
5.086944444444443
 10
3.375833333333333
 20
5.086944444444443
  0
LWPOLYLINE
  5
235
330
2
100
AcDbEntity
  8
PDF_Geometry
370
    25
100
AcDbPolyline
 90
        2
 70
     0
 43
0.0
 10
3.334166666666666
 20
5.086944444444443
 10
3.252499999999999
 20
5.086944444444443
  0
LWPOLYLINE
  5
236
330
2
100
AcDbEntity
  8
PDF_Geometry
370
    25
100
AcDbPolyline
 90
        2
 70
     0
 43
0.0
 10
3.210833333333333
 20
5.086944444444443
 10
3.128333333333332
 20
5.086944444444443
  0
LWPOLYLINE
  5
237
330
2
100
AcDbEntity
  8
PDF_Geometry
370
    25
100
AcDbPolyline
 90
        6
 70
     0
 43
0.0
 10
3.087499999999999
 20
5.086944444444443
 10
3.037499999999999
 20
5.086944444444443
 10
3.018333333333333
 20
5.08861111111111
 10
3.000833333333333
 20
5.092777777777777
 10
2.983333333333333
 20
5.10111111111111
 10
2.9775
 20
5.105277777777777
  0
LWPOLYLINE
  5
238
330
2
100
AcDbEntity
  8
PDF_Geometry
370
    35
100
AcDbPolyline
 90
        2
 70
     0
 43
0.0
 10
6.017499999999999
 20
5.15111111111111
 10
3.037499999999999
 20
5.15111111111111
  0
LWPOLYLINE
  5
239
330
2
100
AcDbEntity
  8
PDF_Geometry
370
    25
100
AcDbPolyline
 90
        6
 70
     0
 43
0.0
 10
2.929166666666666
 20
5.266944444444443
 10
2.929166666666666
 20
5.194444444444443
 10
2.930833333333333
 20
5.176111111111111
 10
2.935833333333333
 20
5.157777777777777
 10
2.944166666666666
 20
5.140277777777777
 10
2.948333333333333
 20
5.134444444444444
  0
SPLINE
  5
23B
330
2
100
AcDbEntity
  8
PDF_Geometry
370
    35
100
AcDbSpline
210
0.0
220
0.0
230
1.0
 70
     8
 71
     3
 72
     8
 73
     4
 74
     0
 42
0.000000001
 43
0.0000000001
 40
0.0
 40
0.0
 40
0.0
 40
0.0
 40
1.0
 40
1.0
 40
1.0
 40
1.0
 10
2.994166666666666
 20
5.194444444444443
 30
0.0
 10
2.994819444444444
 20
5.17036111111111
 30
0.0
 10
3.013374999999999
 20
5.151374999999999
 30
0.0
 10
3.037499999999999
 20
5.15111111111111
 30
0.0
  0
LWPOLYLINE
  5
23D
330
2
100
AcDbEntity
  8
PDF_Geometry
370
    25
100
AcDbPolyline
 90
        6
 70
     0
 43
0.0
 10
6.106666666666666
 20
5.134444444444444
 10
6.110833333333332
 20
5.140277777777777
 10
6.119166666666665
 20
5.157777777777777
 10
6.123333333333333
 20
5.176111111111111
 10
6.125
 20
5.194444444444443
 10
6.125
 20
5.266944444444443
  0
SPLINE
  5
23E
330
2
100
AcDbEntity
  8
PDF_Geometry
370
    35
100
AcDbSpline
210
0.0
220
0.0
230
1.0
 70
     8
 71
     3
 72
     8
 73
     4
 74
     0
 42
0.000000001
 43
0.0000000001
 40
0.0
 40
0.0
 40
0.0
 40
0.0
 40
1.0
 40
1.0
 40
1.0
 40
1.0
 10
6.017499999999999
 20
5.15111111111111
 30
0.0
 10
6.040472222222221
 20
5.151069444444444
 30
0.0
 10
6.060888888888888
 20
5.171472222222221
 30
0.0
 10
6.060833333333333
 20
5.194444444444443
 30
0.0
  0
LWPOLYLINE
  5
240
330
2
100
AcDbEntity
  8
PDF_Geometry
370
    25
100
AcDbPolyline
 90
        2
 70
     0
 43
0.0
 10
5.925833333333333
 20
4.762777777777777
 10
5.844166666666666
 20
4.762777777777777
  0
LWPOLYLINE
  5
241
330
2
100
AcDbEntity
  8
PDF_Geometry
370
    25
100
AcDbPolyline
 90
        2
 70
     0
 43
0.0
 10
5.802499999999999
 20
4.762777777777777
 10
5.719999999999999
 20
4.762777777777777
  0
LWPOLYLINE
  5
242
330
2
100
AcDbEntity
  8
PDF_Geometry
370
    25
100
AcDbPolyline
 90
        2
 70
     0
 43
0.0
 10
5.679166666666666
 20
4.762777777777777
 10
5.596666666666665
 20
4.762777777777777
  0
LWPOLYLINE
  5
243
330
2
100
AcDbEntity
  8
PDF_Geometry
370
    25
100
AcDbPolyline
 90
        2
 70
     0
 43
0.0
 10
5.555833333333333
 20
4.762777777777777
 10
5.473333333333332
 20
4.762777777777777
  0
LWPOLYLINE
  5
244
330
2
100
AcDbEntity
  8
PDF_Geometry
370
    25
100
AcDbPolyline
 90
        2
 70
     0
 43
0.0
 10
5.4325
 20
4.762777777777777
 10
5.349999999999999
 20
4.762777777777777
  0
LWPOLYLINE
  5
245
330
2
100
AcDbEntity
  8
PDF_Geometry
370
    25
100
AcDbPolyline
 90
        2
 70
     0
 43
0.0
 10
5.309166666666666
 20
4.762777777777777
 10
5.226666666666666
 20
4.762777777777777
  0
LWPOLYLINE
  5
246
330
2
100
AcDbEntity
  8
PDF_Geometry
370
    25
100
AcDbPolyline
 90
        2
 70
     0
 43
0.0
 10
5.185833333333333
 20
4.762777777777777
 10
5.103333333333332
 20
4.762777777777777
  0
LWPOLYLINE
  5
247
330
2
100
AcDbEntity
  8
PDF_Geometry
370
    25
100
AcDbPolyline
 90
        2
 70
     0
 43
0.0
 10
5.0625
 20
4.762777777777777
 10
4.979999999999999
 20
4.762777777777777
  0
LWPOLYLINE
  5
248
330
2
100
AcDbEntity
  8
PDF_Geometry
370
    25
100
AcDbPolyline
 90
        2
 70
     0
 43
0.0
 10
4.938333333333333
 20
4.762777777777777
 10
4.856666666666666
 20
4.762777777777777
  0
LWPOLYLINE
  5
249
330
2
100
AcDbEntity
  8
PDF_Geometry
370
    25
100
AcDbPolyline
 90
        2
 70
     0
 43
0.0
 10
4.814999999999999
 20
4.762777777777777
 10
4.733333333333333
 20
4.762777777777777
  0
LWPOLYLINE
  5
24A
330
2
100
AcDbEntity
  8
PDF_Geometry
370
    25
100
AcDbPolyline
 90
        2
 70
     0
 43
0.0
 10
4.691666666666666
 20
4.762777777777777
 10
4.609999999999999
 20
4.762777777777777
  0
LWPOLYLINE
  5
24B
330
2
100
AcDbEntity
  8
PDF_Geometry
370
    25
100
AcDbPolyline
 90
        2
 70
     0
 43
0.0
 10
4.568333333333332
 20
4.762777777777777
 10
4.485833333333332
 20
4.762777777777777
  0
LWPOLYLINE
  5
24C
330
2
100
AcDbEntity
  8
PDF_Geometry
370
    25
100
AcDbPolyline
 90
        2
 70
     0
 43
0.0
 10
4.445
 20
4.762777777777777
 10
4.362499999999999
 20
4.762777777777777
  0
LWPOLYLINE
  5
24D
330
2
100
AcDbEntity
  8
PDF_Geometry
370
    25
100
AcDbPolyline
 90
        2
 70
     0
 43
0.0
 10
4.321666666666667
 20
4.762777777777777
 10
4.239166666666665
 20
4.762777777777777
  0
LWPOLYLINE
  5
24E
330
2
100
AcDbEntity
  8
PDF_Geometry
370
    25
100
AcDbPolyline
 90
        2
 70
     0
 43
0.0
 10
4.198333333333332
 20
4.762777777777777
 10
4.115833333333333
 20
4.762777777777777
  0
LWPOLYLINE
  5
24F
330
2
100
AcDbEntity
  8
PDF_Geometry
370
    25
100
AcDbPolyline
 90
        2
 70
     0
 43
0.0
 10
4.074999999999999
 20
4.762777777777777
 10
3.992499999999999
 20
4.762777777777777
  0
LWPOLYLINE
  5
250
330
2
100
AcDbEntity
  8
PDF_Geometry
370
    25
100
AcDbPolyline
 90
        2
 70
     0
 43
0.0
 10
3.951666666666666
 20
4.762777777777777
 10
3.869166666666666
 20
4.762777777777777
  0
LWPOLYLINE
  5
251
330
2
100
AcDbEntity
  8
PDF_Geometry
370
    25
100
AcDbPolyline
 90
        2
 70
     0
 43
0.0
 10
3.828333333333333
 20
4.762777777777777
 10
3.745833333333333
 20
4.762777777777777
  0
LWPOLYLINE
  5
252
330
2
100
AcDbEntity
  8
PDF_Geometry
370
    25
100
AcDbPolyline
 90
        2
 70
     0
 43
0.0
 10
3.704999999999999
 20
4.762777777777777
 10
3.622499999999999
 20
4.762777777777777
  0
LWPOLYLINE
  5
253
330
2
100
AcDbEntity
  8
PDF_Geometry
370
    25
100
AcDbPolyline
 90
        2
 70
     0
 43
0.0
 10
3.580833333333333
 20
4.762777777777777
 10
3.499166666666666
 20
4.762777777777777
  0
LWPOLYLINE
  5
254
330
2
100
AcDbEntity
  8
PDF_Geometry
370
    25
100
AcDbPolyline
 90
        2
 70
     0
 43
0.0
 10
3.457499999999999
 20
4.762777777777777
 10
3.375833333333333
 20
4.762777777777777
  0
LWPOLYLINE
  5
255
330
2
100
AcDbEntity
  8
PDF_Geometry
370
    25
100
AcDbPolyline
 90
        2
 70
     0
 43
0.0
 10
3.334166666666666
 20
4.762777777777777
 10
3.252499999999999
 20
4.762777777777777
  0
LWPOLYLINE
  5
256
330
2
100
AcDbEntity
  8
PDF_Geometry
370
    25
100
AcDbPolyline
 90
        2
 70
     0
 43
0.0
 10
3.210833333333333
 20
4.762777777777777
 10
3.128333333333332
 20
4.762777777777777
  0
LWPOLYLINE
  5
257
330
2
100
AcDbEntity
  8
PDF_Geometry
370
    25
100
AcDbPolyline
 90
        6
 70
     0
 43
0.0
 10
3.087499999999999
 20
4.762777777777777
 10
3.037499999999999
 20
4.762777777777777
 10
3.018333333333333
 20
4.761111111111111
 10
3.000833333333333
 20
4.756111111111111
 10
2.983333333333333
 20
4.74861111111111
 10
2.9775
 20
4.743611111111111
  0
LWPOLYLINE
  5
258
330
2
100
AcDbEntity
  8
PDF_Geometry
370
    35
100
AcDbPolyline
 90
        2
 70
     0
 43
0.0
 10
6.017499999999999
 20
4.697777777777777
 10
3.037499999999999
 20
4.697777777777777
  0
SPLINE
  5
259
330
2
100
AcDbEntity
  8
PDF_Geometry
370
    35
100
AcDbSpline
210
0.0
220
0.0
230
1.0
 70
     8
 71
     3
 72
     8
 73
     4
 74
     0
 42
0.000000001
 43
0.0000000001
 40
0.0
 40
0.0
 40
0.0
 40
0.0
 40
1.0
 40
1.0
 40
1.0
 40
1.0
 10
6.060833333333333
 20
4.654444444444444
 30
0.0
 10
6.060583333333333
 20
4.678569444444444
 30
0.0
 10
6.041583333333332
 20
4.697124999999999
 30
0.0
 10
6.017499999999999
 20
4.697777777777777
 30
0.0
  0
LWPOLYLINE
  5
25A
330
2
100
AcDbEntity
  8
PDF_Geometry
370
    25
100
AcDbPolyline
 90
        6
 70
     0
 43
0.0
 10
6.077499999999999
 20
4.13361111111111
 10
6.071666666666666
 20
4.129444444444444
 10
6.054166666666666
 20
4.12111111111111
 10
6.035833333333332
 20
4.116111111111111
 10
6.017499999999999
 20
4.114444444444444
 10
5.9675
 20
4.114444444444444
  0
LWPOLYLINE
  5
25B
330
2
100
AcDbEntity
  8
PDF_Geometry
370
    25
100
AcDbPolyline
 90
        2
 70
     0
 43
0.0
 10
5.925833333333333
 20
4.114444444444444
 10
5.844166666666666
 20
4.114444444444444
  0
LWPOLYLINE
  5
25C
330
2
100
AcDbEntity
  8
PDF_Geometry
370
    25
100
AcDbPolyline
 90
        2
 70
     0
 43
0.0
 10
5.802499999999999
 20
4.114444444444444
 10
5.719999999999999
 20
4.114444444444444
  0
LWPOLYLINE
  5
25D
330
2
100
AcDbEntity
  8
PDF_Geometry
370
    25
100
AcDbPolyline
 90
        2
 70
     0
 43
0.0
 10
5.679166666666666
 20
4.114444444444444
 10
5.596666666666665
 20
4.114444444444444
  0
LWPOLYLINE
  5
25E
330
2
100
AcDbEntity
  8
PDF_Geometry
370
    25
100
AcDbPolyline
 90
        2
 70
     0
 43
0.0
 10
5.555833333333333
 20
4.114444444444444
 10
5.473333333333332
 20
4.114444444444444
  0
LWPOLYLINE
  5
25F
330
2
100
AcDbEntity
  8
PDF_Geometry
370
    25
100
AcDbPolyline
 90
        2
 70
     0
 43
0.0
 10
5.4325
 20
4.114444444444444
 10
5.349999999999999
 20
4.114444444444444
  0
LWPOLYLINE
  5
260
330
2
100
AcDbEntity
  8
PDF_Geometry
370
    25
100
AcDbPolyline
 90
        2
 70
     0
 43
0.0
 10
5.309166666666666
 20
4.114444444444444
 10
5.226666666666666
 20
4.114444444444444
  0
LWPOLYLINE
  5
261
330
2
100
AcDbEntity
  8
PDF_Geometry
370
    25
100
AcDbPolyline
 90
        2
 70
     0
 43
0.0
 10
5.185833333333333
 20
4.114444444444444
 10
5.103333333333332
 20
4.114444444444444
  0
LWPOLYLINE
  5
262
330
2
100
AcDbEntity
  8
PDF_Geometry
370
    25
100
AcDbPolyline
 90
        2
 70
     0
 43
0.0
 10
5.0625
 20
4.114444444444444
 10
4.979999999999999
 20
4.114444444444444
  0
LWPOLYLINE
  5
263
330
2
100
AcDbEntity
  8
PDF_Geometry
370
    25
100
AcDbPolyline
 90
        2
 70
     0
 43
0.0
 10
4.938333333333333
 20
4.114444444444444
 10
4.856666666666666
 20
4.114444444444444
  0
LWPOLYLINE
  5
264
330
2
100
AcDbEntity
  8
PDF_Geometry
370
    25
100
AcDbPolyline
 90
        2
 70
     0
 43
0.0
 10
4.814999999999999
 20
4.114444444444444
 10
4.733333333333333
 20
4.114444444444444
  0
LWPOLYLINE
  5
265
330
2
100
AcDbEntity
  8
PDF_Geometry
370
    25
100
AcDbPolyline
 90
        2
 70
     0
 43
0.0
 10
4.691666666666666
 20
4.114444444444444
 10
4.609999999999999
 20
4.114444444444444
  0
LWPOLYLINE
  5
266
330
2
100
AcDbEntity
  8
PDF_Geometry
370
    25
100
AcDbPolyline
 90
        2
 70
     0
 43
0.0
 10
4.568333333333332
 20
4.114444444444444
 10
4.485833333333332
 20
4.114444444444444
  0
LWPOLYLINE
  5
267
330
2
100
AcDbEntity
  8
PDF_Geometry
370
    25
100
AcDbPolyline
 90
        2
 70
     0
 43
0.0
 10
4.445
 20
4.114444444444444
 10
4.362499999999999
 20
4.114444444444444
  0
LWPOLYLINE
  5
268
330
2
100
AcDbEntity
  8
PDF_Geometry
370
    25
100
AcDbPolyline
 90
        2
 70
     0
 43
0.0
 10
4.321666666666667
 20
4.114444444444444
 10
4.239166666666665
 20
4.114444444444444
  0
LWPOLYLINE
  5
269
330
2
100
AcDbEntity
  8
PDF_Geometry
370
    25
100
AcDbPolyline
 90
        2
 70
     0
 43
0.0
 10
4.198333333333332
 20
4.114444444444444
 10
4.115833333333333
 20
4.114444444444444
  0
LWPOLYLINE
  5
26A
330
2
100
AcDbEntity
  8
PDF_Geometry
370
    25
100
AcDbPolyline
 90
        2
 70
     0
 43
0.0
 10
4.074999999999999
 20
4.114444444444444
 10
3.992499999999999
 20
4.114444444444444
  0
LWPOLYLINE
  5
26B
330
2
100
AcDbEntity
  8
PDF_Geometry
370
    25
100
AcDbPolyline
 90
        2
 70
     0
 43
0.0
 10
3.951666666666666
 20
4.114444444444444
 10
3.869166666666666
 20
4.114444444444444
  0
LWPOLYLINE
  5
26C
330
2
100
AcDbEntity
  8
PDF_Geometry
370
    25
100
AcDbPolyline
 90
        2
 70
     0
 43
0.0
 10
3.828333333333333
 20
4.114444444444444
 10
3.745833333333333
 20
4.114444444444444
  0
LWPOLYLINE
  5
26D
330
2
100
AcDbEntity
  8
PDF_Geometry
370
    25
100
AcDbPolyline
 90
        2
 70
     0
 43
0.0
 10
3.704999999999999
 20
4.114444444444444
 10
3.622499999999999
 20
4.114444444444444
  0
LWPOLYLINE
  5
26E
330
2
100
AcDbEntity
  8
PDF_Geometry
370
    25
100
AcDbPolyline
 90
        2
 70
     0
 43
0.0
 10
3.580833333333333
 20
4.114444444444444
 10
3.499166666666666
 20
4.114444444444444
  0
LWPOLYLINE
  5
26F
330
2
100
AcDbEntity
  8
PDF_Geometry
370
    25
100
AcDbPolyline
 90
        2
 70
     0
 43
0.0
 10
3.457499999999999
 20
4.114444444444444
 10
3.375833333333333
 20
4.114444444444444
  0
LWPOLYLINE
  5
270
330
2
100
AcDbEntity
  8
PDF_Geometry
370
    25
100
AcDbPolyline
 90
        2
 70
     0
 43
0.0
 10
3.334166666666666
 20
4.114444444444444
 10
3.252499999999999
 20
4.114444444444444
  0
LWPOLYLINE
  5
271
330
2
100
AcDbEntity
  8
PDF_Geometry
370
    25
100
AcDbPolyline
 90
        2
 70
     0
 43
0.0
 10
3.210833333333333
 20
4.114444444444444
 10
3.128333333333332
 20
4.114444444444444
  0
LWPOLYLINE
  5
272
330
2
100
AcDbEntity
  8
PDF_Geometry
370
    25
100
AcDbPolyline
 90
        6
 70
     0
 43
0.0
 10
3.087499999999999
 20
4.114444444444444
 10
3.037499999999999
 20
4.114444444444444
 10
3.018333333333333
 20
4.116111111111111
 10
3.000833333333333
 20
4.12111111111111
 10
2.983333333333333
 20
4.129444444444444
 10
2.9775
 20
4.13361111111111
  0
LWPOLYLINE
  5
273
330
2
100
AcDbEntity
  8
PDF_Geometry
370
    35
100
AcDbPolyline
 90
        2
 70
     0
 43
0.0
 10
6.017499999999999
 20
4.179444444444444
 10
3.037499999999999
 20
4.179444444444444
  0
LWPOLYLINE
  5
274
330
2
100
AcDbEntity
  8
PDF_Geometry
370
    25
100
AcDbPolyline
 90
        6
 70
     0
 43
0.0
 10
2.929166666666666
 20
4.294444444444444
 10
2.929166666666666
 20
4.222777777777777
 10
2.930833333333333
 20
4.204444444444443
 10
2.935833333333333
 20
4.18611111111111
 10
2.944166666666666
 20
4.168611111111111
 10
2.948333333333333
 20
4.162777777777777
  0
SPLINE
  5
276
330
2
100
AcDbEntity
  8
PDF_Geometry
370
    35
100
AcDbSpline
210
0.0
220
0.0
230
1.0
 70
     8
 71
     3
 72
     8
 73
     4
 74
     0
 42
0.000000001
 43
0.0000000001
 40
0.0
 40
0.0
 40
0.0
 40
0.0
 40
1.0
 40
1.0
 40
1.0
 40
1.0
 10
2.994166666666666
 20
4.222777777777777
 30
0.0
 10
2.995513888888888
 20
4.197416666666666
 30
0.0
 10
3.012013888888888
 20
4.180444444444443
 30
0.0
 10
3.037499999999999
 20
4.179444444444444
 30
0.0
  0
LWPOLYLINE
  5
278
330
2
100
AcDbEntity
  8
PDF_Geometry
370
    25
100
AcDbPolyline
 90
        6
 70
     0
 43
0.0
 10
6.106666666666666
 20
4.162777777777777
 10
6.110833333333332
 20
4.168611111111111
 10
6.119166666666665
 20
4.18611111111111
 10
6.123333333333333
 20
4.204444444444443
 10
6.125
 20
4.222777777777777
 10
6.125
 20
4.294444444444444
  0
SPLINE
  5
279
330
2
100
AcDbEntity
  8
PDF_Geometry
370
    35
100
AcDbSpline
210
0.0
220
0.0
230
1.0
 70
     8
 71
     3
 72
     8
 73
     4
 74
     0
 42
0.000000001
 43
0.0000000001
 40
0.0
 40
0.0
 40
0.0
 40
0.0
 40
1.0
 40
1.0
 40
1.0
 40
1.0
 10
6.017499999999999
 20
4.179444444444444
 30
0.0
 10
6.041874999999999
 20
4.180208333333332
 30
0.0
 10
6.060083333333332
 20
4.198374999999999
 30
0.0
 10
6.060833333333333
 20
4.222777777777777
 30
0.0
  0
LWPOLYLINE
  5
27A
330
2
100
AcDbEntity
  8
PDF_Geometry
370
    25
100
AcDbPolyline
 90
        6
 70
     0
 43
0.0
 10
6.077499999999999
 20
3.771944444444443
 10
6.071666666666666
 20
3.77611111111111
 10
6.054166666666666
 20
3.784444444444443
 10
6.035833333333332
 20
3.789444444444444
 10
6.017499999999999
 20
3.79111111111111
 10
5.9675
 20
3.79111111111111
  0
LWPOLYLINE
  5
27B
330
2
100
AcDbEntity
  8
PDF_Geometry
370
    25
100
AcDbPolyline
 90
        2
 70
     0
 43
0.0
 10
5.925833333333333
 20
3.79111111111111
 10
5.844166666666666
 20
3.79111111111111
  0
LWPOLYLINE
  5
27C
330
2
100
AcDbEntity
  8
PDF_Geometry
370
    25
100
AcDbPolyline
 90
        2
 70
     0
 43
0.0
 10
5.802499999999999
 20
3.79111111111111
 10
5.719999999999999
 20
3.79111111111111
  0
LWPOLYLINE
  5
27D
330
2
100
AcDbEntity
  8
PDF_Geometry
370
    25
100
AcDbPolyline
 90
        2
 70
     0
 43
0.0
 10
5.679166666666666
 20
3.79111111111111
 10
5.596666666666665
 20
3.79111111111111
  0
LWPOLYLINE
  5
27E
330
2
100
AcDbEntity
  8
PDF_Geometry
370
    25
100
AcDbPolyline
 90
        2
 70
     0
 43
0.0
 10
5.555833333333333
 20
3.79111111111111
 10
5.473333333333332
 20
3.79111111111111
  0
LWPOLYLINE
  5
27F
330
2
100
AcDbEntity
  8
PDF_Geometry
370
    25
100
AcDbPolyline
 90
        2
 70
     0
 43
0.0
 10
5.4325
 20
3.79111111111111
 10
5.349999999999999
 20
3.79111111111111
  0
LWPOLYLINE
  5
280
330
2
100
AcDbEntity
  8
PDF_Geometry
370
    25
100
AcDbPolyline
 90
        2
 70
     0
 43
0.0
 10
5.309166666666666
 20
3.79111111111111
 10
5.226666666666666
 20
3.79111111111111
  0
LWPOLYLINE
  5
281
330
2
100
AcDbEntity
  8
PDF_Geometry
370
    25
100
AcDbPolyline
 90
        2
 70
     0
 43
0.0
 10
5.185833333333333
 20
3.79111111111111
 10
5.103333333333332
 20
3.79111111111111
  0
LWPOLYLINE
  5
282
330
2
100
AcDbEntity
  8
PDF_Geometry
370
    25
100
AcDbPolyline
 90
        2
 70
     0
 43
0.0
 10
5.0625
 20
3.79111111111111
 10
4.979999999999999
 20
3.79111111111111
  0
LWPOLYLINE
  5
283
330
2
100
AcDbEntity
  8
PDF_Geometry
370
    25
100
AcDbPolyline
 90
        2
 70
     0
 43
0.0
 10
4.938333333333333
 20
3.79111111111111
 10
4.856666666666666
 20
3.79111111111111
  0
LWPOLYLINE
  5
284
330
2
100
AcDbEntity
  8
PDF_Geometry
370
    25
100
AcDbPolyline
 90
        2
 70
     0
 43
0.0
 10
4.814999999999999
 20
3.79111111111111
 10
4.733333333333333
 20
3.79111111111111
  0
LWPOLYLINE
  5
285
330
2
100
AcDbEntity
  8
PDF_Geometry
370
    25
100
AcDbPolyline
 90
        2
 70
     0
 43
0.0
 10
4.691666666666666
 20
3.79111111111111
 10
4.609999999999999
 20
3.79111111111111
  0
LWPOLYLINE
  5
286
330
2
100
AcDbEntity
  8
PDF_Geometry
370
    25
100
AcDbPolyline
 90
        2
 70
     0
 43
0.0
 10
4.568333333333332
 20
3.79111111111111
 10
4.485833333333332
 20
3.79111111111111
  0
LWPOLYLINE
  5
287
330
2
100
AcDbEntity
  8
PDF_Geometry
370
    25
100
AcDbPolyline
 90
        2
 70
     0
 43
0.0
 10
4.445
 20
3.79111111111111
 10
4.362499999999999
 20
3.79111111111111
  0
LWPOLYLINE
  5
288
330
2
100
AcDbEntity
  8
PDF_Geometry
370
    25
100
AcDbPolyline
 90
        2
 70
     0
 43
0.0
 10
4.321666666666667
 20
3.79111111111111
 10
4.239166666666665
 20
3.79111111111111
  0
LWPOLYLINE
  5
289
330
2
100
AcDbEntity
  8
PDF_Geometry
370
    25
100
AcDbPolyline
 90
        2
 70
     0
 43
0.0
 10
4.198333333333332
 20
3.79111111111111
 10
4.115833333333333
 20
3.79111111111111
  0
LWPOLYLINE
  5
28A
330
2
100
AcDbEntity
  8
PDF_Geometry
370
    25
100
AcDbPolyline
 90
        2
 70
     0
 43
0.0
 10
4.074999999999999
 20
3.79111111111111
 10
3.992499999999999
 20
3.79111111111111
  0
LWPOLYLINE
  5
28B
330
2
100
AcDbEntity
  8
PDF_Geometry
370
    25
100
AcDbPolyline
 90
        2
 70
     0
 43
0.0
 10
3.951666666666666
 20
3.79111111111111
 10
3.869166666666666
 20
3.79111111111111
  0
LWPOLYLINE
  5
28C
330
2
100
AcDbEntity
  8
PDF_Geometry
370
    25
100
AcDbPolyline
 90
        2
 70
     0
 43
0.0
 10
3.828333333333333
 20
3.79111111111111
 10
3.745833333333333
 20
3.79111111111111
  0
LWPOLYLINE
  5
28D
330
2
100
AcDbEntity
  8
PDF_Geometry
370
    25
100
AcDbPolyline
 90
        2
 70
     0
 43
0.0
 10
3.704999999999999
 20
3.79111111111111
 10
3.622499999999999
 20
3.79111111111111
  0
LWPOLYLINE
  5
28E
330
2
100
AcDbEntity
  8
PDF_Geometry
370
    25
100
AcDbPolyline
 90
        2
 70
     0
 43
0.0
 10
3.580833333333333
 20
3.79111111111111
 10
3.499166666666666
 20
3.79111111111111
  0
LWPOLYLINE
  5
28F
330
2
100
AcDbEntity
  8
PDF_Geometry
370
    25
100
AcDbPolyline
 90
        2
 70
     0
 43
0.0
 10
3.457499999999999
 20
3.79111111111111
 10
3.375833333333333
 20
3.79111111111111
  0
LWPOLYLINE
  5
290
330
2
100
AcDbEntity
  8
PDF_Geometry
370
    25
100
AcDbPolyline
 90
        2
 70
     0
 43
0.0
 10
3.334166666666666
 20
3.79111111111111
 10
3.252499999999999
 20
3.79111111111111
  0
LWPOLYLINE
  5
291
330
2
100
AcDbEntity
  8
PDF_Geometry
370
    25
100
AcDbPolyline
 90
        2
 70
     0
 43
0.0
 10
3.210833333333333
 20
3.79111111111111
 10
3.128333333333332
 20
3.79111111111111
  0
LWPOLYLINE
  5
292
330
2
100
AcDbEntity
  8
PDF_Geometry
370
    25
100
AcDbPolyline
 90
        6
 70
     0
 43
0.0
 10
3.087499999999999
 20
3.79111111111111
 10
3.037499999999999
 20
3.79111111111111
 10
3.018333333333333
 20
3.789444444444444
 10
3.000833333333333
 20
3.784444444444443
 10
2.983333333333333
 20
3.77611111111111
 10
2.9775
 20
3.771944444444443
  0
LWPOLYLINE
  5
293
330
2
100
AcDbEntity
  8
PDF_Geometry
370
    35
100
AcDbPolyline
 90
        2
 70
     0
 43
0.0
 10
6.017499999999999
 20
3.72611111111111
 10
3.037499999999999
 20
3.72611111111111
  0
LWPOLYLINE
  5
294
330
2
100
AcDbEntity
  8
PDF_Geometry
370
    25
100
AcDbPolyline
 90
        6
 70
     0
 43
0.0
 10
6.125
 20
3.61111111111111
 10
6.125
 20
3.682777777777777
 10
6.123333333333333
 20
3.701944444444444
 10
6.119166666666665
 20
3.719444444444444
 10
6.110833333333332
 20
3.736944444444444
 10
6.106666666666666
 20
3.743611111111111
  0
SPLINE
  5
296
330
2
100
AcDbEntity
  8
PDF_Geometry
370
    35
100
AcDbSpline
210
0.0
220
0.0
230
1.0
 70
     8
 71
     3
 72
     8
 73
     4
 74
     0
 42
0.000000001
 43
0.0000000001
 40
0.0
 40
0.0
 40
0.0
 40
0.0
 40
1.0
 40
1.0
 40
1.0
 40
1.0
 10
6.060833333333333
 20
3.682777777777777
 30
0.0
 10
6.060583333333333
 20
3.706902777777777
 30
0.0
 10
6.041583333333332
 20
3.725458333333332
 30
0.0
 10
6.017499999999999
 20
3.72611111111111
 30
0.0
  0
LWPOLYLINE
  5
297
330
2
100
AcDbEntity
  8
PDF_Geometry
370
    25
100
AcDbPolyline
 90
        6
 70
     0
 43
0.0
 10
6.077499999999999
 20
3.161944444444444
 10
6.071666666666666
 20
3.157777777777777
 10
6.054166666666666
 20
3.149444444444444
 10
6.035833333333332
 20
3.144444444444444
 10
6.017499999999999
 20
3.142777777777777
 10
5.9675
 20
3.142777777777777
  0
LWPOLYLINE
  5
298
330
2
100
AcDbEntity
  8
PDF_Geometry
370
    25
100
AcDbPolyline
 90
        2
 70
     0
 43
0.0
 10
5.925833333333333
 20
3.142777777777777
 10
5.844166666666666
 20
3.142777777777777
  0
LWPOLYLINE
  5
299
330
2
100
AcDbEntity
  8
PDF_Geometry
370
    25
100
AcDbPolyline
 90
        2
 70
     0
 43
0.0
 10
5.802499999999999
 20
3.142777777777777
 10
5.719999999999999
 20
3.142777777777777
  0
LWPOLYLINE
  5
29A
330
2
100
AcDbEntity
  8
PDF_Geometry
370
    25
100
AcDbPolyline
 90
        2
 70
     0
 43
0.0
 10
5.679166666666666
 20
3.142777777777777
 10
5.596666666666665
 20
3.142777777777777
  0
LWPOLYLINE
  5
29B
330
2
100
AcDbEntity
  8
PDF_Geometry
370
    25
100
AcDbPolyline
 90
        2
 70
     0
 43
0.0
 10
5.555833333333333
 20
3.142777777777777
 10
5.473333333333332
 20
3.142777777777777
  0
LWPOLYLINE
  5
29C
330
2
100
AcDbEntity
  8
PDF_Geometry
370
    25
100
AcDbPolyline
 90
        2
 70
     0
 43
0.0
 10
5.4325
 20
3.142777777777777
 10
5.349999999999999
 20
3.142777777777777
  0
LWPOLYLINE
  5
29D
330
2
100
AcDbEntity
  8
PDF_Geometry
370
    25
100
AcDbPolyline
 90
        2
 70
     0
 43
0.0
 10
5.309166666666666
 20
3.142777777777777
 10
5.226666666666666
 20
3.142777777777777
  0
LWPOLYLINE
  5
29E
330
2
100
AcDbEntity
  8
PDF_Geometry
370
    25
100
AcDbPolyline
 90
        2
 70
     0
 43
0.0
 10
5.185833333333333
 20
3.142777777777777
 10
5.103333333333332
 20
3.142777777777777
  0
LWPOLYLINE
  5
29F
330
2
100
AcDbEntity
  8
PDF_Geometry
370
    25
100
AcDbPolyline
 90
        2
 70
     0
 43
0.0
 10
5.0625
 20
3.142777777777777
 10
4.979999999999999
 20
3.142777777777777
  0
LWPOLYLINE
  5
2A0
330
2
100
AcDbEntity
  8
PDF_Geometry
370
    25
100
AcDbPolyline
 90
        2
 70
     0
 43
0.0
 10
4.938333333333333
 20
3.142777777777777
 10
4.856666666666666
 20
3.142777777777777
  0
LWPOLYLINE
  5
2A1
330
2
100
AcDbEntity
  8
PDF_Geometry
370
    25
100
AcDbPolyline
 90
        2
 70
     0
 43
0.0
 10
4.814999999999999
 20
3.142777777777777
 10
4.733333333333333
 20
3.142777777777777
  0
LWPOLYLINE
  5
2A2
330
2
100
AcDbEntity
  8
PDF_Geometry
370
    25
100
AcDbPolyline
 90
        2
 70
     0
 43
0.0
 10
4.691666666666666
 20
3.142777777777777
 10
4.609999999999999
 20
3.142777777777777
  0
LWPOLYLINE
  5
2A3
330
2
100
AcDbEntity
  8
PDF_Geometry
370
    25
100
AcDbPolyline
 90
        2
 70
     0
 43
0.0
 10
4.568333333333332
 20
3.142777777777777
 10
4.485833333333332
 20
3.142777777777777
  0
LWPOLYLINE
  5
2A4
330
2
100
AcDbEntity
  8
PDF_Geometry
370
    25
100
AcDbPolyline
 90
        2
 70
     0
 43
0.0
 10
4.445
 20
3.142777777777777
 10
4.362499999999999
 20
3.142777777777777
  0
LWPOLYLINE
  5
2A5
330
2
100
AcDbEntity
  8
PDF_Geometry
370
    25
100
AcDbPolyline
 90
        2
 70
     0
 43
0.0
 10
4.321666666666667
 20
3.142777777777777
 10
4.239166666666665
 20
3.142777777777777
  0
LWPOLYLINE
  5
2A6
330
2
100
AcDbEntity
  8
PDF_Geometry
370
    25
100
AcDbPolyline
 90
        2
 70
     0
 43
0.0
 10
4.198333333333332
 20
3.142777777777777
 10
4.115833333333333
 20
3.142777777777777
  0
LWPOLYLINE
  5
2A7
330
2
100
AcDbEntity
  8
PDF_Geometry
370
    25
100
AcDbPolyline
 90
        2
 70
     0
 43
0.0
 10
4.074999999999999
 20
3.142777777777777
 10
3.992499999999999
 20
3.142777777777777
  0
LWPOLYLINE
  5
2A8
330
2
100
AcDbEntity
  8
PDF_Geometry
370
    25
100
AcDbPolyline
 90
        2
 70
     0
 43
0.0
 10
3.951666666666666
 20
3.142777777777777
 10
3.869166666666666
 20
3.142777777777777
  0
LWPOLYLINE
  5
2A9
330
2
100
AcDbEntity
  8
PDF_Geometry
370
    25
100
AcDbPolyline
 90
        2
 70
     0
 43
0.0
 10
3.828333333333333
 20
3.142777777777777
 10
3.745833333333333
 20
3.142777777777777
  0
LWPOLYLINE
  5
2AA
330
2
100
AcDbEntity
  8
PDF_Geometry
370
    25
100
AcDbPolyline
 90
        2
 70
     0
 43
0.0
 10
3.704999999999999
 20
3.142777777777777
 10
3.622499999999999
 20
3.142777777777777
  0
LWPOLYLINE
  5
2AB
330
2
100
AcDbEntity
  8
PDF_Geometry
370
    25
100
AcDbPolyline
 90
        2
 70
     0
 43
0.0
 10
3.580833333333333
 20
3.142777777777777
 10
3.499166666666666
 20
3.142777777777777
  0
LWPOLYLINE
  5
2AC
330
2
100
AcDbEntity
  8
PDF_Geometry
370
    25
100
AcDbPolyline
 90
        2
 70
     0
 43
0.0
 10
3.457499999999999
 20
3.142777777777777
 10
3.375833333333333
 20
3.142777777777777
  0
LWPOLYLINE
  5
2AD
330
2
100
AcDbEntity
  8
PDF_Geometry
370
    25
100
AcDbPolyline
 90
        2
 70
     0
 43
0.0
 10
3.334166666666666
 20
3.142777777777777
 10
3.252499999999999
 20
3.142777777777777
  0
LWPOLYLINE
  5
2AE
330
2
100
AcDbEntity
  8
PDF_Geometry
370
    25
100
AcDbPolyline
 90
        2
 70
     0
 43
0.0
 10
3.210833333333333
 20
3.142777777777777
 10
3.128333333333332
 20
3.142777777777777
  0
LWPOLYLINE
  5
2AF
330
2
100
AcDbEntity
  8
PDF_Geometry
370
    25
100
AcDbPolyline
 90
        6
 70
     0
 43
0.0
 10
3.087499999999999
 20
3.142777777777777
 10
3.037499999999999
 20
3.142777777777777
 10
3.018333333333333
 20
3.144444444444444
 10
3.000833333333333
 20
3.149444444444444
 10
2.983333333333333
 20
3.157777777777777
 10
2.9775
 20
3.161944444444444
  0
LWPOLYLINE
  5
2B0
330
2
100
AcDbEntity
  8
PDF_Geometry
370
    35
100
AcDbPolyline
 90
        2
 70
     0
 43
0.0
 10
6.017499999999999
 20
3.207777777777777
 10
3.037499999999999
 20
3.207777777777777
  0
LWPOLYLINE
  5
2B4
330
2
100
AcDbEntity
  8
PDF_Geometry
370
    25
100
AcDbPolyline
 90
        6
 70
     0
 43
0.0
 10
6.106666666666666
 20
3.19111111111111
 10
6.110833333333332
 20
3.196944444444444
 10
6.119166666666665
 20
3.214444444444444
 10
6.123333333333333
 20
3.231944444444444
 10
6.125
 20
3.251111111111111
 10
6.125
 20
3.322777777777777
  0
SPLINE
  5
2B5
330
2
100
AcDbEntity
  8
PDF_Geometry
370
    35
100
AcDbSpline
210
0.0
220
0.0
230
1.0
 70
     8
 71
     3
 72
     8
 73
     4
 74
     0
 42
0.000000001
 43
0.0000000001
 40
0.0
 40
0.0
 40
0.0
 40
0.0
 40
1.0
 40
1.0
 40
1.0
 40
1.0
 10
6.017499999999999
 20
3.207777777777777
 30
0.0
 10
6.041583333333332
 20
3.208444444444444
 30
0.0
 10
6.060583333333333
 20
3.22698611111111
 30
0.0
 10
6.060833333333333
 20
3.251111111111111
 30
0.0
  0
LWPOLYLINE
  5
2B6
330
2
100
AcDbEntity
  8
PDF_Geometry
370
    25
100
AcDbPolyline
 90
        6
 70
     0
 43
0.0
 10
2.948333333333333
 20
9.574444444444441
 10
2.944166666666666
 20
9.567777777777777
 10
2.935833333333333
 20
9.551111111111111
 10
2.930833333333333
 20
9.532777777777775
 10
2.929166666666666
 20
9.51361111111111
 10
2.929166666666666
 20
9.441944444444443
  0
LWPOLYLINE
  5
2B7
330
2
100
AcDbEntity
  8
PDF_Geometry
370
    25
100
AcDbPolyline
 90
        2
 70
     0
 43
0.0
 10
2.929166666666666
 20
9.401111111111109
 10
2.929166666666666
 20
9.31861111111111
  0
LWPOLYLINE
  5
2B8
330
2
100
AcDbEntity
  8
PDF_Geometry
370
    25
100
AcDbPolyline
 90
        2
 70
     0
 43
0.0
 10
2.929166666666666
 20
9.276944444444442
 10
2.929166666666666
 20
9.195277777777777
  0
LWPOLYLINE
  5
2BA
330
2
100
AcDbEntity
  8
PDF_Geometry
370
    35
100
AcDbPolyline
 90
        2
 70
     0
 43
0.0
 10
2.994166666666666
 20
9.51361111111111
 10
2.994166666666666
 20
9.081944444444443
  0
SPLINE
  5
2BD
330
2
100
AcDbEntity
  8
PDF_Geometry
370
    35
100
AcDbSpline
210
0.0
220
0.0
230
1.0
 70
     8
 71
     3
 72
     8
 73
     4
 74
     0
 42
0.000000001
 43
0.0000000001
 40
0.0
 40
0.0
 40
0.0
 40
0.0
 40
1.0
 40
1.0
 40
1.0
 40
1.0
 10
3.037499999999999
 20
9.556944444444443
 30
0.0
 10
3.012416666666666
 20
9.556111111111109
 30
0.0
 10
2.995013888888888
 20
9.538694444444445
 30
0.0
 10
2.994166666666666
 20
9.51361111111111
 30
0.0
  0
LWPOLYLINE
  5
2BF
330
2
100
AcDbEntity
  8
PDF_Geometry
370
    25
100
AcDbPolyline
 90
        2
 70
     0
 43
0.0
 10
2.929166666666666
 20
8.428611111111109
 10
2.929166666666666
 20
8.346944444444444
  0
LWPOLYLINE
  5
2C0
330
2
100
AcDbEntity
  8
PDF_Geometry
370
    25
100
AcDbPolyline
 90
        2
 70
     0
 43
0.0
 10
2.929166666666666
 20
8.305277777777778
 10
2.929166666666666
 20
8.222777777777777
  0
LWPOLYLINE
  5
2C2
330
2
100
AcDbEntity
  8
PDF_Geometry
370
    35
100
AcDbPolyline
 90
        2
 70
     0
 43
0.0
 10
2.994166666666666
 20
8.541944444444443
 10
2.994166666666666
 20
8.110277777777776
  0
LWPOLYLINE
  5
2C3
330
2
100
AcDbEntity
  8
PDF_Geometry
370
    25
100
AcDbPolyline
 90
        6
 70
     0
 43
0.0
 10
2.948333333333333
 20
7.630277777777777
 10
2.944166666666666
 20
7.624444444444442
 10
2.935833333333333
 20
7.606944444444444
 10
2.930833333333333
 20
7.58861111111111
 10
2.929166666666666
 20
7.570277777777776
 10
2.929166666666666
 20
7.49861111111111
  0
LWPOLYLINE
  5
2C4
330
2
100
AcDbEntity
  8
PDF_Geometry
370
    25
100
AcDbPolyline
 90
        2
 70
     0
 43
0.0
 10
2.929166666666666
 20
7.456944444444443
 10
2.929166666666666
 20
7.374444444444442
  0
LWPOLYLINE
  5
2C5
330
2
100
AcDbEntity
  8
PDF_Geometry
370
    25
100
AcDbPolyline
 90
        2
 70
     0
 43
0.0
 10
2.929166666666666
 20
7.33361111111111
 10
2.929166666666666
 20
7.251111111111111
  0
LWPOLYLINE
  5
2C7
330
2
100
AcDbEntity
  8
PDF_Geometry
370
    35
100
AcDbPolyline
 90
        2
 70
     0
 43
0.0
 10
2.994166666666666
 20
7.570277777777776
 10
2.994166666666666
 20
7.13861111111111
  0
SPLINE
  5
2CA
330
2
100
AcDbEntity
  8
PDF_Geometry
370
    35
100
AcDbSpline
210
0.0
220
0.0
230
1.0
 70
     8
 71
     3
 72
     8
 73
     4
 74
     0
 42
0.000000001
 43
0.0000000001
 40
0.0
 40
0.0
 40
0.0
 40
0.0
 40
1.0
 40
1.0
 40
1.0
 40
1.0
 10
3.037499999999999
 20
7.613611111111111
 30
0.0
 10
3.012013888888888
 20
7.612611111111111
 30
0.0
 10
2.995513888888888
 20
7.595638888888887
 30
0.0
 10
2.994166666666666
 20
7.570277777777776
 30
0.0
  0
LWPOLYLINE
  5
2CC
330
2
100
AcDbEntity
  8
PDF_Geometry
370
    25
100
AcDbPolyline
 90
        2
 70
     0
 43
0.0
 10
2.929166666666666
 20
6.485277777777777
 10
2.929166666666666
 20
6.402777777777777
  0
LWPOLYLINE
  5
2CD
330
2
100
AcDbEntity
  8
PDF_Geometry
370
    25
100
AcDbPolyline
 90
        2
 70
     0
 43
0.0
 10
2.929166666666666
 20
6.361944444444444
 10
2.929166666666666
 20
6.279444444444443
  0
LWPOLYLINE
  5
2CF
330
2
100
AcDbEntity
  8
PDF_Geometry
370
    35
100
AcDbPolyline
 90
        2
 70
     0
 43
0.0
 10
2.994166666666666
 20
6.598611111111111
 10
2.994166666666666
 20
6.16611111111111
  0
SPLINE
  5
2D0
330
2
100
AcDbEntity
  8
PDF_Geometry
370
    35
100
AcDbSpline
210
0.0
220
0.0
230
1.0
 70
     8
 71
     3
 72
     8
 73
     4
 74
     0
 42
0.000000001
 43
0.0000000001
 40
0.0
 40
0.0
 40
0.0
 40
0.0
 40
1.0
 40
1.0
 40
1.0
 40
1.0
 10
3.037499999999999
 20
6.641944444444443
 30
0.0
 10
3.013374999999999
 20
6.641694444444444
 30
0.0
 10
2.994819444444444
 20
6.622708333333332
 30
0.0
 10
2.994166666666666
 20
6.598611111111111
 30
0.0
  0
LWPOLYLINE
  5
2D1
330
2
100
AcDbEntity
  8
PDF_Geometry
370
    25
100
AcDbPolyline
 90
        6
 70
     0
 43
0.0
 10
2.948333333333333
 20
5.686944444444443
 10
2.944166666666666
 20
5.680277777777776
 10
2.935833333333333
 20
5.66361111111111
 10
2.930833333333333
 20
5.645277777777777
 10
2.929166666666666
 20
5.626944444444444
 10
2.929166666666666
 20
5.554444444444443
  0
LWPOLYLINE
  5
2D2
330
2
100
AcDbEntity
  8
PDF_Geometry
370
    25
100
AcDbPolyline
 90
        2
 70
     0
 43
0.0
 10
2.929166666666666
 20
5.51361111111111
 10
2.929166666666666
 20
5.431111111111111
  0
LWPOLYLINE
  5
2D3
330
2
100
AcDbEntity
  8
PDF_Geometry
370
    25
100
AcDbPolyline
 90
        2
 70
     0
 43
0.0
 10
2.929166666666666
 20
5.390277777777777
 10
2.929166666666666
 20
5.307777777777777
  0
LWPOLYLINE
  5
2D5
330
2
100
AcDbEntity
  8
PDF_Geometry
370
    35
100
AcDbPolyline
 90
        2
 70
     0
 43
0.0
 10
2.994166666666666
 20
5.626944444444444
 10
2.994166666666666
 20
5.194444444444443
  0
SPLINE
  5
2D8
330
2
100
AcDbEntity
  8
PDF_Geometry
370
    35
100
AcDbSpline
210
0.0
220
0.0
230
1.0
 70
     8
 71
     3
 72
     8
 73
     4
 74
     0
 42
0.000000001
 43
0.0000000001
 40
0.0
 40
0.0
 40
0.0
 40
0.0
 40
1.0
 40
1.0
 40
1.0
 40
1.0
 10
3.037499999999999
 20
5.669444444444444
 30
0.0
 10
3.01448611111111
 20
5.671180555555555
 30
0.0
 10
2.994263888888888
 20
5.649361111111111
 30
0.0
 10
2.994166666666666
 20
5.626944444444444
 30
0.0
  0
LWPOLYLINE
  5
2D9
330
2
100
AcDbEntity
  8
PDF_Geometry
370
    25
100
AcDbPolyline
 90
        6
 70
     0
 43
0.0
 10
2.948333333333333
 20
4.715277777777777
 10
2.944166666666666
 20
4.70861111111111
 10
2.935833333333333
 20
4.691944444444444
 10
2.930833333333333
 20
4.67361111111111
 10
2.929166666666666
 20
4.654444444444444
 10
2.929166666666666
 20
4.582777777777777
  0
LWPOLYLINE
  5
2DA
330
2
100
AcDbEntity
  8
PDF_Geometry
370
    25
100
AcDbPolyline
 90
        2
 70
     0
 43
0.0
 10
2.929166666666666
 20
4.541944444444443
 10
2.929166666666666
 20
4.459444444444444
  0
LWPOLYLINE
  5
2DB
330
2
100
AcDbEntity
  8
PDF_Geometry
370
    25
100
AcDbPolyline
 90
        2
 70
     0
 43
0.0
 10
2.929166666666666
 20
4.418611111111111
 10
2.929166666666666
 20
4.33611111111111
  0
LWPOLYLINE
  5
2DD
330
2
100
AcDbEntity
  8
PDF_Geometry
370
    35
100
AcDbPolyline
 90
        2
 70
     0
 43
0.0
 10
2.994166666666666
 20
4.654444444444444
 10
2.994166666666666
 20
4.222777777777777
  0
SPLINE
  5
2E0
330
2
100
AcDbEntity
  8
PDF_Geometry
370
    35
100
AcDbSpline
210
0.0
220
0.0
230
1.0
 70
     8
 71
     3
 72
     8
 73
     4
 74
     0
 42
0.000000001
 43
0.0000000001
 40
0.0
 40
0.0
 40
0.0
 40
0.0
 40
1.0
 40
1.0
 40
1.0
 40
1.0
 10
3.037499999999999
 20
4.697777777777777
 30
0.0
 10
3.012416666666666
 20
4.696944444444444
 30
0.0
 10
2.995013888888888
 20
4.679527777777776
 30
0.0
 10
2.994166666666666
 20
4.654444444444444
 30
0.0
  0
LWPOLYLINE
  5
2E1
330
2
100
AcDbEntity
  8
PDF_Geometry
370
    35
100
AcDbPolyline
 90
        2
 70
     0
 43
0.0
 10
2.994166666666666
 20
3.682777777777777
 10
2.994166666666666
 20
3.251111111111111
  0
SPLINE
  5
2E4
330
2
100
AcDbEntity
  8
PDF_Geometry
370
    35
100
AcDbSpline
210
0.0
220
0.0
230
1.0
 70
     8
 71
     3
 72
     8
 73
     4
 74
     0
 42
0.000000001
 43
0.0000000001
 40
0.0
 40
0.0
 40
0.0
 40
0.0
 40
1.0
 40
1.0
 40
1.0
 40
1.0
 10
3.037499999999999
 20
3.72611111111111
 30
0.0
 10
3.012416666666666
 20
3.725277777777777
 30
0.0
 10
2.995013888888888
 20
3.70786111111111
 30
0.0
 10
2.994166666666666
 20
3.682777777777777
 30
0.0
  0
LWPOLYLINE
  5
2E6
330
2
100
AcDbEntity
  8
PDF_Geometry
370
    25
100
AcDbPolyline
 90
        2
 70
     0
 43
0.0
 10
6.125
 20
9.401111111111109
 10
6.125
 20
9.31861111111111
  0
LWPOLYLINE
  5
2E7
330
2
100
AcDbEntity
  8
PDF_Geometry
370
    25
100
AcDbPolyline
 90
        2
 70
     0
 43
0.0
 10
6.125
 20
9.276944444444442
 10
6.125
 20
9.195277777777777
  0
LWPOLYLINE
  5
2E9
330
2
100
AcDbEntity
  8
PDF_Geometry
370
    35
100
AcDbPolyline
 90
        2
 70
     0
 43
0.0
 10
6.060833333333333
 20
9.51361111111111
 10
6.060833333333333
 20
9.081944444444443
  0
LWPOLYLINE
  5
2EB
330
2
100
AcDbEntity
  8
PDF_Geometry
370
    25
100
AcDbPolyline
 90
        2
 70
     0
 43
0.0
 10
6.125
 20
8.428611111111109
 10
6.125
 20
8.346944444444444
  0
LWPOLYLINE
  5
2EC
330
2
100
AcDbEntity
  8
PDF_Geometry
370
    25
100
AcDbPolyline
 90
        2
 70
     0
 43
0.0
 10
6.125
 20
8.305277777777778
 10
6.125
 20
8.222777777777777
  0
LWPOLYLINE
  5
2EE
330
2
100
AcDbEntity
  8
PDF_Geometry
370
    35
100
AcDbPolyline
 90
        2
 70
     0
 43
0.0
 10
6.060833333333333
 20
8.541944444444443
 10
6.060833333333333
 20
8.110277777777776
  0
LWPOLYLINE
  5
2F0
330
2
100
AcDbEntity
  8
PDF_Geometry
370
    25
100
AcDbPolyline
 90
        2
 70
     0
 43
0.0
 10
6.125
 20
7.456944444444443
 10
6.125
 20
7.374444444444442
  0
LWPOLYLINE
  5
2F1
330
2
100
AcDbEntity
  8
PDF_Geometry
370
    25
100
AcDbPolyline
 90
        2
 70
     0
 43
0.0
 10
6.125
 20
7.33361111111111
 10
6.125
 20
7.251111111111111
  0
LWPOLYLINE
  5
2F3
330
2
100
AcDbEntity
  8
PDF_Geometry
370
    35
100
AcDbPolyline
 90
        2
 70
     0
 43
0.0
 10
6.060833333333333
 20
7.570277777777776
 10
6.060833333333333
 20
7.13861111111111
  0
LWPOLYLINE
  5
2F5
330
2
100
AcDbEntity
  8
PDF_Geometry
370
    25
100
AcDbPolyline
 90
        2
 70
     0
 43
0.0
 10
6.125
 20
6.485277777777777
 10
6.125
 20
6.402777777777777
  0
LWPOLYLINE
  5
2F6
330
2
100
AcDbEntity
  8
PDF_Geometry
370
    25
100
AcDbPolyline
 90
        2
 70
     0
 43
0.0
 10
6.125
 20
6.361944444444444
 10
6.125
 20
6.279444444444443
  0
LWPOLYLINE
  5
2F9
330
2
100
AcDbEntity
  8
PDF_Geometry
370
    25
100
AcDbPolyline
 90
        2
 70
     0
 43
0.0
 10
6.125
 20
5.51361111111111
 10
6.125
 20
5.431111111111111
  0
LWPOLYLINE
  5
2FA
330
2
100
AcDbEntity
  8
PDF_Geometry
370
    25
100
AcDbPolyline
 90
        2
 70
     0
 43
0.0
 10
6.125
 20
5.390277777777777
 10
6.125
 20
5.307777777777777
  0
LWPOLYLINE
  5
2FC
330
2
100
AcDbEntity
  8
PDF_Geometry
370
    35
100
AcDbPolyline
 90
        2
 70
     0
 43
0.0
 10
6.060833333333333
 20
5.626944444444444
 10
6.060833333333333
 20
5.194444444444443
  0
LWPOLYLINE
  5
2FE
330
2
100
AcDbEntity
  8
PDF_Geometry
370
    25
100
AcDbPolyline
 90
        2
 70
     0
 43
0.0
 10
6.125
 20
4.541944444444443
 10
6.125
 20
4.459444444444444
  0
LWPOLYLINE
  5
2FF
330
2
100
AcDbEntity
  8
PDF_Geometry
370
    25
100
AcDbPolyline
 90
        2
 70
     0
 43
0.0
 10
6.125
 20
4.418611111111111
 10
6.125
 20
4.33611111111111
  0
LWPOLYLINE
  5
301
330
2
100
AcDbEntity
  8
PDF_Geometry
370
    35
100
AcDbPolyline
 90
        2
 70
     0
 43
0.0
 10
6.060833333333333
 20
4.654444444444444
 10
6.060833333333333
 20
4.222777777777777
  0
LWPOLYLINE
  5
303
330
2
100
AcDbEntity
  8
PDF_Geometry
370
    25
100
AcDbPolyline
 90
        2
 70
     0
 43
0.0
 10
6.125
 20
3.569444444444444
 10
6.125
 20
3.487777777777777
  0
LWPOLYLINE
  5
304
330
2
100
AcDbEntity
  8
PDF_Geometry
370
    25
100
AcDbPolyline
 90
        2
 70
     0
 43
0.0
 10
6.125
 20
3.446111111111111
 10
6.125
 20
3.364444444444444
  0
LWPOLYLINE
  5
306
330
2
100
AcDbEntity
  8
PDF_Geometry
370
    35
100
AcDbPolyline
 90
        2
 70
     0
 43
0.0
 10
6.060833333333333
 20
3.682777777777777
 10
6.060833333333333
 20
3.251111111111111
  0
LWPOLYLINE
  5
313
330
2
100
AcDbEntity
  8
PDF_Geometry
370
    35
100
AcDbPolyline
 90
        4
 70
     1
 43
0.0
 10
5.855833333333333
 20
4.967777777777777
 10
6.114166666666665
 20
4.967777777777777
 10
6.114166666666665
 20
4.881111111111111
 10
5.855833333333333
 20
4.881111111111111
  0
LWPOLYLINE
  5
314
330
2
100
AcDbEntity
  8
PDF_Geometry
370
    35
100
AcDbPolyline
 90
        4
 70
     1
 43
0.0
 10
5.272499999999999
 20
4.967777777777777
 10
5.531666666666666
 20
4.967777777777777
 10
5.531666666666666
 20
4.881111111111111
 10
5.272499999999999
 20
4.881111111111111
  0
LWPOLYLINE
  5
315
330
2
100
AcDbEntity
  8
PDF_Geometry
370
    35
100
AcDbPolyline
 90
        4
 70
     1
 43
0.0
 10
4.689166666666666
 20
4.967777777777777
 10
4.948333333333332
 20
4.967777777777777
 10
4.948333333333332
 20
4.881111111111111
 10
4.689166666666666
 20
4.881111111111111
  0
LWPOLYLINE
  5
316
330
2
100
AcDbEntity
  8
PDF_Geometry
370
    35
100
AcDbPolyline
 90
        4
 70
     1
 43
0.0
 10
4.106666666666666
 20
4.967777777777777
 10
4.365833333333333
 20
4.967777777777777
 10
4.365833333333333
 20
4.881111111111111
 10
4.106666666666666
 20
4.881111111111111
  0
LWPOLYLINE
  5
317
330
2
100
AcDbEntity
  8
PDF_Geometry
370
    35
100
AcDbPolyline
 90
        4
 70
     1
 43
0.0
 10
3.523333333333333
 20
4.967777777777777
 10
3.7825
 20
4.967777777777777
 10
3.7825
 20
4.881111111111111
 10
3.523333333333333
 20
4.881111111111111
  0
LWPOLYLINE
  5
318
330
2
100
AcDbEntity
  8
PDF_Geometry
370
    35
100
AcDbPolyline
 90
        4
 70
     1
 43
0.0
 10
3.199166666666666
 20
4.967777777777777
 10
3.199166666666666
 20
4.881111111111111
 10
2.939999999999999
 20
4.881111111111111
 10
2.939999999999999
 20
4.967777777777777
  0
LWPOLYLINE
  5
32A
330
2
100
AcDbEntity
  8
PDF_Geometry
370
    35
100
AcDbPolyline
 90
        4
 70
     1
 43
0.0
 10
5.855833333333333
 20
3.909444444444443
 10
6.114166666666665
 20
3.909444444444443
 10
6.114166666666665
 20
3.99611111111111
 10
5.855833333333333
 20
3.99611111111111
  0
LWPOLYLINE
  5
32B
330
2
100
AcDbEntity
  8
PDF_Geometry
370
    35
100
AcDbPolyline
 90
        4
 70
     1
 43
0.0
 10
5.272499999999999
 20
3.909444444444443
 10
5.531666666666666
 20
3.909444444444443
 10
5.531666666666666
 20
3.99611111111111
 10
5.272499999999999
 20
3.99611111111111
  0
LWPOLYLINE
  5
32C
330
2
100
AcDbEntity
  8
PDF_Geometry
370
    35
100
AcDbPolyline
 90
        4
 70
     1
 43
0.0
 10
4.689166666666666
 20
3.909444444444443
 10
4.948333333333332
 20
3.909444444444443
 10
4.948333333333332
 20
3.99611111111111
 10
4.689166666666666
 20
3.99611111111111
  0
LWPOLYLINE
  5
32D
330
2
100
AcDbEntity
  8
PDF_Geometry
370
    35
100
AcDbPolyline
 90
        4
 70
     1
 43
0.0
 10
4.106666666666666
 20
3.909444444444443
 10
4.365833333333333
 20
3.909444444444443
 10
4.365833333333333
 20
3.99611111111111
 10
4.106666666666666
 20
3.99611111111111
  0
LWPOLYLINE
  5
32E
330
2
100
AcDbEntity
  8
PDF_Geometry
370
    35
100
AcDbPolyline
 90
        4
 70
     1
 43
0.0
 10
3.523333333333333
 20
3.909444444444443
 10
3.7825
 20
3.909444444444443
 10
3.7825
 20
3.99611111111111
 10
3.523333333333333
 20
3.99611111111111
  0
LWPOLYLINE
  5
32F
330
2
100
AcDbEntity
  8
PDF_Geometry
370
    35
100
AcDbPolyline
 90
        4
 70
     1
 43
0.0
 10
3.199166666666666
 20
3.909444444444443
 10
3.199166666666666
 20
3.99611111111111
 10
2.939999999999999
 20
3.99611111111111
 10
2.939999999999999
 20
3.909444444444443
  0
LWPOLYLINE
  5
341
330
2
100
AcDbEntity
  8
PDF_Geometry
370
    35
100
AcDbPolyline
 90
        4
 70
     1
 43
0.0
 10
5.855833333333333
 20
6.911111111111111
 10
6.114166666666665
 20
6.911111111111111
 10
6.114166666666665
 20
6.825277777777777
 10
5.855833333333333
 20
6.825277777777777
  0
LWPOLYLINE
  5
342
330
2
100
AcDbEntity
  8
PDF_Geometry
370
    35
100
AcDbPolyline
 90
        4
 70
     1
 43
0.0
 10
5.272499999999999
 20
6.911111111111111
 10
5.531666666666666
 20
6.911111111111111
 10
5.531666666666666
 20
6.825277777777777
 10
5.272499999999999
 20
6.825277777777777
  0
LWPOLYLINE
  5
343
330
2
100
AcDbEntity
  8
PDF_Geometry
370
    35
100
AcDbPolyline
 90
        4
 70
     1
 43
0.0
 10
4.689166666666666
 20
6.911111111111111
 10
4.948333333333332
 20
6.911111111111111
 10
4.948333333333332
 20
6.825277777777777
 10
4.689166666666666
 20
6.825277777777777
  0
LWPOLYLINE
  5
344
330
2
100
AcDbEntity
  8
PDF_Geometry
370
    35
100
AcDbPolyline
 90
        4
 70
     1
 43
0.0
 10
4.106666666666666
 20
6.911111111111111
 10
4.365833333333333
 20
6.911111111111111
 10
4.365833333333333
 20
6.825277777777777
 10
4.106666666666666
 20
6.825277777777777
  0
LWPOLYLINE
  5
345
330
2
100
AcDbEntity
  8
PDF_Geometry
370
    35
100
AcDbPolyline
 90
        4
 70
     1
 43
0.0
 10
3.523333333333333
 20
6.911111111111111
 10
3.7825
 20
6.911111111111111
 10
3.7825
 20
6.825277777777777
 10
3.523333333333333
 20
6.825277777777777
  0
LWPOLYLINE
  5
346
330
2
100
AcDbEntity
  8
PDF_Geometry
370
    35
100
AcDbPolyline
 90
        4
 70
     1
 43
0.0
 10
3.199166666666666
 20
6.911111111111111
 10
3.199166666666666
 20
6.825277777777777
 10
2.939999999999999
 20
6.825277777777777
 10
2.939999999999999
 20
6.911111111111111
  0
LWPOLYLINE
  5
358
330
2
100
AcDbEntity
  8
PDF_Geometry
370
    35
100
AcDbPolyline
 90
        4
 70
     1
 43
0.0
 10
5.855833333333333
 20
7.796944444444443
 10
6.114166666666665
 20
7.796944444444443
 10
6.114166666666665
 20
7.88361111111111
 10
5.855833333333333
 20
7.88361111111111
  0
LWPOLYLINE
  5
359
330
2
100
AcDbEntity
  8
PDF_Geometry
370
    35
100
AcDbPolyline
 90
        4
 70
     1
 43
0.0
 10
5.272499999999999
 20
7.796944444444443
 10
5.531666666666666
 20
7.796944444444443
 10
5.531666666666666
 20
7.88361111111111
 10
5.272499999999999
 20
7.88361111111111
  0
LWPOLYLINE
  5
35A
330
2
100
AcDbEntity
  8
PDF_Geometry
370
    35
100
AcDbPolyline
 90
        4
 70
     1
 43
0.0
 10
4.689166666666666
 20
7.796944444444443
 10
4.948333333333332
 20
7.796944444444443
 10
4.948333333333332
 20
7.88361111111111
 10
4.689166666666666
 20
7.88361111111111
  0
LWPOLYLINE
  5
35B
330
2
100
AcDbEntity
  8
PDF_Geometry
370
    35
100
AcDbPolyline
 90
        4
 70
     1
 43
0.0
 10
4.106666666666666
 20
7.796944444444443
 10
4.365833333333333
 20
7.796944444444443
 10
4.365833333333333
 20
7.88361111111111
 10
4.106666666666666
 20
7.88361111111111
  0
LWPOLYLINE
  5
35C
330
2
100
AcDbEntity
  8
PDF_Geometry
370
    35
100
AcDbPolyline
 90
        4
 70
     1
 43
0.0
 10
3.523333333333333
 20
7.796944444444443
 10
3.7825
 20
7.796944444444443
 10
3.7825
 20
7.88361111111111
 10
3.523333333333333
 20
7.88361111111111
  0
LWPOLYLINE
  5
35D
330
2
100
AcDbEntity
  8
PDF_Geometry
370
    35
100
AcDbPolyline
 90
        4
 70
     1
 43
0.0
 10
3.199166666666666
 20
7.796944444444443
 10
3.199166666666666
 20
7.88361111111111
 10
2.939999999999999
 20
7.88361111111111
 10
2.939999999999999
 20
7.796944444444443
  0
LWPOLYLINE
  5
36F
330
2
100
AcDbEntity
  8
PDF_Geometry
370
    35
100
AcDbPolyline
 90
        4
 70
     1
 43
0.0
 10
5.855833333333333
 20
8.855277777777777
 10
6.114166666666665
 20
8.855277777777777
 10
6.114166666666665
 20
8.768611111111109
 10
5.855833333333333
 20
8.768611111111109
  0
LWPOLYLINE
  5
370
330
2
100
AcDbEntity
  8
PDF_Geometry
370
    35
100
AcDbPolyline
 90
        4
 70
     1
 43
0.0
 10
5.272499999999999
 20
8.855277777777777
 10
5.531666666666666
 20
8.855277777777777
 10
5.531666666666666
 20
8.768611111111109
 10
5.272499999999999
 20
8.768611111111109
  0
LWPOLYLINE
  5
371
330
2
100
AcDbEntity
  8
PDF_Geometry
370
    35
100
AcDbPolyline
 90
        4
 70
     1
 43
0.0
 10
4.689166666666666
 20
8.855277777777777
 10
4.948333333333332
 20
8.855277777777777
 10
4.948333333333332
 20
8.768611111111109
 10
4.689166666666666
 20
8.768611111111109
  0
LWPOLYLINE
  5
372
330
2
100
AcDbEntity
  8
PDF_Geometry
370
    35
100
AcDbPolyline
 90
        4
 70
     1
 43
0.0
 10
4.106666666666666
 20
8.855277777777777
 10
4.365833333333333
 20
8.855277777777777
 10
4.365833333333333
 20
8.768611111111109
 10
4.106666666666666
 20
8.768611111111109
  0
LWPOLYLINE
  5
373
330
2
100
AcDbEntity
  8
PDF_Geometry
370
    35
100
AcDbPolyline
 90
        4
 70
     1
 43
0.0
 10
3.523333333333333
 20
8.855277777777777
 10
3.7825
 20
8.855277777777777
 10
3.7825
 20
8.768611111111109
 10
3.523333333333333
 20
8.768611111111109
  0
LWPOLYLINE
  5
374
330
2
100
AcDbEntity
  8
PDF_Geometry
370
    35
100
AcDbPolyline
 90
        4
 70
     1
 43
0.0
 10
3.199166666666666
 20
8.855277777777777
 10
3.199166666666666
 20
8.768611111111109
 10
2.939999999999999
 20
8.768611111111109
 10
2.939999999999999
 20
8.855277777777777
  0
LWPOLYLINE
  5
386
330
2
100
AcDbEntity
  8
PDF_Geometry
370
    35
100
AcDbPolyline
 90
        4
 70
     1
 43
0.0
 10
5.272499999999999
 20
9.924444444444443
 10
5.531666666666666
 20
9.924444444444443
 10
5.531666666666666
 20
10.01027777777777
 10
5.272499999999999
 20
10.01027777777777
  0
LWPOLYLINE
  5
387
330
2
100
AcDbEntity
  8
PDF_Geometry
370
    35
100
AcDbPolyline
 90
        4
 70
     1
 43
0.0
 10
4.689166666666666
 20
9.924444444444443
 10
4.948333333333332
 20
9.924444444444443
 10
4.948333333333332
 20
10.01027777777777
 10
4.689166666666666
 20
10.01027777777777
  0
LWPOLYLINE
  5
388
330
2
100
AcDbEntity
  8
PDF_Geometry
370
    35
100
AcDbPolyline
 90
        4
 70
     1
 43
0.0
 10
4.106666666666666
 20
9.924444444444443
 10
4.365833333333333
 20
9.924444444444443
 10
4.365833333333333
 20
10.01027777777777
 10
4.106666666666666
 20
10.01027777777777
  0
LWPOLYLINE
  5
389
330
2
100
AcDbEntity
  8
PDF_Geometry
370
    35
100
AcDbPolyline
 90
        4
 70
     1
 43
0.0
 10
3.523333333333333
 20
9.924444444444443
 10
3.7825
 20
9.924444444444443
 10
3.7825
 20
10.01027777777777
 10
3.523333333333333
 20
10.01027777777777
  0
LWPOLYLINE
  5
396
330
2
100
AcDbEntity
  8
PDF_Geometry
370
    35
100
AcDbPolyline
 90
        4
 70
     1
 43
0.0
 10
5.272499999999999
 20
2.840277777777777
 10
5.531666666666666
 20
2.840277777777777
 10
5.531666666666666
 20
2.754444444444444
 10
5.272499999999999
 20
2.754444444444444
  0
LWPOLYLINE
  5
397
330
2
100
AcDbEntity
  8
PDF_Geometry
370
    35
100
AcDbPolyline
 90
        4
 70
     1
 43
0.0
 10
4.689166666666666
 20
2.840277777777777
 10
4.948333333333332
 20
2.840277777777777
 10
4.948333333333332
 20
2.754444444444444
 10
4.689166666666666
 20
2.754444444444444
  0
LWPOLYLINE
  5
398
330
2
100
AcDbEntity
  8
PDF_Geometry
370
    35
100
AcDbPolyline
 90
        4
 70
     1
 43
0.0
 10
4.106666666666666
 20
2.840277777777777
 10
4.365833333333333
 20
2.840277777777777
 10
4.365833333333333
 20
2.754444444444444
 10
4.106666666666666
 20
2.754444444444444
  0
LWPOLYLINE
  5
399
330
2
100
AcDbEntity
  8
PDF_Geometry
370
    35
100
AcDbPolyline
 90
        4
 70
     1
 43
0.0
 10
3.523333333333333
 20
2.840277777777777
 10
3.7825
 20
2.840277777777777
 10
3.7825
 20
2.754444444444444
 10
3.523333333333333
 20
2.754444444444444
  0
LWPOLYLINE
  5
3A6
330
2
100
AcDbEntity
  8
PDF_Geometry
370
    25
100
AcDbPolyline
 90
        6
 70
     0
 43
0.0
 10
5.964166666666665
 20
9.805277777777776
 10
5.963333333333332
 20
9.805277777777776
 10
5.986666666666666
 20
9.806944444444443
 10
6.009166666666666
 20
9.811944444444442
 10
6.030833333333332
 20
9.820277777777777
 10
6.044166666666666
 20
9.827777777777777
  0
SPLINE
  5
3A7
330
2
100
AcDbEntity
  8
PDF_Geometry
370
    25
100
AcDbSpline
210
0.0
220
0.0
230
1.0
 70
     8
 71
     3
 72
     8
 73
     4
 74
     0
 42
0.000000001
 43
0.0000000001
 40
0.0
 40
0.0
 40
0.0
 40
0.0
 40
1.0
 40
1.0
 40
1.0
 40
1.0
 10
6.077499999999999
 20
9.852777777777776
 30
0.0
 10
6.098847222222222
 20
9.871777777777777
 30
0.0
 10
6.112111111111111
 20
9.898208333333332
 30
0.0
 10
6.12
 20
9.925277777777777
 30
0.0
  0
LWPOLYLINE
  5
3A8
330
2
100
AcDbEntity
  8
PDF_Geometry
370
    25
100
AcDbPolyline
 90
        5
 70
     0
 43
0.0
 10
6.125
 20
9.966944444444443
 10
6.123333333333333
 20
9.990277777777777
 10
6.119166666666665
 20
10.01277777777777
 10
6.110833333333332
 20
10.03444444444444
 10
6.103333333333332
 20
10.04777777777777
  0
SPLINE
  5
3A9
330
2
100
AcDbEntity
  8
PDF_Geometry
370
    25
100
AcDbSpline
210
0.0
220
0.0
230
1.0
 70
     8
 71
     3
 72
     8
 73
     4
 74
     0
 42
0.000000001
 43
0.0000000001
 40
0.0
 40
0.0
 40
0.0
 40
0.0
 40
1.0
 40
1.0
 40
1.0
 40
1.0
 10
6.077499999999999
 20
10.08194444444444
 30
0.0
 10
6.057444444444443
 20
10.10148611111111
 30
0.0
 10
6.032388888888888
 20
10.11718055555555
 30
0.0
 10
6.004999999999999
 20
10.12361111111111
 30
0.0
  0
LWPOLYLINE
  5
3AA
330
2
100
AcDbEntity
  8
PDF_Geometry
370
    25
100
AcDbPolyline
 90
        5
 70
     0
 43
0.0
 10
5.963333333333332
 20
10.12944444444444
 10
5.939999999999999
 20
10.12777777777777
 10
5.917499999999999
 20
10.12277777777777
 10
5.895833333333333
 20
10.11444444444444
 10
5.8825
 20
10.10694444444444
  0
SPLINE
  5
3AB
330
2
100
AcDbEntity
  8
PDF_Geometry
370
    25
100
AcDbSpline
210
0.0
220
0.0
230
1.0
 70
     8
 71
     3
 72
     8
 73
     4
 74
     0
 42
0.000000001
 43
0.0000000001
 40
0.0
 40
0.0
 40
0.0
 40
0.0
 40
1.0
 40
1.0
 40
1.0
 40
1.0
 10
5.849166666666667
 20
10.08194444444444
 30
0.0
 10
5.831305555555555
 20
10.066125
 30
0.0
 10
5.811916666666665
 20
10.033
 30
0.0
 10
5.8075
 20
10.00944444444444
 30
0.0
  0
LWPOLYLINE
  5
3AC
330
2
100
AcDbEntity
  8
PDF_Geometry
370
    25
100
AcDbPolyline
 90
        5
 70
     0
 43
0.0
 10
5.801666666666665
 20
9.966944444444443
 10
5.803333333333333
 20
9.944444444444444
 10
5.808333333333332
 20
9.921944444444443
 10
5.815833333333332
 20
9.900277777777775
 10
5.823333333333332
 20
9.886111111111109
  0
SPLINE
  5
3AD
330
2
100
AcDbEntity
  8
PDF_Geometry
370
    25
100
AcDbSpline
210
0.0
220
0.0
230
1.0
 70
     8
 71
     3
 72
     8
 73
     4
 74
     0
 42
0.000000001
 43
0.0000000001
 40
0.0
 40
0.0
 40
0.0
 40
0.0
 40
1.0
 40
1.0
 40
1.0
 40
1.0
 10
5.849166666666667
 20
9.852777777777776
 30
0.0
 10
5.86923611111111
 20
9.83323611111111
 30
0.0
 10
5.894263888888888
 20
9.817555555555554
 30
0.0
 10
5.921666666666666
 20
9.81111111111111
 30
0.0
  0
SPLINE
  5
3AF
330
2
100
AcDbEntity
  8
PDF_Geometry
370
    35
100
AcDbSpline
210
0.0
220
0.0
230
1.0
 70
     8
 71
     3
 72
     8
 73
     4
 74
     0
 42
0.000000001
 43
0.0000000001
 40
0.0
 40
0.0
 40
0.0
 40
0.0
 40
1.0
 40
1.0
 40
1.0
 40
1.0
 10
5.963333333333332
 20
9.859444444444443
 30
0.0
 10
6.107055555555555
 20
9.866513888888889
 30
0.0
 10
6.107055555555555
 20
10.06820833333333
 30
0.0
 10
5.963333333333332
 20
10.07527777777777
 30
0.0
  0
SPLINE
  5
3B0
330
2
100
AcDbEntity
  8
PDF_Geometry
370
    35
100
AcDbSpline
210
0.0
220
0.0
230
1.0
 70
     8
 71
     3
 72
     8
 73
     4
 74
     0
 42
0.000000001
 43
0.0000000001
 40
0.0
 40
0.0
 40
0.0
 40
0.0
 40
1.0
 40
1.0
 40
1.0
 40
1.0
 10
5.963333333333332
 20
10.07527777777777
 30
0.0
 10
5.81973611111111
 20
10.06815277777777
 30
0.0
 10
5.81973611111111
 20
9.866583333333332
 30
0.0
 10
5.963333333333332
 20
9.859444444444443
 30
0.0
  0
LWPOLYLINE
  5
3B3
330
2
100
AcDbEntity
  8
PDF_Geometry
370
    25
100
AcDbPolyline
 90
        8
 70
     1
 43
0.0
 10
6.838333333333332
 20
2.71111111111111
 42
-0.414075211546628
 10
6.146666666666666
 20
2.020277777777777
 10
2.907499999999999
 20
2.020277777777777
 42
-0.4139550882196968
 10
2.216666666666666
 20
2.71111111111111
 10
2.216666666666662
 20
10.05361111111111
 42
-0.4141737495545902
 10
2.907499999999999
 20
10.74444444444444
 10
6.146666666666666
 20
10.74444444444444
 42
-0.4142560586341923
 10
6.838333333333332
 20
10.05361111111111
  0
LWPOLYLINE
  5
3BB
330
2
100
AcDbEntity
  8
PDF_Geometry
370
    35
100
AcDbPolyline
 90
        8
 70
     1
 43
0.0
 10
6.686666666666665
 20
2.71111111111111
 42
-0.4143229774917902
 10
6.146666666666666
 20
2.171111111111111
 10
2.907499999999999
 20
2.171111111111111
 42
-0.4141411233151743
 10
2.368333333333333
 20
2.71111111111111
 10
2.368333333333332
 20
10.05361111111111
 42
-0.4144403066056876
 10
2.907499999999999
 20
10.59361111111111
 10
6.146666666666666
 20
10.59361111111111
 42
-0.414525496660357
 10
6.686666666666666
 20
10.05361111111111
  0
LWPOLYLINE
  5
3C3
330
2
100
AcDbEntity
  8
PDF_Geometry
370
    25
100
AcDbPolyline
 90
        8
 70
     1
 43
0.0
 10
6.88083333333333
 20
2.71111111111111
 42
-0.4145431362931351
 10
6.146666666666666
 20
1.976944444444444
 10
2.907499999999999
 20
1.976944444444443
 42
-0.4137627730648775
 10
2.173333333333333
 20
2.71111111111111
 10
2.173333333333335
 20
10.05361111111111
 42
-0.4141458627451549
 10
2.907499999999999
 20
10.78777777777778
 10
6.146666666666666
 20
10.78777777777778
 42
-0.4147488679360775
 10
6.880833333333332
 20
10.05361111111111
  0
LWPOLYLINE
  5
3C7
330
2
100
AcDbEntity
  8
PDF_Geometry
370
    25
100
AcDbPolyline
 90
        8
 70
     1
 43
0.0
 10
7.010833333333334
 20
2.71111111111111
 42
-0.4137295248271484
 10
6.146666666666666
 20
1.846944444444444
 10
2.907499999999999
 20
1.846944444444444
 42
-0.4137302300014952
 10
2.044166666666666
 20
2.71111111111111
 10
2.044166666666669
 20
10.05361111111111
 42
-0.4139110824631534
 10
2.907499999999999
 20
10.91777777777777
 10
6.146666666666666
 20
10.91777777777777
 42
-0.4136149954991403
 10
7.010833333333332
 20
10.05361111111111
  0
LWPOLYLINE
  5
3CB
330
2
100
AcDbEntity
  8
PDF_Geometry
370
    25
100
AcDbPolyline
 90
        8
 70
     1
 43
0.0
 10
7.097500000000003
 20
2.71111111111111
 42
-0.4138865758698124
 10
6.146666666666666
 20
1.761111111111111
 10
2.907499999999999
 20
1.761111111111111
 42
-0.4139364368188636
 10
1.957499999999999
 20
2.71111111111111
 10
1.957500000000003
 20
10.05361111111111
 42
-0.4143366677149741
 10
2.907499999999999
 20
11.00361111111111
 10
6.146666666666666
 20
11.00361111111111
 42
-0.4143688688463739
 10
7.097499999999999
 20
10.05361111111111
  0
LWPOLYLINE
  5
3D9
330
2
100
AcDbEntity
  8
PDF_Geometry
370
    35
100
AcDbPolyline
 90
        2
 70
     0
 43
0.0
 10
2.821666666666666
 20
11.00361111111111
 10
1.076666666666666
 20
11.00361111111111
  0
LWPOLYLINE
  5
3DA
330
2
100
AcDbEntity
  8
PDF_Geometry
370
    35
100
AcDbPolyline
 90
        2
 70
     0
 43
0.0
 10
2.821666666666666
 20
1.761111111111111
 10
1.076666666666666
 20
1.761111111111111
  0
LWPOLYLINE
  5
3DB
330
2
100
AcDbEntity
  8
PDF_Geometry
370
    35
100
AcDbPolyline
 90
        2
 70
     0
 43
0.0
 10
1.104166666666666
 20
10.87444444444444
 10
1.104166666666666
 20
1.890277777777777
  0
LWPOLYLINE
  5
3DC
330
2
100
AcDbEntity
  8
PDF_Geometry
370
    35
100
AcDbPolyline
 90
        4
 70
     0
 43
0.0
 10
1.125833333333333
 20
6.45111111111111
 10
1.298333333333333
 20
6.45111111111111
 10
1.183333333333333
 20
6.53361111111111
 10
1.183333333333333
 20
6.409444444444443
  0
LWPOLYLINE
  5
3DE
330
2
100
AcDbEntity
  8
PDF_Geometry
370
    35
100
AcDbPolyline
 90
       14
 70
     0
 43
0.0
 10
1.2575
 20
6.360277777777777
 10
1.265833333333333
 20
6.360277777777777
 10
1.281666666666666
 20
6.351944444444444
 10
1.289999999999999
 20
6.34361111111111
 10
1.298333333333333
 20
6.327777777777777
 10
1.298333333333333
 20
6.294444444444444
 10
1.289999999999999
 20
6.277777777777777
 10
1.281666666666666
 20
6.270277777777777
 10
1.265833333333333
 20
6.261944444444444
 10
1.249166666666666
 20
6.261944444444444
 10
1.2325
 20
6.270277777777777
 10
1.2075
 20
6.286111111111111
 10
1.125833333333333
 20
6.368611111111111
 10
1.125833333333333
 20
6.25361111111111
  0
LWPOLYLINE
  5
3DF
330
2
100
AcDbEntity
  8
PDF_Geometry
370
    35
100
AcDbPolyline
 90
       19
 70
     0
 43
0.0
 10
1.240833333333333
 20
6.105277777777777
 10
1.2575
 20
6.096944444444443
 10
1.273333333333333
 20
6.096944444444443
 10
1.289999999999999
 20
6.105277777777777
 10
1.298333333333333
 20
6.130277777777777
 10
1.298333333333333
 20
6.162777777777777
 10
1.289999999999999
 20
6.187777777777776
 10
1.273333333333333
 20
6.19611111111111
 10
1.2575
 20
6.19611111111111
 10
1.240833333333333
 20
6.187777777777776
 10
1.2325
 20
6.17111111111111
 10
1.224166666666666
 20
6.13861111111111
 10
1.215833333333333
 20
6.113611111111111
 10
1.199999999999999
 20
6.096944444444443
 10
1.183333333333333
 20
6.08861111111111
 10
1.158333333333333
 20
6.08861111111111
 10
1.141666666666666
 20
6.096944444444443
 10
1.134166666666666
 20
6.105277777777777
 10
1.125833333333333
 20
6.130277777777777
  0
SPLINE
  5
3E0
330
2
100
AcDbEntity
  8
PDF_Geometry
370
    35
100
AcDbSpline
210
0.0
220
0.0
230
1.0
 70
     8
 71
     3
 72
     8
 73
     4
 74
     0
 42
0.000000001
 43
0.0000000001
 40
0.0
 40
0.0
 40
0.0
 40
0.0
 40
1.0
 40
1.0
 40
1.0
 40
1.0
 10
1.125833333333333
 20
6.130277777777777
 30
0.0
 10
1.120972222222222
 20
6.172888888888888
 30
0.0
 10
1.132138888888889
 20
6.213083333333333
 30
0.0
 10
1.183333333333333
 20
6.204444444444443
 30
0.0
  0
SPLINE
  5
3E1
330
2
100
AcDbEntity
  8
PDF_Geometry
370
    35
100
AcDbSpline
210
0.0
220
0.0
230
1.0
 70
     8
 71
     3
 72
     8
 73
     4
 74
     0
 42
0.000000001
 43
0.0000000001
 40
0.0
 40
0.0
 40
0.0
 40
0.0
 40
1.0
 40
1.0
 40
1.0
 40
1.0
 10
1.183333333333333
 20
6.204444444444443
 30
0.0
 10
1.236583333333333
 20
6.184541666666666
 30
0.0
 10
1.215055555555555
 20
6.145180555555555
 30
0.0
 10
1.240833333333333
 20
6.105277777777777
 30
0.0
  0
LWPOLYLINE
  5
3E3
330
2
100
AcDbEntity
  8
PDF_Geometry
370
    35
100
AcDbPolyline
 90
        2
 70
     0
 43
0.0
 10
1.957499999999999
 20
2.624444444444444
 10
1.957499999999999
 20
0.8852777777777777
  0
LWPOLYLINE
  5
3E4
330
2
100
AcDbEntity
  8
PDF_Geometry
370
    35
100
AcDbPolyline
 90
        2
 70
     0
 43
0.0
 10
7.097499999999999
 20
2.624444444444444
 10
7.097499999999999
 20
0.8852777777777777
  0
LWPOLYLINE
  5
3E5
330
2
100
AcDbEntity
  8
PDF_Geometry
370
    35
100
AcDbPolyline
 90
        2
 70
     0
 43
0.0
 10
2.087499999999999
 20
0.9119444444444443
 10
6.9675
 20
0.9119444444444443
  0
LWPOLYLINE
  5
3E6
330
2
100
AcDbEntity
  8
PDF_Geometry
370
    35
100
AcDbPolyline
 90
       14
 70
     0
 43
0.0
 10
4.387499999999999
 20
1.065277777777777
 10
4.387499999999999
 20
1.073611111111111
 10
4.395833333333333
 20
1.090277777777777
 10
4.404166666666666
 20
1.09861111111111
 10
4.419999999999999
 20
1.106111111111111
 10
4.453333333333334
 20
1.106111111111111
 10
4.469999999999999
 20
1.09861111111111
 10
4.478333333333332
 20
1.090277777777777
 10
4.485833333333332
 20
1.073611111111111
 10
4.485833333333332
 20
1.056944444444444
 10
4.478333333333332
 20
1.040277777777777
 10
4.461666666666666
 20
1.01611111111111
 10
4.379166666666666
 20
0.933611111111111
 10
4.494166666666665
 20
0.933611111111111
  0
LWPOLYLINE
  5
3E7
330
2
100
AcDbEntity
  8
PDF_Geometry
370
    35
100
AcDbPolyline
 90
       15
 70
     0
 43
0.0
 10
4.559999999999999
 20
1.106111111111111
 10
4.650833333333332
 20
1.106111111111111
 10
4.601666666666666
 20
1.040277777777777
 10
4.625833333333333
 20
1.040277777777777
 10
4.642499999999999
 20
1.032777777777777
 10
4.650833333333332
 20
1.024444444444444
 10
4.659166666666665
 20
0.9994444444444445
 10
4.659166666666665
 20
0.9827777777777777
 10
4.650833333333332
 20
0.958611111111111
 10
4.634166666666666
 20
0.9419444444444442
 10
4.609999999999999
 20
0.933611111111111
 10
4.584999999999999
 20
0.933611111111111
 10
4.559999999999999
 20
0.9419444444444442
 10
4.551666666666665
 20
0.9502777777777778
 10
4.544166666666666
 20
0.9669444444444442
  0
LWPOLYLINE
  5
3E8
330
2
100
AcDbEntity
  8
PDF_Geometry
370
    35
100
AcDbPolyline
 90
       21
 70
     0
 43
0.0
 10
4.724999999999999
 20
0.9419444444444442
 10
4.716666666666666
 20
0.9502777777777778
 10
4.708333333333333
 20
0.9669444444444442
 10
4.708333333333333
 20
0.9911111111111111
 10
4.716666666666666
 20
1.007777777777777
 10
4.733333333333333
 20
1.024444444444444
 10
4.7575
 20
1.032777777777777
 10
4.790833333333332
 20
1.040277777777777
 10
4.806666666666665
 20
1.048611111111111
 10
4.814999999999999
 20
1.065277777777777
 10
4.814999999999999
 20
1.081944444444444
 10
4.806666666666665
 20
1.09861111111111
 10
4.782499999999999
 20
1.106111111111111
 10
4.749166666666666
 20
1.106111111111111
 10
4.724999999999999
 20
1.09861111111111
 10
4.716666666666666
 20
1.081944444444444
 10
4.716666666666666
 20
1.065277777777777
 10
4.724999999999999
 20
1.048611111111111
 10
4.740833333333333
 20
1.040277777777777
 10
4.774166666666666
 20
1.032777777777777
 10
4.799166666666666
 20
1.024444444444444
  0
SPLINE
  5
3E9
330
2
100
AcDbEntity
  8
PDF_Geometry
370
    35
100
AcDbSpline
210
0.0
220
0.0
230
1.0
 70
     8
 71
     3
 72
     8
 73
     4
 74
     0
 42
0.000000001
 43
0.0000000001
 40
0.0
 40
0.0
 40
0.0
 40
0.0
 40
1.0
 40
1.0
 40
1.0
 40
1.0
 10
4.799166666666666
 20
1.024444444444444
 30
0.0
 10
4.863027777777777
 20
0.9689166666666666
 30
0.0
 10
4.799180555555555
 20
0.906625
 30
0.0
 10
4.724999999999999
 20
0.9419444444444442
 30
0.0
  0
VIEWPORT
  5
4A
330
C
100
AcDbEntity
 67
     1
  8
0
100
AcDbViewport
 10
17.24759499286355
 20
11.49745669559334
 30
0.0
 40
36.33732196730226
 41
27.12504315869042
 68
     1
 69
     1
 12
17.24759499286355
 22
11.49745669559334
 13
0.0
 23
0.0
 14
0.5
 24
0.5
 15
0.5
 25
0.5
 16
0.0
 26
0.0
 36
1.0
 17
0.0
 27
0.0
 37
0.0
 42
50.0
 43
0.0
 44
0.0
 45
27.12504315869042
 50
0.0
 51
0.0
 72
  1000
 90
    32864
  1

281
     0
 71
     1
 74
     0
110
0.0
120
0.0
130
0.0
111
1.0
121
0.0
131
0.0
112
0.0
122
1.0
132
0.0
 79
     0
146
0.0
170
     0
 61
     5
348
88
292
     1
282
     1
141
0.0
142
0.0
 63
   250
421
  3355443
  0
ENDSEC
  0
SECTION
  2
OBJECTS
  0
DICTIONARY
  5
7
330
0
100
AcDbDictionary
281
     1
  3
ACAD_CIP_PREVIOUS_PRODUCT_INFO
350
CD
  3
ACAD_COLOR
350
55
  3
ACAD_DETAILVIEWSTYLE
350
C5
  3
ACAD_GROUP
350
1F
  3
ACAD_LAYOUT
350
B
  3
ACAD_MATERIAL
350
54
  3
ACAD_MLEADERSTYLE
350
C1
  3
ACAD_MLINESTYLE
350
20
  3
ACAD_PLOTSETTINGS
350
21
  3
ACAD_PLOTSTYLENAME
350
6
  3
ACAD_SCALELIST
350
AF
  3
ACAD_SECTIONVIEWSTYLE
350
C3
  3
ACAD_TABLESTYLE
350
93
  3
ACAD_VISUALSTYLE
350
82
  3
ACDB_RECOMPOSE_DATA
350
40F
  3
AcDbVariableDictionary
350
9B
  0
DICTIONARY
  5
3EB
330
4
100
AcDbDictionary
280
     1
281
     1
  3
ADSK_XREC_LAYER_RECONCILED
360
3EC
  0
DICTIONARY
  5
3ED
330
25
100
AcDbDictionary
280
     1
281
     1
  3
ADSK_XREC_LAYER_RECONCILED
360
3EE
  0
DICTIONARY
  5
3EF
330
CE
100
AcDbDictionary
280
     1
281
     1
  3
ADSK_XREC_LAYER_RECONCILED
360
3F0
  0
DICTIONARY
  5
3F1
330
CF
100
AcDbDictionary
280
     1
281
     1
  3
ADSK_XREC_LAYER_RECONCILED
360
3F2
  0
XRECORD
  5
CD
102
{ACAD_REACTORS
330
7
102
}
330
7
100
AcDbXrecord
280
     1
300
ACD
300
2017
300
ACD_F_S
  0
DICTIONARY
  5
55
102
{ACAD_REACTORS
330
7
102
}
330
7
100
AcDbDictionary
281
     1
  0
DICTIONARY
  5
C5
102
{ACAD_REACTORS
330
7
102
}
330
7
100
AcDbDictionary
281
     1
  3
Imperial24
350
C6
  0
DICTIONARY
  5
1F
102
{ACAD_REACTORS
330
7
102
}
330
7
100
AcDbDictionary
281
     1
  0
DICTIONARY
  5
B
102
{ACAD_REACTORS
330
7
102
}
330
7
100
AcDbDictionary
281
     1
  3
Generic 24in x 36in Title Block
350
F
  3
Model
350
A
  0
DICTIONARY
  5
54
102
{ACAD_REACTORS
330
7
102
}
330
7
100
AcDbDictionary
281
     1
  3
ByBlock
350
80
  3
ByLayer
350
7F
  3
Global
350
81
  0
DICTIONARY
  5
C1
102
{ACAD_REACTORS
330
7
102
}
330
7
100
AcDbDictionary
281
     1
  3
Standard
350
C2
  0
DICTIONARY
  5
20
102
{ACAD_REACTORS
330
7
102
}
330
7
100
AcDbDictionary
281
     1
  3
Standard
350
22
  0
DICTIONARY
  5
21
102
{ACAD_REACTORS
330
7
102
}
330
7
100
AcDbDictionary
281
     1
  0
ACDBDICTIONARYWDFLT
  5
6
102
{ACAD_REACTORS
330
7
102
}
330
7
100
AcDbDictionary
281
     1
  3
Normal
350
5
100
AcDbDictionaryWithDefault
340
5
  0
DICTIONARY
  5
AF
102
{ACAD_REACTORS
330
7
102
}
330
7
100
AcDbDictionary
281
     1
  3
A0
350
B0
  3
A1
350
B1
  3
A2
350
B2
  3
A3
350
B3
  3
A4
350
B4
  3
A5
350
B5
  3
A6
350
B6
  3
A7
350
B7
  3
A8
350
B8
  3
A9
350
B9
  3
B0
350
BA
  3
B1
350
BB
  3
B2
350
BC
  3
B3
350
BD
  3
B4
350
BE
  3
B5
350
BF
  3
B6
350
C0
  0
DICTIONARY
  5
C3
102
{ACAD_REACTORS
330
7
102
}
330
7
100
AcDbDictionary
281
     1
  3
Imperial24
350
C4
  0
DICTIONARY
  5
93
102
{ACAD_REACTORS
330
7
102
}
330
7
100
AcDbDictionary
281
     1
  3
Standard
350
94
  0
DICTIONARY
  5
82
102
{ACAD_REACTORS
330
7
102
}
330
7
100
AcDbDictionary
281
     1
  3
2dWireframe
350
88
  3
3D Hidden
350
8A
  3
3dWireframe
350
89
  3
Basic
350
87
  3
Brighten
350
8E
  3
ColorChange
350
92
  3
Conceptual
350
8B
  3
Dim
350
8D
  3
EdgeColorOff
350
AE
  3
Facepattern
350
91
  3
Flat
350
83
  3
FlatWithEdges
350
84
  3
Gouraud
350
85
  3
GouraudWithEdges
350
86
  3
Hidden
350
A6
  3
JitterOff
350
AC
  3
Linepattern
350
90
  3
OverhangOff
350
AD
  3
Realistic
350
8C
  3
Shaded
350
AB
  3
Shaded with edges
350
AA
  3
Shades of Gray
350
A7
  3
Sketchy
350
A8
  3
Thicken
350
8F
  3
Wireframe
350
A5
  3
X-Ray
350
A9
  0
XRECORD
  5
40F
102
{ACAD_REACTORS
330
7
102
}
330
7
100
AcDbXrecord
280
     1
 90
        1
330
94
330
C4
330
C6
  0
DICTIONARY
  5
9B
102
{ACAD_REACTORS
330
7
102
}
330
7
100
AcDbDictionary
281
     1
  3
CANNOSCALE
350
405
  3
CMLEADERSTYLE
350
401
  3
CTABLESTYLE
350
9C
  3
CVIEWDETAILSTYLE
350
402
  3
CVIEWSECTIONSTYLE
350
403
  3
LAYEREVAL
350
407
  3
LAYERNOTIFY
350
408
  3
LIGHTINGUNITS
350
406
  3
MSLTSCALE
350
404
  0
XRECORD
  5
3EC
102
{ACAD_REACTORS
330
3EB
102
}
330
3EB
100
AcDbXrecord
280
     1
290
     1
  0
XRECORD
  5
3EE
102
{ACAD_REACTORS
330
3ED
102
}
330
3ED
100
AcDbXrecord
280
     1
290
     1
  0
XRECORD
  5
3F0
102
{ACAD_REACTORS
330
3EF
102
}
330
3EF
100
AcDbXrecord
280
     1
290
     1
  0
XRECORD
  5
3F2
102
{ACAD_REACTORS
330
3F1
102
}
330
3F1
100
AcDbXrecord
280
     1
290
     1
  0
ACDBDETAILVIEWSTYLE
  5
C6
102
{ACAD_XDICTIONARY
360
40D
102
}
102
{ACAD_REACTORS
330
C5
102
}
330
C5
100
AcDbModelDocViewStyle
 70
     0
  3
Imperial24
290
     0
100
AcDbDetailViewStyle
 70
     0
 71
     0
 90
        3
 71
     1
340
12
 62
   256
 40
0.24
340
0
 62
   256
 40
0.24
300

 40
0.36
280
     3
 71
     2
340
8
 90
       25
 62
   256
 71
     3
340
12
 62
   256
 40
0.24
 90
        1
 40
0.75
 90
        1
300
%<\AcVar ViewType \f "%tc1">% %<\AcVar ViewDetailId>%\PSCALE %<\AcVar ViewScale \f "%sn">%
 71
     4
340
8
 90
       25
 62
   256
340
8
 90
       25
 62
   256
280
     0
  0
LAYOUT
  5
F
102
{ACAD_REACTORS
330
B
102
}
330
B
100
AcDbPlotSettings
  1

  2
none_device
  4
ARCH_D_(24.00_x_36.00_Inches)
  6

 40
6.4
 41
19.1
 42
6.4
 43
19.1
 44
609.5999755859375
 45
914.4000244140626
 46
6.095999999999999
 47
-0.254
 48
0.0
 49
0.0
140
0.0
141
0.0
142
1.0
143
1.0
 70
   692
 72
     0
 73
     1
 74
     1
  7

 75
    16
147
1.0
 76
     0
 77
     2
 78
   300
148
0.2650993882970653
149
0.268587724897764
100
AcDbLayout
  1
Generic 24in x 36in Title Block
 70
     1
 71
     1
 10
-0.7524054877282309
 20
-0.5025428238148726
 11
35.24759547345533
 21
23.49745621500156
 12
0.0
 22
0.0
 32
0.0
 14
1.000000000000000E+20
 24
1.000000000000000E+20
 34
1.000000000000000E+20
 15
-1.000000000000000E+20
 25
-1.000000000000000E+20
 35
-1.000000000000000E+20
146
0.0
 13
0.0
 23
0.0
 33
0.0
 16
1.0
 26
0.0
 36
0.0
 17
0.0
 27
1.0
 37
0.0
 76
     0
330
C
331
4A
  0
LAYOUT
  5
A
102
{ACAD_REACTORS
330
B
102
}
330
B
100
AcDbPlotSettings
  1

  2
none_device
  4
Letter_(8.50_x_11.00_Inches)
  6

 40
6.349999904632568
 41
6.349999904632568
 42
6.350006103515625
 43
6.350006103515625
 44
215.8999938964844
 45
279.3999938964844
 46
20.37045378159827
 47
10.87052656611426
 48
0.0
 49
0.0
140
0.0
141
0.0
142
1.0
143
3.59932905303845
 70
 11956
 72
     0
 73
     1
 74
     1
  7

 75
     0
147
0.2778295580271631
 76
     0
 77
     2
 78
   300
148
5.106903281790129
149
0.2718425107115592
100
AcDbLayout
  1
Model
 70
     1
 71
     0
 10
0.0
 20
0.0
 11
12.0
 21
9.0
 12
0.0
 22
0.0
 32
0.0
 14
0.0
 24
0.0
 34
0.0
 15
0.0
 25
0.0
 35
0.0
146
0.0
 13
0.0
 23
0.0
 33
0.0
 16
1.0
 26
0.0
 36
0.0
 17
0.0
 27
1.0
 37
0.0
 76
     0
330
2
331
7D
  0
MATERIAL
  5
80
102
{ACAD_REACTORS
330
54
102
}
330
54
100
AcDbMaterial
  1
ByBlock
 73
     1
 78
     1
172
     1
176
     1
270
     1
274
     1
 94
       63
  0
MATERIAL
  5
7F
102
{ACAD_REACTORS
330
54
102
}
330
54
100
AcDbMaterial
  1
ByLayer
 73
     1
 78
     1
172
     1
176
     1
270
     1
274
     1
 94
       63
  0
MATERIAL
  5
81
102
{ACAD_REACTORS
330
54
102
}
330
54
100
AcDbMaterial
  1
Global
 73
     1
 78
     1
172
     1
176
     1
270
     1
274
     1
 94
       63
  0
MLEADERSTYLE
  5
C2
102
{ACAD_REACTORS
330
C1
102
}
330
C1
100
AcDbMLeaderStyle
179
     2
170
     2
171
     1
172
     0
 90
        2
 40
0.0
 41
0.0
173
     1
 91
-1056964608
340
15
 92
       -2
290
     1
 42
0.09
291
     1
 43
0.36
  3
Standard
 44
0.18
300

342
12
174
     1
178
     6
175
     1
176
     0
 93
-1056964608
 45
0.18
292
     0
297
     0
 46
0.18
 94
-1056964608
 47
1.0
 49
1.0
140
1.0
293
     1
141
0.0
294
     1
177
     0
142
1.0
295
     1
296
     0
143
0.125
271
     0
272
     9
273
     9
298
     1
  0
MLINESTYLE
  5
22
102
{ACAD_REACTORS
330
20
102
}
330
20
100
AcDbMlineStyle
  2
STANDARD
 70
     0
  3

 62
   256
 51
90.0
 52
90.0
 71
     2
 49
0.5
 62
   256
  6
BYLAYER
 49
-0.5
 62
   256
  6
BYLAYER
  0
ACDBPLACEHOLDER
  5
5
102
{ACAD_REACTORS
330
6
102
}
330
6
  0
SCALE
  5
B0
102
{ACAD_REACTORS
330
AF
102
}
330
AF
100
AcDbScale
 70
     0
300
1:1
140
1.0
141
1.0
290
     1
  0
SCALE
  5
B1
102
{ACAD_REACTORS
330
AF
102
}
330
AF
100
AcDbScale
 70
     0
300
1/128" = 1'-0"
140
0.0078125
141
12.0
290
     0
  0
SCALE
  5
B2
102
{ACAD_REACTORS
330
AF
102
}
330
AF
100
AcDbScale
 70
     0
300
1/64" = 1'-0"
140
0.015625
141
12.0
290
     0
  0
SCALE
  5
B3
102
{ACAD_REACTORS
330
AF
102
}
330
AF
100
AcDbScale
 70
     0
300
1/32" = 1'-0"
140
0.03125
141
12.0
290
     0
  0
SCALE
  5
B4
102
{ACAD_REACTORS
330
AF
102
}
330
AF
100
AcDbScale
 70
     0
300
1/16" = 1'-0"
140
0.0625
141
12.0
290
     0
  0
SCALE
  5
B5
102
{ACAD_REACTORS
330
AF
102
}
330
AF
100
AcDbScale
 70
     0
300
3/32" = 1'-0"
140
0.09375
141
12.0
290
     0
  0
SCALE
  5
B6
102
{ACAD_REACTORS
330
AF
102
}
330
AF
100
AcDbScale
 70
     0
300
1/8" = 1'-0"
140
0.125
141
12.0
290
     0
  0
SCALE
  5
B7
102
{ACAD_REACTORS
330
AF
102
}
330
AF
100
AcDbScale
 70
     0
300
3/16" = 1'-0"
140
0.1875
141
12.0
290
     0
  0
SCALE
  5
B8
102
{ACAD_REACTORS
330
AF
102
}
330
AF
100
AcDbScale
 70
     0
300
1/4" = 1'-0"
140
0.25
141
12.0
290
     0
  0
SCALE
  5
B9
102
{ACAD_REACTORS
330
AF
102
}
330
AF
100
AcDbScale
 70
     0
300
3/8" = 1'-0"
140
0.375
141
12.0
290
     0
  0
SCALE
  5
BA
102
{ACAD_REACTORS
330
AF
102
}
330
AF
100
AcDbScale
 70
     0
300
1/2" = 1'-0"
140
0.5
141
12.0
290
     0
  0
SCALE
  5
BB
102
{ACAD_REACTORS
330
AF
102
}
330
AF
100
AcDbScale
 70
     0
300
3/4" = 1'-0"
140
0.75
141
12.0
290
     0
  0
SCALE
  5
BC
102
{ACAD_REACTORS
330
AF
102
}
330
AF
100
AcDbScale
 70
     0
300
1" = 1'-0"
140
1.0
141
12.0
290
     0
  0
SCALE
  5
BD
102
{ACAD_REACTORS
330
AF
102
}
330
AF
100
AcDbScale
 70
     0
300
1-1/2" = 1'-0"
140
1.5
141
12.0
290
     0
  0
SCALE
  5
BE
102
{ACAD_REACTORS
330
AF
102
}
330
AF
100
AcDbScale
 70
     0
300
3" = 1'-0"
140
3.0
141
12.0
290
     0
  0
SCALE
  5
BF
102
{ACAD_REACTORS
330
AF
102
}
330
AF
100
AcDbScale
 70
     0
300
6" = 1'-0"
140
6.0
141
12.0
290
     0
  0
SCALE
  5
C0
102
{ACAD_REACTORS
330
AF
102
}
330
AF
100
AcDbScale
 70
     0
300
1'-0" = 1'-0"
140
12.0
141
12.0
290
     0
  0
ACDBSECTIONVIEWSTYLE
  5
C4
102
{ACAD_XDICTIONARY
360
40B
102
}
102
{ACAD_REACTORS
330
C3
102
}
330
C3
100
AcDbModelDocViewStyle
 70
     0
  3
Imperial24
290
     0
100
AcDbSectionViewStyle
 70
     0
 71
     0
 90
       78
 71
     1
340
12
 62
   256
 40
0.24
340
0
340
0
 62
   256
 40
0.24
300
I, O, Q, S, X, Z
 40
0.48
 90
        3
 40
0.18
 90
        1
 71
     2
340
8
 90
       25
 62
   256
340
8
 90
       50
 62
   256
 40
0.24
 40
0.0
 40
0.24
 71
     3
340
12
 62
   256
 40
0.24
 90
        1
 40
0.75
 90
        1
300
%<\AcVar ViewType \f "%tc1">% %<\AcVar ViewSectionStartId>%-%<\AcVar ViewSectionEndId>%\PSCALE %<\AcVar ViewScale \f "%sn">%
 71
     4
 62
   256
 62
   257
300
ANSI31
 40
1.0
 90
        0
290
     0
290
     0
 90
        6
 40
0.0
 40
1.570796326794896
 40
0.2617993877991494
 40
1.308996938995747
 40
-0.2617993877991494
 40
1.832595714594046
  0
TABLESTYLE
  5
94
102
{ACAD_XDICTIONARY
360
409
102
}
102
{ACAD_REACTORS
330
93
102
}
330
93
100
AcDbTableStyle
280
     0
  3
Standard
 70
     0
 71
     0
 40
0.06
 41
0.06
280
     0
281
     0
  7
Standard
140
0.18
170
     2
 62
     0
 63
     7
283
     0
 90
      512
 91
        0
  1

274
    -2
284
     1
 64
     0
275
    -2
285
     1
 65
     0
276
    -2
286
     1
 66
     0
277
    -2
287
     1
 67
     0
278
    -2
288
     1
 68
     0
279
    -2
289
     1
 69
     0
  7
Standard
140
0.25
170
     5
 62
     0
 63
     7
283
     0
 90
      512
 91
        0
  1

274
    -2
284
     1
 64
     0
275
    -2
285
     1
 65
     0
276
    -2
286
     1
 66
     0
277
    -2
287
     1
 67
     0
278
    -2
288
     1
 68
     0
279
    -2
289
     1
 69
     0
  7
Standard
140
0.18
170
     5
 62
     0
 63
     7
283
     0
 90
      512
 91
        0
  1

274
    -2
284
     1
 64
     0
275
    -2
285
     1
 65
     0
276
    -2
286
     1
 66
     0
277
    -2
287
     1
 67
     0
278
    -2
288
     1
 68
     0
279
    -2
289
     1
 69
     0
  0
VISUALSTYLE
  5
88
102
{ACAD_REACTORS
330
82
102
}
330
82
100
AcDbVisualStyle
  2
2dWireframe
 70
     4
177
     3
291
     0
 70
    58
 90
        0
176
     1
 90
        2
176
     1
 90
        1
176
     1
 90
        0
176
     1
 40
0.6
176
     1
 40
30.0
176
     1
 62
     7
420
 16777215
176
     1
 90
        1
176
     1
 90
        4
176
     1
 62
     7
176
     1
 62
   257
176
     1
 90
        1
176
     1
 90
        1
176
     1
 40
1.0
176
     1
 90
        0
176
     1
 62
   257
176
     1
 40
1.0
176
     1
 90
        1
176
     1
 90
        6
176
     1
 90
        2
176
     1
 62
     7
176
     1
 90
        5
176
     1
 90
        0
176
     1
 90
        0
176
     1
290
     0
176
     1
 90
        1
176
     1
 40
0.0
176
     1
 90
        0
176
     1
290
     1
176
     1
290
     1
176
     1
290
     0
176
     1
290
     0
176
     1
290
     0
176
     1
290
     0
176
     1
290
     0
176
     1
290
     0
176
     1
290
     0
176
     1
 90
       50
176
     1
 40
0.0
176
     1
 40
1.0
176
     1
 90
        0
176
     1
 62
    18
420
        0
176
     1
 90
       50
176
     1
 90
        3
176
     1
 62
     5
420
      255
176
     1
290
     0
176
     1
 90
       50
176
     1
 90
       50
176
     1
 90
       50
176
     1
290
     0
176
     1
 90
       50
176
     1
 62
   256
176
     0
 40
1.0
176
     0
 90
        2
176
     1
  1
strokes_ogs.tif
176
     1
290
     0
176
     1
 40
1.0
176
     1
 40
1.0
176
     1
  0
VISUALSTYLE
  5
8A
102
{ACAD_REACTORS
330
82
102
}
330
82
100
AcDbVisualStyle
  2
3D Hidden
 70
     6
177
     3
291
     0
 70
    58
 90
        1
176
     1
 90
        2
176
     1
 90
        2
176
     1
 90
        0
176
     1
 40
0.6
176
     1
 40
30.0
176
     1
 62
     7
420
 16777215
176
     1
 90
        2
176
     1
 90
       10
176
     1
 62
     7
176
     1
 62
   257
176
     1
 90
        2
176
     1
 90
        2
176
     1
 40
40.0
176
     1
 90
        0
176
     1
 62
   257
176
     1
 40
1.0
176
     1
 90
        1
176
     1
 90
        6
176
     1
 90
        2
176
     1
 62
     7
176
     1
 90
        3
176
     1
 90
        0
176
     1
 90
        0
176
     1
290
     0
176
     1
 90
        1
176
     1
 40
0.0
176
     1
 90
        0
176
     1
290
     0
176
     1
290
     1
176
     1
290
     1
176
     1
290
     0
176
     1
290
     0
176
     1
290
     0
176
     1
290
     0
176
     1
290
     0
176
     1
290
     0
176
     1
 90
       50
176
     1
 40
0.0
176
     1
 40
1.0
176
     1
 90
        0
176
     1
 62
    18
420
        0
176
     1
 90
       50
176
     1
 90
        3
176
     1
 62
     5
420
      255
176
     1
290
     0
176
     1
 90
       50
176
     1
 90
       50
176
     1
 90
       50
176
     1
290
     0
176
     1
 90
       50
176
     1
 62
   256
176
     0
 40
1.0
176
     0
 90
        2
176
     1
  1
strokes_ogs.tif
176
     1
290
     0
176
     1
 40
1.0
176
     1
 40
1.0
176
     1
  0
VISUALSTYLE
  5
89
102
{ACAD_REACTORS
330
82
102
}
330
82
100
AcDbVisualStyle
  2
3dWireframe
 70
     5
177
     3
291
     0
 70
    58
 90
        0
176
     1
 90
        2
176
     1
 90
        1
176
     1
 90
        0
176
     1
 40
0.6
176
     1
 40
30.0
176
     1
 62
     7
420
 16777215
176
     1
 90
        1
176
     1
 90
        4
176
     1
 62
     7
176
     1
 62
   257
176
     1
 90
        1
176
     1
 90
        1
176
     1
 40
1.0
176
     1
 90
        0
176
     1
 62
   257
176
     1
 40
1.0
176
     1
 90
        1
176
     1
 90
        6
176
     1
 90
        2
176
     1
 62
     7
176
     1
 90
        5
176
     1
 90
        0
176
     1
 90
        0
176
     1
290
     0
176
     1
 90
        1
176
     1
 40
0.0
176
     1
 90
        0
176
     1
290
     0
176
     1
290
     1
176
     1
290
     1
176
     1
290
     0
176
     1
290
     0
176
     1
290
     0
176
     1
290
     0
176
     1
290
     0
176
     1
290
     0
176
     1
 90
       50
176
     1
 40
0.0
176
     1
 40
1.0
176
     1
 90
        0
176
     1
 62
    18
420
        0
176
     1
 90
       50
176
     1
 90
        3
176
     1
 62
     5
420
      255
176
     1
290
     0
176
     1
 90
       50
176
     1
 90
       50
176
     1
 90
       50
176
     1
290
     0
176
     1
 90
       50
176
     1
 62
   256
176
     0
 40
1.0
176
     0
 90
        2
176
     1
  1
strokes_ogs.tif
176
     1
290
     0
176
     1
 40
1.0
176
     1
 40
1.0
176
     1
  0
VISUALSTYLE
  5
87
102
{ACAD_REACTORS
330
82
102
}
330
82
100
AcDbVisualStyle
  2
Basic
 70
     7
177
     3
291
     1
 70
    58
 90
        1
176
     1
 90
        0
176
     1
 90
        1
176
     1
 90
        0
176
     1
 40
0.6
176
     1
 40
30.0
176
     1
 62
     7
420
 16777215
176
     1
 90
        0
176
     1
 90
        4
176
     1
 62
     7
176
     1
 62
   257
176
     1
 90
        1
176
     1
 90
        1
176
     1
 40
1.0
176
     1
 90
        8
176
     1
 62
     7
176
     1
 40
1.0
176
     1
 90
        1
176
     1
 90
        6
176
     1
 90
        2
176
     1
 62
     7
176
     1
 90
        5
176
     1
 90
        0
176
     1
 90
        0
176
     1
290
     0
176
     1
 90
        1
176
     1
 40
0.0
176
     1
 90
        0
176
     1
290
     0
176
     1
290
     1
176
     1
290
     1
176
     1
290
     0
176
     1
290
     0
176
     1
290
     0
176
     1
290
     0
176
     1
290
     0
176
     1
290
     0
176
     1
 90
       50
176
     1
 40
0.0
176
     1
 40
1.0
176
     1
 90
        0
176
     1
 62
    18
420
        0
176
     1
 90
       50
176
     1
 90
        3
176
     1
 62
     5
420
      255
176
     1
290
     0
176
     1
 90
       50
176
     1
 90
       50
176
     1
 90
       50
176
     1
290
     0
176
     1
 90
       50
176
     1
 62
   256
176
     0
 40
1.0
176
     0
 90
        2
176
     1
  1
strokes_ogs.tif
176
     1
290
     0
176
     1
 40
1.0
176
     1
 40
1.0
176
     1
  0
VISUALSTYLE
  5
8E
102
{ACAD_REACTORS
330
82
102
}
330
82
100
AcDbVisualStyle
  2
Brighten
 70
    12
177
     3
291
     1
 70
    58
 90
        2
176
     1
 90
        2
176
     1
 90
        1
176
     1
 90
        0
176
     1
 40
0.6
176
     1
 40
30.0
176
     1
 62
     7
420
 16777215
176
     1
 90
        1
176
     1
 90
        4
176
     1
 62
     7
176
     1
 62
   257
176
     1
 90
        1
176
     1
 90
        1
176
     1
 40
1.0
176
     1
 90
        8
176
     1
 62
     7
176
     1
 40
1.0
176
     1
 90
        1
176
     1
 90
        6
176
     1
 90
        2
176
     1
 62
     7
176
     1
 90
        5
176
     1
 90
        0
176
     1
 90
        0
176
     1
290
     0
176
     1
 90
        1
176
     1
 40
50.0
176
     1
 90
        0
176
     1
290
     0
176
     1
290
     1
176
     1
290
     1
176
     1
290
     0
176
     1
290
     0
176
     1
290
     0
176
     1
290
     0
176
     1
290
     0
176
     1
290
     0
176
     1
 90
       50
176
     1
 40
0.0
176
     1
 40
1.0
176
     1
 90
        0
176
     1
 62
    18
420
        0
176
     1
 90
       50
176
     1
 90
        3
176
     1
 62
     5
420
      255
176
     1
290
     0
176
     1
 90
       50
176
     1
 90
       50
176
     1
 90
       50
176
     1
290
     0
176
     1
 90
       50
176
     1
 62
   256
176
     0
 40
1.0
176
     0
 90
        2
176
     1
  1
strokes_ogs.tif
176
     1
290
     0
176
     1
 40
1.0
176
     1
 40
1.0
176
     1
  0
VISUALSTYLE
  5
92
102
{ACAD_REACTORS
330
82
102
}
330
82
100
AcDbVisualStyle
  2
ColorChange
 70
    16
177
     3
291
     1
 70
    58
 90
        2
176
     1
 90
        2
176
     1
 90
        3
176
     1
 90
        0
176
     1
 40
0.6
176
     1
 40
30.0
176
     1
 62
     8
420
  8421504
176
     1
 90
        1
176
     1
 90
        4
176
     1
 62
     7
176
     1
 62
   257
176
     1
 90
        1
176
     1
 90
        1
176
     1
 40
1.0
176
     1
 90
        8
176
     1
 62
     8
420
  8421504
176
     1
 40
1.0
176
     1
 90
        1
176
     1
 90
        6
176
     1
 90
        2
176
     1
 62
     7
176
     1
 90
        5
176
     1
 90
        0
176
     1
 90
        0
176
     1
290
     0
176
     1
 90
        1
176
     1
 40
0.0
176
     1
 90
        0
176
     1
290
     0
176
     1
290
     1
176
     1
290
     1
176
     1
290
     0
176
     1
290
     0
176
     1
290
     0
176
     1
290
     0
176
     1
290
     0
176
     1
290
     0
176
     1
 90
       50
176
     1
 40
0.0
176
     1
 40
1.0
176
     1
 90
        0
176
     1
 62
    18
420
        0
176
     1
 90
       50
176
     1
 90
        3
176
     1
 62
     5
420
      255
176
     1
290
     0
176
     1
 90
       50
176
     1
 90
       50
176
     1
 90
       50
176
     1
290
     0
176
     1
 90
       50
176
     1
 62
   256
176
     0
 40
1.0
176
     0
 90
        2
176
     1
  1
strokes_ogs.tif
176
     1
290
     0
176
     1
 40
1.0
176
     1
 40
1.0
176
     1
  0
VISUALSTYLE
  5
8B
102
{ACAD_REACTORS
330
82
102
}
330
82
100
AcDbVisualStyle
  2
Conceptual
 70
     9
177
     3
291
     0
 70
    58
 90
        3
176
     1
 90
        2
176
     1
 90
        1
176
     1
 90
        0
176
     1
 40
0.6
176
     1
 40
30.0
176
     1
 62
     7
420
 16777215
176
     1
 90
        2
176
     1
 90
        2
176
     1
 62
     7
176
     1
 62
   257
176
     1
 90
        1
176
     1
 90
        1
176
     1
 40
40.0
176
     1
 90
        8
176
     1
 62
     7
176
     1
 40
1.0
176
     1
 90
        1
176
     1
 90
        6
176
     1
 90
        2
176
     1
 62
     7
176
     1
 90
        5
176
     1
 90
        0
176
     1
 90
        0
176
     1
290
     0
176
     1
 90
        1
176
     1
 40
0.0
176
     1
 90
        0
176
     1
290
     0
176
     1
290
     1
176
     1
290
     1
176
     1
290
     0
176
     1
290
     0
176
     1
290
     0
176
     1
290
     0
176
     1
290
     0
176
     1
290
     0
176
     1
 90
       50
176
     1
 40
0.0
176
     1
 40
1.0
176
     1
 90
        0
176
     1
 62
    18
420
        0
176
     1
 90
       50
176
     1
 90
        3
176
     1
 62
     5
420
      255
176
     1
290
     0
176
     1
 90
       50
176
     1
 90
       50
176
     1
 90
       50
176
     1
290
     0
176
     1
 90
       50
176
     1
 62
   256
176
     0
 40
1.0
176
     0
 90
        2
176
     1
  1
strokes_ogs.tif
176
     1
290
     0
176
     1
 40
1.0
176
     1
 40
1.0
176
     1
  0
VISUALSTYLE
  5
8D
102
{ACAD_REACTORS
330
82
102
}
330
82
100
AcDbVisualStyle
  2
Dim
 70
    11
177
     3
291
     1
 70
    58
 90
        2
176
     1
 90
        2
176
     1
 90
        1
176
     1
 90
        0
176
     1
 40
0.6
176
     1
 40
30.0
176
     1
 62
     7
420
 16777215
176
     1
 90
        1
176
     1
 90
        4
176
     1
 62
     7
176
     1
 62
   257
176
     1
 90
        1
176
     1
 90
        1
176
     1
 40
1.0
176
     1
 90
        8
176
     1
 62
     7
176
     1
 40
1.0
176
     1
 90
        1
176
     1
 90
        6
176
     1
 90
        2
176
     1
 62
     7
176
     1
 90
        5
176
     1
 90
        0
176
     1
 90
        0
176
     1
290
     0
176
     1
 90
        1
176
     1
 40
-50.0
176
     1
 90
        0
176
     1
290
     0
176
     1
290
     1
176
     1
290
     1
176
     1
290
     0
176
     1
290
     0
176
     1
290
     0
176
     1
290
     0
176
     1
290
     0
176
     1
290
     0
176
     1
 90
       50
176
     1
 40
0.0
176
     1
 40
1.0
176
     1
 90
        0
176
     1
 62
    18
420
        0
176
     1
 90
       50
176
     1
 90
        3
176
     1
 62
     5
420
      255
176
     1
290
     0
176
     1
 90
       50
176
     1
 90
       50
176
     1
 90
       50
176
     1
290
     0
176
     1
 90
       50
176
     1
 62
   256
176
     0
 40
1.0
176
     0
 90
        2
176
     1
  1
strokes_ogs.tif
176
     1
290
     0
176
     1
 40
1.0
176
     1
 40
1.0
176
     1
  0
VISUALSTYLE
  5
AE
102
{ACAD_REACTORS
330
82
102
}
330
82
100
AcDbVisualStyle
  2
EdgeColorOff
 70
    22
177
     3
291
     1
 70
    58
 90
        2
176
     0
 90
        2
176
     0
 90
        0
176
     0
 90
        0
176
     0
 40
0.6
176
     0
 40
30.0
176
     0
 62
     7
420
 16777215
176
     0
 90
        1
176
     0
 90
        4
176
     0
 62
     7
176
     0
 62
   257
176
     0
 90
        1
176
     0
 90
        1
176
     0
 40
1.0
176
     0
 90
        8
176
     2
 62
     7
176
     0
 40
1.0
176
     0
 90
        1
176
     0
 90
        6
176
     0
 90
        2
176
     0
 62
     7
176
     0
 90
        5
176
     0
 90
        0
176
     0
 90
        0
176
     0
290
     0
176
     0
 90
        1
176
     0
 40
0.0
176
     0
 90
        0
176
     0
290
     0
176
     0
290
     1
176
     0
290
     1
176
     0
290
     0
176
     0
290
     0
176
     0
290
     0
176
     0
290
     0
176
     0
290
     0
176
     0
290
     0
176
     0
 90
       50
176
     0
 40
0.0
176
     0
 40
1.0
176
     0
 90
        0
176
     0
 62
    18
420
        0
176
     0
 90
       50
176
     0
 90
        3
176
     0
 62
     5
420
      255
176
     0
290
     0
176
     0
 90
       50
176
     0
 90
       50
176
     0
 90
       50
176
     0
290
     0
176
     0
 90
       50
176
     0
 62
   256
176
     0
 40
1.0
176
     0
 90
        2
176
     0
  1
strokes_ogs.tif
176
     0
290
     0
176
     0
 40
1.0
176
     0
 40
1.0
176
     0
  0
VISUALSTYLE
  5
91
102
{ACAD_REACTORS
330
82
102
}
330
82
100
AcDbVisualStyle
  2
Facepattern
 70
    15
177
     3
291
     1
 70
    58
 90
        2
176
     1
 90
        2
176
     1
 90
        1
176
     1
 90
        0
176
     1
 40
0.6
176
     1
 40
30.0
176
     1
 62
     7
420
 16777215
176
     1
 90
        1
176
     1
 90
        4
176
     1
 62
     7
176
     1
 62
   257
176
     1
 90
        1
176
     1
 90
        1
176
     1
 40
1.0
176
     1
 90
        8
176
     1
 62
     7
176
     1
 40
1.0
176
     1
 90
        1
176
     1
 90
        6
176
     1
 90
        2
176
     1
 62
     7
176
     1
 90
        5
176
     1
 90
        0
176
     1
 90
        0
176
     1
290
     0
176
     1
 90
        1
176
     1
 40
0.0
176
     1
 90
        0
176
     1
290
     0
176
     1
290
     1
176
     1
290
     1
176
     1
290
     0
176
     1
290
     0
176
     1
290
     0
176
     1
290
     0
176
     1
290
     0
176
     1
290
     0
176
     1
 90
       50
176
     1
 40
0.0
176
     1
 40
1.0
176
     1
 90
        0
176
     1
 62
    18
420
        0
176
     1
 90
       50
176
     1
 90
        3
176
     1
 62
     5
420
      255
176
     1
290
     0
176
     1
 90
       50
176
     1
 90
       50
176
     1
 90
       50
176
     1
290
     0
176
     1
 90
       50
176
     1
 62
   256
176
     0
 40
1.0
176
     0
 90
        2
176
     1
  1
strokes_ogs.tif
176
     1
290
     0
176
     1
 40
1.0
176
     1
 40
1.0
176
     1
  0
VISUALSTYLE
  5
83
102
{ACAD_REACTORS
330
82
102
}
330
82
100
AcDbVisualStyle
  2
Flat
 70
     0
177
     3
291
     1
 70
    58
 90
        2
176
     1
 90
        1
176
     1
 90
        1
176
     1
 90
        2
176
     1
 40
0.6
176
     1
 40
30.0
176
     1
 62
     7
420
 16777215
176
     1
 90
        0
176
     1
 90
        4
176
     1
 62
     7
176
     1
 62
   257
176
     1
 90
        1
176
     1
 90
        1
176
     1
 40
1.0
176
     1
 90
        8
176
     1
 62
     7
176
     1
 40
1.0
176
     1
 90
        1
176
     1
 90
        6
176
     1
 90
        2
176
     1
 62
     7
176
     1
 90
        5
176
     1
 90
        0
176
     1
 90
        0
176
     1
290
     0
176
     1
 90
        1
176
     1
 40
0.0
176
     1
 90
        0
176
     1
290
     0
176
     1
290
     1
176
     1
290
     1
176
     1
290
     0
176
     1
290
     0
176
     1
290
     0
176
     1
290
     0
176
     1
290
     0
176
     1
290
     0
176
     1
 90
       50
176
     1
 40
0.0
176
     1
 40
1.0
176
     1
 90
        0
176
     1
 62
    18
420
        0
176
     1
 90
       50
176
     1
 90
        3
176
     1
 62
     5
420
      255
176
     1
290
     0
176
     1
 90
       50
176
     1
 90
       50
176
     1
 90
       50
176
     1
290
     0
176
     1
 90
       50
176
     1
 62
   256
176
     0
 40
1.0
176
     0
 90
        2
176
     1
  1
strokes_ogs.tif
176
     1
290
     0
176
     1
 40
1.0
176
     1
 40
1.0
176
     1
  0
VISUALSTYLE
  5
84
102
{ACAD_REACTORS
330
82
102
}
330
82
100
AcDbVisualStyle
  2
FlatWithEdges
 70
     1
177
     3
291
     1
 70
    58
 90
        2
176
     1
 90
        1
176
     1
 90
        1
176
     1
 90
        2
176
     1
 40
0.6
176
     1
 40
30.0
176
     1
 62
     7
420
 16777215
176
     1
 90
        1
176
     1
 90
        4
176
     1
 62
     7
176
     1
 62
   257
176
     1
 90
        1
176
     1
 90
        1
176
     1
 40
1.0
176
     1
 90
        0
176
     1
 62
   257
176
     1
 40
1.0
176
     1
 90
        1
176
     1
 90
        6
176
     1
 90
        2
176
     1
 62
     7
176
     1
 90
        5
176
     1
 90
        0
176
     1
 90
        0
176
     1
290
     0
176
     1
 90
        1
176
     1
 40
0.0
176
     1
 90
        0
176
     1
290
     0
176
     1
290
     1
176
     1
290
     1
176
     1
290
     0
176
     1
290
     0
176
     1
290
     0
176
     1
290
     0
176
     1
290
     0
176
     1
290
     0
176
     1
 90
       50
176
     1
 40
0.0
176
     1
 40
1.0
176
     1
 90
        0
176
     1
 62
    18
420
        0
176
     1
 90
       50
176
     1
 90
        3
176
     1
 62
     5
420
      255
176
     1
290
     0
176
     1
 90
       50
176
     1
 90
       50
176
     1
 90
       50
176
     1
290
     0
176
     1
 90
       50
176
     1
 62
   256
176
     0
 40
1.0
176
     0
 90
        2
176
     1
  1
strokes_ogs.tif
176
     1
290
     0
176
     1
 40
1.0
176
     1
 40
1.0
176
     1
  0
VISUALSTYLE
  5
85
102
{ACAD_REACTORS
330
82
102
}
330
82
100
AcDbVisualStyle
  2
Gouraud
 70
     2
177
     3
291
     1
 70
    58
 90
        2
176
     1
 90
        2
176
     1
 90
        1
176
     1
 90
        2
176
     1
 40
0.6
176
     1
 40
30.0
176
     1
 62
     7
420
 16777215
176
     1
 90
        0
176
     1
 90
        4
176
     1
 62
     7
176
     1
 62
   257
176
     1
 90
        1
176
     1
 90
        1
176
     1
 40
1.0
176
     1
 90
        0
176
     1
 62
     7
176
     1
 40
1.0
176
     1
 90
        1
176
     1
 90
        6
176
     1
 90
        2
176
     1
 62
     7
176
     1
 90
        5
176
     1
 90
        0
176
     1
 90
        0
176
     1
290
     0
176
     1
 90
        1
176
     1
 40
0.0
176
     1
 90
        0
176
     1
290
     0
176
     1
290
     1
176
     1
290
     1
176
     1
290
     0
176
     1
290
     0
176
     1
290
     0
176
     1
290
     0
176
     1
290
     0
176
     1
290
     0
176
     1
 90
       50
176
     1
 40
0.0
176
     1
 40
1.0
176
     1
 90
        0
176
     1
 62
    18
420
        0
176
     1
 90
       50
176
     1
 90
        3
176
     1
 62
     5
420
      255
176
     1
290
     0
176
     1
 90
       50
176
     1
 90
       50
176
     1
 90
       50
176
     1
290
     0
176
     1
 90
       50
176
     1
 62
   256
176
     0
 40
1.0
176
     0
 90
        2
176
     1
  1
strokes_ogs.tif
176
     1
290
     0
176
     1
 40
1.0
176
     1
 40
1.0
176
     1
  0
VISUALSTYLE
  5
86
102
{ACAD_REACTORS
330
82
102
}
330
82
100
AcDbVisualStyle
  2
GouraudWithEdges
 70
     3
177
     3
291
     1
 70
    58
 90
        2
176
     1
 90
        2
176
     1
 90
        1
176
     1
 90
        2
176
     1
 40
0.6
176
     1
 40
30.0
176
     1
 62
     7
420
 16777215
176
     1
 90
        1
176
     1
 90
        4
176
     1
 62
     7
176
     1
 62
   257
176
     1
 90
        1
176
     1
 90
        1
176
     1
 40
1.0
176
     1
 90
        0
176
     1
 62
   257
176
     1
 40
1.0
176
     1
 90
        1
176
     1
 90
        6
176
     1
 90
        2
176
     1
 62
     7
176
     1
 90
        5
176
     1
 90
        0
176
     1
 90
        0
176
     1
290
     0
176
     1
 90
        1
176
     1
 40
0.0
176
     1
 90
        0
176
     1
290
     0
176
     1
290
     1
176
     1
290
     1
176
     1
290
     0
176
     1
290
     0
176
     1
290
     0
176
     1
290
     0
176
     1
290
     0
176
     1
290
     0
176
     1
 90
       50
176
     1
 40
0.0
176
     1
 40
1.0
176
     1
 90
        0
176
     1
 62
    18
420
        0
176
     1
 90
       50
176
     1
 90
        3
176
     1
 62
     5
420
      255
176
     1
290
     0
176
     1
 90
       50
176
     1
 90
       50
176
     1
 90
       50
176
     1
290
     0
176
     1
 90
       50
176
     1
 62
   256
176
     0
 40
1.0
176
     0
 90
        2
176
     1
  1
strokes_ogs.tif
176
     1
290
     0
176
     1
 40
1.0
176
     1
 40
1.0
176
     1
  0
VISUALSTYLE
  5
A6
102
{ACAD_REACTORS
330
82
102
}
330
82
100
AcDbVisualStyle
  2
Hidden
 70
     6
177
     3
291
     0
 70
    58
 90
        1
176
     1
 90
        2
176
     1
 90
        2
176
     1
 90
        0
176
     1
 40
0.6
176
     1
 40
30.0
176
     1
 62
     7
420
 16777215
176
     1
 90
        2
176
     1
 90
        2
176
     1
 62
     7
176
     1
 62
   257
176
     1
 90
        2
176
     1
 90
        1
176
     1
 40
40.0
176
     1
 90
        0
176
     1
 62
   257
176
     1
 40
1.0
176
     1
 90
        1
176
     1
 90
        6
176
     1
 90
        2
176
     1
 62
     7
176
     1
 90
        3
176
     1
 90
        0
176
     1
 90
        0
176
     1
290
     0
176
     1
 90
        1
176
     1
 40
0.0
176
     1
 90
        0
176
     1
290
     0
176
     1
290
     1
176
     1
290
     1
176
     1
290
     0
176
     1
290
     0
176
     1
290
     0
176
     1
290
     0
176
     1
290
     0
176
     1
290
     0
176
     1
 90
       50
176
     1
 40
0.0
176
     1
 40
1.0
176
     1
 90
        0
176
     1
 62
    18
420
        0
176
     1
 90
       50
176
     1
 90
        3
176
     1
 62
     5
420
      255
176
     1
290
     0
176
     1
 90
       50
176
     1
 90
       50
176
     1
 90
       50
176
     1
290
     0
176
     1
 90
       50
176
     1
 62
   256
176
     0
 40
1.0
176
     0
 90
        2
176
     1
  1
strokes_ogs.tif
176
     1
290
     0
176
     1
 40
1.0
176
     1
 40
1.0
176
     1
  0
VISUALSTYLE
  5
AC
102
{ACAD_REACTORS
330
82
102
}
330
82
100
AcDbVisualStyle
  2
JitterOff
 70
    20
177
     3
291
     1
 70
    58
 90
        2
176
     0
 90
        2
176
     0
 90
        0
176
     0
 90
        0
176
     0
 40
0.6
176
     0
 40
30.0
176
     0
 62
     7
420
 16777215
176
     0
 90
        1
176
     0
 90
        4
176
     0
 62
     7
176
     0
 62
   257
176
     0
 90
        1
176
     0
 90
        1
176
     0
 40
1.0
176
     0
 90
       10
176
     2
 62
     7
176
     0
 40
1.0
176
     0
 90
        1
176
     0
 90
        6
176
     0
 90
        2
176
     0
 62
     7
176
     0
 90
        5
176
     0
 90
        0
176
     0
 90
        0
176
     0
290
     0
176
     0
 90
        1
176
     0
 40
0.0
176
     0
 90
        0
176
     0
290
     0
176
     0
290
     1
176
     0
290
     1
176
     0
290
     0
176
     0
290
     0
176
     0
290
     0
176
     0
290
     0
176
     0
290
     0
176
     0
290
     0
176
     0
 90
       50
176
     0
 40
0.0
176
     0
 40
1.0
176
     0
 90
        0
176
     0
 62
    18
420
        0
176
     0
 90
       50
176
     0
 90
        3
176
     0
 62
     5
420
      255
176
     0
290
     0
176
     0
 90
       50
176
     0
 90
       50
176
     0
 90
       50
176
     0
290
     0
176
     0
 90
       50
176
     0
 62
   256
176
     0
 40
1.0
176
     0
 90
        2
176
     0
  1
strokes_ogs.tif
176
     0
290
     0
176
     0
 40
1.0
176
     0
 40
1.0
176
     0
  0
VISUALSTYLE
  5
90
102
{ACAD_REACTORS
330
82
102
}
330
82
100
AcDbVisualStyle
  2
Linepattern
 70
    14
177
     3
291
     1
 70
    58
 90
        2
176
     1
 90
        2
176
     1
 90
        1
176
     1
 90
        0
176
     1
 40
0.6
176
     1
 40
30.0
176
     1
 62
     7
420
 16777215
176
     1
 90
        1
176
     1
 90
        4
176
     1
 62
     7
176
     1
 62
   257
176
     1
 90
        7
176
     1
 90
        7
176
     1
 40
1.0
176
     1
 90
        8
176
     1
 62
     7
176
     1
 40
1.0
176
     1
 90
        1
176
     1
 90
        6
176
     1
 90
        2
176
     1
 62
     7
176
     1
 90
        5
176
     1
 90
        0
176
     1
 90
        0
176
     1
290
     0
176
     1
 90
        1
176
     1
 40
0.0
176
     1
 90
        0
176
     1
290
     0
176
     1
290
     1
176
     1
290
     1
176
     1
290
     0
176
     1
290
     0
176
     1
290
     0
176
     1
290
     0
176
     1
290
     0
176
     1
290
     0
176
     1
 90
       50
176
     1
 40
0.0
176
     1
 40
1.0
176
     1
 90
        0
176
     1
 62
    18
420
        0
176
     1
 90
       50
176
     1
 90
        3
176
     1
 62
     5
420
      255
176
     1
290
     0
176
     1
 90
       50
176
     1
 90
       50
176
     1
 90
       50
176
     1
290
     0
176
     1
 90
       50
176
     1
 62
   256
176
     0
 40
1.0
176
     0
 90
        2
176
     1
  1
strokes_ogs.tif
176
     1
290
     0
176
     1
 40
1.0
176
     1
 40
1.0
176
     1
  0
VISUALSTYLE
  5
AD
102
{ACAD_REACTORS
330
82
102
}
330
82
100
AcDbVisualStyle
  2
OverhangOff
 70
    21
177
     3
291
     1
 70
    58
 90
        2
176
     0
 90
        2
176
     0
 90
        0
176
     0
 90
        0
176
     0
 40
0.6
176
     0
 40
30.0
176
     0
 62
     7
420
 16777215
176
     0
 90
        1
176
     0
 90
        4
176
     0
 62
     7
176
     0
 62
   257
176
     0
 90
        1
176
     0
 90
        1
176
     0
 40
1.0
176
     0
 90
        9
176
     2
 62
     7
176
     0
 40
1.0
176
     0
 90
        1
176
     0
 90
        6
176
     0
 90
        2
176
     0
 62
     7
176
     0
 90
        5
176
     0
 90
        0
176
     0
 90
        0
176
     0
290
     0
176
     0
 90
        1
176
     0
 40
0.0
176
     0
 90
        0
176
     0
290
     0
176
     0
290
     1
176
     0
290
     1
176
     0
290
     0
176
     0
290
     0
176
     0
290
     0
176
     0
290
     0
176
     0
290
     0
176
     0
290
     0
176
     0
 90
       50
176
     0
 40
0.0
176
     0
 40
1.0
176
     0
 90
        0
176
     0
 62
    18
420
        0
176
     0
 90
       50
176
     0
 90
        3
176
     0
 62
     5
420
      255
176
     0
290
     0
176
     0
 90
       50
176
     0
 90
       50
176
     0
 90
       50
176
     0
290
     0
176
     0
 90
       50
176
     0
 62
   256
176
     0
 40
1.0
176
     0
 90
        2
176
     0
  1
strokes_ogs.tif
176
     0
290
     0
176
     0
 40
1.0
176
     0
 40
1.0
176
     0
  0
VISUALSTYLE
  5
8C
102
{ACAD_REACTORS
330
82
102
}
330
82
100
AcDbVisualStyle
  2
Realistic
 70
     8
177
     3
291
     0
 70
    58
 90
        2
176
     1
 90
        2
176
     1
 90
        1
176
     1
 90
        0
176
     1
 40
0.6
176
     1
 40
30.0
176
     1
 62
     7
420
 16777215
176
     1
 90
        1
176
     1
 90
        0
176
     1
 62
     7
176
     1
 62
   257
176
     1
 90
        1
176
     1
 90
        1
176
     1
 40
1.0
176
     1
 90
        8
176
     1
 62
     7
176
     1
 40
1.0
176
     1
 90
        1
176
     1
 90
        6
176
     1
 90
        2
176
     1
 62
     7
176
     1
 90
        5
176
     1
 90
        0
176
     1
 90
        0
176
     1
290
     0
176
     1
 90
       13
176
     1
 40
0.0
176
     1
 90
        0
176
     1
290
     0
176
     1
290
     1
176
     1
290
     1
176
     1
290
     0
176
     1
290
     0
176
     1
290
     0
176
     1
290
     0
176
     1
290
     0
176
     1
290
     0
176
     1
 90
       50
176
     1
 40
0.0
176
     1
 40
1.0
176
     1
 90
        0
176
     1
 62
    18
420
        0
176
     1
 90
       50
176
     1
 90
        3
176
     1
 62
     5
420
      255
176
     1
290
     0
176
     1
 90
       50
176
     1
 90
       50
176
     1
 90
       50
176
     1
290
     0
176
     1
 90
       50
176
     1
 62
   256
176
     0
 40
1.0
176
     0
 90
        2
176
     1
  1
strokes_ogs.tif
176
     1
290
     0
176
     1
 40
1.0
176
     1
 40
1.0
176
     1
  0
VISUALSTYLE
  5
AB
102
{ACAD_REACTORS
330
82
102
}
330
82
100
AcDbVisualStyle
  2
Shaded
 70
    27
177
     3
291
     0
 70
    58
 90
        2
176
     1
 90
        2
176
     1
 90
        1
176
     1
 90
        2
176
     1
 40
0.6
176
     1
 40
30.0
176
     1
 62
     7
420
 16777215
176
     1
 90
        0
176
     1
 90
        4
176
     1
 62
     7
176
     1
 62
   257
176
     1
 90
        1
176
     1
 90
        1
176
     1
 40
1.0
176
     1
 90
        8
176
     1
 62
   257
176
     1
 40
1.0
176
     1
 90
        1
176
     1
 90
        6
176
     1
 90
        2
176
     1
 62
     8
420
  7895160
176
     1
 90
        3
176
     1
 90
        0
176
     1
 90
        0
176
     1
290
     0
176
     1
 90
        5
176
     1
 40
0.0
176
     1
 90
        0
176
     1
290
     0
176
     1
290
     1
176
     1
290
     1
176
     1
290
     0
176
     1
290
     0
176
     1
290
     0
176
     1
290
     0
176
     1
290
     0
176
     1
290
     0
176
     1
 90
       50
176
     1
 40
0.0
176
     1
 40
1.0
176
     1
 90
        0
176
     1
 62
    18
420
        0
176
     1
 90
       50
176
     1
 90
        3
176
     1
 62
     5
420
      255
176
     1
290
     0
176
     1
 90
       50
176
     1
 90
       50
176
     1
 90
       50
176
     1
290
     0
176
     1
 90
       50
176
     1
 62
   256
176
     0
 40
1.0
176
     0
 90
        2
176
     1
  1
strokes_ogs.tif
176
     1
290
     0
176
     1
 40
1.0
176
     1
 40
1.0
176
     1
  0
VISUALSTYLE
  5
AA
102
{ACAD_REACTORS
330
82
102
}
330
82
100
AcDbVisualStyle
  2
Shaded with edges
 70
    26
177
     3
291
     0
 70
    58
 90
        2
176
     1
 90
        2
176
     1
 90
        1
176
     1
 90
        2
176
     1
 40
0.6
176
     1
 40
30.0
176
     1
 62
     7
420
 16777215
176
     1
 90
        1
176
     1
 90
        2
176
     1
 62
     7
176
     1
 62
   257
176
     1
 90
        2
176
     1
 90
        1
176
     1
 40
1.0
176
     1
 90
        8
176
     1
 62
   257
176
     1
 40
1.0
176
     1
 90
        1
176
     1
 90
        6
176
     1
 90
        2
176
     1
 62
     7
176
     1
 90
        3
176
     1
 90
        0
176
     1
 90
        0
176
     1
290
     0
176
     1
 90
        5
176
     1
 40
0.0
176
     1
 90
        0
176
     1
290
     0
176
     1
290
     1
176
     1
290
     1
176
     1
290
     0
176
     1
290
     0
176
     1
290
     0
176
     1
290
     0
176
     1
290
     0
176
     1
290
     0
176
     1
 90
       50
176
     1
 40
0.0
176
     1
 40
1.0
176
     1
 90
        0
176
     1
 62
    18
420
        0
176
     1
 90
       50
176
     1
 90
        3
176
     1
 62
     5
420
      255
176
     1
290
     0
176
     1
 90
       50
176
     1
 90
       50
176
     1
 90
       50
176
     1
290
     0
176
     1
 90
       50
176
     1
 62
   256
176
     0
 40
1.0
176
     0
 90
        2
176
     1
  1
strokes_ogs.tif
176
     1
290
     0
176
     1
 40
1.0
176
     1
 40
1.0
176
     1
  0
VISUALSTYLE
  5
A7
102
{ACAD_REACTORS
330
82
102
}
330
82
100
AcDbVisualStyle
  2
Shades of Gray
 70
    23
177
     3
291
     0
 70
    58
 90
        2
176
     1
 90
        2
176
     1
 90
        3
176
     1
 90
        0
176
     1
 40
0.6
176
     1
 40
30.0
176
     1
 62
     7
420
 16777215
176
     1
 90
        2
176
     1
 90
        2
176
     1
 62
     7
176
     1
 62
     7
176
     1
 90
        1
176
     1
 90
        1
176
     1
 40
40.0
176
     1
 90
        8
176
     1
 62
     7
176
     1
 40
1.0
176
     1
 90
        1
176
     1
 90
        6
176
     1
 90
        2
176
     1
 62
     7
176
     1
 90
        3
176
     1
 90
        0
176
     1
 90
        0
176
     1
290
     0
176
     1
 90
        1
176
     1
 40
0.0
176
     1
 90
        0
176
     1
290
     0
176
     1
290
     1
176
     1
290
     1
176
     1
290
     0
176
     1
290
     0
176
     1
290
     0
176
     1
290
     0
176
     1
290
     0
176
     1
290
     0
176
     1
 90
       50
176
     1
 40
0.0
176
     1
 40
1.0
176
     1
 90
        0
176
     1
 62
    18
420
        0
176
     1
 90
       50
176
     1
 90
        3
176
     1
 62
     5
420
      255
176
     1
290
     0
176
     1
 90
       50
176
     1
 90
       50
176
     1
 90
       50
176
     1
290
     0
176
     1
 90
       50
176
     1
 62
   256
176
     0
 40
1.0
176
     0
 90
        2
176
     1
  1
strokes_ogs.tif
176
     1
290
     0
176
     1
 40
1.0
176
     1
 40
1.0
176
     1
  0
VISUALSTYLE
  5
A8
102
{ACAD_REACTORS
330
82
102
}
330
82
100
AcDbVisualStyle
  2
Sketchy
 70
    24
177
     3
291
     0
 70
    58
 90
        1
176
     1
 90
        2
176
     1
 90
        2
176
     1
 90
        0
176
     1
 40
0.6
176
     1
 40
30.0
176
     1
 62
     7
420
 16777215
176
     1
 90
        2
176
     1
 90
        2
176
     1
 62
     7
176
     1
 62
     7
176
     1
 90
        1
176
     1
 90
        1
176
     1
 40
40.0
176
     1
 90
       11
176
     1
 62
     7
176
     1
 40
1.0
176
     1
 90
        1
176
     1
 90
        6
176
     1
 90
        2
176
     1
 62
     7
176
     1
 90
        6
176
     1
 90
        0
176
     1
 90
        0
176
     1
290
     0
176
     1
 90
        1
176
     1
 40
0.0
176
     1
 90
        0
176
     1
290
     0
176
     1
290
     1
176
     1
290
     1
176
     1
290
     0
176
     1
290
     0
176
     1
290
     0
176
     1
290
     0
176
     1
290
     0
176
     1
290
     0
176
     1
 90
       50
176
     1
 40
0.0
176
     1
 40
1.0
176
     1
 90
        0
176
     1
 62
    18
420
        0
176
     1
 90
       50
176
     1
 90
        3
176
     1
 62
     5
420
      255
176
     1
290
     0
176
     1
 90
       50
176
     1
 90
       50
176
     1
 90
       50
176
     1
290
     0
176
     1
 90
       50
176
     1
 62
   256
176
     0
 40
1.0
176
     0
 90
        2
176
     1
  1
strokes_ogs.tif
176
     1
290
     0
176
     1
 40
1.0
176
     1
 40
1.0
176
     1
  0
VISUALSTYLE
  5
8F
102
{ACAD_REACTORS
330
82
102
}
330
82
100
AcDbVisualStyle
  2
Thicken
 70
    13
177
     3
291
     1
 70
    58
 90
        2
176
     1
 90
        2
176
     1
 90
        1
176
     1
 90
        0
176
     1
 40
0.6
176
     1
 40
30.0
176
     1
 62
     7
420
 16777215
176
     1
 90
        1
176
     1
 90
        4
176
     1
 62
     7
176
     1
 62
   257
176
     1
 90
        1
176
     1
 90
        1
176
     1
 40
1.0
176
     1
 90
       12
176
     1
 62
     7
176
     1
 40
1.0
176
     1
 90
        1
176
     1
 90
        6
176
     1
 90
        2
176
     1
 62
     7
176
     1
 90
        5
176
     1
 90
        0
176
     1
 90
        0
176
     1
290
     0
176
     1
 90
        1
176
     1
 40
0.0
176
     1
 90
        0
176
     1
290
     0
176
     1
290
     1
176
     1
290
     1
176
     1
290
     0
176
     1
290
     0
176
     1
290
     0
176
     1
290
     0
176
     1
290
     0
176
     1
290
     0
176
     1
 90
       50
176
     1
 40
0.0
176
     1
 40
1.0
176
     1
 90
        0
176
     1
 62
    18
420
        0
176
     1
 90
       50
176
     1
 90
        3
176
     1
 62
     5
420
      255
176
     1
290
     0
176
     1
 90
       50
176
     1
 90
       50
176
     1
 90
       50
176
     1
290
     0
176
     1
 90
       50
176
     1
 62
   256
176
     0
 40
1.0
176
     0
 90
        2
176
     1
  1
strokes_ogs.tif
176
     1
290
     0
176
     1
 40
1.0
176
     1
 40
1.0
176
     1
  0
VISUALSTYLE
  5
A5
102
{ACAD_REACTORS
330
82
102
}
330
82
100
AcDbVisualStyle
  2
Wireframe
 70
     5
177
     3
291
     0
 70
    58
 90
        0
176
     1
 90
        2
176
     1
 90
        0
176
     1
 90
        0
176
     1
 40
0.6
176
     1
 40
30.0
176
     1
 62
     7
420
 16777215
176
     1
 90
        1
176
     1
 90
        4
176
     1
 62
     7
176
     1
 62
   257
176
     1
 90
        1
176
     1
 90
        1
176
     1
 40
1.0
176
     1
 90
        0
176
     1
 62
   257
176
     1
 40
1.0
176
     1
 90
        1
176
     1
 90
        6
176
     1
 90
        2
176
     1
 62
     7
176
     1
 90
        3
176
     1
 90
        0
176
     1
 90
        0
176
     1
290
     0
176
     1
 90
        1
176
     1
 40
0.0
176
     1
 90
        0
176
     1
290
     0
176
     1
290
     1
176
     1
290
     1
176
     1
290
     0
176
     1
290
     0
176
     1
290
     0
176
     1
290
     0
176
     1
290
     0
176
     1
290
     0
176
     1
 90
       50
176
     1
 40
0.0
176
     1
 40
1.0
176
     1
 90
        0
176
     1
 62
    18
420
        0
176
     1
 90
       50
176
     1
 90
        3
176
     1
 62
     5
420
      255
176
     1
290
     0
176
     1
 90
       50
176
     1
 90
       50
176
     1
 90
       50
176
     1
290
     0
176
     1
 90
       50
176
     1
 62
   256
176
     0
 40
1.0
176
     0
 90
        2
176
     1
  1
strokes_ogs.tif
176
     1
290
     0
176
     1
 40
1.0
176
     1
 40
1.0
176
     1
  0
VISUALSTYLE
  5
A9
102
{ACAD_REACTORS
330
82
102
}
330
82
100
AcDbVisualStyle
  2
X-Ray
 70
    25
177
     3
291
     0
 70
    58
 90
        2
176
     1
 90
        2
176
     1
 90
        1
176
     1
 90
        1
176
     1
 40
0.5
176
     1
 40
30.0
176
     1
 62
     7
420
 16777215
176
     1
 90
        1
176
     1
 90
        0
176
     1
 62
     7
176
     1
 62
   257
176
     1
 90
        1
176
     1
 90
        1
176
     1
 40
1.0
176
     1
 90
        8
176
     1
 62
     7
176
     1
 40
1.0
176
     1
 90
        1
176
     1
 90
        6
176
     1
 90
        2
176
     1
 62
     7
176
     1
 90
        3
176
     1
 90
        0
176
     1
 90
        0
176
     1
290
     0
176
     1
 90
       13
176
     1
 40
0.0
176
     1
 90
        0
176
     1
290
     0
176
     1
290
     1
176
     1
290
     1
176
     1
290
     0
176
     1
290
     0
176
     1
290
     0
176
     1
290
     0
176
     1
290
     0
176
     1
290
     0
176
     1
 90
       50
176
     1
 40
0.0
176
     1
 40
1.0
176
     1
 90
        0
176
     1
 62
    18
420
        0
176
     1
 90
       50
176
     1
 90
        3
176
     1
 62
     5
420
      255
176
     1
290
     0
176
     1
 90
       50
176
     1
 90
       50
176
     1
 90
       50
176
     1
290
     0
176
     1
 90
       50
176
     1
 62
   256
176
     0
 40
1.0
176
     0
 90
        2
176
     1
  1
strokes_ogs.tif
176
     1
290
     0
176
     1
 40
1.0
176
     1
 40
1.0
176
     1
  0
DICTIONARYVAR
  5
405
102
{ACAD_REACTORS
330
9B
102
}
330
9B
100
DictionaryVariables
280
     0
  1
1:1
  0
DICTIONARYVAR
  5
401
102
{ACAD_REACTORS
330
9B
102
}
330
9B
100
DictionaryVariables
280
     0
  1
STANDARD
  0
DICTIONARYVAR
  5
9C
102
{ACAD_REACTORS
330
9B
102
}
330
9B
100
DictionaryVariables
280
     0
  1
STANDARD
  0
DICTIONARYVAR
  5
402
102
{ACAD_REACTORS
330
9B
102
}
330
9B
100
DictionaryVariables
280
     0
  1
Imperial24
  0
DICTIONARYVAR
  5
403
102
{ACAD_REACTORS
330
9B
102
}
330
9B
100
DictionaryVariables
280
     0
  1
Imperial24
  0
DICTIONARYVAR
  5
407
102
{ACAD_REACTORS
330
9B
102
}
330
9B
100
DictionaryVariables
280
     0
  1
1
  0
DICTIONARYVAR
  5
408
102
{ACAD_REACTORS
330
9B
102
}
330
9B
100
DictionaryVariables
280
     0
  1
15
  0
DICTIONARYVAR
  5
406
102
{ACAD_REACTORS
330
9B
102
}
330
9B
100
DictionaryVariables
280
     0
  1
0
  0
DICTIONARYVAR
  5
404
102
{ACAD_REACTORS
330
9B
102
}
330
9B
100
DictionaryVariables
280
     0
  1
0
  0
DICTIONARY
  5
40D
330
C6
100
AcDbDictionary
280
     1
281
     1
  3
ACAD_XREC_ROUNDTRIP
360
40E
  0
DICTIONARY
  5
40B
330
C4
100
AcDbDictionary
280
     1
281
     1
  3
ACAD_XREC_ROUNDTRIP
360
40C
  0
DICTIONARY
  5
409
330
94
100
AcDbDictionary
280
     1
281
     1
  3
ACAD_ROUNDTRIP_2008_TABLESTYLE_CELLSTYLEMAP
360
40A
  0
XRECORD
  5
40E
102
{ACAD_REACTORS
330
40D
102
}
330
40D
100
AcDbXrecord
280
     1
102
DISPLAYNAME
  1
Imperial24
102
FLAGS
 90
        0
  0
XRECORD
  5
40C
102
{ACAD_REACTORS
330
40B
102
}
330
40B
100
AcDbXrecord
280
     1
102
DISPLAYNAME
  1
Imperial24
102
FLAGS
 90
        0
  0
CELLSTYLEMAP
  5
40A
102
{ACAD_REACTORS
330
409
102
}
330
409
100
AcDbCellStyleMap
 90
        3
300
CELLSTYLE
  1
TABLEFORMAT_BEGIN
 90
        5
170
     1
 91
        0
 92
    32768
 62
   257
 93
        1
300
CONTENTFORMAT
  1
CONTENTFORMAT_BEGIN
 90
        0
 91
        0
 92
      512
 93
        0
300

 40
0.0
140
1.0
 94
        5
 62
     0
340
12
144
0.25
309
CONTENTFORMAT_END
171
     0
 94
        6
 95
        1
302
GRIDFORMAT
  1
GRIDFORMAT_BEGIN
 90
        0
 91
        1
 62
     0
 92
       -2
340
0
 93
        0
 40
0.045
309
GRIDFORMAT_END
 95
        2
302
GRIDFORMAT
  1
GRIDFORMAT_BEGIN
 90
        0
 91
        1
 62
     0
 92
       -2
340
0
 93
        0
 40
0.045
309
GRIDFORMAT_END
 95
        4
302
GRIDFORMAT
  1
GRIDFORMAT_BEGIN
 90
        0
 91
        1
 62
     0
 92
       -2
340
0
 93
        0
 40
0.045
309
GRIDFORMAT_END
 95
        8
302
GRIDFORMAT
  1
GRIDFORMAT_BEGIN
 90
        0
 91
        1
 62
     0
 92
       -2
340
0
 93
        0
 40
0.045
309
GRIDFORMAT_END
 95
       16
302
GRIDFORMAT
  1
GRIDFORMAT_BEGIN
 90
        0
 91
        1
 62
     0
 92
       -2
340
0
 93
        0
 40
0.045
309
GRIDFORMAT_END
 95
       32
302
GRIDFORMAT
  1
GRIDFORMAT_BEGIN
 90
        0
 91
        1
 62
     0
 92
       -2
340
0
 93
        0
 40
0.045
309
GRIDFORMAT_END
309
TABLEFORMAT_END
  1
CELLSTYLE_BEGIN
 90
        1
 91
        1
300
_TITLE
309
CELLSTYLE_END
300
CELLSTYLE
  1
TABLEFORMAT_BEGIN
 90
        5
170
     1
 91
        0
 92
        0
 62
   257
 93
        1
300
CONTENTFORMAT
  1
CONTENTFORMAT_BEGIN
 90
        0
 91
        0
 92
      512
 93
        0
300

 40
0.0
140
1.0
 94
        5
 62
     0
340
12
144
0.18
309
CONTENTFORMAT_END
171
     0
 94
        6
 95
        1
302
GRIDFORMAT
  1
GRIDFORMAT_BEGIN
 90
        0
 91
        1
 62
     0
 92
       -2
340
0
 93
        0
 40
0.045
309
GRIDFORMAT_END
 95
        2
302
GRIDFORMAT
  1
GRIDFORMAT_BEGIN
 90
        0
 91
        1
 62
     0
 92
       -2
340
0
 93
        0
 40
0.045
309
GRIDFORMAT_END
 95
        4
302
GRIDFORMAT
  1
GRIDFORMAT_BEGIN
 90
        0
 91
        1
 62
     0
 92
       -2
340
0
 93
        0
 40
0.045
309
GRIDFORMAT_END
 95
        8
302
GRIDFORMAT
  1
GRIDFORMAT_BEGIN
 90
        0
 91
        1
 62
     0
 92
       -2
340
0
 93
        0
 40
0.045
309
GRIDFORMAT_END
 95
       16
302
GRIDFORMAT
  1
GRIDFORMAT_BEGIN
 90
        0
 91
        1
 62
     0
 92
       -2
340
0
 93
        0
 40
0.045
309
GRIDFORMAT_END
 95
       32
302
GRIDFORMAT
  1
GRIDFORMAT_BEGIN
 90
        0
 91
        1
 62
     0
 92
       -2
340
0
 93
        0
 40
0.045
309
GRIDFORMAT_END
309
TABLEFORMAT_END
  1
CELLSTYLE_BEGIN
 90
        2
 91
        1
300
_HEADER
309
CELLSTYLE_END
300
CELLSTYLE
  1
TABLEFORMAT_BEGIN
 90
        5
170
     1
 91
        0
 92
        0
 62
   257
 93
        1
300
CONTENTFORMAT
  1
CONTENTFORMAT_BEGIN
 90
        0
 91
        0
 92
      512
 93
        0
300

 40
0.0
140
1.0
 94
        2
 62
     0
340
12
144
0.18
309
CONTENTFORMAT_END
171
     0
 94
        6
 95
        1
302
GRIDFORMAT
  1
GRIDFORMAT_BEGIN
 90
        0
 91
        1
 62
     0
 92
       -2
340
0
 93
        0
 40
0.045
309
GRIDFORMAT_END
 95
        2
302
GRIDFORMAT
  1
GRIDFORMAT_BEGIN
 90
        0
 91
        1
 62
     0
 92
       -2
340
0
 93
        0
 40
0.045
309
GRIDFORMAT_END
 95
        4
302
GRIDFORMAT
  1
GRIDFORMAT_BEGIN
 90
        0
 91
        1
 62
     0
 92
       -2
340
0
 93
        0
 40
0.045
309
GRIDFORMAT_END
 95
        8
302
GRIDFORMAT
  1
GRIDFORMAT_BEGIN
 90
        0
 91
        1
 62
     0
 92
       -2
340
0
 93
        0
 40
0.045
309
GRIDFORMAT_END
 95
       16
302
GRIDFORMAT
  1
GRIDFORMAT_BEGIN
 90
        0
 91
        1
 62
     0
 92
       -2
340
0
 93
        0
 40
0.045
309
GRIDFORMAT_END
 95
       32
302
GRIDFORMAT
  1
GRIDFORMAT_BEGIN
 90
        0
 91
        1
 62
     0
 92
       -2
340
0
 93
        0
 40
0.045
309
GRIDFORMAT_END
309
TABLEFORMAT_END
  1
CELLSTYLE_BEGIN
 90
        3
 91
        2
300
_DATA
309
CELLSTYLE_END
  0
ENDSEC
  0
EOF
