999
Erzeugt mit innoplus bad 
0
SECTION
2
HEADER
9
$ACADVER
1
AC1009
9
$DWGCODEPAGE
3
ISO8859-1
0
ENDSEC
0
SECTION
2
TABLES
0
TABLE
2
LAYER
70
1
0
LAYER
2
0
70
0
62
7
6
CONTINUOUS
0
ENDTAB
0
ENDSEC
0
SECTION
2
ENTITIES
0
LINE
8
0
6
CONTINUOUS
10
-77.500000
20
-20.000000
30
0.0
11
-70.164214
21
-20.000000
31
0.0
0
LINE
8
0
6
CONTINUOUS
10
-77.500000
20
-19.000000
30
0.0
11
-77.500000
21
-20.000000
31
0.0
0
LINE
8
0
6
CONTINUOUS
10
-69.750000
20
-20.000000
30
0.0
11
-68.750000
21
-19.000000
31
0.0
0
LINE
8
0
6
CONTINUOUS
10
-70.164214
20
-20.000000
30
0.0
11
-69.750000
21
-20.000000
31
0.0
0
LINE
8
0
6
CONTINUOUS
10
-77.500000
20
-19.000000
30
0.0
11
-69.750000
21
-19.000000
31
0.0
0
LINE
8
0
6
CONTINUOUS
10
-77.500000
20
12.000000
30
0.0
11
-77.500000
21
-19.000000
31
0.0
0
LINE
8
0
6
CONTINUOUS
10
-69.750000
20
13.000000
30
0.0
11
-77.500000
21
13.000000
31
0.0
0
LINE
8
0
6
CONTINUOUS
10
-77.500000
20
12.000000
30
0.0
11
-69.750000
21
12.000000
31
0.0
0
LINE
8
0
6
CONTINUOUS
10
-77.500000
20
13.000000
30
0.0
11
-77.500000
21
12.000000
31
0.0
0
LINE
8
0
6
CONTINUOUS
10
-68.750000
20
-19.000000
30
0.0
11
-68.750000
21
11.585786
31
0.0
0
LINE
8
0
6
CONTINUOUS
10
-69.750000
20
-19.000000
30
0.0
11
-68.750000
21
-19.000000
31
0.0
0
LINE
8
0
6
CONTINUOUS
10
-69.750000
20
12.000000
30
0.0
11
-69.750000
21
-19.000000
31
0.0
0
LINE
8
0
6
CONTINUOUS
10
-68.750000
20
12.000000
30
0.0
11
-69.750000
21
13.000000
31
0.0
0
LINE
8
0
6
CONTINUOUS
10
-68.750000
20
11.585786
30
0.0
11
-68.750000
21
12.000000
31
0.0
0
LINE
8
0
6
CONTINUOUS
10
-69.750000
20
13.000000
30
0.0
11
-69.750000
21
12.000000
31
0.0
0
LINE
8
0
6
CONTINUOUS
10
-68.500000
20
12.000000
30
0.0
11
-69.500000
21
13.000000
31
0.0
0
LINE
8
0
6
CONTINUOUS
10
-68.500000
20
11.585786
30
0.0
11
-68.500000
21
12.000000
31
0.0
0
LINE
8
0
6
CONTINUOUS
10
-69.500000
20
-20.000000
30
0.0
11
-68.500000
21
-20.000000
31
0.0
0
LINE
8
0
6
CONTINUOUS
10
-68.500000
20
-20.000000
30
0.0
11
-68.500000
21
11.585786
31
0.0
0
LINE
8
0
6
CONTINUOUS
10
-69.500000
20
-20.000000
30
0.0
11
-69.500000
21
-19.750000
31
0.0
0
LINE
8
0
6
CONTINUOUS
10
-77.500000
20
-20.000000
30
0.0
11
76.500000
21
-20.000000
31
0.0
0
LINE
8
0
6
CONTINUOUS
10
76.500000
20
-20.000000
30
0.0
11
77.500000
21
-19.000000
31
0.0
0
LINE
8
0
6
CONTINUOUS
10
77.500000
20
-19.000000
30
0.0
11
77.500000
21
-9.000000
31
0.0
0
LINE
8
0
6
CONTINUOUS
10
77.500000
20
-9.000000
30
0.0
11
76.500000
21
-8.000000
31
0.0
0
LINE
8
0
6
CONTINUOUS
10
76.500000
20
-8.000000
30
0.0
11
-56.500000
21
-8.000000
31
0.0
0
LINE
8
0
6
CONTINUOUS
10
-56.500000
20
-8.000000
30
0.0
11
-59.944151
21
-7.314916
31
0.0
0
LINE
8
0
6
CONTINUOUS
10
-59.944151
20
-7.314916
30
0.0
11
-62.863961
21
-5.363961
31
0.0
0
LINE
8
0
6
CONTINUOUS
10
-62.863961
20
-5.363961
30
0.0
11
-64.814916
21
-2.444151
31
0.0
0
LINE
8
0
6
CONTINUOUS
10
-64.814916
20
-2.444151
30
0.0
11
-65.500000
21
1.000000
31
0.0
0
LINE
8
0
6
CONTINUOUS
10
-65.500000
20
1.000000
30
0.0
11
-65.500000
21
19.000000
31
0.0
0
LINE
8
0
6
CONTINUOUS
10
-65.500000
20
19.000000
30
0.0
11
-66.500000
21
20.000000
31
0.0
0
LINE
8
0
6
CONTINUOUS
10
-66.500000
20
20.000000
30
0.0
11
-77.500000
21
20.000000
31
0.0
0
LINE
8
0
6
CONTINUOUS
10
-76.500000
20
19.000000
30
0.0
11
-77.500000
21
20.000000
31
0.0
0
LINE
8
0
6
CONTINUOUS
10
-77.500000
20
-20.000000
30
0.0
11
-76.500000
21
-19.000000
31
0.0
0
LINE
8
0
6
CONTINUOUS
10
-77.500000
20
20.000000
30
0.0
11
-77.500000
21
-20.000000
31
0.0
0
LINE
8
0
6
CONTINUOUS
10
-76.500000
20
19.000000
30
0.0
11
-76.500000
21
-19.000000
31
0.0
0
LINE
8
0
6
CONTINUOUS
10
-66.914214
20
19.000000
30
0.0
11
-76.500000
21
19.000000
31
0.0
0
LINE
8
0
6
CONTINUOUS
10
-66.500000
20
18.585786
30
0.0
11
-66.914214
21
19.000000
31
0.0
0
LINE
8
0
6
CONTINUOUS
10
-66.500000
20
0.901509
30
0.0
11
-66.500000
21
18.585786
31
0.0
0
LINE
8
0
6
CONTINUOUS
10
-65.756895
20
-2.834332
30
0.0
11
-66.500000
21
0.901509
31
0.0
0
LINE
8
0
6
CONTINUOUS
10
-63.584921
20
-6.084921
30
0.0
11
-65.756895
21
-2.834332
31
0.0
0
LINE
8
0
6
CONTINUOUS
10
-60.334331
20
-8.256895
30
0.0
11
-63.584921
21
-6.084921
31
0.0
0
LINE
8
0
6
CONTINUOUS
10
-56.598491
20
-9.000000
30
0.0
11
-60.334331
21
-8.256895
31
0.0
0
LINE
8
0
6
CONTINUOUS
10
76.085786
20
-9.000000
30
0.0
11
-56.598491
21
-9.000000
31
0.0
0
LINE
8
0
6
CONTINUOUS
10
76.500000
20
-9.414214
30
0.0
11
76.085786
21
-9.000000
31
0.0
0
LINE
8
0
6
CONTINUOUS
10
76.500000
20
-18.585786
30
0.0
11
76.500000
21
-9.414214
31
0.0
0
LINE
8
0
6
CONTINUOUS
10
76.085786
20
-19.000000
30
0.0
11
76.500000
21
-18.585786
31
0.0
0
LINE
8
0
6
CONTINUOUS
10
-76.500000
20
-19.000000
30
0.0
11
76.085786
21
-19.000000
31
0.0
0
LINE
8
0
6
CONTINUOUS
10
-68.500000
20
12.000000
30
0.0
11
-69.500000
21
13.000000
31
0.0
0
LINE
8
0
6
CONTINUOUS
10
-68.500000
20
11.585786
30
0.0
11
-68.500000
21
12.000000
31
0.0
0
LINE
8
0
6
CONTINUOUS
10
-69.500000
20
-20.000000
30
0.0
11
-68.500000
21
-20.000000
31
0.0
0
LINE
8
0
6
CONTINUOUS
10
-69.500000
20
-19.750000
30
0.0
11
-69.500000
21
-20.000000
31
0.0
0
LINE
8
0
6
CONTINUOUS
10
-68.500000
20
-20.000000
30
0.0
11
-68.500000
21
11.585786
31
0.0
0
ENDSEC
0
EOF
