999
Erzeugt mit innoplus bad 
0
SECTION
2
HEADER
9
$ACADVER
1
AC1009
9
$DWGCODEPAGE
3
ISO8859-1
0
ENDSEC
0
SECTION
2
TABLES
0
TABLE
2
LAYER
70
1
0
LAYER
2
0
70
0
62
7
6
CONTINUOUS
0
ENDTAB
0
ENDSEC
0
SECTION
2
ENTITIES
0
LINE
8
0
6
CONTINUOUS
10
129.991445
20
183.989093
30
0.0
11
129.292893
21
184.196201
31
0.0
0
LINE
8
0
6
CONTINUOUS
10
129.290387
20
183.696199
30
0.0
11
129.292893
21
184.196201
31
0.0
0
LINE
8
0
6
CONTINUOUS
10
129.000000
20
184.696206
30
0.0
11
129.000000
21
182.989093
31
0.0
0
LINE
8
0
6
CONTINUOUS
10
129.290387
20
183.696199
30
0.0
11
129.000000
21
184.696206
31
0.0
0
LINE
8
0
6
CONTINUOUS
10
130.937822
20
183.989093
30
0.0
11
129.991445
21
183.989093
31
0.0
0
LINE
8
0
6
CONTINUOUS
10
130.325450
20
183.696199
30
0.0
11
129.290387
21
183.696199
31
0.0
0
LINE
8
0
6
CONTINUOUS
10
129.000000
20
182.989093
30
0.0
11
130.071797
21
182.989093
31
0.0
0
LINE
8
0
6
CONTINUOUS
10
133.500000
20
183.989093
30
0.0
11
130.937822
21
183.989093
31
0.0
0
LINE
8
0
6
CONTINUOUS
10
133.146447
20
183.696199
30
0.0
11
130.325450
21
183.696199
31
0.0
0
LINE
8
0
6
CONTINUOUS
10
130.071797
20
182.989093
30
0.0
11
133.000000
21
182.989093
31
0.0
0
LINE
8
0
6
CONTINUOUS
10
137.130526
20
183.989093
30
0.0
11
133.500000
21
183.989093
31
0.0
0
LINE
8
0
6
CONTINUOUS
10
137.038230
20
183.696199
30
0.0
11
133.146447
21
183.696199
31
0.0
0
LINE
8
0
6
CONTINUOUS
10
133.000000
20
182.989093
30
0.0
11
137.000000
21
182.989093
31
0.0
0
LINE
8
0
6
CONTINUOUS
10
354.869474
20
183.989093
30
0.0
11
137.130526
21
183.989093
31
0.0
0
LINE
8
0
6
CONTINUOUS
10
354.961770
20
183.696199
30
0.0
11
137.038230
21
183.696199
31
0.0
0
LINE
8
0
6
CONTINUOUS
10
137.000000
20
182.989093
30
0.0
11
355.000000
21
182.989093
31
0.0
0
LINE
8
0
6
CONTINUOUS
10
358.500000
20
183.989093
30
0.0
11
354.869474
21
183.989093
31
0.0
0
LINE
8
0
6
CONTINUOUS
10
358.853553
20
183.696199
30
0.0
11
354.961770
21
183.696199
31
0.0
0
LINE
8
0
6
CONTINUOUS
10
355.000000
20
182.989093
30
0.0
11
359.000000
21
182.989093
31
0.0
0
LINE
8
0
6
CONTINUOUS
10
361.062178
20
183.989093
30
0.0
11
358.500000
21
183.989093
31
0.0
0
LINE
8
0
6
CONTINUOUS
10
361.674550
20
183.696199
30
0.0
11
358.853553
21
183.696199
31
0.0
0
LINE
8
0
6
CONTINUOUS
10
359.000000
20
182.989093
30
0.0
11
361.928203
21
182.989093
31
0.0
0
LINE
8
0
6
CONTINUOUS
10
362.008555
20
183.989093
30
0.0
11
361.062178
21
183.989093
31
0.0
0
LINE
8
0
6
CONTINUOUS
10
362.709613
20
183.696199
30
0.0
11
362.008555
21
183.989093
31
0.0
0
LINE
8
0
6
CONTINUOUS
10
362.709613
20
183.696199
30
0.0
11
361.674550
21
183.696199
31
0.0
0
LINE
8
0
6
CONTINUOUS
10
361.928203
20
182.989093
30
0.0
11
363.000000
21
182.989093
31
0.0
0
LINE
8
0
6
CONTINUOUS
10
362.000000
20
183.989093
30
0.0
11
362.709613
21
183.696199
31
0.0
0
LINE
8
0
6
CONTINUOUS
10
363.000000
20
182.989093
30
0.0
11
363.000000
21
183.065214
31
0.0
0
LINE
8
0
6
CONTINUOUS
10
362.000000
20
183.989093
30
0.0
11
362.707107
21
183.718495
31
0.0
0
LINE
8
0
6
CONTINUOUS
10
362.707367
20
184.877008
30
0.0
11
362.707107
21
183.718495
31
0.0
0
LINE
8
0
6
CONTINUOUS
10
363.000000
20
183.065214
30
0.0
11
363.000000
21
184.606410
31
0.0
0
LINE
8
0
6
CONTINUOUS
10
362.000000
20
184.989093
30
0.0
11
362.707367
21
184.877008
31
0.0
0
LINE
8
0
6
CONTINUOUS
10
362.000000
20
194.989093
30
0.0
11
362.000000
21
184.989093
31
0.0
0
LINE
8
0
6
CONTINUOUS
10
362.707054
20
195.099749
30
0.0
11
362.707367
21
184.877008
31
0.0
0
LINE
8
0
6
CONTINUOUS
10
363.000000
20
184.606410
30
0.0
11
363.000000
21
195.366735
31
0.0
0
LINE
8
0
6
CONTINUOUS
10
362.000000
20
194.989093
30
0.0
11
362.707054
21
195.099749
31
0.0
0
LINE
8
0
6
CONTINUOUS
10
362.707107
20
196.279636
30
0.0
11
362.707054
21
195.099749
31
0.0
0
LINE
8
0
6
CONTINUOUS
10
363.000000
20
195.366735
30
0.0
11
363.000000
21
196.928404
31
0.0
0
LINE
8
0
6
CONTINUOUS
10
362.000000
20
196.010907
30
0.0
11
362.707107
21
196.279636
31
0.0
0
LINE
8
0
6
CONTINUOUS
10
362.008551
20
200.503002
30
0.0
11
362.000000
21
196.010907
31
0.0
0
LINE
8
0
6
CONTINUOUS
10
362.709782
20
200.797736
30
0.0
11
362.707107
21
196.279636
31
0.0
0
LINE
8
0
6
CONTINUOUS
10
363.000000
20
196.928404
30
0.0
11
363.000000
21
201.505849
31
0.0
0
LINE
8
0
6
CONTINUOUS
10
361.062133
20
200.582223
30
0.0
11
362.008551
21
200.503002
31
0.0
0
LINE
8
0
6
CONTINUOUS
10
361.675309
20
200.882063
30
0.0
11
362.709782
21
200.797736
31
0.0
0
LINE
8
0
6
CONTINUOUS
10
363.000000
20
201.505849
30
0.0
11
361.928203
21
201.593129
31
0.0
0
LINE
8
0
6
CONTINUOUS
10
358.499923
20
200.638131
30
0.0
11
361.062133
21
200.582223
31
0.0
0
LINE
8
0
6
CONTINUOUS
10
358.854099
20
200.943268
30
0.0
11
361.675309
21
200.882063
31
0.0
0
LINE
8
0
6
CONTINUOUS
10
361.928203
20
201.593129
30
0.0
11
358.999999
21
201.656909
31
0.0
0
LINE
8
0
6
CONTINUOUS
10
354.869444
20
200.658781
30
0.0
11
358.499923
21
200.638131
31
0.0
0
LINE
8
0
6
CONTINUOUS
10
354.961931
20
200.965697
30
0.0
11
358.854099
21
200.943268
31
0.0
0
LINE
8
0
6
CONTINUOUS
10
358.999999
20
201.656909
30
0.0
11
355.000000
21
201.680409
31
0.0
0
LINE
8
0
6
CONTINUOUS
10
137.130556
20
200.658781
30
0.0
11
354.869444
21
200.658781
31
0.0
0
LINE
8
0
6
CONTINUOUS
10
137.038069
20
200.965697
30
0.0
11
354.961931
21
200.965697
31
0.0
0
LINE
8
0
6
CONTINUOUS
10
355.000000
20
201.680409
30
0.0
11
137.000000
21
201.680409
31
0.0
0
LINE
8
0
6
CONTINUOUS
10
133.500077
20
200.638131
30
0.0
11
137.130556
21
200.658781
31
0.0
0
LINE
8
0
6
CONTINUOUS
10
133.146103
20
200.943382
30
0.0
11
137.038069
21
200.965697
31
0.0
0
LINE
8
0
6
CONTINUOUS
10
137.000000
20
201.680409
30
0.0
11
133.000000
21
201.657023
31
0.0
0
LINE
8
0
6
CONTINUOUS
10
130.937867
20
200.582223
30
0.0
11
133.500077
21
200.638131
31
0.0
0
LINE
8
0
6
CONTINUOUS
10
130.324812
20
200.881910
30
0.0
11
133.146103
21
200.943382
31
0.0
0
LINE
8
0
6
CONTINUOUS
10
133.000000
20
201.657023
30
0.0
11
130.071796
21
201.593243
31
0.0
0
LINE
8
0
6
CONTINUOUS
10
129.991449
20
200.503002
30
0.0
11
130.937867
21
200.582223
31
0.0
0
LINE
8
0
6
CONTINUOUS
10
129.290218
20
200.797736
30
0.0
11
130.324812
21
200.881910
31
0.0
0
LINE
8
0
6
CONTINUOUS
10
130.071796
20
201.593243
30
0.0
11
129.000000
21
201.505849
31
0.0
0
LINE
8
0
6
CONTINUOUS
10
130.000000
20
196.010907
30
0.0
11
129.991449
21
200.503002
31
0.0
0
LINE
8
0
6
CONTINUOUS
10
130.000000
20
196.010907
30
0.0
11
129.290218
21
200.797736
31
0.0
0
LINE
8
0
6
CONTINUOUS
10
129.292893
20
195.801554
30
0.0
11
129.290218
21
200.797736
31
0.0
0
LINE
8
0
6
CONTINUOUS
10
129.000000
20
201.505849
30
0.0
11
129.000000
21
195.296130
31
0.0
0
LINE
8
0
6
CONTINUOUS
10
129.292893
20
195.801554
30
0.0
11
129.000000
21
201.505849
31
0.0
0
LINE
8
0
6
CONTINUOUS
10
130.000000
20
183.989093
30
0.0
11
362.000000
21
183.989093
31
0.0
0
LINE
8
0
6
CONTINUOUS
10
129.292893
20
184.196201
30
0.0
11
130.000000
21
183.989093
31
0.0
0
LINE
8
0
6
CONTINUOUS
10
129.000000
20
184.696206
30
0.0
11
129.292893
21
184.196201
31
0.0
0
LINE
8
0
6
CONTINUOUS
10
129.000000
20
184.989093
30
0.0
11
129.000000
21
184.696206
31
0.0
0
LINE
8
0
6
CONTINUOUS
10
362.000000
20
184.989093
30
0.0
11
129.000000
21
184.989093
31
0.0
0
LINE
8
0
6
CONTINUOUS
10
129.292893
20
195.801554
30
0.0
11
129.000000
21
195.296130
31
0.0
0
LINE
8
0
6
CONTINUOUS
10
130.000000
20
196.010907
30
0.0
11
129.292893
21
195.801554
31
0.0
0
LINE
8
0
6
CONTINUOUS
10
362.000000
20
196.010907
30
0.0
11
130.000000
21
196.010907
31
0.0
0
LINE
8
0
6
CONTINUOUS
10
129.000000
20
194.989093
30
0.0
11
362.000000
21
194.989093
31
0.0
0
LINE
8
0
6
CONTINUOUS
10
129.000000
20
195.296130
30
0.0
11
129.000000
21
194.989093
31
0.0
0
LINE
8
0
6
CONTINUOUS
10
117.000000
20
-151.505849
30
0.0
11
117.000000
21
-145.296131
31
0.0
0
LINE
8
0
6
CONTINUOUS
10
117.000000
20
-151.505849
30
0.0
11
116.707107
21
-145.801558
31
0.0
0
LINE
8
0
6
CONTINUOUS
10
116.709782
20
-150.797736
30
0.0
11
116.707107
21
-145.801558
31
0.0
0
LINE
8
0
6
CONTINUOUS
10
116.000000
20
-146.010907
30
0.0
11
116.008551
21
-150.503002
31
0.0
0
LINE
8
0
6
CONTINUOUS
10
116.709782
20
-150.797736
30
0.0
11
116.000000
21
-146.010907
31
0.0
0
LINE
8
0
6
CONTINUOUS
10
115.928203
20
-151.593129
30
0.0
11
117.000000
21
-151.505849
31
0.0
0
LINE
8
0
6
CONTINUOUS
10
115.675107
20
-150.882177
30
0.0
11
116.709782
21
-150.797736
31
0.0
0
LINE
8
0
6
CONTINUOUS
10
116.008551
20
-150.503002
30
0.0
11
115.062133
21
-150.582223
31
0.0
0
LINE
8
0
6
CONTINUOUS
10
113.000000
20
-151.657023
30
0.0
11
115.928203
21
-151.593129
31
0.0
0
LINE
8
0
6
CONTINUOUS
10
112.853897
20
-150.943382
30
0.0
11
115.675107
21
-150.882177
31
0.0
0
LINE
8
0
6
CONTINUOUS
10
115.062133
20
-150.582223
30
0.0
11
112.499923
21
-150.638131
31
0.0
0
LINE
8
0
6
CONTINUOUS
10
108.999999
20
-151.680409
30
0.0
11
113.000000
21
-151.657023
31
0.0
0
LINE
8
0
6
CONTINUOUS
10
108.961930
20
-150.965697
30
0.0
11
112.853897
21
-150.943382
31
0.0
0
LINE
8
0
6
CONTINUOUS
10
112.499923
20
-150.638131
30
0.0
11
108.869444
21
-150.658781
31
0.0
0
LINE
8
0
6
CONTINUOUS
10
-355.000000
20
-151.680408
30
0.0
11
108.999999
21
-151.680409
31
0.0
0
LINE
8
0
6
CONTINUOUS
10
-354.961931
20
-150.965695
30
0.0
11
108.961930
21
-150.965697
31
0.0
0
LINE
8
0
6
CONTINUOUS
10
108.869444
20
-150.658781
30
0.0
11
-354.869444
21
-150.658780
31
0.0
0
LINE
8
0
6
CONTINUOUS
10
-359.000000
20
-151.657021
30
0.0
11
-355.000000
21
-151.680408
31
0.0
0
LINE
8
0
6
CONTINUOUS
10
-358.854099
20
-150.943267
30
0.0
11
-354.961931
21
-150.965695
31
0.0
0
LINE
8
0
6
CONTINUOUS
10
-354.869444
20
-150.658780
30
0.0
11
-358.499923
21
-150.638130
31
0.0
0
LINE
8
0
6
CONTINUOUS
10
-361.928203
20
-151.593128
30
0.0
11
-359.000000
21
-151.657021
31
0.0
0
LINE
8
0
6
CONTINUOUS
10
-361.675309
20
-150.882062
30
0.0
11
-358.854099
21
-150.943267
31
0.0
0
LINE
8
0
6
CONTINUOUS
10
-358.499923
20
-150.638130
30
0.0
11
-361.062133
21
-150.582222
31
0.0
0
LINE
8
0
6
CONTINUOUS
10
-363.000000
20
-151.505847
30
0.0
11
-361.928203
21
-151.593128
31
0.0
0
LINE
8
0
6
CONTINUOUS
10
-362.709782
20
-150.797735
30
0.0
11
-361.675309
21
-150.882062
31
0.0
0
LINE
8
0
6
CONTINUOUS
10
-361.062133
20
-150.582222
30
0.0
11
-362.008551
21
-150.503001
31
0.0
0
LINE
8
0
6
CONTINUOUS
10
-363.000000
20
-146.928400
30
0.0
11
-363.000000
21
-151.505847
31
0.0
0
LINE
8
0
6
CONTINUOUS
10
-362.707107
20
-146.279635
30
0.0
11
-362.709782
21
-150.797735
31
0.0
0
LINE
8
0
6
CONTINUOUS
10
-362.008551
20
-150.503001
30
0.0
11
-362.000000
21
-146.010907
31
0.0
0
LINE
8
0
6
CONTINUOUS
10
-363.000000
20
-145.366725
30
0.0
11
-363.000000
21
-146.928400
31
0.0
0
LINE
8
0
6
CONTINUOUS
10
-362.707107
20
-146.279635
30
0.0
11
-362.000000
21
-146.010907
31
0.0
0
LINE
8
0
6
CONTINUOUS
10
-362.707207
20
-145.099699
30
0.0
11
-362.707107
21
-146.279635
31
0.0
0
LINE
8
0
6
CONTINUOUS
10
-363.000000
20
-134.606422
30
0.0
11
-363.000000
21
-145.366725
31
0.0
0
LINE
8
0
6
CONTINUOUS
10
-362.707207
20
-145.099699
30
0.0
11
-362.000000
21
-144.989093
31
0.0
0
LINE
8
0
6
CONTINUOUS
10
-362.707306
20
-134.876899
30
0.0
11
-362.707207
21
-145.099699
31
0.0
0
LINE
8
0
6
CONTINUOUS
10
-362.000000
20
-144.989093
30
0.0
11
-362.000100
21
-134.989093
31
0.0
0
LINE
8
0
6
CONTINUOUS
10
-363.000000
20
-133.065208
30
0.0
11
-363.000000
21
-134.606422
31
0.0
0
LINE
8
0
6
CONTINUOUS
10
-362.707306
20
-134.876899
30
0.0
11
-362.000100
21
-134.989093
31
0.0
0
LINE
8
0
6
CONTINUOUS
10
-362.707107
20
-133.718485
30
0.0
11
-362.707306
21
-134.876899
31
0.0
0
LINE
8
0
6
CONTINUOUS
10
-363.000000
20
-132.989081
30
0.0
11
-363.000000
21
-133.065208
31
0.0
0
LINE
8
0
6
CONTINUOUS
10
-362.000000
20
-133.989081
30
0.0
11
-362.709613
21
-133.696188
31
0.0
0
LINE
8
0
6
CONTINUOUS
10
-362.707107
20
-133.718485
30
0.0
11
-362.000000
21
-133.989081
31
0.0
0
LINE
8
0
6
CONTINUOUS
10
-361.928203
20
-132.989081
30
0.0
11
-363.000000
21
-132.989081
31
0.0
0
LINE
8
0
6
CONTINUOUS
10
-362.709613
20
-133.696188
30
0.0
11
-362.008555
21
-133.989081
31
0.0
0
LINE
8
0
6
CONTINUOUS
10
-361.674550
20
-133.696188
30
0.0
11
-362.709613
21
-133.696188
31
0.0
0
LINE
8
0
6
CONTINUOUS
10
-362.008555
20
-133.989081
30
0.0
11
-361.062178
21
-133.989081
31
0.0
0
LINE
8
0
6
CONTINUOUS
10
-358.999993
20
-132.989081
30
0.0
11
-361.928203
21
-132.989081
31
0.0
0
LINE
8
0
6
CONTINUOUS
10
-358.853553
20
-133.696188
30
0.0
11
-361.674550
21
-133.696188
31
0.0
0
LINE
8
0
6
CONTINUOUS
10
-361.062178
20
-133.989081
30
0.0
11
-358.500000
21
-133.989081
31
0.0
0
LINE
8
0
6
CONTINUOUS
10
-354.999788
20
-132.989081
30
0.0
11
-358.999993
21
-132.989081
31
0.0
0
LINE
8
0
6
CONTINUOUS
10
-354.961557
20
-133.696188
30
0.0
11
-358.853553
21
-133.696188
31
0.0
0
LINE
8
0
6
CONTINUOUS
10
-358.500000
20
-133.989081
30
0.0
11
-354.869261
21
-133.989081
31
0.0
0
LINE
8
0
6
CONTINUOUS
10
109.000007
20
-132.989081
30
0.0
11
-354.999788
21
-132.989081
31
0.0
0
LINE
8
0
6
CONTINUOUS
10
108.961770
20
-133.696188
30
0.0
11
-354.961557
21
-133.696188
31
0.0
0
LINE
8
0
6
CONTINUOUS
10
-354.869261
20
-133.989081
30
0.0
11
108.869474
21
-133.989081
31
0.0
0
LINE
8
0
6
CONTINUOUS
10
112.999997
20
-132.989081
30
0.0
11
109.000007
21
-132.989081
31
0.0
0
LINE
8
0
6
CONTINUOUS
10
112.853566
20
-133.696188
30
0.0
11
108.961770
21
-133.696188
31
0.0
0
LINE
8
0
6
CONTINUOUS
10
108.869474
20
-133.989081
30
0.0
11
112.500009
21
-133.989081
31
0.0
0
LINE
8
0
6
CONTINUOUS
10
115.928203
20
-132.989081
30
0.0
11
112.999997
21
-132.989081
31
0.0
0
LINE
8
0
6
CONTINUOUS
10
115.674550
20
-133.696188
30
0.0
11
112.853566
21
-133.696188
31
0.0
0
LINE
8
0
6
CONTINUOUS
10
112.500009
20
-133.989081
30
0.0
11
115.062175
21
-133.989081
31
0.0
0
LINE
8
0
6
CONTINUOUS
10
117.000005
20
-132.989081
30
0.0
11
115.928203
21
-132.989081
31
0.0
0
LINE
8
0
6
CONTINUOUS
10
116.709613
20
-133.696188
30
0.0
11
115.674550
21
-133.696188
31
0.0
0
LINE
8
0
6
CONTINUOUS
10
115.062175
20
-133.989081
30
0.0
11
116.008555
21
-133.989081
31
0.0
0
LINE
8
0
6
CONTINUOUS
10
117.000000
20
-134.696206
30
0.0
11
117.000005
21
-132.989081
31
0.0
0
LINE
8
0
6
CONTINUOUS
10
117.000000
20
-134.696206
30
0.0
11
116.709613
21
-133.696188
31
0.0
0
LINE
8
0
6
CONTINUOUS
10
116.707107
20
-134.196193
30
0.0
11
116.709613
21
-133.696188
31
0.0
0
LINE
8
0
6
CONTINUOUS
10
116.707107
20
-134.196193
30
0.0
11
116.008555
21
-133.989081
31
0.0
0
LINE
8
0
6
CONTINUOUS
10
116.707107
20
-145.801558
30
0.0
11
117.000000
21
-145.296131
31
0.0
0
LINE
8
0
6
CONTINUOUS
10
116.000000
20
-146.010907
30
0.0
11
116.707107
21
-145.801558
31
0.0
0
LINE
8
0
6
CONTINUOUS
10
-362.000000
20
-146.010907
30
0.0
11
116.000000
21
-146.010907
31
0.0
0
LINE
8
0
6
CONTINUOUS
10
117.000000
20
-144.989093
30
0.0
11
-362.000000
21
-144.989093
31
0.0
0
LINE
8
0
6
CONTINUOUS
10
117.000000
20
-145.296131
30
0.0
11
117.000000
21
-144.989093
31
0.0
0
LINE
8
0
6
CONTINUOUS
10
116.000000
20
-133.989081
30
0.0
11
-362.000000
21
-133.989081
31
0.0
0
LINE
8
0
6
CONTINUOUS
10
116.707107
20
-134.196193
30
0.0
11
116.000000
21
-133.989081
31
0.0
0
LINE
8
0
6
CONTINUOUS
10
117.000000
20
-134.696206
30
0.0
11
116.707107
21
-134.196193
31
0.0
0
LINE
8
0
6
CONTINUOUS
10
116.999993
20
-134.989093
30
0.0
11
117.000000
21
-134.696206
31
0.0
0
LINE
8
0
6
CONTINUOUS
10
-362.000100
20
-134.989093
30
0.0
11
116.999993
21
-134.989093
31
0.0
0
LINE
8
0
6
CONTINUOUS
10
-363.290387
20
264.707107
30
0.0
11
-363.000000
21
264.000000
31
0.0
0
LINE
8
0
6
CONTINUOUS
10
-363.000000
20
264.000000
30
0.0
11
-363.270598
21
264.707107
31
0.0
0
LINE
8
0
6
CONTINUOUS
10
-363.923880
20
265.000000
30
0.0
11
-363.991445
21
265.000000
31
0.0
0
LINE
8
0
6
CONTINUOUS
10
-363.270598
20
264.707107
30
0.0
11
-363.923880
21
265.000000
31
0.0
0
LINE
8
0
6
CONTINUOUS
10
-363.991445
20
265.000000
30
0.0
11
-363.290387
21
264.707107
31
0.0
0
LINE
8
0
6
CONTINUOUS
10
363.270598
20
264.707107
30
0.0
11
363.000000
21
264.000000
31
0.0
0
LINE
8
0
6
CONTINUOUS
10
363.000000
20
264.000000
30
0.0
11
363.287330
21
264.708390
31
0.0
0
LINE
8
0
6
CONTINUOUS
10
363.982981
20
265.000000
30
0.0
11
363.923880
21
265.000000
31
0.0
0
LINE
8
0
6
CONTINUOUS
10
363.287330
20
264.708390
30
0.0
11
363.982981
21
265.000000
31
0.0
0
LINE
8
0
6
CONTINUOUS
10
363.923880
20
265.000000
30
0.0
11
363.270598
21
264.707107
31
0.0
0
LINE
8
0
6
CONTINUOUS
10
375.000000
20
264.000000
30
0.0
11
374.729402
21
264.707107
31
0.0
0
LINE
8
0
6
CONTINUOUS
10
374.729402
20
264.707107
30
0.0
11
374.076120
21
265.000000
31
0.0
0
LINE
8
0
6
CONTINUOUS
10
373.887915
20
264.707107
30
0.0
11
374.729402
21
264.707107
31
0.0
0
LINE
8
0
6
CONTINUOUS
10
374.076120
20
265.000000
30
0.0
11
373.617317
21
265.000000
31
0.0
0
LINE
8
0
6
CONTINUOUS
10
374.000000
20
264.000000
30
0.0
11
373.887915
21
264.707107
31
0.0
0
LINE
8
0
6
CONTINUOUS
10
364.000000
20
264.000000
30
0.0
11
374.000000
21
264.000000
31
0.0
0
LINE
8
0
6
CONTINUOUS
10
364.112085
20
264.707107
30
0.0
11
373.887915
21
264.707107
31
0.0
0
LINE
8
0
6
CONTINUOUS
10
373.617317
20
265.000000
30
0.0
11
364.382683
21
265.000000
31
0.0
0
LINE
8
0
6
CONTINUOUS
10
364.000000
20
264.000000
30
0.0
11
364.112085
21
264.707107
31
0.0
0
LINE
8
0
6
CONTINUOUS
10
363.270598
20
264.707107
30
0.0
11
363.000000
21
264.000000
31
0.0
0
LINE
8
0
6
CONTINUOUS
10
363.270598
20
264.707107
30
0.0
11
364.112085
21
264.707107
31
0.0
0
LINE
8
0
6
CONTINUOUS
10
363.923880
20
265.000000
30
0.0
11
363.270598
21
264.707107
31
0.0
0
LINE
8
0
6
CONTINUOUS
10
364.382683
20
265.000000
30
0.0
11
363.923880
21
265.000000
31
0.0
0
LINE
8
0
6
CONTINUOUS
10
363.000000
20
264.000000
30
0.0
11
363.290387
21
264.707107
31
0.0
0
LINE
8
0
6
CONTINUOUS
10
361.928203
20
264.000000
30
0.0
11
363.000000
21
264.000000
31
0.0
0
LINE
8
0
6
CONTINUOUS
10
363.290387
20
264.707107
30
0.0
11
363.991445
21
265.000000
31
0.0
0
LINE
8
0
6
CONTINUOUS
10
362.184914
20
264.705823
30
0.0
11
363.290387
21
264.707107
31
0.0
0
LINE
8
0
6
CONTINUOUS
10
363.991445
20
265.000000
30
0.0
11
362.795475
21
264.996948
31
0.0
0
LINE
8
0
6
CONTINUOUS
10
359.000000
20
264.000000
30
0.0
11
361.928203
21
264.000000
31
0.0
0
LINE
8
0
6
CONTINUOUS
10
359.146447
20
264.707107
30
0.0
11
362.184914
21
264.705823
31
0.0
0
LINE
8
0
6
CONTINUOUS
10
362.795475
20
264.996948
30
0.0
11
359.500000
21
265.000000
31
0.0
0
LINE
8
0
6
CONTINUOUS
10
355.000000
20
264.000000
30
0.0
11
359.000000
21
264.000000
31
0.0
0
LINE
8
0
6
CONTINUOUS
10
355.037408
20
264.708390
30
0.0
11
359.146447
21
264.707107
31
0.0
0
LINE
8
0
6
CONTINUOUS
10
359.500000
20
265.000000
30
0.0
11
355.129239
21
265.000000
31
0.0
0
LINE
8
0
6
CONTINUOUS
10
137.000000
20
264.000000
30
0.0
11
355.000000
21
264.000000
31
0.0
0
LINE
8
0
6
CONTINUOUS
10
136.961770
20
264.707107
30
0.0
11
355.037408
21
264.708390
31
0.0
0
LINE
8
0
6
CONTINUOUS
10
355.129239
20
265.000000
30
0.0
11
136.869474
21
265.000000
31
0.0
0
LINE
8
0
6
CONTINUOUS
10
133.000000
20
264.000000
30
0.0
11
137.000000
21
264.000000
31
0.0
0
LINE
8
0
6
CONTINUOUS
10
132.852731
20
264.705823
30
0.0
11
136.961770
21
264.707107
31
0.0
0
LINE
8
0
6
CONTINUOUS
10
136.869474
20
265.000000
30
0.0
11
132.499661
21
264.996948
31
0.0
0
LINE
8
0
6
CONTINUOUS
10
130.071797
20
264.000000
30
0.0
11
133.000000
21
264.000000
31
0.0
0
LINE
8
0
6
CONTINUOUS
10
129.818144
20
264.707107
30
0.0
11
132.852731
21
264.705823
31
0.0
0
LINE
8
0
6
CONTINUOUS
10
132.499661
20
264.996948
30
0.0
11
129.205771
21
265.000000
31
0.0
0
LINE
8
0
6
CONTINUOUS
10
129.000000
20
264.000000
30
0.0
11
130.071797
21
264.000000
31
0.0
0
LINE
8
0
6
CONTINUOUS
10
128.712670
20
264.708390
30
0.0
11
129.000000
21
264.000000
31
0.0
0
LINE
8
0
6
CONTINUOUS
10
128.712670
20
264.708390
30
0.0
11
129.818144
21
264.707107
31
0.0
0
LINE
8
0
6
CONTINUOUS
10
128.017019
20
265.000000
30
0.0
11
128.712670
21
264.708390
31
0.0
0
LINE
8
0
6
CONTINUOUS
10
129.205771
20
265.000000
30
0.0
11
128.017019
21
265.000000
31
0.0
0
LINE
8
0
6
CONTINUOUS
10
129.000000
20
264.000000
30
0.0
11
128.729402
21
264.707107
31
0.0
0
LINE
8
0
6
CONTINUOUS
10
128.729402
20
264.707107
30
0.0
11
128.076120
21
265.000000
31
0.0
0
LINE
8
0
6
CONTINUOUS
10
127.887915
20
264.707107
30
0.0
11
128.729402
21
264.707107
31
0.0
0
LINE
8
0
6
CONTINUOUS
10
128.076120
20
265.000000
30
0.0
11
127.617317
21
265.000000
31
0.0
0
LINE
8
0
6
CONTINUOUS
10
128.000000
20
264.000000
30
0.0
11
127.887915
21
264.707107
31
0.0
0
LINE
8
0
6
CONTINUOUS
10
118.000000
20
264.000000
30
0.0
11
128.000000
21
264.000000
31
0.0
0
LINE
8
0
6
CONTINUOUS
10
118.112085
20
264.707107
30
0.0
11
127.887915
21
264.707107
31
0.0
0
LINE
8
0
6
CONTINUOUS
10
127.617317
20
265.000000
30
0.0
11
118.382683
21
265.000000
31
0.0
0
LINE
8
0
6
CONTINUOUS
10
118.000000
20
264.000000
30
0.0
11
118.112085
21
264.707107
31
0.0
0
LINE
8
0
6
CONTINUOUS
10
117.270598
20
264.707107
30
0.0
11
117.000000
21
264.000000
31
0.0
0
LINE
8
0
6
CONTINUOUS
10
117.270598
20
264.707107
30
0.0
11
118.112085
21
264.707107
31
0.0
0
LINE
8
0
6
CONTINUOUS
10
117.923880
20
265.000000
30
0.0
11
117.270598
21
264.707107
31
0.0
0
LINE
8
0
6
CONTINUOUS
10
118.382683
20
265.000000
30
0.0
11
117.923880
21
265.000000
31
0.0
0
LINE
8
0
6
CONTINUOUS
10
117.000000
20
264.000000
30
0.0
11
117.290387
21
264.707107
31
0.0
0
LINE
8
0
6
CONTINUOUS
10
115.928203
20
264.000000
30
0.0
11
117.000000
21
264.000000
31
0.0
0
LINE
8
0
6
CONTINUOUS
10
117.290387
20
264.707107
30
0.0
11
117.991445
21
265.000000
31
0.0
0
LINE
8
0
6
CONTINUOUS
10
116.184914
20
264.705823
30
0.0
11
117.290387
21
264.707107
31
0.0
0
LINE
8
0
6
CONTINUOUS
10
117.991445
20
265.000000
30
0.0
11
116.795475
21
264.996948
31
0.0
0
LINE
8
0
6
CONTINUOUS
10
113.000000
20
264.000000
30
0.0
11
115.928203
21
264.000000
31
0.0
0
LINE
8
0
6
CONTINUOUS
10
113.146448
20
264.707107
30
0.0
11
116.184914
21
264.705823
31
0.0
0
LINE
8
0
6
CONTINUOUS
10
116.795475
20
264.996948
30
0.0
11
113.500005
21
265.000000
31
0.0
0
LINE
8
0
6
CONTINUOUS
10
109.000000
20
264.000000
30
0.0
11
113.000000
21
264.000000
31
0.0
0
LINE
8
0
6
CONTINUOUS
10
109.037410
20
264.708390
30
0.0
11
113.146448
21
264.707107
31
0.0
0
LINE
8
0
6
CONTINUOUS
10
113.500005
20
265.000000
30
0.0
11
109.129245
21
265.000000
31
0.0
0
LINE
8
0
6
CONTINUOUS
10
-354.999998
20
264.000000
30
0.0
11
109.000000
21
264.000000
31
0.0
0
LINE
8
0
6
CONTINUOUS
10
-355.038230
20
264.707107
30
0.0
11
109.037410
21
264.708390
31
0.0
0
LINE
8
0
6
CONTINUOUS
10
109.129245
20
265.000000
30
0.0
11
-355.130526
21
265.000000
31
0.0
0
LINE
8
0
6
CONTINUOUS
10
-359.000000
20
264.000000
30
0.0
11
-354.999998
21
264.000000
31
0.0
0
LINE
8
0
6
CONTINUOUS
10
-359.147269
20
264.705823
30
0.0
11
-355.038230
21
264.707107
31
0.0
0
LINE
8
0
6
CONTINUOUS
10
-355.130526
20
265.000000
30
0.0
11
-359.500339
21
264.996948
31
0.0
0
LINE
8
0
6
CONTINUOUS
10
-361.928203
20
264.000000
30
0.0
11
-359.000000
21
264.000000
31
0.0
0
LINE
8
0
6
CONTINUOUS
10
-362.181856
20
264.707107
30
0.0
11
-359.147269
21
264.705823
31
0.0
0
LINE
8
0
6
CONTINUOUS
10
-359.500339
20
264.996948
30
0.0
11
-362.794229
21
265.000000
31
0.0
0
LINE
8
0
6
CONTINUOUS
10
-363.000000
20
264.000000
30
0.0
11
-361.928203
21
264.000000
31
0.0
0
LINE
8
0
6
CONTINUOUS
10
-363.287330
20
264.708390
30
0.0
11
-363.000000
21
264.000000
31
0.0
0
LINE
8
0
6
CONTINUOUS
10
-363.287330
20
264.708390
30
0.0
11
-362.181856
21
264.707107
31
0.0
0
LINE
8
0
6
CONTINUOUS
10
-363.982981
20
265.000000
30
0.0
11
-363.287330
21
264.708390
31
0.0
0
LINE
8
0
6
CONTINUOUS
10
-362.794229
20
265.000000
30
0.0
11
-363.982981
21
265.000000
31
0.0
0
LINE
8
0
6
CONTINUOUS
10
-363.000000
20
264.000000
30
0.0
11
-363.270598
21
264.707107
31
0.0
0
LINE
8
0
6
CONTINUOUS
10
-363.270598
20
264.707107
30
0.0
11
-363.923865
21
264.999993
31
0.0
0
LINE
8
0
6
CONTINUOUS
10
-364.112085
20
264.707107
30
0.0
11
-363.270598
21
264.707107
31
0.0
0
LINE
8
0
6
CONTINUOUS
10
-363.923865
20
264.999993
30
0.0
11
-364.382683
21
265.000000
31
0.0
0
LINE
8
0
6
CONTINUOUS
10
-364.000000
20
264.000000
30
0.0
11
-364.112085
21
264.707107
31
0.0
0
LINE
8
0
6
CONTINUOUS
10
-374.000000
20
264.000000
30
0.0
11
-364.000000
21
264.000000
31
0.0
0
LINE
8
0
6
CONTINUOUS
10
-373.887915
20
264.707107
30
0.0
11
-364.112085
21
264.707107
31
0.0
0
LINE
8
0
6
CONTINUOUS
10
-364.382683
20
265.000000
30
0.0
11
-373.617317
21
265.000000
31
0.0
0
LINE
8
0
6
CONTINUOUS
10
-374.000000
20
264.000000
30
0.0
11
-373.887915
21
264.707107
31
0.0
0
LINE
8
0
6
CONTINUOUS
10
-374.729402
20
264.707107
30
0.0
11
-375.000000
21
264.000000
31
0.0
0
LINE
8
0
6
CONTINUOUS
10
-374.729402
20
264.707107
30
0.0
11
-373.887915
21
264.707107
31
0.0
0
LINE
8
0
6
CONTINUOUS
10
-374.076120
20
265.000000
30
0.0
11
-374.729402
21
264.707107
31
0.0
0
LINE
8
0
6
CONTINUOUS
10
-373.617317
20
265.000000
30
0.0
11
-374.076120
21
265.000000
31
0.0
0
LINE
8
0
6
CONTINUOUS
10
-374.000000
20
-264.000000
30
0.0
11
-374.000000
21
264.000000
31
0.0
0
LINE
8
0
6
CONTINUOUS
10
-375.000000
20
264.000000
30
0.0
11
-375.000000
21
-264.000000
31
0.0
0
LINE
8
0
6
CONTINUOUS
10
-363.000000
20
-264.000000
30
0.0
11
-363.000000
21
264.000000
31
0.0
0
LINE
8
0
6
CONTINUOUS
10
-364.000000
20
264.000000
30
0.0
11
-364.000000
21
-264.000000
31
0.0
0
LINE
8
0
6
CONTINUOUS
10
117.999995
20
-264.000000
30
0.0
11
118.000000
21
264.000000
31
0.0
0
LINE
8
0
6
CONTINUOUS
10
117.000000
20
-144.989093
30
0.0
11
117.000000
21
-264.000000
31
0.0
0
LINE
8
0
6
CONTINUOUS
10
116.999993
20
-134.989093
30
0.0
11
117.000000
21
-144.989093
31
0.0
0
LINE
8
0
6
CONTINUOUS
10
116.999979
20
134.989091
30
0.0
11
116.999993
21
-134.989093
31
0.0
0
LINE
8
0
6
CONTINUOUS
10
116.999999
20
144.989093
30
0.0
11
116.999979
21
134.989091
31
0.0
0
LINE
8
0
6
CONTINUOUS
10
117.000000
20
264.000000
30
0.0
11
116.999999
21
144.989093
31
0.0
0
LINE
8
0
6
CONTINUOUS
10
129.000000
20
194.989093
30
0.0
11
129.000000
21
264.000000
31
0.0
0
LINE
8
0
6
CONTINUOUS
10
129.000000
20
184.989093
30
0.0
11
129.000000
21
194.989093
31
0.0
0
LINE
8
0
6
CONTINUOUS
10
129.000008
20
30.010905
30
0.0
11
129.000000
21
184.989093
31
0.0
0
LINE
8
0
6
CONTINUOUS
10
128.999995
20
20.010907
30
0.0
11
129.000008
21
30.010905
31
0.0
0
LINE
8
0
6
CONTINUOUS
10
128.999995
20
-134.989095
30
0.0
11
128.999995
21
20.010907
31
0.0
0
LINE
8
0
6
CONTINUOUS
10
129.000000
20
-144.989093
30
0.0
11
128.999995
21
-134.989095
31
0.0
0
LINE
8
0
6
CONTINUOUS
10
128.999996
20
-264.000000
30
0.0
11
129.000000
21
-144.989093
31
0.0
0
LINE
8
0
6
CONTINUOUS
10
128.000000
20
264.000000
30
0.0
11
128.000000
21
-264.000000
31
0.0
0
LINE
8
0
6
CONTINUOUS
10
364.000000
20
-264.000000
30
0.0
11
364.000000
21
264.000000
31
0.0
0
LINE
8
0
6
CONTINUOUS
10
363.000000
20
264.000000
30
0.0
11
363.000000
21
-264.000000
31
0.0
0
LINE
8
0
6
CONTINUOUS
10
375.000000
20
-264.000000
30
0.0
11
375.000000
21
264.000000
31
0.0
0
LINE
8
0
6
CONTINUOUS
10
374.000000
20
264.000000
30
0.0
11
374.000000
21
-264.000000
31
0.0
0
LINE
8
0
6
CONTINUOUS
10
-363.923880
20
-265.000000
30
0.0
11
-363.270598
21
-264.707107
31
0.0
0
LINE
8
0
6
CONTINUOUS
10
-363.287330
20
-264.708390
30
0.0
11
-363.982981
21
-265.000000
31
0.0
0
LINE
8
0
6
CONTINUOUS
10
-363.982981
20
-265.000000
30
0.0
11
-363.923880
21
-265.000000
31
0.0
0
LINE
8
0
6
CONTINUOUS
10
-363.000000
20
-264.000000
30
0.0
11
-363.287330
21
-264.708390
31
0.0
0
LINE
8
0
6
CONTINUOUS
10
-363.270598
20
-264.707107
30
0.0
11
-363.000000
21
-264.000000
31
0.0
0
LINE
8
0
6
CONTINUOUS
10
363.991445
20
-265.000000
30
0.0
11
363.290387
21
-264.707107
31
0.0
0
LINE
8
0
6
CONTINUOUS
10
363.270598
20
-264.707107
30
0.0
11
363.923880
21
-265.000000
31
0.0
0
LINE
8
0
6
CONTINUOUS
10
363.923880
20
-265.000000
30
0.0
11
363.991445
21
-265.000000
31
0.0
0
LINE
8
0
6
CONTINUOUS
10
363.000000
20
-264.000000
30
0.0
11
363.270598
21
-264.707107
31
0.0
0
LINE
8
0
6
CONTINUOUS
10
363.290387
20
-264.707107
30
0.0
11
363.000000
21
-264.000000
31
0.0
0
LINE
8
0
6
CONTINUOUS
10
373.617317
20
-265.000000
30
0.0
11
374.076120
21
-265.000000
31
0.0
0
LINE
8
0
6
CONTINUOUS
10
374.076120
20
-265.000000
30
0.0
11
374.729402
21
-264.707107
31
0.0
0
LINE
8
0
6
CONTINUOUS
10
373.887915
20
-264.707107
30
0.0
11
374.729402
21
-264.707107
31
0.0
0
LINE
8
0
6
CONTINUOUS
10
374.729402
20
-264.707107
30
0.0
11
375.000000
21
-264.000000
31
0.0
0
LINE
8
0
6
CONTINUOUS
10
364.382683
20
-265.000000
30
0.0
11
373.617317
21
-265.000000
31
0.0
0
LINE
8
0
6
CONTINUOUS
10
364.112085
20
-264.707107
30
0.0
11
373.887915
21
-264.707107
31
0.0
0
LINE
8
0
6
CONTINUOUS
10
374.000000
20
-264.000000
30
0.0
11
364.000000
21
-264.000000
31
0.0
0
LINE
8
0
6
CONTINUOUS
10
373.887915
20
-264.707107
30
0.0
11
374.000000
21
-264.000000
31
0.0
0
LINE
8
0
6
CONTINUOUS
10
363.923865
20
-264.999993
30
0.0
11
364.382683
21
-265.000000
31
0.0
0
LINE
8
0
6
CONTINUOUS
10
363.270598
20
-264.707107
30
0.0
11
363.923865
21
-264.999993
31
0.0
0
LINE
8
0
6
CONTINUOUS
10
363.270598
20
-264.707107
30
0.0
11
364.112085
21
-264.707107
31
0.0
0
LINE
8
0
6
CONTINUOUS
10
363.000000
20
-264.000000
30
0.0
11
363.270598
21
-264.707107
31
0.0
0
LINE
8
0
6
CONTINUOUS
10
364.112085
20
-264.707107
30
0.0
11
364.000000
21
-264.000000
31
0.0
0
LINE
8
0
6
CONTINUOUS
10
362.794226
20
-265.000000
30
0.0
11
363.982981
21
-265.000000
31
0.0
0
LINE
8
0
6
CONTINUOUS
10
363.982981
20
-265.000000
30
0.0
11
363.287331
21
-264.708390
31
0.0
0
LINE
8
0
6
CONTINUOUS
10
362.181854
20
-264.707108
30
0.0
11
363.287331
21
-264.708390
31
0.0
0
LINE
8
0
6
CONTINUOUS
10
363.000000
20
-264.000000
30
0.0
11
361.928201
21
-264.000002
31
0.0
0
LINE
8
0
6
CONTINUOUS
10
363.287331
20
-264.708390
30
0.0
11
363.000000
21
-264.000000
31
0.0
0
LINE
8
0
6
CONTINUOUS
10
359.500339
20
-264.996948
30
0.0
11
362.794226
21
-265.000000
31
0.0
0
LINE
8
0
6
CONTINUOUS
10
359.147269
20
-264.705823
30
0.0
11
362.181854
21
-264.707108
31
0.0
0
LINE
8
0
6
CONTINUOUS
10
361.928201
20
-264.000002
30
0.0
11
359.000000
21
-264.000000
31
0.0
0
LINE
8
0
6
CONTINUOUS
10
355.130526
20
-265.000000
30
0.0
11
359.500339
21
-264.996948
31
0.0
0
LINE
8
0
6
CONTINUOUS
10
355.038230
20
-264.707107
30
0.0
11
359.147269
21
-264.705823
31
0.0
0
LINE
8
0
6
CONTINUOUS
10
359.000000
20
-264.000000
30
0.0
11
355.000000
21
-264.000000
31
0.0
0
LINE
8
0
6
CONTINUOUS
10
136.870761
20
-265.000000
30
0.0
11
355.130526
21
-265.000000
31
0.0
0
LINE
8
0
6
CONTINUOUS
10
136.962592
20
-264.708391
30
0.0
11
355.038230
21
-264.707107
31
0.0
0
LINE
8
0
6
CONTINUOUS
10
355.000000
20
-264.000000
30
0.0
11
137.000000
21
-264.000000
31
0.0
0
LINE
8
0
6
CONTINUOUS
10
132.499999
20
-265.000000
30
0.0
11
136.870761
21
-265.000000
31
0.0
0
LINE
8
0
6
CONTINUOUS
10
132.853552
20
-264.707106
30
0.0
11
136.962592
21
-264.708391
31
0.0
0
LINE
8
0
6
CONTINUOUS
10
137.000000
20
-264.000000
30
0.0
11
132.999998
21
-263.999998
31
0.0
0
LINE
8
0
6
CONTINUOUS
10
129.204525
20
-264.996948
30
0.0
11
132.499999
21
-265.000000
31
0.0
0
LINE
8
0
6
CONTINUOUS
10
129.815086
20
-264.705823
30
0.0
11
132.853552
21
-264.707106
31
0.0
0
LINE
8
0
6
CONTINUOUS
10
132.999998
20
-263.999998
30
0.0
11
130.071797
21
-264.000000
31
0.0
0
LINE
8
0
6
CONTINUOUS
10
128.008555
20
-265.000000
30
0.0
11
129.204525
21
-264.996948
31
0.0
0
LINE
8
0
6
CONTINUOUS
10
128.709613
20
-264.707107
30
0.0
11
128.008555
21
-265.000000
31
0.0
0
LINE
8
0
6
CONTINUOUS
10
128.709613
20
-264.707107
30
0.0
11
129.815086
21
-264.705823
31
0.0
0
LINE
8
0
6
CONTINUOUS
10
129.000000
20
-264.000000
30
0.0
11
128.709613
21
-264.707107
31
0.0
0
LINE
8
0
6
CONTINUOUS
10
130.071797
20
-264.000000
30
0.0
11
129.000000
21
-264.000000
31
0.0
0
LINE
8
0
6
CONTINUOUS
10
127.617315
20
-265.000000
30
0.0
11
128.076117
21
-265.000000
31
0.0
0
LINE
8
0
6
CONTINUOUS
10
128.076117
20
-265.000000
30
0.0
11
128.729398
21
-264.707107
31
0.0
0
LINE
8
0
6
CONTINUOUS
10
127.887914
20
-264.707107
30
0.0
11
128.729398
21
-264.707107
31
0.0
0
LINE
8
0
6
CONTINUOUS
10
128.729398
20
-264.707107
30
0.0
11
128.999996
21
-264.000000
31
0.0
0
LINE
8
0
6
CONTINUOUS
10
118.382681
20
-265.000000
30
0.0
11
127.617315
21
-265.000000
31
0.0
0
LINE
8
0
6
CONTINUOUS
10
118.112081
20
-264.707107
30
0.0
11
127.887914
21
-264.707107
31
0.0
0
LINE
8
0
6
CONTINUOUS
10
128.000000
20
-264.000000
30
0.0
11
117.999995
21
-264.000000
31
0.0
0
LINE
8
0
6
CONTINUOUS
10
127.887914
20
-264.707107
30
0.0
11
128.000000
21
-264.000000
31
0.0
0
LINE
8
0
6
CONTINUOUS
10
117.923880
20
-265.000000
30
0.0
11
118.382681
21
-265.000000
31
0.0
0
LINE
8
0
6
CONTINUOUS
10
117.270598
20
-264.707107
30
0.0
11
117.923880
21
-265.000000
31
0.0
0
LINE
8
0
6
CONTINUOUS
10
117.270598
20
-264.707107
30
0.0
11
118.112081
21
-264.707107
31
0.0
0
LINE
8
0
6
CONTINUOUS
10
117.000000
20
-264.000000
30
0.0
11
117.270598
21
-264.707107
31
0.0
0
LINE
8
0
6
CONTINUOUS
10
118.112081
20
-264.707107
30
0.0
11
117.999995
21
-264.000000
31
0.0
0
LINE
8
0
6
CONTINUOUS
10
116.794229
20
-265.000000
30
0.0
11
117.982981
21
-265.000000
31
0.0
0
LINE
8
0
6
CONTINUOUS
10
117.982981
20
-265.000000
30
0.0
11
117.287330
21
-264.708390
31
0.0
0
LINE
8
0
6
CONTINUOUS
10
116.181856
20
-264.707107
30
0.0
11
117.287330
21
-264.708390
31
0.0
0
LINE
8
0
6
CONTINUOUS
10
117.000000
20
-264.000000
30
0.0
11
115.928203
21
-264.000000
31
0.0
0
LINE
8
0
6
CONTINUOUS
10
117.287330
20
-264.708390
30
0.0
11
117.000000
21
-264.000000
31
0.0
0
LINE
8
0
6
CONTINUOUS
10
113.500339
20
-264.996948
30
0.0
11
116.794229
21
-265.000000
31
0.0
0
LINE
8
0
6
CONTINUOUS
10
113.147269
20
-264.705823
30
0.0
11
116.181856
21
-264.707107
31
0.0
0
LINE
8
0
6
CONTINUOUS
10
115.928203
20
-264.000000
30
0.0
11
113.000000
21
-264.000000
31
0.0
0
LINE
8
0
6
CONTINUOUS
10
109.130526
20
-265.000000
30
0.0
11
113.500339
21
-264.996948
31
0.0
0
LINE
8
0
6
CONTINUOUS
10
109.038230
20
-264.707107
30
0.0
11
113.147269
21
-264.705823
31
0.0
0
LINE
8
0
6
CONTINUOUS
10
113.000000
20
-264.000000
30
0.0
11
109.000000
21
-264.000000
31
0.0
0
LINE
8
0
6
CONTINUOUS
10
-355.129239
20
-265.000000
30
0.0
11
109.130526
21
-265.000000
31
0.0
0
LINE
8
0
6
CONTINUOUS
10
-355.037408
20
-264.708390
30
0.0
11
109.038230
21
-264.707107
31
0.0
0
LINE
8
0
6
CONTINUOUS
10
109.000000
20
-264.000000
30
0.0
11
-355.000000
21
-264.000000
31
0.0
0
LINE
8
0
6
CONTINUOUS
10
-359.500000
20
-265.000000
30
0.0
11
-355.129239
21
-265.000000
31
0.0
0
LINE
8
0
6
CONTINUOUS
10
-359.146447
20
-264.707107
30
0.0
11
-355.037408
21
-264.708390
31
0.0
0
LINE
8
0
6
CONTINUOUS
10
-355.000000
20
-264.000000
30
0.0
11
-359.000000
21
-264.000000
31
0.0
0
LINE
8
0
6
CONTINUOUS
10
-362.795475
20
-264.996948
30
0.0
11
-359.500000
21
-265.000000
31
0.0
0
LINE
8
0
6
CONTINUOUS
10
-362.184914
20
-264.705823
30
0.0
11
-359.146447
21
-264.707107
31
0.0
0
LINE
8
0
6
CONTINUOUS
10
-359.000000
20
-264.000000
30
0.0
11
-361.928203
21
-264.000000
31
0.0
0
LINE
8
0
6
CONTINUOUS
10
-363.991445
20
-265.000000
30
0.0
11
-362.795475
21
-264.996948
31
0.0
0
LINE
8
0
6
CONTINUOUS
10
-363.290387
20
-264.707107
30
0.0
11
-363.991445
21
-265.000000
31
0.0
0
LINE
8
0
6
CONTINUOUS
10
-363.290387
20
-264.707107
30
0.0
11
-362.184914
21
-264.705823
31
0.0
0
LINE
8
0
6
CONTINUOUS
10
-363.000000
20
-264.000000
30
0.0
11
-363.290387
21
-264.707107
31
0.0
0
LINE
8
0
6
CONTINUOUS
10
-361.928203
20
-264.000000
30
0.0
11
-363.000000
21
-264.000000
31
0.0
0
LINE
8
0
6
CONTINUOUS
10
-364.382683
20
-265.000000
30
0.0
11
-363.923880
21
-265.000000
31
0.0
0
LINE
8
0
6
CONTINUOUS
10
-363.923880
20
-265.000000
30
0.0
11
-363.270598
21
-264.707107
31
0.0
0
LINE
8
0
6
CONTINUOUS
10
-364.112085
20
-264.707107
30
0.0
11
-363.270598
21
-264.707107
31
0.0
0
LINE
8
0
6
CONTINUOUS
10
-363.270598
20
-264.707107
30
0.0
11
-363.000000
21
-264.000000
31
0.0
0
LINE
8
0
6
CONTINUOUS
10
-373.617317
20
-265.000000
30
0.0
11
-364.382683
21
-265.000000
31
0.0
0
LINE
8
0
6
CONTINUOUS
10
-373.887915
20
-264.707107
30
0.0
11
-364.112085
21
-264.707107
31
0.0
0
LINE
8
0
6
CONTINUOUS
10
-364.000000
20
-264.000000
30
0.0
11
-374.000000
21
-264.000000
31
0.0
0
LINE
8
0
6
CONTINUOUS
10
-364.112085
20
-264.707107
30
0.0
11
-364.000000
21
-264.000000
31
0.0
0
LINE
8
0
6
CONTINUOUS
10
-374.076120
20
-265.000000
30
0.0
11
-373.617317
21
-265.000000
31
0.0
0
LINE
8
0
6
CONTINUOUS
10
-374.729402
20
-264.707107
30
0.0
11
-374.076120
21
-265.000000
31
0.0
0
LINE
8
0
6
CONTINUOUS
10
-374.729402
20
-264.707107
30
0.0
11
-373.887915
21
-264.707107
31
0.0
0
LINE
8
0
6
CONTINUOUS
10
-375.000000
20
-264.000000
30
0.0
11
-374.729402
21
-264.707107
31
0.0
0
LINE
8
0
6
CONTINUOUS
10
-373.887915
20
-264.707107
30
0.0
11
-374.000000
21
-264.000000
31
0.0
0
LINE
8
0
6
CONTINUOUS
10
129.991449
20
-150.503002
30
0.0
11
130.000000
21
-146.010907
31
0.0
0
LINE
8
0
6
CONTINUOUS
10
129.991449
20
-150.503002
30
0.0
11
129.292893
21
-145.801555
31
0.0
0
LINE
8
0
6
CONTINUOUS
10
129.290218
20
-150.797736
30
0.0
11
129.292893
21
-145.801555
31
0.0
0
LINE
8
0
6
CONTINUOUS
10
129.000000
20
-145.296131
30
0.0
11
129.000000
21
-151.505849
31
0.0
0
LINE
8
0
6
CONTINUOUS
10
129.290218
20
-150.797736
30
0.0
11
129.000000
21
-145.296131
31
0.0
0
LINE
8
0
6
CONTINUOUS
10
130.937867
20
-150.582223
30
0.0
11
129.991449
21
-150.503002
31
0.0
0
LINE
8
0
6
CONTINUOUS
10
130.324691
20
-150.882063
30
0.0
11
129.290218
21
-150.797736
31
0.0
0
LINE
8
0
6
CONTINUOUS
10
129.000000
20
-151.505849
30
0.0
11
130.071797
21
-151.593129
31
0.0
0
LINE
8
0
6
CONTINUOUS
10
133.500077
20
-150.638131
30
0.0
11
130.937867
21
-150.582223
31
0.0
0
LINE
8
0
6
CONTINUOUS
10
133.145901
20
-150.943268
30
0.0
11
130.324691
21
-150.882063
31
0.0
0
LINE
8
0
6
CONTINUOUS
10
130.071797
20
-151.593129
30
0.0
11
132.999798
21
-151.656909
31
0.0
0
LINE
8
0
6
CONTINUOUS
10
137.130556
20
-150.658781
30
0.0
11
133.500077
21
-150.638131
31
0.0
0
LINE
8
0
6
CONTINUOUS
10
137.038069
20
-150.965697
30
0.0
11
133.145901
21
-150.943268
31
0.0
0
LINE
8
0
6
CONTINUOUS
10
132.999798
20
-151.656909
30
0.0
11
137.000000
21
-151.680409
31
0.0
0
LINE
8
0
6
CONTINUOUS
10
354.869444
20
-150.658781
30
0.0
11
137.130556
21
-150.658781
31
0.0
0
LINE
8
0
6
CONTINUOUS
10
354.961931
20
-150.965697
30
0.0
11
137.038069
21
-150.965697
31
0.0
0
LINE
8
0
6
CONTINUOUS
10
137.000000
20
-151.680409
30
0.0
11
355.000000
21
-151.680409
31
0.0
0
LINE
8
0
6
CONTINUOUS
10
358.499923
20
-150.638131
30
0.0
11
354.869444
21
-150.658781
31
0.0
0
LINE
8
0
6
CONTINUOUS
10
358.854099
20
-150.943268
30
0.0
11
354.961931
21
-150.965697
31
0.0
0
LINE
8
0
6
CONTINUOUS
10
355.000000
20
-151.680409
30
0.0
11
359.000000
21
-151.657023
31
0.0
0
LINE
8
0
6
CONTINUOUS
10
361.062133
20
-150.582223
30
0.0
11
358.499923
21
-150.638131
31
0.0
0
LINE
8
0
6
CONTINUOUS
10
361.675107
20
-150.882177
30
0.0
11
358.854099
21
-150.943268
31
0.0
0
LINE
8
0
6
CONTINUOUS
10
359.000000
20
-151.657023
30
0.0
11
361.928001
21
-151.593243
31
0.0
0
LINE
8
0
6
CONTINUOUS
10
362.008551
20
-150.503002
30
0.0
11
361.062133
21
-150.582223
31
0.0
0
LINE
8
0
6
CONTINUOUS
10
362.709782
20
-150.797736
30
0.0
11
361.675107
21
-150.882177
31
0.0
0
LINE
8
0
6
CONTINUOUS
10
361.928001
20
-151.593243
30
0.0
11
363.000000
21
-151.505849
31
0.0
0
LINE
8
0
6
CONTINUOUS
10
362.000000
20
-146.010912
30
0.0
11
362.008551
21
-150.503002
31
0.0
0
LINE
8
0
6
CONTINUOUS
10
362.707106
20
-146.279636
30
0.0
11
362.709782
21
-150.797736
31
0.0
0
LINE
8
0
6
CONTINUOUS
10
363.000000
20
-151.505849
30
0.0
11
363.000000
21
-146.928404
31
0.0
0
LINE
8
0
6
CONTINUOUS
10
362.000000
20
-146.010912
30
0.0
11
362.707106
21
-146.279636
31
0.0
0
LINE
8
0
6
CONTINUOUS
10
362.706847
20
-145.099702
30
0.0
11
362.707106
21
-146.279636
31
0.0
0
LINE
8
0
6
CONTINUOUS
10
363.000000
20
-146.928404
30
0.0
11
363.000000
21
-145.366735
31
0.0
0
LINE
8
0
6
CONTINUOUS
10
362.000000
20
-144.989093
30
0.0
11
362.706847
21
-145.099702
31
0.0
0
LINE
8
0
6
CONTINUOUS
10
362.000000
20
-134.989093
30
0.0
11
362.000000
21
-144.989093
31
0.0
0
LINE
8
0
6
CONTINUOUS
10
362.707159
20
-134.877055
30
0.0
11
362.706847
21
-145.099702
31
0.0
0
LINE
8
0
6
CONTINUOUS
10
363.000000
20
-145.366735
30
0.0
11
363.000000
21
-134.606409
31
0.0
0
LINE
8
0
6
CONTINUOUS
10
362.000000
20
-134.989093
30
0.0
11
362.707159
21
-134.877055
31
0.0
0
LINE
8
0
6
CONTINUOUS
10
362.707107
20
-133.718495
30
0.0
11
362.000000
21
-133.989093
31
0.0
0
LINE
8
0
6
CONTINUOUS
10
362.707107
20
-133.718495
30
0.0
11
362.707159
21
-134.877055
31
0.0
0
LINE
8
0
6
CONTINUOUS
10
363.000000
20
-134.606409
30
0.0
11
363.000000
21
-133.065213
31
0.0
0
LINE
8
0
6
CONTINUOUS
10
362.008555
20
-133.989093
30
0.0
11
362.707107
21
-133.718495
31
0.0
0
LINE
8
0
6
CONTINUOUS
10
363.000000
20
-133.065213
30
0.0
11
363.000000
21
-132.989093
31
0.0
0
LINE
8
0
6
CONTINUOUS
10
361.062178
20
-133.989093
30
0.0
11
362.008555
21
-133.989093
31
0.0
0
LINE
8
0
6
CONTINUOUS
10
361.674550
20
-133.696199
30
0.0
11
362.709613
21
-133.696199
31
0.0
0
LINE
8
0
6
CONTINUOUS
10
363.000000
20
-132.989093
30
0.0
11
361.927964
21
-132.989093
31
0.0
0
LINE
8
0
6
CONTINUOUS
10
358.500000
20
-133.989093
30
0.0
11
361.062178
21
-133.989093
31
0.0
0
LINE
8
0
6
CONTINUOUS
10
358.853553
20
-133.696199
30
0.0
11
361.674550
21
-133.696199
31
0.0
0
LINE
8
0
6
CONTINUOUS
10
361.927964
20
-132.989093
30
0.0
11
359.000000
21
-132.989093
31
0.0
0
LINE
8
0
6
CONTINUOUS
10
354.869474
20
-133.989093
30
0.0
11
358.500000
21
-133.989093
31
0.0
0
LINE
8
0
6
CONTINUOUS
10
354.961770
20
-133.696199
30
0.0
11
358.853553
21
-133.696199
31
0.0
0
LINE
8
0
6
CONTINUOUS
10
359.000000
20
-132.989093
30
0.0
11
355.000000
21
-132.989093
31
0.0
0
LINE
8
0
6
CONTINUOUS
10
137.130526
20
-133.989093
30
0.0
11
354.869474
21
-133.989093
31
0.0
0
LINE
8
0
6
CONTINUOUS
10
137.038230
20
-133.696199
30
0.0
11
354.961770
21
-133.696199
31
0.0
0
LINE
8
0
6
CONTINUOUS
10
355.000000
20
-132.989093
30
0.0
11
137.000000
21
-132.989093
31
0.0
0
LINE
8
0
6
CONTINUOUS
10
133.500000
20
-133.989093
30
0.0
11
137.130526
21
-133.989093
31
0.0
0
LINE
8
0
6
CONTINUOUS
10
133.146447
20
-133.696199
30
0.0
11
137.038230
21
-133.696199
31
0.0
0
LINE
8
0
6
CONTINUOUS
10
137.000000
20
-132.989093
30
0.0
11
132.999935
21
-132.989093
31
0.0
0
LINE
8
0
6
CONTINUOUS
10
130.937822
20
-133.989093
30
0.0
11
133.500000
21
-133.989093
31
0.0
0
LINE
8
0
6
CONTINUOUS
10
130.325450
20
-133.696199
30
0.0
11
133.146447
21
-133.696199
31
0.0
0
LINE
8
0
6
CONTINUOUS
10
132.999935
20
-132.989093
30
0.0
11
130.071797
21
-132.989093
31
0.0
0
LINE
8
0
6
CONTINUOUS
10
129.991445
20
-133.989093
30
0.0
11
130.937822
21
-133.989093
31
0.0
0
LINE
8
0
6
CONTINUOUS
10
129.290387
20
-133.696199
30
0.0
11
129.991445
21
-133.989093
31
0.0
0
LINE
8
0
6
CONTINUOUS
10
129.290387
20
-133.696199
30
0.0
11
130.325450
21
-133.696199
31
0.0
0
LINE
8
0
6
CONTINUOUS
10
130.071797
20
-132.989093
30
0.0
11
129.000000
21
-132.989093
31
0.0
0
LINE
8
0
6
CONTINUOUS
10
130.000000
20
-133.989093
30
0.0
11
129.290387
21
-133.696199
31
0.0
0
LINE
8
0
6
CONTINUOUS
10
129.292893
20
-134.196201
30
0.0
11
129.290387
21
-133.696199
31
0.0
0
LINE
8
0
6
CONTINUOUS
10
129.000000
20
-132.989093
30
0.0
11
128.999995
21
-134.696204
31
0.0
0
LINE
8
0
6
CONTINUOUS
10
129.292893
20
-134.196201
30
0.0
11
129.000000
21
-132.989093
31
0.0
0
LINE
8
0
6
CONTINUOUS
10
129.292893
20
-134.196201
30
0.0
11
128.999995
21
-134.696204
31
0.0
0
LINE
8
0
6
CONTINUOUS
10
130.000000
20
-133.989093
30
0.0
11
129.292893
21
-134.196201
31
0.0
0
LINE
8
0
6
CONTINUOUS
10
362.000000
20
-133.989093
30
0.0
11
130.000000
21
-133.989093
31
0.0
0
LINE
8
0
6
CONTINUOUS
10
128.999995
20
-134.989095
30
0.0
11
362.000000
21
-134.989093
31
0.0
0
LINE
8
0
6
CONTINUOUS
10
128.999995
20
-134.696204
30
0.0
11
128.999995
21
-134.989095
31
0.0
0
LINE
8
0
6
CONTINUOUS
10
130.000000
20
-146.010907
30
0.0
11
362.000000
21
-146.010912
31
0.0
0
LINE
8
0
6
CONTINUOUS
10
129.292893
20
-145.801555
30
0.0
11
130.000000
21
-146.010907
31
0.0
0
LINE
8
0
6
CONTINUOUS
10
129.000000
20
-145.296131
30
0.0
11
129.292893
21
-145.801555
31
0.0
0
LINE
8
0
6
CONTINUOUS
10
129.000000
20
-144.989093
30
0.0
11
129.000000
21
-145.296131
31
0.0
0
LINE
8
0
6
CONTINUOUS
10
362.000000
20
-144.989093
30
0.0
11
129.000000
21
-144.989093
31
0.0
0
LINE
8
0
6
CONTINUOUS
10
129.991449
20
14.496998
30
0.0
11
130.000000
21
18.989093
31
0.0
0
LINE
8
0
6
CONTINUOUS
10
129.991449
20
14.496998
30
0.0
11
129.292893
21
19.198446
31
0.0
0
LINE
8
0
6
CONTINUOUS
10
129.290218
20
14.202264
30
0.0
11
129.292893
21
19.198446
31
0.0
0
LINE
8
0
6
CONTINUOUS
10
128.999999
20
19.703870
30
0.0
11
129.000000
21
13.494151
31
0.0
0
LINE
8
0
6
CONTINUOUS
10
129.290218
20
14.202264
30
0.0
11
128.999999
21
19.703870
31
0.0
0
LINE
8
0
6
CONTINUOUS
10
130.937867
20
14.417777
30
0.0
11
129.991449
21
14.496998
31
0.0
0
LINE
8
0
6
CONTINUOUS
10
130.324691
20
14.117937
30
0.0
11
129.290218
21
14.202264
31
0.0
0
LINE
8
0
6
CONTINUOUS
10
129.000000
20
13.494151
30
0.0
11
130.071797
21
13.406871
31
0.0
0
LINE
8
0
6
CONTINUOUS
10
133.500077
20
14.361869
30
0.0
11
130.937867
21
14.417777
31
0.0
0
LINE
8
0
6
CONTINUOUS
10
133.145901
20
14.056732
30
0.0
11
130.324691
21
14.117937
31
0.0
0
LINE
8
0
6
CONTINUOUS
10
130.071797
20
13.406871
30
0.0
11
132.999798
21
13.343091
31
0.0
0
LINE
8
0
6
CONTINUOUS
10
137.130556
20
14.341219
30
0.0
11
133.500077
21
14.361869
31
0.0
0
LINE
8
0
6
CONTINUOUS
10
137.038069
20
14.034303
30
0.0
11
133.145901
21
14.056732
31
0.0
0
LINE
8
0
6
CONTINUOUS
10
132.999798
20
13.343091
30
0.0
11
137.000000
21
13.319591
31
0.0
0
LINE
8
0
6
CONTINUOUS
10
354.869444
20
14.341219
30
0.0
11
137.130556
21
14.341219
31
0.0
0
LINE
8
0
6
CONTINUOUS
10
354.961931
20
14.034303
30
0.0
11
137.038069
21
14.034303
31
0.0
0
LINE
8
0
6
CONTINUOUS
10
137.000000
20
13.319591
30
0.0
11
355.000000
21
13.319591
31
0.0
0
LINE
8
0
6
CONTINUOUS
10
358.499923
20
14.361869
30
0.0
11
354.869444
21
14.341219
31
0.0
0
LINE
8
0
6
CONTINUOUS
10
358.854099
20
14.056732
30
0.0
11
354.961931
21
14.034303
31
0.0
0
LINE
8
0
6
CONTINUOUS
10
355.000000
20
13.319591
30
0.0
11
359.000000
21
13.342977
31
0.0
0
LINE
8
0
6
CONTINUOUS
10
361.062133
20
14.417777
30
0.0
11
358.499923
21
14.361869
31
0.0
0
LINE
8
0
6
CONTINUOUS
10
361.675188
20
14.118090
30
0.0
11
358.854099
21
14.056732
31
0.0
0
LINE
8
0
6
CONTINUOUS
10
359.000000
20
13.342977
30
0.0
11
361.928001
21
13.406757
31
0.0
0
LINE
8
0
6
CONTINUOUS
10
362.008551
20
14.496998
30
0.0
11
361.062133
21
14.417777
31
0.0
0
LINE
8
0
6
CONTINUOUS
10
362.709782
20
14.202264
30
0.0
11
361.675188
21
14.118090
31
0.0
0
LINE
8
0
6
CONTINUOUS
10
361.928001
20
13.406757
30
0.0
11
363.000000
21
13.494151
31
0.0
0
LINE
8
0
6
CONTINUOUS
10
362.000000
20
18.989093
30
0.0
11
362.008551
21
14.496998
31
0.0
0
LINE
8
0
6
CONTINUOUS
10
362.707106
20
18.720364
30
0.0
11
362.709782
21
14.202264
31
0.0
0
LINE
8
0
6
CONTINUOUS
10
363.000000
20
13.494151
30
0.0
11
363.000000
21
18.071596
31
0.0
0
LINE
8
0
6
CONTINUOUS
10
362.000000
20
18.989093
30
0.0
11
362.707106
21
18.720364
31
0.0
0
LINE
8
0
6
CONTINUOUS
10
362.706847
20
19.900298
30
0.0
11
362.707106
21
18.720364
31
0.0
0
LINE
8
0
6
CONTINUOUS
10
363.000000
20
18.071596
30
0.0
11
363.000000
21
19.633265
31
0.0
0
LINE
8
0
6
CONTINUOUS
10
362.000000
20
20.010907
30
0.0
11
362.706847
21
19.900298
31
0.0
0
LINE
8
0
6
CONTINUOUS
10
362.000000
20
30.010907
30
0.0
11
362.000000
21
20.010907
31
0.0
0
LINE
8
0
6
CONTINUOUS
10
362.707159
20
30.122945
30
0.0
11
362.706847
21
19.900298
31
0.0
0
LINE
8
0
6
CONTINUOUS
10
363.000000
20
19.633265
30
0.0
11
363.000000
21
30.393591
31
0.0
0
LINE
8
0
6
CONTINUOUS
10
362.000000
20
30.010907
30
0.0
11
362.707159
21
30.122945
31
0.0
0
LINE
8
0
6
CONTINUOUS
10
362.707107
20
31.281505
30
0.0
11
362.000000
21
31.010907
31
0.0
0
LINE
8
0
6
CONTINUOUS
10
362.707107
20
31.281505
30
0.0
11
362.707159
21
30.122945
31
0.0
0
LINE
8
0
6
CONTINUOUS
10
363.000000
20
30.393591
30
0.0
11
363.000000
21
31.934787
31
0.0
0
LINE
8
0
6
CONTINUOUS
10
362.008555
20
31.010907
30
0.0
11
362.707107
21
31.281505
31
0.0
0
LINE
8
0
6
CONTINUOUS
10
363.000000
20
31.934787
30
0.0
11
363.000000
21
32.010907
31
0.0
0
LINE
8
0
6
CONTINUOUS
10
361.062178
20
31.010907
30
0.0
11
362.008555
21
31.010907
31
0.0
0
LINE
8
0
6
CONTINUOUS
10
361.674550
20
31.303801
30
0.0
11
362.709613
21
31.303801
31
0.0
0
LINE
8
0
6
CONTINUOUS
10
363.000000
20
32.010907
30
0.0
11
361.928203
21
32.010907
31
0.0
0
LINE
8
0
6
CONTINUOUS
10
358.500000
20
31.010907
30
0.0
11
361.062178
21
31.010907
31
0.0
0
LINE
8
0
6
CONTINUOUS
10
358.853553
20
31.303801
30
0.0
11
361.674550
21
31.303801
31
0.0
0
LINE
8
0
6
CONTINUOUS
10
361.928203
20
32.010907
30
0.0
11
359.000000
21
32.010907
31
0.0
0
LINE
8
0
6
CONTINUOUS
10
354.869474
20
31.010907
30
0.0
11
358.500000
21
31.010907
31
0.0
0
LINE
8
0
6
CONTINUOUS
10
354.961770
20
31.303801
30
0.0
11
358.853553
21
31.303801
31
0.0
0
LINE
8
0
6
CONTINUOUS
10
359.000000
20
32.010907
30
0.0
11
355.000000
21
32.010907
31
0.0
0
LINE
8
0
6
CONTINUOUS
10
137.130526
20
31.010907
30
0.0
11
354.869474
21
31.010907
31
0.0
0
LINE
8
0
6
CONTINUOUS
10
137.038230
20
31.303801
30
0.0
11
354.961770
21
31.303801
31
0.0
0
LINE
8
0
6
CONTINUOUS
10
355.000000
20
32.010907
30
0.0
11
137.000000
21
32.010907
31
0.0
0
LINE
8
0
6
CONTINUOUS
10
133.500000
20
31.010907
30
0.0
11
137.130526
21
31.010907
31
0.0
0
LINE
8
0
6
CONTINUOUS
10
133.146447
20
31.303801
30
0.0
11
137.038230
21
31.303801
31
0.0
0
LINE
8
0
6
CONTINUOUS
10
137.000000
20
32.010907
30
0.0
11
133.000000
21
32.010907
31
0.0
0
LINE
8
0
6
CONTINUOUS
10
130.937822
20
31.010907
30
0.0
11
133.500000
21
31.010907
31
0.0
0
LINE
8
0
6
CONTINUOUS
10
130.325450
20
31.303801
30
0.0
11
133.146447
21
31.303801
31
0.0
0
LINE
8
0
6
CONTINUOUS
10
133.000000
20
32.010907
30
0.0
11
130.071797
21
32.010907
31
0.0
0
LINE
8
0
6
CONTINUOUS
10
129.991445
20
31.010907
30
0.0
11
130.937822
21
31.010907
31
0.0
0
LINE
8
0
6
CONTINUOUS
10
129.290387
20
31.303801
30
0.0
11
129.991445
21
31.010907
31
0.0
0
LINE
8
0
6
CONTINUOUS
10
129.290387
20
31.303801
30
0.0
11
130.325450
21
31.303801
31
0.0
0
LINE
8
0
6
CONTINUOUS
10
130.071797
20
32.010907
30
0.0
11
129.000000
21
32.010907
31
0.0
0
LINE
8
0
6
CONTINUOUS
10
130.000000
20
31.010907
30
0.0
11
129.290387
21
31.303801
31
0.0
0
LINE
8
0
6
CONTINUOUS
10
129.292896
20
30.803800
30
0.0
11
129.290387
21
31.303801
31
0.0
0
LINE
8
0
6
CONTINUOUS
10
129.000000
20
32.010907
30
0.0
11
129.000008
21
30.303800
31
0.0
0
LINE
8
0
6
CONTINUOUS
10
129.292896
20
30.803800
30
0.0
11
129.000000
21
32.010907
31
0.0
0
LINE
8
0
6
CONTINUOUS
10
130.000000
20
18.989093
30
0.0
11
362.000000
21
18.989093
31
0.0
0
LINE
8
0
6
CONTINUOUS
10
129.292893
20
19.198446
30
0.0
11
130.000000
21
18.989093
31
0.0
0
LINE
8
0
6
CONTINUOUS
10
128.999999
20
19.703870
30
0.0
11
129.292893
21
19.198446
31
0.0
0
LINE
8
0
6
CONTINUOUS
10
128.999995
20
20.010907
30
0.0
11
128.999999
21
19.703870
31
0.0
0
LINE
8
0
6
CONTINUOUS
10
362.000000
20
20.010907
30
0.0
11
128.999995
21
20.010907
31
0.0
0
LINE
8
0
6
CONTINUOUS
10
129.292896
20
30.803800
30
0.0
11
129.000008
21
30.303800
31
0.0
0
LINE
8
0
6
CONTINUOUS
10
130.000000
20
31.010907
30
0.0
11
129.292896
21
30.803800
31
0.0
0
LINE
8
0
6
CONTINUOUS
10
362.000000
20
31.010907
30
0.0
11
130.000000
21
31.010907
31
0.0
0
LINE
8
0
6
CONTINUOUS
10
129.000008
20
30.010905
30
0.0
11
362.000000
21
30.010907
31
0.0
0
LINE
8
0
6
CONTINUOUS
10
129.000008
20
30.303800
30
0.0
11
129.000008
21
30.010905
31
0.0
0
LINE
8
0
6
CONTINUOUS
10
117.000000
20
132.989093
30
0.0
11
116.999993
21
134.696214
31
0.0
0
LINE
8
0
6
CONTINUOUS
10
117.000000
20
132.989093
30
0.0
11
116.707103
21
134.196204
31
0.0
0
LINE
8
0
6
CONTINUOUS
10
116.000000
20
133.989093
30
0.0
11
116.709613
21
133.696199
31
0.0
0
LINE
8
0
6
CONTINUOUS
10
116.709613
20
133.696199
30
0.0
11
116.707103
21
134.196204
31
0.0
0
LINE
8
0
6
CONTINUOUS
10
115.928203
20
132.989093
30
0.0
11
117.000000
21
132.989093
31
0.0
0
LINE
8
0
6
CONTINUOUS
10
116.709613
20
133.696199
30
0.0
11
116.008555
21
133.989093
31
0.0
0
LINE
8
0
6
CONTINUOUS
10
115.674550
20
133.696199
30
0.0
11
116.709613
21
133.696199
31
0.0
0
LINE
8
0
6
CONTINUOUS
10
116.008555
20
133.989093
30
0.0
11
115.062178
21
133.989093
31
0.0
0
LINE
8
0
6
CONTINUOUS
10
113.000000
20
132.989093
30
0.0
11
115.928203
21
132.989093
31
0.0
0
LINE
8
0
6
CONTINUOUS
10
112.853552
20
133.696199
30
0.0
11
115.674550
21
133.696199
31
0.0
0
LINE
8
0
6
CONTINUOUS
10
115.062178
20
133.989093
30
0.0
11
112.499994
21
133.989093
31
0.0
0
LINE
8
0
6
CONTINUOUS
10
109.000014
20
132.989093
30
0.0
11
113.000000
21
132.989093
31
0.0
0
LINE
8
0
6
CONTINUOUS
10
108.961781
20
133.696199
30
0.0
11
112.853552
21
133.696199
31
0.0
0
LINE
8
0
6
CONTINUOUS
10
112.499994
20
133.989093
30
0.0
11
108.869481
21
133.989093
31
0.0
0
LINE
8
0
6
CONTINUOUS
10
-354.999999
20
132.989093
30
0.0
11
109.000014
21
132.989093
31
0.0
0
LINE
8
0
6
CONTINUOUS
10
-354.961768
20
133.696199
30
0.0
11
108.961781
21
133.696199
31
0.0
0
LINE
8
0
6
CONTINUOUS
10
108.869481
20
133.989093
30
0.0
11
-354.869467
21
133.989093
31
0.0
0
LINE
8
0
6
CONTINUOUS
10
-359.000000
20
132.989093
30
0.0
11
-354.999999
21
132.989093
31
0.0
0
LINE
8
0
6
CONTINUOUS
10
-358.853552
20
133.696199
30
0.0
11
-354.961768
21
133.696199
31
0.0
0
LINE
8
0
6
CONTINUOUS
10
-354.869467
20
133.989093
30
0.0
11
-358.499994
21
133.989093
31
0.0
0
LINE
8
0
6
CONTINUOUS
10
-361.928203
20
132.989093
30
0.0
11
-359.000000
21
132.989093
31
0.0
0
LINE
8
0
6
CONTINUOUS
10
-361.674550
20
133.696199
30
0.0
11
-358.853552
21
133.696199
31
0.0
0
LINE
8
0
6
CONTINUOUS
10
-358.499994
20
133.989093
30
0.0
11
-361.062178
21
133.989092
31
0.0
0
LINE
8
0
6
CONTINUOUS
10
-363.000000
20
132.989093
30
0.0
11
-361.928203
21
132.989093
31
0.0
0
LINE
8
0
6
CONTINUOUS
10
-362.709613
20
133.696199
30
0.0
11
-361.674550
21
133.696199
31
0.0
0
LINE
8
0
6
CONTINUOUS
10
-361.062178
20
133.989092
30
0.0
11
-362.008555
21
133.989093
31
0.0
0
LINE
8
0
6
CONTINUOUS
10
-363.000000
20
133.065218
30
0.0
11
-363.000000
21
132.989093
31
0.0
0
LINE
8
0
6
CONTINUOUS
10
-362.008555
20
133.989093
30
0.0
11
-362.707107
21
133.718496
31
0.0
0
LINE
8
0
6
CONTINUOUS
10
-363.000000
20
134.606420
30
0.0
11
-363.000000
21
133.065218
31
0.0
0
LINE
8
0
6
CONTINUOUS
10
-362.707107
20
133.718496
30
0.0
11
-362.000000
21
133.989093
31
0.0
0
LINE
8
0
6
CONTINUOUS
10
-362.707006
20
134.877010
30
0.0
11
-362.707107
21
133.718496
31
0.0
0
LINE
8
0
6
CONTINUOUS
10
-363.000000
20
145.366724
30
0.0
11
-363.000000
21
134.606420
31
0.0
0
LINE
8
0
6
CONTINUOUS
10
-362.707006
20
134.877010
30
0.0
11
-362.000000
21
134.989092
31
0.0
0
LINE
8
0
6
CONTINUOUS
10
-362.706908
20
145.099586
30
0.0
11
-362.707006
21
134.877010
31
0.0
0
LINE
8
0
6
CONTINUOUS
10
-362.000000
20
134.989092
30
0.0
11
-361.999900
21
144.989093
31
0.0
0
LINE
8
0
6
CONTINUOUS
10
-363.000000
20
146.928400
30
0.0
11
-363.000000
21
145.366724
31
0.0
0
LINE
8
0
6
CONTINUOUS
10
-362.706908
20
145.099586
30
0.0
11
-361.999900
21
144.989093
31
0.0
0
LINE
8
0
6
CONTINUOUS
10
-362.707107
20
146.279635
30
0.0
11
-362.706908
21
145.099586
31
0.0
0
LINE
8
0
6
CONTINUOUS
10
-363.000000
20
151.505847
30
0.0
11
-363.000000
21
146.928400
31
0.0
0
LINE
8
0
6
CONTINUOUS
10
-362.707107
20
146.279635
30
0.0
11
-362.000000
21
146.010907
31
0.0
0
LINE
8
0
6
CONTINUOUS
10
-362.709782
20
150.797735
30
0.0
11
-362.707107
21
146.279635
31
0.0
0
LINE
8
0
6
CONTINUOUS
10
-362.000000
20
146.010907
30
0.0
11
-362.008551
21
150.503001
31
0.0
0
LINE
8
0
6
CONTINUOUS
10
-361.928203
20
151.593128
30
0.0
11
-363.000000
21
151.505847
31
0.0
0
LINE
8
0
6
CONTINUOUS
10
-361.675107
20
150.882176
30
0.0
11
-362.709782
21
150.797735
31
0.0
0
LINE
8
0
6
CONTINUOUS
10
-362.008551
20
150.503001
30
0.0
11
-361.062133
21
150.582222
31
0.0
0
LINE
8
0
6
CONTINUOUS
10
-359.000000
20
151.657021
30
0.0
11
-361.928203
21
151.593128
31
0.0
0
LINE
8
0
6
CONTINUOUS
10
-358.854099
20
150.943267
30
0.0
11
-361.675107
21
150.882176
31
0.0
0
LINE
8
0
6
CONTINUOUS
10
-361.062133
20
150.582222
30
0.0
11
-358.499923
21
150.638130
31
0.0
0
LINE
8
0
6
CONTINUOUS
10
-354.999789
20
151.680409
30
0.0
11
-359.000000
21
151.657021
31
0.0
0
LINE
8
0
6
CONTINUOUS
10
-354.961718
20
150.965697
30
0.0
11
-358.854099
21
150.943267
31
0.0
0
LINE
8
0
6
CONTINUOUS
10
-358.499923
20
150.638130
30
0.0
11
-354.869231
21
150.658781
31
0.0
0
LINE
8
0
6
CONTINUOUS
10
109.000007
20
151.680409
30
0.0
11
-354.999789
21
151.680409
31
0.0
0
LINE
8
0
6
CONTINUOUS
10
108.961931
20
150.965697
30
0.0
11
-354.961718
21
150.965697
31
0.0
0
LINE
8
0
6
CONTINUOUS
10
-354.869231
20
150.658781
30
0.0
11
108.869444
21
150.658781
31
0.0
0
LINE
8
0
6
CONTINUOUS
10
113.000000
20
151.657023
30
0.0
11
109.000007
21
151.680409
31
0.0
0
LINE
8
0
6
CONTINUOUS
10
112.854099
20
150.943268
30
0.0
11
108.961931
21
150.965697
31
0.0
0
LINE
8
0
6
CONTINUOUS
10
108.869444
20
150.658781
30
0.0
11
112.499923
21
150.638131
31
0.0
0
LINE
8
0
6
CONTINUOUS
10
115.928203
20
151.593129
30
0.0
11
113.000000
21
151.657023
31
0.0
0
LINE
8
0
6
CONTINUOUS
10
115.675309
20
150.882063
30
0.0
11
112.854099
21
150.943268
31
0.0
0
LINE
8
0
6
CONTINUOUS
10
112.499923
20
150.638131
30
0.0
11
115.062133
21
150.582223
31
0.0
0
LINE
8
0
6
CONTINUOUS
10
117.000000
20
151.505849
30
0.0
11
115.928203
21
151.593129
31
0.0
0
LINE
8
0
6
CONTINUOUS
10
116.709782
20
150.797736
30
0.0
11
115.675309
21
150.882063
31
0.0
0
LINE
8
0
6
CONTINUOUS
10
115.062133
20
150.582223
30
0.0
11
116.008551
21
150.503002
31
0.0
0
LINE
8
0
6
CONTINUOUS
10
117.000000
20
145.296129
30
0.0
11
117.000000
21
151.505849
31
0.0
0
LINE
8
0
6
CONTINUOUS
10
117.000000
20
145.296129
30
0.0
11
116.709782
21
150.797736
31
0.0
0
LINE
8
0
6
CONTINUOUS
10
116.707107
20
145.801554
30
0.0
11
116.709782
21
150.797736
31
0.0
0
LINE
8
0
6
CONTINUOUS
10
116.008551
20
150.503002
30
0.0
11
116.000000
21
146.010907
31
0.0
0
LINE
8
0
6
CONTINUOUS
10
116.707107
20
145.801554
30
0.0
11
116.008551
21
150.503002
31
0.0
0
LINE
8
0
6
CONTINUOUS
10
116.707103
20
134.196204
30
0.0
11
116.999993
21
134.696214
31
0.0
0
LINE
8
0
6
CONTINUOUS
10
116.000000
20
133.989093
30
0.0
11
116.707103
21
134.196204
31
0.0
0
LINE
8
0
6
CONTINUOUS
10
-362.000000
20
133.989093
30
0.0
11
116.000000
21
133.989093
31
0.0
0
LINE
8
0
6
CONTINUOUS
10
116.999979
20
134.989091
30
0.0
11
-362.000000
21
134.989092
31
0.0
0
LINE
8
0
6
CONTINUOUS
10
116.999993
20
134.696214
30
0.0
11
116.999979
21
134.989091
31
0.0
0
LINE
8
0
6
CONTINUOUS
10
116.000000
20
146.010907
30
0.0
11
-362.000000
21
146.010907
31
0.0
0
LINE
8
0
6
CONTINUOUS
10
116.707107
20
145.801554
30
0.0
11
116.000000
21
146.010907
31
0.0
0
LINE
8
0
6
CONTINUOUS
10
117.000000
20
145.296129
30
0.0
11
116.707107
21
145.801554
31
0.0
0
LINE
8
0
6
CONTINUOUS
10
116.999999
20
144.989093
30
0.0
11
117.000000
21
145.296129
31
0.0
0
LINE
8
0
6
CONTINUOUS
10
-361.999900
20
144.989093
30
0.0
11
116.999999
21
144.989093
31
0.0
0
LINE
8
0
6
CONTINUOUS
10
-363.000000
20
-132.989081
30
0.0
11
-361.928203
21
-132.989081
31
0.0
0
LINE
8
0
6
CONTINUOUS
10
-363.000000
20
132.989093
30
0.0
11
-363.000000
21
-132.989081
31
0.0
0
LINE
8
0
6
CONTINUOUS
10
-361.928203
20
132.989093
30
0.0
11
-363.000000
21
132.989093
31
0.0
0
LINE
8
0
6
CONTINUOUS
10
-361.928203
20
-132.989081
30
0.0
11
-358.999993
21
-132.989081
31
0.0
0
LINE
8
0
6
CONTINUOUS
10
-359.000000
20
132.989093
30
0.0
11
-361.928203
21
132.989093
31
0.0
0
LINE
8
0
6
CONTINUOUS
10
-358.999993
20
-132.989081
30
0.0
11
-354.999788
21
-132.989081
31
0.0
0
LINE
8
0
6
CONTINUOUS
10
-354.999999
20
132.989093
30
0.0
11
-359.000000
21
132.989093
31
0.0
0
LINE
8
0
6
CONTINUOUS
10
-354.999788
20
-132.989081
30
0.0
11
109.000007
21
-132.989081
31
0.0
0
LINE
8
0
6
CONTINUOUS
10
109.000014
20
132.989093
30
0.0
11
-354.999999
21
132.989093
31
0.0
0
LINE
8
0
6
CONTINUOUS
10
109.000007
20
-132.989081
30
0.0
11
112.999997
21
-132.989081
31
0.0
0
LINE
8
0
6
CONTINUOUS
10
113.000000
20
132.989093
30
0.0
11
109.000014
21
132.989093
31
0.0
0
LINE
8
0
6
CONTINUOUS
10
112.999997
20
-132.989081
30
0.0
11
115.928203
21
-132.989081
31
0.0
0
LINE
8
0
6
CONTINUOUS
10
115.928203
20
132.989093
30
0.0
11
113.000000
21
132.989093
31
0.0
0
LINE
8
0
6
CONTINUOUS
10
117.000005
20
-132.989081
30
0.0
11
117.000000
21
132.989093
31
0.0
0
LINE
8
0
6
CONTINUOUS
10
115.928203
20
-132.989081
30
0.0
11
117.000005
21
-132.989081
31
0.0
0
LINE
8
0
6
CONTINUOUS
10
117.000000
20
132.989093
30
0.0
11
115.928203
21
132.989093
31
0.0
0
LINE
8
0
6
CONTINUOUS
10
-363.000000
20
151.505847
30
0.0
11
-361.928203
21
151.593128
31
0.0
0
LINE
8
0
6
CONTINUOUS
10
-363.000000
20
264.000000
30
0.0
11
-363.000000
21
151.505847
31
0.0
0
LINE
8
0
6
CONTINUOUS
10
-361.928203
20
264.000000
30
0.0
11
-363.000000
21
264.000000
31
0.0
0
LINE
8
0
6
CONTINUOUS
10
-361.928203
20
151.593128
30
0.0
11
-359.000000
21
151.657021
31
0.0
0
LINE
8
0
6
CONTINUOUS
10
-359.000000
20
264.000000
30
0.0
11
-361.928203
21
264.000000
31
0.0
0
LINE
8
0
6
CONTINUOUS
10
-359.000000
20
151.657021
30
0.0
11
-354.999789
21
151.680409
31
0.0
0
LINE
8
0
6
CONTINUOUS
10
-354.999998
20
264.000000
30
0.0
11
-359.000000
21
264.000000
31
0.0
0
LINE
8
0
6
CONTINUOUS
10
-354.999789
20
151.680409
30
0.0
11
109.000007
21
151.680409
31
0.0
0
LINE
8
0
6
CONTINUOUS
10
109.000000
20
264.000000
30
0.0
11
-354.999998
21
264.000000
31
0.0
0
LINE
8
0
6
CONTINUOUS
10
109.000007
20
151.680409
30
0.0
11
113.000000
21
151.657023
31
0.0
0
LINE
8
0
6
CONTINUOUS
10
113.000000
20
264.000000
30
0.0
11
109.000000
21
264.000000
31
0.0
0
LINE
8
0
6
CONTINUOUS
10
113.000000
20
151.657023
30
0.0
11
115.928203
21
151.593129
31
0.0
0
LINE
8
0
6
CONTINUOUS
10
115.928203
20
264.000000
30
0.0
11
113.000000
21
264.000000
31
0.0
0
LINE
8
0
6
CONTINUOUS
10
117.000000
20
151.505849
30
0.0
11
117.000000
21
264.000000
31
0.0
0
LINE
8
0
6
CONTINUOUS
10
115.928203
20
151.593129
30
0.0
11
117.000000
21
151.505849
31
0.0
0
LINE
8
0
6
CONTINUOUS
10
117.000000
20
264.000000
30
0.0
11
115.928203
21
264.000000
31
0.0
0
LINE
8
0
6
CONTINUOUS
10
-363.000000
20
-264.000000
30
0.0
11
-361.928203
21
-264.000000
31
0.0
0
LINE
8
0
6
CONTINUOUS
10
-363.000000
20
-151.505847
30
0.0
11
-363.000000
21
-264.000000
31
0.0
0
LINE
8
0
6
CONTINUOUS
10
-361.928203
20
-151.593128
30
0.0
11
-363.000000
21
-151.505847
31
0.0
0
LINE
8
0
6
CONTINUOUS
10
-361.928203
20
-264.000000
30
0.0
11
-359.000000
21
-264.000000
31
0.0
0
LINE
8
0
6
CONTINUOUS
10
-359.000000
20
-151.657021
30
0.0
11
-361.928203
21
-151.593128
31
0.0
0
LINE
8
0
6
CONTINUOUS
10
-359.000000
20
-264.000000
30
0.0
11
-355.000000
21
-264.000000
31
0.0
0
LINE
8
0
6
CONTINUOUS
10
-355.000000
20
-151.680408
30
0.0
11
-359.000000
21
-151.657021
31
0.0
0
LINE
8
0
6
CONTINUOUS
10
-355.000000
20
-264.000000
30
0.0
11
109.000000
21
-264.000000
31
0.0
0
LINE
8
0
6
CONTINUOUS
10
108.999999
20
-151.680409
30
0.0
11
-355.000000
21
-151.680408
31
0.0
0
LINE
8
0
6
CONTINUOUS
10
109.000000
20
-264.000000
30
0.0
11
113.000000
21
-264.000000
31
0.0
0
LINE
8
0
6
CONTINUOUS
10
113.000000
20
-151.657023
30
0.0
11
108.999999
21
-151.680409
31
0.0
0
LINE
8
0
6
CONTINUOUS
10
113.000000
20
-264.000000
30
0.0
11
115.928203
21
-264.000000
31
0.0
0
LINE
8
0
6
CONTINUOUS
10
115.928203
20
-151.593129
30
0.0
11
113.000000
21
-151.657023
31
0.0
0
LINE
8
0
6
CONTINUOUS
10
117.000000
20
-264.000000
30
0.0
11
117.000000
21
-151.505849
31
0.0
0
LINE
8
0
6
CONTINUOUS
10
115.928203
20
-264.000000
30
0.0
11
117.000000
21
-264.000000
31
0.0
0
LINE
8
0
6
CONTINUOUS
10
117.000000
20
-151.505849
30
0.0
11
115.928203
21
-151.593129
31
0.0
0
LINE
8
0
6
CONTINUOUS
10
129.000000
20
201.505849
30
0.0
11
130.071796
21
201.593243
31
0.0
0
LINE
8
0
6
CONTINUOUS
10
129.000000
20
264.000000
30
0.0
11
129.000000
21
201.505849
31
0.0
0
LINE
8
0
6
CONTINUOUS
10
130.071797
20
264.000000
30
0.0
11
129.000000
21
264.000000
31
0.0
0
LINE
8
0
6
CONTINUOUS
10
130.071796
20
201.593243
30
0.0
11
133.000000
21
201.657023
31
0.0
0
LINE
8
0
6
CONTINUOUS
10
133.000000
20
264.000000
30
0.0
11
130.071797
21
264.000000
31
0.0
0
LINE
8
0
6
CONTINUOUS
10
133.000000
20
201.657023
30
0.0
11
137.000000
21
201.680409
31
0.0
0
LINE
8
0
6
CONTINUOUS
10
137.000000
20
264.000000
30
0.0
11
133.000000
21
264.000000
31
0.0
0
LINE
8
0
6
CONTINUOUS
10
137.000000
20
201.680409
30
0.0
11
355.000000
21
201.680409
31
0.0
0
LINE
8
0
6
CONTINUOUS
10
355.000000
20
264.000000
30
0.0
11
137.000000
21
264.000000
31
0.0
0
LINE
8
0
6
CONTINUOUS
10
355.000000
20
201.680409
30
0.0
11
358.999999
21
201.656909
31
0.0
0
LINE
8
0
6
CONTINUOUS
10
359.000000
20
264.000000
30
0.0
11
355.000000
21
264.000000
31
0.0
0
LINE
8
0
6
CONTINUOUS
10
358.999999
20
201.656909
30
0.0
11
361.928203
21
201.593129
31
0.0
0
LINE
8
0
6
CONTINUOUS
10
361.928203
20
264.000000
30
0.0
11
359.000000
21
264.000000
31
0.0
0
LINE
8
0
6
CONTINUOUS
10
363.000000
20
201.505849
30
0.0
11
363.000000
21
264.000000
31
0.0
0
LINE
8
0
6
CONTINUOUS
10
361.928203
20
201.593129
30
0.0
11
363.000000
21
201.505849
31
0.0
0
LINE
8
0
6
CONTINUOUS
10
363.000000
20
264.000000
30
0.0
11
361.928203
21
264.000000
31
0.0
0
LINE
8
0
6
CONTINUOUS
10
129.000000
20
32.010907
30
0.0
11
130.071797
21
32.010907
31
0.0
0
LINE
8
0
6
CONTINUOUS
10
129.000000
20
182.989093
30
0.0
11
129.000000
21
32.010907
31
0.0
0
LINE
8
0
6
CONTINUOUS
10
130.071797
20
182.989093
30
0.0
11
129.000000
21
182.989093
31
0.0
0
LINE
8
0
6
CONTINUOUS
10
130.071797
20
32.010907
30
0.0
11
133.000000
21
32.010907
31
0.0
0
LINE
8
0
6
CONTINUOUS
10
133.000000
20
182.989093
30
0.0
11
130.071797
21
182.989093
31
0.0
0
LINE
8
0
6
CONTINUOUS
10
133.000000
20
32.010907
30
0.0
11
137.000000
21
32.010907
31
0.0
0
LINE
8
0
6
CONTINUOUS
10
137.000000
20
182.989093
30
0.0
11
133.000000
21
182.989093
31
0.0
0
LINE
8
0
6
CONTINUOUS
10
137.000000
20
32.010907
30
0.0
11
355.000000
21
32.010907
31
0.0
0
LINE
8
0
6
CONTINUOUS
10
355.000000
20
182.989093
30
0.0
11
137.000000
21
182.989093
31
0.0
0
LINE
8
0
6
CONTINUOUS
10
355.000000
20
32.010907
30
0.0
11
359.000000
21
32.010907
31
0.0
0
LINE
8
0
6
CONTINUOUS
10
359.000000
20
182.989093
30
0.0
11
355.000000
21
182.989093
31
0.0
0
LINE
8
0
6
CONTINUOUS
10
359.000000
20
32.010907
30
0.0
11
361.928203
21
32.010907
31
0.0
0
LINE
8
0
6
CONTINUOUS
10
361.928203
20
182.989093
30
0.0
11
359.000000
21
182.989093
31
0.0
0
LINE
8
0
6
CONTINUOUS
10
363.000000
20
32.010907
30
0.0
11
363.000000
21
182.989093
31
0.0
0
LINE
8
0
6
CONTINUOUS
10
361.928203
20
32.010907
30
0.0
11
363.000000
21
32.010907
31
0.0
0
LINE
8
0
6
CONTINUOUS
10
363.000000
20
182.989093
30
0.0
11
361.928203
21
182.989093
31
0.0
0
LINE
8
0
6
CONTINUOUS
10
129.000000
20
-132.989093
30
0.0
11
130.071797
21
-132.989093
31
0.0
0
LINE
8
0
6
CONTINUOUS
10
129.000000
20
13.494151
30
0.0
11
129.000000
21
-132.989093
31
0.0
0
LINE
8
0
6
CONTINUOUS
10
130.071797
20
13.406871
30
0.0
11
129.000000
21
13.494151
31
0.0
0
LINE
8
0
6
CONTINUOUS
10
130.071797
20
-132.989093
30
0.0
11
132.999935
21
-132.989093
31
0.0
0
LINE
8
0
6
CONTINUOUS
10
132.999798
20
13.343091
30
0.0
11
130.071797
21
13.406871
31
0.0
0
LINE
8
0
6
CONTINUOUS
10
132.999935
20
-132.989093
30
0.0
11
137.000000
21
-132.989093
31
0.0
0
LINE
8
0
6
CONTINUOUS
10
137.000000
20
13.319591
30
0.0
11
132.999798
21
13.343091
31
0.0
0
LINE
8
0
6
CONTINUOUS
10
137.000000
20
-132.989093
30
0.0
11
355.000000
21
-132.989093
31
0.0
0
LINE
8
0
6
CONTINUOUS
10
355.000000
20
13.319591
30
0.0
11
137.000000
21
13.319591
31
0.0
0
LINE
8
0
6
CONTINUOUS
10
355.000000
20
-132.989093
30
0.0
11
359.000000
21
-132.989093
31
0.0
0
LINE
8
0
6
CONTINUOUS
10
359.000000
20
13.342977
30
0.0
11
355.000000
21
13.319591
31
0.0
0
LINE
8
0
6
CONTINUOUS
10
359.000000
20
-132.989093
30
0.0
11
361.927964
21
-132.989093
31
0.0
0
LINE
8
0
6
CONTINUOUS
10
361.928001
20
13.406757
30
0.0
11
359.000000
21
13.342977
31
0.0
0
LINE
8
0
6
CONTINUOUS
10
363.000000
20
-132.989093
30
0.0
11
363.000000
21
13.494151
31
0.0
0
LINE
8
0
6
CONTINUOUS
10
361.927964
20
-132.989093
30
0.0
11
363.000000
21
-132.989093
31
0.0
0
LINE
8
0
6
CONTINUOUS
10
363.000000
20
13.494151
30
0.0
11
361.928001
21
13.406757
31
0.0
0
LINE
8
0
6
CONTINUOUS
10
129.000000
20
-264.000000
30
0.0
11
130.071797
21
-264.000000
31
0.0
0
LINE
8
0
6
CONTINUOUS
10
129.000000
20
-151.505849
30
0.0
11
129.000000
21
-264.000000
31
0.0
0
LINE
8
0
6
CONTINUOUS
10
130.071797
20
-151.593129
30
0.0
11
129.000000
21
-151.505849
31
0.0
0
LINE
8
0
6
CONTINUOUS
10
130.071797
20
-264.000000
30
0.0
11
132.999998
21
-263.999998
31
0.0
0
LINE
8
0
6
CONTINUOUS
10
132.999798
20
-151.656909
30
0.0
11
130.071797
21
-151.593129
31
0.0
0
LINE
8
0
6
CONTINUOUS
10
132.999998
20
-263.999998
30
0.0
11
137.000000
21
-264.000000
31
0.0
0
LINE
8
0
6
CONTINUOUS
10
137.000000
20
-151.680409
30
0.0
11
132.999798
21
-151.656909
31
0.0
0
LINE
8
0
6
CONTINUOUS
10
137.000000
20
-264.000000
30
0.0
11
355.000000
21
-264.000000
31
0.0
0
LINE
8
0
6
CONTINUOUS
10
355.000000
20
-151.680409
30
0.0
11
137.000000
21
-151.680409
31
0.0
0
LINE
8
0
6
CONTINUOUS
10
355.000000
20
-264.000000
30
0.0
11
359.000000
21
-264.000000
31
0.0
0
LINE
8
0
6
CONTINUOUS
10
359.000000
20
-151.657023
30
0.0
11
355.000000
21
-151.680409
31
0.0
0
LINE
8
0
6
CONTINUOUS
10
359.000000
20
-264.000000
30
0.0
11
361.928201
21
-264.000002
31
0.0
0
LINE
8
0
6
CONTINUOUS
10
361.928001
20
-151.593243
30
0.0
11
359.000000
21
-151.657023
31
0.0
0
LINE
8
0
6
CONTINUOUS
10
363.000000
20
-264.000000
30
0.0
11
363.000000
21
-151.505849
31
0.0
0
LINE
8
0
6
CONTINUOUS
10
361.928201
20
-264.000002
30
0.0
11
363.000000
21
-264.000000
31
0.0
0
LINE
8
0
6
CONTINUOUS
10
363.000000
20
-151.505849
30
0.0
11
361.928001
21
-151.593243
31
0.0
0
LINE
8
0
6
CONTINUOUS
10
129.991449
20
14.496998
30
0.0
11
130.937867
21
14.417777
31
0.0
0
LINE
8
0
6
CONTINUOUS
10
130.000000
20
18.989093
30
0.0
11
129.991449
21
14.496998
31
0.0
0
LINE
8
0
6
CONTINUOUS
10
362.000000
20
18.989093
30
0.0
11
130.000000
21
18.989093
31
0.0
0
LINE
8
0
6
CONTINUOUS
10
362.008551
20
14.496998
30
0.0
11
362.000000
21
18.989093
31
0.0
0
LINE
8
0
6
CONTINUOUS
10
361.062133
20
14.417777
30
0.0
11
362.008551
21
14.496998
31
0.0
0
LINE
8
0
6
CONTINUOUS
10
358.499923
20
14.361869
30
0.0
11
361.062133
21
14.417777
31
0.0
0
LINE
8
0
6
CONTINUOUS
10
354.869444
20
14.341219
30
0.0
11
358.499923
21
14.361869
31
0.0
0
LINE
8
0
6
CONTINUOUS
10
137.130556
20
14.341219
30
0.0
11
354.869444
21
14.341219
31
0.0
0
LINE
8
0
6
CONTINUOUS
10
133.500077
20
14.361869
30
0.0
11
137.130556
21
14.341219
31
0.0
0
LINE
8
0
6
CONTINUOUS
10
130.937867
20
14.417777
30
0.0
11
133.500077
21
14.361869
31
0.0
0
LINE
8
0
6
CONTINUOUS
10
133.500077
20
200.638131
30
0.0
11
130.937867
21
200.582223
31
0.0
0
LINE
8
0
6
CONTINUOUS
10
137.130556
20
200.658781
30
0.0
11
133.500077
21
200.638131
31
0.0
0
LINE
8
0
6
CONTINUOUS
10
354.869444
20
200.658781
30
0.0
11
137.130556
21
200.658781
31
0.0
0
LINE
8
0
6
CONTINUOUS
10
358.499923
20
200.638131
30
0.0
11
354.869444
21
200.658781
31
0.0
0
LINE
8
0
6
CONTINUOUS
10
361.062133
20
200.582223
30
0.0
11
358.499923
21
200.638131
31
0.0
0
LINE
8
0
6
CONTINUOUS
10
362.008551
20
200.503002
30
0.0
11
361.062133
21
200.582223
31
0.0
0
LINE
8
0
6
CONTINUOUS
10
362.000000
20
196.010907
30
0.0
11
362.008551
21
200.503002
31
0.0
0
LINE
8
0
6
CONTINUOUS
10
130.000000
20
196.010907
30
0.0
11
362.000000
21
196.010907
31
0.0
0
LINE
8
0
6
CONTINUOUS
10
129.991449
20
200.503002
30
0.0
11
130.000000
21
196.010907
31
0.0
0
LINE
8
0
6
CONTINUOUS
10
130.937867
20
200.582223
30
0.0
11
129.991449
21
200.503002
31
0.0
0
LINE
8
0
6
CONTINUOUS
10
-358.499923
20
150.638130
30
0.0
11
-361.062133
21
150.582222
31
0.0
0
LINE
8
0
6
CONTINUOUS
10
-354.869231
20
150.658781
30
0.0
11
-358.499923
21
150.638130
31
0.0
0
LINE
8
0
6
CONTINUOUS
10
108.869444
20
150.658781
30
0.0
11
-354.869231
21
150.658781
31
0.0
0
LINE
8
0
6
CONTINUOUS
10
112.499923
20
150.638131
30
0.0
11
108.869444
21
150.658781
31
0.0
0
LINE
8
0
6
CONTINUOUS
10
115.062133
20
150.582223
30
0.0
11
112.499923
21
150.638131
31
0.0
0
LINE
8
0
6
CONTINUOUS
10
116.008551
20
150.503002
30
0.0
11
115.062133
21
150.582223
31
0.0
0
LINE
8
0
6
CONTINUOUS
10
116.000000
20
146.010907
30
0.0
11
116.008551
21
150.503002
31
0.0
0
LINE
8
0
6
CONTINUOUS
10
-362.000000
20
146.010907
30
0.0
11
116.000000
21
146.010907
31
0.0
0
LINE
8
0
6
CONTINUOUS
10
-362.008551
20
150.503001
30
0.0
11
-362.000000
21
146.010907
31
0.0
0
LINE
8
0
6
CONTINUOUS
10
-361.062133
20
150.582222
30
0.0
11
-362.008551
21
150.503001
31
0.0
0
LINE
8
0
6
CONTINUOUS
10
-362.008551
20
-150.503001
30
0.0
11
-361.062133
21
-150.582222
31
0.0
0
LINE
8
0
6
CONTINUOUS
10
-362.000000
20
-146.010907
30
0.0
11
-362.008551
21
-150.503001
31
0.0
0
LINE
8
0
6
CONTINUOUS
10
116.000000
20
-146.010907
30
0.0
11
-362.000000
21
-146.010907
31
0.0
0
LINE
8
0
6
CONTINUOUS
10
116.008551
20
-150.503002
30
0.0
11
116.000000
21
-146.010907
31
0.0
0
LINE
8
0
6
CONTINUOUS
10
115.062133
20
-150.582223
30
0.0
11
116.008551
21
-150.503002
31
0.0
0
LINE
8
0
6
CONTINUOUS
10
112.499923
20
-150.638131
30
0.0
11
115.062133
21
-150.582223
31
0.0
0
LINE
8
0
6
CONTINUOUS
10
108.869444
20
-150.658781
30
0.0
11
112.499923
21
-150.638131
31
0.0
0
LINE
8
0
6
CONTINUOUS
10
-354.869444
20
-150.658780
30
0.0
11
108.869444
21
-150.658781
31
0.0
0
LINE
8
0
6
CONTINUOUS
10
-358.499923
20
-150.638130
30
0.0
11
-354.869444
21
-150.658780
31
0.0
0
LINE
8
0
6
CONTINUOUS
10
-361.062133
20
-150.582222
30
0.0
11
-358.499923
21
-150.638130
31
0.0
0
LINE
8
0
6
CONTINUOUS
10
129.991449
20
-150.503002
30
0.0
11
130.937867
21
-150.582223
31
0.0
0
LINE
8
0
6
CONTINUOUS
10
130.000000
20
-146.010907
30
0.0
11
129.991449
21
-150.503002
31
0.0
0
LINE
8
0
6
CONTINUOUS
10
362.000000
20
-146.010912
30
0.0
11
130.000000
21
-146.010907
31
0.0
0
LINE
8
0
6
CONTINUOUS
10
362.008551
20
-150.503002
30
0.0
11
362.000000
21
-146.010912
31
0.0
0
LINE
8
0
6
CONTINUOUS
10
361.062133
20
-150.582223
30
0.0
11
362.008551
21
-150.503002
31
0.0
0
LINE
8
0
6
CONTINUOUS
10
358.499923
20
-150.638131
30
0.0
11
361.062133
21
-150.582223
31
0.0
0
LINE
8
0
6
CONTINUOUS
10
354.869444
20
-150.658781
30
0.0
11
358.499923
21
-150.638131
31
0.0
0
LINE
8
0
6
CONTINUOUS
10
137.130556
20
-150.658781
30
0.0
11
354.869444
21
-150.658781
31
0.0
0
LINE
8
0
6
CONTINUOUS
10
133.500077
20
-150.638131
30
0.0
11
137.130556
21
-150.658781
31
0.0
0
LINE
8
0
6
CONTINUOUS
10
130.937867
20
-150.582223
30
0.0
11
133.500077
21
-150.638131
31
0.0
0
LINE
8
0
6
CONTINUOUS
10
374.000000
20
-264.000000
30
0.0
11
374.000000
21
264.000000
31
0.0
0
LINE
8
0
6
CONTINUOUS
10
364.000000
20
-264.000000
30
0.0
11
374.000000
21
-264.000000
31
0.0
0
LINE
8
0
6
CONTINUOUS
10
364.000000
20
264.000000
30
0.0
11
364.000000
21
-264.000000
31
0.0
0
LINE
8
0
6
CONTINUOUS
10
374.000000
20
264.000000
30
0.0
11
364.000000
21
264.000000
31
0.0
0
LINE
8
0
6
CONTINUOUS
10
-364.000000
20
-264.000000
30
0.0
11
-364.000000
21
264.000000
31
0.0
0
LINE
8
0
6
CONTINUOUS
10
-374.000000
20
-264.000000
30
0.0
11
-364.000000
21
-264.000000
31
0.0
0
LINE
8
0
6
CONTINUOUS
10
-374.000000
20
264.000000
30
0.0
11
-374.000000
21
-264.000000
31
0.0
0
LINE
8
0
6
CONTINUOUS
10
-364.000000
20
264.000000
30
0.0
11
-374.000000
21
264.000000
31
0.0
0
LINE
8
0
6
CONTINUOUS
10
128.000000
20
-264.000000
30
0.0
11
128.000000
21
264.000000
31
0.0
0
LINE
8
0
6
CONTINUOUS
10
117.999995
20
-264.000000
30
0.0
11
128.000000
21
-264.000000
31
0.0
0
LINE
8
0
6
CONTINUOUS
10
118.000000
20
264.000000
30
0.0
11
117.999995
21
-264.000000
31
0.0
0
LINE
8
0
6
CONTINUOUS
10
128.000000
20
264.000000
30
0.0
11
118.000000
21
264.000000
31
0.0
0
LINE
8
0
6
CONTINUOUS
10
129.000000
20
184.989093
30
0.0
11
362.000000
21
184.989093
31
0.0
0
LINE
8
0
6
CONTINUOUS
10
129.000000
20
194.989093
30
0.0
11
129.000000
21
184.989093
31
0.0
0
LINE
8
0
6
CONTINUOUS
10
362.000000
20
194.989093
30
0.0
11
129.000000
21
194.989093
31
0.0
0
LINE
8
0
6
CONTINUOUS
10
362.000000
20
184.989093
30
0.0
11
362.000000
21
194.989093
31
0.0
0
LINE
8
0
6
CONTINUOUS
10
-362.000000
20
134.989092
30
0.0
11
116.999979
21
134.989091
31
0.0
0
LINE
8
0
6
CONTINUOUS
10
-361.999900
20
144.989093
30
0.0
11
-362.000000
21
134.989092
31
0.0
0
LINE
8
0
6
CONTINUOUS
10
116.999999
20
144.989093
30
0.0
11
-361.999900
21
144.989093
31
0.0
0
LINE
8
0
6
CONTINUOUS
10
116.999979
20
134.989091
30
0.0
11
116.999999
21
144.989093
31
0.0
0
LINE
8
0
6
CONTINUOUS
10
116.999993
20
-134.989093
30
0.0
11
-362.000100
21
-134.989093
31
0.0
0
LINE
8
0
6
CONTINUOUS
10
117.000000
20
-144.989093
30
0.0
11
116.999993
21
-134.989093
31
0.0
0
LINE
8
0
6
CONTINUOUS
10
-362.000000
20
-144.989093
30
0.0
11
117.000000
21
-144.989093
31
0.0
0
LINE
8
0
6
CONTINUOUS
10
-362.000100
20
-134.989093
30
0.0
11
-362.000000
21
-144.989093
31
0.0
0
LINE
8
0
6
CONTINUOUS
10
362.000000
20
30.010907
30
0.0
11
129.000008
21
30.010905
31
0.0
0
LINE
8
0
6
CONTINUOUS
10
362.000000
20
20.010907
30
0.0
11
362.000000
21
30.010907
31
0.0
0
LINE
8
0
6
CONTINUOUS
10
128.999995
20
20.010907
30
0.0
11
362.000000
21
20.010907
31
0.0
0
LINE
8
0
6
CONTINUOUS
10
129.000008
20
30.010905
30
0.0
11
128.999995
21
20.010907
31
0.0
0
LINE
8
0
6
CONTINUOUS
10
362.000000
20
-134.989093
30
0.0
11
128.999995
21
-134.989095
31
0.0
0
LINE
8
0
6
CONTINUOUS
10
362.000000
20
-144.989093
30
0.0
11
362.000000
21
-134.989093
31
0.0
0
LINE
8
0
6
CONTINUOUS
10
129.000000
20
-144.989093
30
0.0
11
362.000000
21
-144.989093
31
0.0
0
LINE
8
0
6
CONTINUOUS
10
128.999995
20
-134.989095
30
0.0
11
129.000000
21
-144.989093
31
0.0
0
LINE
8
0
6
CONTINUOUS
10
-363.923880
20
265.000000
30
0.0
11
-364.382683
21
265.000000
31
0.0
0
LINE
8
0
6
CONTINUOUS
10
-363.991445
20
265.000000
30
0.0
11
-363.923880
21
265.000000
31
0.0
0
LINE
8
0
6
CONTINUOUS
10
-362.795475
20
264.996948
30
0.0
11
-363.991445
21
265.000000
31
0.0
0
LINE
8
0
6
CONTINUOUS
10
-359.500000
20
265.000000
30
0.0
11
-362.795475
21
264.996948
31
0.0
0
LINE
8
0
6
CONTINUOUS
10
-355.129239
20
265.000000
30
0.0
11
-359.500000
21
265.000000
31
0.0
0
LINE
8
0
6
CONTINUOUS
10
355.130526
20
265.000000
30
0.0
11
-355.129239
21
265.000000
31
0.0
0
LINE
8
0
6
CONTINUOUS
10
359.500339
20
264.996948
30
0.0
11
355.130526
21
265.000000
31
0.0
0
LINE
8
0
6
CONTINUOUS
10
362.794229
20
265.000000
30
0.0
11
359.500339
21
264.996948
31
0.0
0
LINE
8
0
6
CONTINUOUS
10
363.982981
20
265.000000
30
0.0
11
362.794229
21
265.000000
31
0.0
0
LINE
8
0
6
CONTINUOUS
10
363.923880
20
265.000000
30
0.0
11
363.982981
21
265.000000
31
0.0
0
LINE
8
0
6
CONTINUOUS
10
364.382683
20
265.000000
30
0.0
11
363.923880
21
265.000000
31
0.0
0
LINE
8
0
6
CONTINUOUS
10
373.617317
20
265.000000
30
0.0
11
364.382683
21
265.000000
31
0.0
0
LINE
8
0
6
CONTINUOUS
10
374.076120
20
265.000000
30
0.0
11
373.617317
21
265.000000
31
0.0
0
LINE
8
0
6
CONTINUOUS
10
373.617317
20
265.000000
30
0.0
11
374.076120
21
265.000000
31
0.0
0
LINE
8
0
6
CONTINUOUS
10
364.382683
20
265.000000
30
0.0
11
373.617317
21
265.000000
31
0.0
0
LINE
8
0
6
CONTINUOUS
10
363.923880
20
265.000000
30
0.0
11
364.382683
21
265.000000
31
0.0
0
LINE
8
0
6
CONTINUOUS
10
363.991445
20
265.000000
30
0.0
11
363.923880
21
265.000000
31
0.0
0
LINE
8
0
6
CONTINUOUS
10
362.795475
20
264.996948
30
0.0
11
363.991445
21
265.000000
31
0.0
0
LINE
8
0
6
CONTINUOUS
10
359.500000
20
265.000000
30
0.0
11
362.795475
21
264.996948
31
0.0
0
LINE
8
0
6
CONTINUOUS
10
355.129239
20
265.000000
30
0.0
11
359.500000
21
265.000000
31
0.0
0
LINE
8
0
6
CONTINUOUS
10
136.869474
20
265.000000
30
0.0
11
355.129239
21
265.000000
31
0.0
0
LINE
8
0
6
CONTINUOUS
10
132.499661
20
264.996948
30
0.0
11
136.869474
21
265.000000
31
0.0
0
LINE
8
0
6
CONTINUOUS
10
129.205771
20
265.000000
30
0.0
11
132.499661
21
264.996948
31
0.0
0
LINE
8
0
6
CONTINUOUS
10
128.017019
20
265.000000
30
0.0
11
129.205771
21
265.000000
31
0.0
0
LINE
8
0
6
CONTINUOUS
10
128.076120
20
265.000000
30
0.0
11
128.017019
21
265.000000
31
0.0
0
LINE
8
0
6
CONTINUOUS
10
127.617317
20
265.000000
30
0.0
11
128.076120
21
265.000000
31
0.0
0
LINE
8
0
6
CONTINUOUS
10
118.382683
20
265.000000
30
0.0
11
127.617317
21
265.000000
31
0.0
0
LINE
8
0
6
CONTINUOUS
10
117.923880
20
265.000000
30
0.0
11
118.382683
21
265.000000
31
0.0
0
LINE
8
0
6
CONTINUOUS
10
117.991445
20
265.000000
30
0.0
11
117.923880
21
265.000000
31
0.0
0
LINE
8
0
6
CONTINUOUS
10
116.795475
20
264.996948
30
0.0
11
117.991445
21
265.000000
31
0.0
0
LINE
8
0
6
CONTINUOUS
10
113.500005
20
265.000000
30
0.0
11
116.795475
21
264.996948
31
0.0
0
LINE
8
0
6
CONTINUOUS
10
109.129245
20
265.000000
30
0.0
11
113.500005
21
265.000000
31
0.0
0
LINE
8
0
6
CONTINUOUS
10
-355.130526
20
265.000000
30
0.0
11
109.129245
21
265.000000
31
0.0
0
LINE
8
0
6
CONTINUOUS
10
-359.500339
20
264.996948
30
0.0
11
-355.130526
21
265.000000
31
0.0
0
LINE
8
0
6
CONTINUOUS
10
-362.794229
20
265.000000
30
0.0
11
-359.500339
21
264.996948
31
0.0
0
LINE
8
0
6
CONTINUOUS
10
-363.982981
20
265.000000
30
0.0
11
-362.794229
21
265.000000
31
0.0
0
LINE
8
0
6
CONTINUOUS
10
-363.923865
20
264.999993
30
0.0
11
-363.982981
21
265.000000
31
0.0
0
LINE
8
0
6
CONTINUOUS
10
-364.382683
20
265.000000
30
0.0
11
-363.923865
21
264.999993
31
0.0
0
LINE
8
0
6
CONTINUOUS
10
-373.617317
20
265.000000
30
0.0
11
-364.382683
21
265.000000
31
0.0
0
LINE
8
0
6
CONTINUOUS
10
-374.076120
20
265.000000
30
0.0
11
-373.617317
21
265.000000
31
0.0
0
LINE
8
0
6
CONTINUOUS
10
-373.617317
20
265.000000
30
0.0
11
-374.076120
21
265.000000
31
0.0
0
LINE
8
0
6
CONTINUOUS
10
-364.382683
20
265.000000
30
0.0
11
-373.617317
21
265.000000
31
0.0
0
LINE
8
0
6
CONTINUOUS
10
-364.382683
20
-265.000000
30
0.0
11
-373.617317
21
-265.000000
31
0.0
0
LINE
8
0
6
CONTINUOUS
10
-363.923880
20
-265.000000
30
0.0
11
-364.382683
21
-265.000000
31
0.0
0
LINE
8
0
6
CONTINUOUS
10
-363.991445
20
-265.000000
30
0.0
11
-363.923880
21
-265.000000
31
0.0
0
LINE
8
0
6
CONTINUOUS
10
-362.795475
20
-264.996948
30
0.0
11
-363.991445
21
-265.000000
31
0.0
0
LINE
8
0
6
CONTINUOUS
10
-359.500000
20
-265.000000
30
0.0
11
-362.795475
21
-264.996948
31
0.0
0
LINE
8
0
6
CONTINUOUS
10
-355.129239
20
-265.000000
30
0.0
11
-359.500000
21
-265.000000
31
0.0
0
LINE
8
0
6
CONTINUOUS
10
109.130526
20
-265.000000
30
0.0
11
-355.129239
21
-265.000000
31
0.0
0
LINE
8
0
6
CONTINUOUS
10
113.500339
20
-264.996948
30
0.0
11
109.130526
21
-265.000000
31
0.0
0
LINE
8
0
6
CONTINUOUS
10
116.794229
20
-265.000000
30
0.0
11
113.500339
21
-264.996948
31
0.0
0
LINE
8
0
6
CONTINUOUS
10
117.982981
20
-265.000000
30
0.0
11
116.794229
21
-265.000000
31
0.0
0
LINE
8
0
6
CONTINUOUS
10
117.923880
20
-265.000000
30
0.0
11
117.982981
21
-265.000000
31
0.0
0
LINE
8
0
6
CONTINUOUS
10
118.382681
20
-265.000000
30
0.0
11
117.923880
21
-265.000000
31
0.0
0
LINE
8
0
6
CONTINUOUS
10
127.617315
20
-265.000000
30
0.0
11
118.382681
21
-265.000000
31
0.0
0
LINE
8
0
6
CONTINUOUS
10
128.076117
20
-265.000000
30
0.0
11
127.617315
21
-265.000000
31
0.0
0
LINE
8
0
6
CONTINUOUS
10
128.008555
20
-265.000000
30
0.0
11
128.076117
21
-265.000000
31
0.0
0
LINE
8
0
6
CONTINUOUS
10
129.204525
20
-264.996948
30
0.0
11
128.008555
21
-265.000000
31
0.0
0
LINE
8
0
6
CONTINUOUS
10
132.499999
20
-265.000000
30
0.0
11
129.204525
21
-264.996948
31
0.0
0
LINE
8
0
6
CONTINUOUS
10
136.870761
20
-265.000000
30
0.0
11
132.499999
21
-265.000000
31
0.0
0
LINE
8
0
6
CONTINUOUS
10
355.130526
20
-265.000000
30
0.0
11
136.870761
21
-265.000000
31
0.0
0
LINE
8
0
6
CONTINUOUS
10
359.500339
20
-264.996948
30
0.0
11
355.130526
21
-265.000000
31
0.0
0
LINE
8
0
6
CONTINUOUS
10
362.794226
20
-265.000000
30
0.0
11
359.500339
21
-264.996948
31
0.0
0
LINE
8
0
6
CONTINUOUS
10
363.982981
20
-265.000000
30
0.0
11
362.794226
21
-265.000000
31
0.0
0
LINE
8
0
6
CONTINUOUS
10
363.923865
20
-264.999993
30
0.0
11
363.982981
21
-265.000000
31
0.0
0
LINE
8
0
6
CONTINUOUS
10
364.382683
20
-265.000000
30
0.0
11
363.923865
21
-264.999993
31
0.0
0
LINE
8
0
6
CONTINUOUS
10
373.617317
20
-265.000000
30
0.0
11
364.382683
21
-265.000000
31
0.0
0
LINE
8
0
6
CONTINUOUS
10
374.076120
20
-265.000000
30
0.0
11
373.617317
21
-265.000000
31
0.0
0
LINE
8
0
6
CONTINUOUS
10
373.617317
20
-265.000000
30
0.0
11
374.076120
21
-265.000000
31
0.0
0
LINE
8
0
6
CONTINUOUS
10
364.382683
20
-265.000000
30
0.0
11
373.617317
21
-265.000000
31
0.0
0
LINE
8
0
6
CONTINUOUS
10
363.923880
20
-265.000000
30
0.0
11
364.382683
21
-265.000000
31
0.0
0
LINE
8
0
6
CONTINUOUS
10
363.991445
20
-265.000000
30
0.0
11
363.923880
21
-265.000000
31
0.0
0
LINE
8
0
6
CONTINUOUS
10
362.795475
20
-264.996948
30
0.0
11
363.991445
21
-265.000000
31
0.0
0
LINE
8
0
6
CONTINUOUS
10
359.500000
20
-265.000000
30
0.0
11
362.795475
21
-264.996948
31
0.0
0
LINE
8
0
6
CONTINUOUS
10
355.129239
20
-265.000000
30
0.0
11
359.500000
21
-265.000000
31
0.0
0
LINE
8
0
6
CONTINUOUS
10
-355.130526
20
-265.000000
30
0.0
11
355.129239
21
-265.000000
31
0.0
0
LINE
8
0
6
CONTINUOUS
10
-359.500339
20
-264.996948
30
0.0
11
-355.130526
21
-265.000000
31
0.0
0
LINE
8
0
6
CONTINUOUS
10
-362.794229
20
-265.000000
30
0.0
11
-359.500339
21
-264.996948
31
0.0
0
LINE
8
0
6
CONTINUOUS
10
-363.982981
20
-265.000000
30
0.0
11
-362.794229
21
-265.000000
31
0.0
0
LINE
8
0
6
CONTINUOUS
10
-363.923880
20
-265.000000
30
0.0
11
-363.982981
21
-265.000000
31
0.0
0
LINE
8
0
6
CONTINUOUS
10
-364.382683
20
-265.000000
30
0.0
11
-363.923880
21
-265.000000
31
0.0
0
LINE
8
0
6
CONTINUOUS
10
-373.617317
20
-265.000000
30
0.0
11
-364.382683
21
-265.000000
31
0.0
0
LINE
8
0
6
CONTINUOUS
10
-374.076120
20
-265.000000
30
0.0
11
-373.617317
21
-265.000000
31
0.0
0
LINE
8
0
6
CONTINUOUS
10
-373.617317
20
-265.000000
30
0.0
11
-374.076120
21
-265.000000
31
0.0
0
ENDSEC
0
EOF
