  0
SECTION
  2
HEADER
  9
$ACADVER
  1
AC1012
  9
$DWGCODEPAGE
  3
ANSI_1252
  9
$INSBASE
 10
0.0
 20
0.0
 30
0.0
  9
$EXTMIN
 10
-630.0454516516197
 20
-695.0455675731679
 30
-0.00000001
  9
$EXTMAX
 10
724.6052713366871
 20
946.3774514553142
 30
0.00000001
  9
$LIMMIN
 10
0.0
 20
0.0
  9
$LIMMAX
 10
420.0
 20
297.0
  9
$ORTHOMODE
 70
     0
  9
$REGENMODE
 70
     1
  9
$FILLMODE
 70
     1
  9
$QTEXTMODE
 70
     0
  9
$MIRRTEXT
 70
     1
  9
$DRAGMODE
 70
     2
  9
$LTSCALE
 40
1.0
  9
$OSMODE
 70
   547
  9
$ATTMODE
 70
     1
  9
$TEXTSIZE
 40
2.5
  9
$TRACEWID
 40
1.0
  9
$TEXTSTYLE
  7
STANDARD
  9
$CLAYER
  8
0
  9
$CELTYPE
  6
BYLAYER
  9
$CECOLOR
 62
   256
  9
$CELTSCALE
 40
1.0
  9
$DELOBJ
 70
     1
  9
$DISPSILH
 70
     0
  9
$DIMSCALE
 40
1.0
  9
$DIMASZ
 40
2.5
  9
$DIMEXO
 40
0.625
  9
$DIMDLI
 40
3.75
  9
$DIMRND
 40
0.0
  9
$DIMDLE
 40
0.0
  9
$DIMEXE
 40
1.25
  9
$DIMTP
 40
0.0
  9
$DIMTM
 40
0.0
  9
$DIMTXT
 40
2.5
  9
$DIMCEN
 40
2.5
  9
$DIMTSZ
 40
0.0
  9
$DIMTOL
 70
     0
  9
$DIMLIM
 70
     0
  9
$DIMTIH
 70
     0
  9
$DIMTOH
 70
     0
  9
$DIMSE1
 70
     0
  9
$DIMSE2
 70
     0
  9
$DIMTAD
 70
     1
  9
$DIMZIN
 70
     8
  9
$DIMBLK
  1

  9
$DIMASO
 70
     1
  9
$DIMSHO
 70
     1
  9
$DIMPOST
  1

  9
$DIMAPOST
  1

  9
$DIMALT
 70
     0
  9
$DIMALTD
 70
     3
  9
$DIMALTF
 40
0.03937007874016
  9
$DIMLFAC
 40
1.0
  9
$DIMTOFL
 70
     1
  9
$DIMTVP
 40
0.0
  9
$DIMTIX
 70
     0
  9
$DIMSOXD
 70
     0
  9
$DIMSAH
 70
     0
  9
$DIMBLK1
  1

  9
$DIMBLK2
  1

  9
$DIMSTYLE
  2
ISO-25
  9
$DIMCLRD
 70
     0
  9
$DIMCLRE
 70
     0
  9
$DIMCLRT
 70
     0
  9
$DIMTFAC
 40
1.0
  9
$DIMGAP
 40
0.625
  9
$DIMJUST
 70
     0
  9
$DIMSD1
 70
     0
  9
$DIMSD2
 70
     0
  9
$DIMTOLJ
 70
     0
  9
$DIMTZIN
 70
     8
  9
$DIMALTZ
 70
     0
  9
$DIMALTTZ
 70
     0
  9
$DIMFIT
 70
     3
  9
$DIMUPT
 70
     0
  9
$DIMUNIT
 70
     2
  9
$DIMDEC
 70
     2
  9
$DIMTDEC
 70
     2
  9
$DIMALTU
 70
     2
  9
$DIMALTTD
 70
     3
  9
$DIMTXSTY
  7
STANDARD
  9
$DIMAUNIT
 70
     0
  9
$LUNITS
 70
     2
  9
$LUPREC
 70
     4
  9
$SKETCHINC
 40
1.0
  9
$FILLETRAD
 40
10.0
  9
$AUNITS
 70
     0
  9
$AUPREC
 70
     0
  9
$MENU
  1
.
  9
$ELEVATION
 40
0.0
  9
$PELEVATION
 40
0.0
  9
$THICKNESS
 40
0.0
  9
$LIMCHECK
 70
     0
  9
$BLIPMODE
 70
     0
  9
$CHAMFERA
 40
10.0
  9
$CHAMFERB
 40
10.0
  9
$CHAMFERC
 40
20.0
  9
$CHAMFERD
 40
0.0
  9
$SKPOLY
 70
     0
  9
$TDCREATE
 40
2456367.398034213
  9
$TDUPDATE
 40
2456367.411081446
  9
$TDINDWG
 40
0.0130514005
  9
$TDUSRTIMER
 40
0.0130474190
  9
$USRTIMER
 70
     1
  9
$ANGBASE
 50
0.0
  9
$ANGDIR
 70
     0
  9
$PDMODE
 70
     0
  9
$PDSIZE
 40
0.0
  9
$PLINEWID
 40
0.0
  9
$COORDS
 70
     1
  9
$SPLFRAME
 70
     0
  9
$SPLINETYPE
 70
     6
  9
$SPLINESEGS
 70
     8
  9
$ATTDIA
 70
     0
  9
$ATTREQ
 70
     1
  9
$HANDLING
 70
 10241
  9
$HANDSEED
  5
529
  9
$SURFTAB1
 70
     6
  9
$SURFTAB2
 70
     6
  9
$SURFTYPE
 70
     6
  9
$SURFU
 70
     6
  9
$SURFV
 70
     6
  9
$UCSNAME
  2

  9
$UCSORG
 10
0.0
 20
0.0
 30
0.0
  9
$UCSXDIR
 10
1.0
 20
0.0
 30
0.0
  9
$UCSYDIR
 10
0.0
 20
1.0
 30
0.0
  9
$PUCSNAME
  2

  9
$PUCSORG
 10
0.0
 20
0.0
 30
0.0
  9
$PUCSXDIR
 10
1.0
 20
0.0
 30
0.0
  9
$PUCSYDIR
 10
0.0
 20
1.0
 30
0.0
  9
$USERI1
 70
     0
  9
$USERI2
 70
     0
  9
$USERI3
 70
     0
  9
$USERI4
 70
     0
  9
$USERI5
 70
     0
  9
$USERR1
 40
0.0
  9
$USERR2
 40
0.0
  9
$USERR3
 40
0.0
  9
$USERR4
 40
0.0
  9
$USERR5
 40
0.0
  9
$WORLDVIEW
 70
     1
  9
$SHADEDGE
 70
     3
  9
$SHADEDIF
 70
    70
  9
$TILEMODE
 70
     1
  9
$MAXACTVP
 70
    64
  9
$PINSBASE
 10
0.0
 20
0.0
 30
0.0
  9
$PLIMCHECK
 70
     0
  9
$PEXTMIN
 10
1.000000000000000E+20
 20
1.000000000000000E+20
 30
1.000000000000000E+20
  9
$PEXTMAX
 10
-1.000000000000000E+20
 20
-1.000000000000000E+20
 30
-1.000000000000000E+20
  9
$PLIMMIN
 10
0.0
 20
0.0
  9
$PLIMMAX
 10
420.0
 20
297.0
  9
$UNITMODE
 70
     0
  9
$VISRETAIN
 70
     1
  9
$PLINEGEN
 70
     0
  9
$PSLTSCALE
 70
     1
  9
$TREEDEPTH
 70
  3020
  9
$PICKSTYLE
 70
     1
  9
$CMLSTYLE
  2
STANDARD
  9
$CMLJUST
 70
     0
  9
$CMLSCALE
 40
20.0
  9
$SAVEIMAGES
 70
     1
  0
ENDSEC
  0
SECTION
  2
CLASSES
  0
CLASS
  1
ACDBDICTIONARYWDFLT
  2
AcDbDictionaryWithDefault
  3
AutoCAD 2000
 90
    32768
280
     0
281
     0
  0
CLASS
  1
ACDBPLACEHOLDER
  2
AcDbPlaceHolder
  3
AutoCAD 2000
 90
    32768
280
     0
281
     0
  0
CLASS
  1
LAYOUT
  2
AcDbLayout
  3
AutoCAD 2000
 90
    32768
280
     0
281
     0
  0
CLASS
  1
LONG_TRANSACTION
  2
AcDbLongTransaction
  3
AutoCAD 2000
 90
    32768
280
     0
281
     0
  0
CLASS
  1
LWPOLYLINE
  2
AcDbPolyline
  3
AutoCAD 2000
 90
    32768
280
     0
281
     1
  0
CLASS
  1
HATCH
  2
AcDbHatch
  3
AutoCAD 2000
 90
    32768
280
     0
281
     1
  0
CLASS
  1
XRECORD
  2
AcDbXrecord
  3
AutoCAD 2000
 90
    32768
280
     0
281
     0
  0
ENDSEC
  0
SECTION
  2
TABLES
  0
TABLE
  2
VPORT
  5
8
330
0
100
AcDbSymbolTable
 70
    26
  0
VPORT
  5
522
330
8
100
AcDbSymbolTableRecord
100
AcDbViewportTableRecord
  2
*ACTIVE
 70
     0
 10
0.0
 20
0.0
 11
1.0
 21
1.0
 12
-76.52397775024212
 22
-231.1157705580989
 13
0.0
 23
0.0
 14
10.0
 24
10.0
 15
10.0
 25
10.0
 16
0.0
 26
0.0
 36
1.0
 17
0.0
 27
0.0
 37
0.0
 40
6529.914647946838
 41
1.589677419354838
 42
50.0
 43
0.0
 44
0.0
 50
0.0
 51
0.0
 71
     0
 72
   100
 73
     1
 74
     3
 75
     0
 76
     0
 77
     0
 78
     0
  0
ENDTAB
  0
TABLE
  2
LTYPE
  5
5
330
0
100
AcDbSymbolTable
 70
     1
  0
LTYPE
  5
14
330
5
100
AcDbSymbolTableRecord
100
AcDbLinetypeTableRecord
  2
BYBLOCK
 70
     0
  3

 72
    65
 73
     0
 40
0.0
  0
LTYPE
  5
15
330
5
100
AcDbSymbolTableRecord
100
AcDbLinetypeTableRecord
  2
BYLAYER
 70
     0
  3

 72
    65
 73
     0
 40
0.0
  0
LTYPE
  5
16
330
5
100
AcDbSymbolTableRecord
100
AcDbLinetypeTableRecord
  2
CONTINUOUS
 70
     0
  3
Solid line
 72
    65
 73
     0
 40
0.0
  0
ENDTAB
  0
TABLE
  2
LAYER
  5
2
330
0
100
AcDbSymbolTable
 70
     1
  0
LAYER
  5
10
330
2
100
AcDbSymbolTableRecord
100
AcDbLayerTableRecord
  2
0
 70
     0
 62
     7
  6
CONTINUOUS
  0
ENDTAB
  0
TABLE
  2
STYLE
  5
3
330
0
100
AcDbSymbolTable
 70
     1
  0
STYLE
  5
11
330
3
100
AcDbSymbolTableRecord
100
AcDbTextStyleTableRecord
  2
STANDARD
 70
     0
 40
0.0
 41
1.0
 50
0.0
 71
     0
 42
2.5
  3
txt
  4

  0
ENDTAB
  0
TABLE
  2
VIEW
  5
6
330
0
100
AcDbSymbolTable
 70
     0
  0
ENDTAB
  0
TABLE
  2
UCS
  5
7
330
0
100
AcDbSymbolTable
 70
     0
  0
ENDTAB
  0
TABLE
  2
APPID
  5
9
330
0
100
AcDbSymbolTable
 70
     1
  0
APPID
  5
12
330
9
100
AcDbSymbolTableRecord
100
AcDbRegAppTableRecord
  2
ACAD
 70
     0
  0
ENDTAB
  0
TABLE
  2
DIMSTYLE
  5
A
330
0
100
AcDbSymbolTable
 70
     2
  0
DIMSTYLE
105
27
330
A
100
AcDbSymbolTableRecord
100
AcDbDimStyleTableRecord
  2
ISO-25
 70
     0
  3

  4

  5

  6

  7

 40
1.0
 41
2.5
 42
0.625
 43
3.75
 44
1.25
 45
0.0
 46
0.0
 47
0.0
 48
0.0
140
2.5
141
2.5
142
0.0
143
0.03937007874016
144
1.0
145
0.0
146
1.0
147
0.625
 71
     0
 72
     0
 73
     0
 74
     0
 75
     0
 76
     0
 77
     1
 78
     8
170
     0
171
     3
172
     1
173
     0
174
     0
175
     0
176
     0
177
     0
178
     0
270
     2
271
     2
272
     2
273
     2
274
     3
340
11
275
     0
280
     0
281
     0
282
     0
283
     0
284
     8
285
     0
286
     0
287
     3
288
     0
  0
DIMSTYLE
105
2B
330
A
100
AcDbSymbolTableRecord
100
AcDbDimStyleTableRecord
  2
STANDARD
 70
     0
  3

  4

  5

  6

  7

 40
1.0
 41
0.18
 42
0.0625
 43
0.38
 44
0.18
 45
0.0
 46
0.0
 47
0.0
 48
0.0
140
0.18
141
0.09
142
0.0
143
25.4
144
1.0
145
0.0
146
1.0
147
0.09
 71
     0
 72
     0
 73
     1
 74
     1
 75
     0
 76
     0
 77
     0
 78
     0
170
     0
171
     2
172
     0
173
     0
174
     0
175
     0
176
     0
177
     0
178
     0
270
     2
271
     4
272
     4
273
     2
274
     2
340
11
275
     0
280
     0
281
     0
282
     0
283
     1
284
     0
285
     0
286
     0
287
     3
288
     0
  0
ENDTAB
  0
TABLE
  2
BLOCK_RECORD
  5
1
330
0
100
AcDbSymbolTable
 70
    27
  0
BLOCK_RECORD
  5
1F
102
{ACAD_XDICTIONARY
360
525
102
}
330
1
100
AcDbSymbolTableRecord
100
AcDbBlockTableRecord
  2
*MODEL_SPACE
  0
BLOCK_RECORD
  5
1B
102
{ACAD_XDICTIONARY
360
523
102
}
330
1
100
AcDbSymbolTableRecord
100
AcDbBlockTableRecord
  2
*PAPER_SPACE
  0
BLOCK_RECORD
  5
4DC
330
1
100
AcDbSymbolTableRecord
100
AcDbBlockTableRecord
  2
823331S
  0
ENDTAB
  0
ENDSEC
  0
SECTION
  2
BLOCKS
  0
BLOCK
  5
20
330
1F
100
AcDbEntity
  8
0
100
AcDbBlockBegin
  2
*MODEL_SPACE
 70
     0
 10
0.0
 20
0.0
 30
0.0
  3
*MODEL_SPACE
  1

  0
ENDBLK
  5
21
330
1F
100
AcDbEntity
  8
0
100
AcDbBlockEnd
  0
BLOCK
  5
1C
330
1B
100
AcDbEntity
 67
     1
  8
0
100
AcDbBlockBegin
  2
*PAPER_SPACE
 70
     0
 10
0.0
 20
0.0
 30
0.0
  3
*PAPER_SPACE
  1

  0
ENDBLK
  5
1D
330
1B
100
AcDbEntity
 67
     1
  8
0
100
AcDbBlockEnd
  0
BLOCK
  5
51F
330
4DC
100
AcDbEntity
  8
0
100
AcDbBlockBegin
  2
823331S
 70
     0
 10
0.0
 20
0.0
 30
0.0
  3
823331S
  1

  0
POLYLINE
  5
4DD
330
4DC
100
AcDbEntity
  8
0
 62
     7
100
AcDb2dPolyline
 66
     1
 10
0.0
 20
0.0
 30
0.0
  0
VERTEX
  5
4DE
330
4DD
100
AcDbEntity
  8
0
 62
     7
100
AcDbVertex
100
AcDb2dVertex
 10
92.31753469914284
 20
379.9692273355632
 30
0.0
  0
VERTEX
  5
4DF
330
4DD
100
AcDbEntity
  8
0
 62
     7
100
AcDbVertex
100
AcDb2dVertex
 10
-14.29301214920454
 20
379.9692273355632
 30
0.0
  0
SEQEND
  5
4E0
330
4DD
100
AcDbEntity
  8
0
  0
POLYLINE
  5
4E1
330
4DC
100
AcDbEntity
  8
0
 62
     7
100
AcDb2dPolyline
 66
     1
 10
0.0
 20
0.0
 30
0.0
  0
VERTEX
  5
4E2
330
4E1
100
AcDbEntity
  8
0
 62
     7
100
AcDbVertex
100
AcDb2dVertex
 10
219.9789930005608
 20
19.99257812000186
 30
0.0
  0
VERTEX
  5
4E3
330
4E1
100
AcDbEntity
  8
0
 62
     7
100
AcDbVertex
100
AcDb2dVertex
 10
219.9789930005608
 20
34.99665797736195
 30
0.0
  0
VERTEX
  5
4E4
330
4E1
100
AcDbEntity
  8
0
 62
     7
100
AcDbVertex
100
AcDb2dVertex
 10
219.9789930005608
 20
49.97868922361645
 30
0.0
  0
SEQEND
  5
4E5
330
4E1
100
AcDbEntity
  8
0
  0
POLYLINE
  5
4E6
330
4DC
100
AcDbEntity
  8
0
 62
     7
100
AcDb2dPolyline
 66
     1
 10
0.0
 20
0.0
 30
0.0
  0
VERTEX
  5
4E7
330
4E6
100
AcDbEntity
  8
0
 62
     7
100
AcDbVertex
100
AcDb2dVertex
 10
204.9859374487535
 20
34.99665797736195
 30
0.0
  0
VERTEX
  5
4E8
330
4E6
100
AcDbEntity
  8
0
 62
     7
100
AcDbVertex
100
AcDb2dVertex
 10
219.9789930005608
 20
34.99665797736195
 30
0.0
  0
VERTEX
  5
4E9
330
4E6
100
AcDbEntity
  8
0
 62
     7
100
AcDbVertex
100
AcDb2dVertex
 10
234.9720485523681
 20
34.99665797736195
 30
0.0
  0
SEQEND
  5
4EA
330
4E6
100
AcDbEntity
  8
0
  0
POLYLINE
  5
4EB
330
4DC
100
AcDbEntity
  8
0
 62
     7
100
AcDb2dPolyline
 66
     1
 10
0.0
 20
0.0
 30
0.0
  0
VERTEX
  5
4EC
330
4EB
100
AcDbEntity
  8
0
 62
     7
100
AcDbVertex
100
AcDb2dVertex
 10
69.99331595472388
 20
0.0440972222112066
 30
0.0
  0
VERTEX
  5
4ED
330
4EB
100
AcDbEntity
  8
0
 62
     7
100
AcDbVertex
100
AcDb2dVertex
 10
69.99331595472388
 20
133.9122395498552
 30
0.0
  0
SEQEND
  5
4EE
330
4EB
100
AcDbEntity
  8
0
  0
POLYLINE
  5
4EF
330
4DC
100
AcDbEntity
  8
0
 62
     7
100
AcDb2dPolyline
 66
     1
 10
0.0
 20
0.0
 30
0.0
  0
VERTEX
  5
4F0
330
4EF
100
AcDbEntity
  8
0
 62
     7
100
AcDbVertex
100
AcDb2dVertex
 10
126.9889756626972
 20
133.9122395498552
 30
0.0
  0
VERTEX
  5
4F1
330
4EF
100
AcDbEntity
  8
0
 62
     7
100
AcDbVertex
100
AcDb2dVertex
 10
-0.0165364583291989
 20
133.9122395498552
 30
0.0
  0
SEQEND
  5
4F2
330
4EF
100
AcDbEntity
  8
0
  0
POLYLINE
  5
4F3
330
4DC
100
AcDbEntity
  8
0
 62
     7
100
AcDb2dPolyline
 66
     1
 10
0.0
 20
0.0
 30
0.0
  0
VERTEX
  5
4F4
330
4F3
100
AcDbEntity
  8
0
 62
     7
100
AcDbVertex
100
AcDb2dVertex
 10
126.9889756626972
 20
236.0524304965424
 30
0.0
  0
VERTEX
  5
4F5
330
4F3
100
AcDbEntity
  8
0
 62
     7
100
AcDbVertex
100
AcDb2dVertex
 10
-0.0165364583291989
 20
236.0524304965424
 30
0.0
  0
SEQEND
  5
4F6
330
4F3
100
AcDbEntity
  8
0
  0
SPLINE
  5
4F7
330
4DC
100
AcDbEntity
  8
0
 62
     7
100
AcDbSpline
210
0.0
220
0.0
230
1.0
 70
     8
 71
     3
 72
    32
 73
    28
 74
     0
 42
0.0000000001
 43
0.0000000001
 40
0.0
 40
0.0
 40
0.0
 40
0.0
 40
1.0
 40
1.0
 40
1.0
 40
2.0
 40
2.0
 40
2.0
 40
3.0
 40
3.0
 40
3.0
 40
4.0
 40
4.0
 40
4.0
 40
5.0
 40
5.0
 40
5.0
 40
6.0
 40
6.0
 40
6.0
 40
7.0
 40
7.0
 40
7.0
 40
8.0
 40
8.0
 40
8.0
 40
9.0
 40
9.0
 40
9.0
 40
9.0
 10
165.0007812087498
 20
256.9875867413086
 30
0.0
 10
165.0007812087498
 20
256.9875867413086
 30
0.0
 10
145.0026909359715
 20
256.9875867413086
 30
0.0
 10
145.0026909359715
 20
256.9875867413086
 30
0.0
 10
145.0026909359715
 20
256.9875867413086
 30
0.0
 10
142.1473957977964
 20
249.491058965405
 30
0.0
 10
142.1473957977964
 20
249.491058965405
 30
0.0
 10
142.1473957977964
 20
249.491058965405
 30
0.0
 10
102.1457030994635
 20
249.491058965405
 30
0.0
 10
102.1457030994635
 20
249.491058965405
 30
0.0
 10
64.71818574770934
 20
250.7588541039769
 30
0.0
 10
32.90755207510644
 20
222.3271700833071
 30
0.0
 10
29.98611110361457
 20
184.9823350231988
 30
0.0
 10
29.98611110361457
 20
184.9823350231988
 30
0.0
 10
29.98611110361457
 20
132.9751735778673
 30
0.0
 10
29.98611110361457
 20
132.9751735778673
 30
0.0
 10
29.98611110361457
 20
125.8479600379824
 30
0.0
 10
32.52170138075845
 20
118.9467447619299
 30
0.0
 10
37.15742186571063
 20
113.5172742771762
 30
0.0
 10
37.15742186571063
 20
113.5172742771762
 30
0.0
 10
64.92213540043613
 20
80.95147567420658
 30
0.0
 10
64.92213540043613
 20
80.95147567420658
 30
0.0
 10
69.5523437326119
 20
75.50546873112364
 30
0.0
 10
72.104470468085
 20
68.59322914951836
 30
0.0
 10
72.08793400975579
 20
61.4494791513043
 30
0.0
 10
72.08793400975579
 20
61.4494791513043
 30
0.0
 10
71.99422741255699
 20
0.0440972222112066
 30
0.0
 10
71.99422741255699
 20
0.0440972222112066
 30
0.0
  0
SPLINE
  5
4F8
330
4DC
100
AcDbEntity
  8
0
 62
     7
100
AcDbSpline
210
0.0
220
0.0
230
1.0
 70
     8
 71
     3
 72
    32
 73
    28
 74
     0
 42
0.0000000001
 43
0.0000000001
 40
0.0
 40
0.0
 40
0.0
 40
0.0
 40
1.0
 40
1.0
 40
1.0
 40
2.0
 40
2.0
 40
2.0
 40
3.0
 40
3.0
 40
3.0
 40
4.0
 40
4.0
 40
4.0
 40
5.0
 40
5.0
 40
5.0
 40
6.0
 40
6.0
 40
6.0
 40
7.0
 40
7.0
 40
7.0
 40
8.0
 40
8.0
 40
8.0
 40
9.0
 40
9.0
 40
9.0
 40
9.0
 10
154.759201350199
 20
256.9875867413086
 30
0.0
 10
154.759201350199
 20
256.9875867413086
 30
0.0
 10
134.750086771868
 20
256.9875867413086
 30
0.0
 10
134.750086771868
 20
256.9875867413086
 30
0.0
 10
134.750086771868
 20
256.9875867413086
 30
0.0
 10
131.9113280920221
 20
249.491058965405
 30
0.0
 10
131.9113280920221
 20
249.491058965405
 30
0.0
 10
131.9113280920221
 20
249.491058965405
 30
0.0
 10
120.9972655947506
 20
249.491058965405
 30
0.0
 10
120.9972655947506
 20
249.491058965405
 30
0.0
 10
120.9972655947506
 20
249.491058965405
 30
0.0
 10
115.9977430265561
 20
249.491058965405
 30
0.0
 10
115.9977430265561
 20
249.491058965405
 30
0.0
 10
115.9977430265561
 20
249.491058965405
 30
0.0
 10
106.4727430289373
 20
230.9922742478075
 30
0.0
 10
106.4727430289373
 20
230.9922742478075
 30
0.0
 10
106.4727430289373
 20
230.9922742478075
 30
0.0
 10
106.4065971956205
 20
230.8654947339503
 30
0.0
 10
106.4065971956205
 20
230.8654947339503
 30
0.0
 10
105.7120659457941
 20
229.5150173037324
 30
0.0
 10
104.4442708072222
 20
228.5559027206388
 30
0.0
 10
102.9559895575943
 20
228.2527343179368
 30
0.0
 10
51.76462672316995
 20
217.7906683483301
 30
0.0
 10
14.99305555180728
 20
172.739843706815
 30
0.0
 10
14.99305555180728
 20
120.4791232337691
 30
0.0
 10
14.99305555180728
 20
120.4791232337691
 30
0.0
 10
14.99305555180728
 20
0.6118489581803744
 30
0.0
 10
14.99305555180728
 20
0.6118489581803744
 30
0.0
  0
POLYLINE
  5
4F9
330
4DC
100
AcDbEntity
  8
0
 62
     7
100
AcDb2dPolyline
 66
     1
 10
0.0
 20
0.0
 30
0.0
  0
VERTEX
  5
4FA
330
4F9
100
AcDbEntity
  8
0
 62
     7
100
AcDbVertex
100
AcDb2dVertex
 10
83.37682289582245
 20
184.9823350231988
 30
0.0
  0
VERTEX
  5
4FB
330
4F9
100
AcDbEntity
  8
0
 62
     7
100
AcDbVertex
100
AcDb2dVertex
 10
9.949435761401517
 20
184.9823350231988
 30
0.0
  0
SEQEND
  5
4FC
330
4F9
100
AcDbEntity
  8
0
  0
SPLINE
  5
4FD
330
4DC
100
AcDbEntity
  8
0
 62
     7
100
AcDbSpline
210
0.0
220
0.0
230
1.0
 70
     8
 71
     3
 72
    26
 73
    22
 74
     0
 42
0.0000000001
 43
0.0000000001
 40
0.0
 40
0.0
 40
0.0
 40
0.0
 40
1.0
 40
1.0
 40
1.0
 40
2.0
 40
2.0
 40
2.0
 40
3.0
 40
3.0
 40
3.0
 40
4.0
 40
4.0
 40
4.0
 40
5.0
 40
5.0
 40
5.0
 40
6.0
 40
6.0
 40
6.0
 40
7.0
 40
7.0
 40
7.0
 40
7.0
 10
178.4338975248359
 20
184.9823350231988
 30
0.0
 10
178.4338975248359
 20
184.9823350231988
 30
0.0
 10
104.9954860848622
 20
184.9823350231988
 30
0.0
 10
104.9954860848622
 20
184.9823350231988
 30
0.0
 10
93.94913192095716
 20
184.9823350231988
 30
0.0
 10
84.98637150653118
 20
176.0250867615492
 30
0.0
 10
84.98637150653118
 20
164.9842447504205
 30
0.0
 10
84.98637150653118
 20
164.9842447504205
 30
0.0
 10
84.98637150653118
 20
143.134071144772
 30
0.0
 10
84.98637150653118
 20
143.134071144772
 30
0.0
 10
84.98637150653118
 20
140.7583332981437
 30
0.0
 10
85.84626733964952
 20
138.4542534376086
 30
0.0
 10
87.38967011704147
 20
136.6517794797259
 30
0.0
 10
87.38967011704147
 20
136.6517794797259
 30
0.0
 10
105.4254340014214
 20
115.4740885127981
 30
0.0
 10
105.4254340014214
 20
115.4740885127981
 30
0.0
 10
118.2963107343148
 20
100.3818142110156
 30
0.0
 10
125.3518662881064
 20
81.18849824359177
 30
0.0
 10
125.3132812186716
 20
61.3667968596583
 30
0.0
 10
125.3132812186716
 20
61.3667968596583
 30
0.0
 10
125.2416232325784
 20
0.0440972222112066
 30
0.0
 10
125.2416232325784
 20
0.0440972222112066
 30
0.0
  0
POLYLINE
  5
4FE
330
4DC
100
AcDbEntity
  8
0
 62
     7
100
AcDb2dPolyline
 66
     1
 10
0.0
 20
0.0
 30
0.0
  0
VERTEX
  5
4FF
330
4FE
100
AcDbEntity
  8
0
 62
     7
100
AcDbVertex
100
AcDb2dVertex
 10
165.0007812087498
 20
256.9875867413086
 30
0.0
  0
VERTEX
  5
500
330
4FE
100
AcDbEntity
  8
0
 62
     7
100
AcDbVertex
100
AcDb2dVertex
 10
165.0007812087498
 20
112.9825954578654
 30
0.0
  0
SEQEND
  5
501
330
4FE
100
AcDbEntity
  8
0
  0
SPLINE
  5
502
330
4DC
100
AcDbEntity
  8
0
 62
     7
100
AcDbSpline
210
0.0
220
0.0
230
1.0
 70
     8
 71
     3
 72
    14
 73
    10
 74
     0
 42
0.0000000001
 43
0.0000000001
 40
0.0
 40
0.0
 40
0.0
 40
0.0
 40
1.0
 40
1.0
 40
1.0
 40
2.0
 40
2.0
 40
2.0
 40
3.0
 40
3.0
 40
3.0
 40
3.0
 10
177.9929253027239
 20
0.033072916658405
 30
0.0
 10
177.9929253027239
 20
0.033072916658405
 30
0.0
 10
177.9929253027239
 20
54.50416665304063
 30
0.0
 10
177.9929253027239
 20
54.50416665304063
 30
0.0
 10
177.9929253027239
 20
61.63138019292549
 30
0.0
 10
175.4573350255801
 20
68.51054685787237
 30
0.0
 10
170.8436631517335
 20
73.93450518984971
 30
0.0
 10
170.8436631517335
 20
73.93450518984971
 30
0.0
 10
131.233333300525
 20
120.4791232337691
 30
0.0
 10
131.233333300525
 20
120.4791232337691
 30
0.0
  0
POLYLINE
  5
503
330
4DC
100
AcDbEntity
  8
0
 62
     7
100
AcDb2dPolyline
 66
     1
 10
0.0
 20
0.0
 30
0.0
  0
VERTEX
  5
504
330
503
100
AcDbEntity
  8
0
 62
     7
100
AcDbVertex
100
AcDb2dVertex
 10
165.0007812087498
 20
112.9825954578654
 30
0.0
  0
VERTEX
  5
505
330
503
100
AcDbEntity
  8
0
 62
     7
100
AcDbVertex
100
AcDb2dVertex
 10
145.0026909359715
 20
112.9825954578654
 30
0.0
  0
VERTEX
  5
506
330
503
100
AcDbEntity
  8
0
 62
     7
100
AcDbVertex
100
AcDb2dVertex
 10
142.1473957977964
 20
120.4791232337691
 30
0.0
  0
VERTEX
  5
507
330
503
100
AcDbEntity
  8
0
 62
     7
100
AcDbVertex
100
AcDb2dVertex
 10
131.233333300525
 20
120.4791232337691
 30
0.0
  0
VERTEX
  5
508
330
503
100
AcDbEntity
  8
0
 62
     7
100
AcDbVertex
100
AcDb2dVertex
 10
131.9113280920221
 20
120.4791232337691
 30
0.0
  0
VERTEX
  5
509
330
503
100
AcDbEntity
  8
0
 62
     7
100
AcDbVertex
100
AcDb2dVertex
 10
124.9935763576405
 20
120.4791232337691
 30
0.0
  0
VERTEX
  5
50A
330
503
100
AcDbEntity
  8
0
 62
     7
100
AcDbVertex
100
AcDb2dVertex
 10
124.9935763576405
 20
0.0440972222112066
 30
0.0
  0
SEQEND
  5
50B
330
503
100
AcDbEntity
  8
0
  0
POLYLINE
  5
50C
330
4DC
100
AcDbEntity
  8
0
 62
     7
100
AcDb2dPolyline
 66
     1
 10
0.0
 20
0.0
 30
0.0
  0
VERTEX
  5
50D
330
50C
100
AcDbEntity
  8
0
 62
     7
100
AcDbVertex
100
AcDb2dVertex
 10
134.750086771868
 20
112.9825954578654
 30
0.0
  0
VERTEX
  5
50E
330
50C
100
AcDbEntity
  8
0
 62
     7
100
AcDbVertex
100
AcDb2dVertex
 10
131.9113280920221
 20
120.4791232337691
 30
0.0
  0
SEQEND
  5
50F
330
50C
100
AcDbEntity
  8
0
  0
POLYLINE
  5
510
330
4DC
100
AcDbEntity
  8
0
 62
     7
100
AcDb2dPolyline
 66
     1
 10
0.0
 20
0.0
 30
0.0
  0
VERTEX
  5
511
330
510
100
AcDbEntity
  8
0
 62
     7
100
AcDbVertex
100
AcDb2dVertex
 10
154.759201350199
 20
112.9825954578654
 30
0.0
  0
VERTEX
  5
512
330
510
100
AcDbEntity
  8
0
 62
     7
100
AcDbVertex
100
AcDb2dVertex
 10
134.750086771868
 20
112.9825954578654
 30
0.0
  0
SEQEND
  5
513
330
510
100
AcDbEntity
  8
0
  0
POLYLINE
  5
514
330
4DC
100
AcDbEntity
  8
0
 62
     7
100
AcDb2dPolyline
 66
     1
 10
0.0
 20
0.0
 30
0.0
  0
VERTEX
  5
515
330
514
100
AcDbEntity
  8
0
 62
     7
100
AcDbVertex
100
AcDb2dVertex
 10
154.759201350199
 20
112.9825954578654
 30
0.0
  0
VERTEX
  5
516
330
514
100
AcDbEntity
  8
0
 62
     7
100
AcDbVertex
100
AcDb2dVertex
 10
154.759201350199
 20
256.9875867413086
 30
0.0
  0
SEQEND
  5
517
330
514
100
AcDbEntity
  8
0
  0
SPLINE
  5
518
330
4DC
100
AcDbEntity
  8
0
 62
     7
100
AcDbSpline
210
0.0
220
0.0
230
1.0
 70
     8
 71
     3
 72
    23
 73
    19
 74
     0
 42
0.0000000001
 43
0.0000000001
 40
0.0
 40
0.0
 40
0.0
 40
0.0
 40
1.0
 40
1.0
 40
1.0
 40
2.0
 40
2.0
 40
2.0
 40
3.0
 40
3.0
 40
3.0
 40
4.0
 40
4.0
 40
4.0
 40
5.0
 40
5.0
 40
5.0
 40
6.0
 40
6.0
 40
6.0
 40
6.0
 10
165.0007812087498
 20
236.0524304965424
 30
0.0
 10
165.0007812087498
 20
236.0524304965424
 30
0.0
 10
126.9889756626972
 20
236.0524304965424
 30
0.0
 10
126.9889756626972
 20
236.0524304965424
 30
0.0
 10
126.9889756626972
 20
236.0524304965424
 30
0.0
 10
126.9889756626972
 20
236.0524304965424
 30
0.0
 10
126.9889756626972
 20
236.0524304965424
 30
0.0
 10
125.8865451074172
 20
236.0524304965424
 30
0.0
 10
124.9935763576405
 20
235.1594617467657
 30
0.0
 10
124.9935763576405
 20
234.0570311914857
 30
0.0
 10
124.9935763576405
 20
234.0570311914857
 30
0.0
 10
124.9935763576405
 20
135.9186631604648
 30
0.0
 10
124.9935763576405
 20
135.9186631604648
 30
0.0
 10
124.9935763576405
 20
134.8107204524084
 30
0.0
 10
125.8865451074172
 20
133.9122395498552
 30
0.0
 10
126.9889756626972
 20
133.9122395498552
 30
0.0
 10
126.9889756626972
 20
133.9122395498552
 30
0.0
 10
165.0007812087498
 20
133.9122395498552
 30
0.0
 10
165.0007812087498
 20
133.9122395498552
 30
0.0
  0
SPLINE
  5
519
330
4DC
100
AcDbEntity
  8
0
 62
     7
100
AcDbSpline
210
0.0
220
0.0
230
1.0
 70
     8
 71
     3
 72
    23
 73
    19
 74
     0
 42
0.0000000001
 43
0.0000000001
 40
0.0
 40
0.0
 40
0.0
 40
0.0
 40
1.0
 40
1.0
 40
1.0
 40
2.0
 40
2.0
 40
2.0
 40
3.0
 40
3.0
 40
3.0
 40
4.0
 40
4.0
 40
4.0
 40
5.0
 40
5.0
 40
5.0
 40
6.0
 40
6.0
 40
6.0
 40
6.0
 10
74.43611109250207
 20
408.0977429535311
 30
0.0
 10
74.43611109250207
 20
408.0977429535311
 30
0.0
 10
41.42934026742042
 20
408.0812064952019
 30
0.0
 10
41.42934026742042
 20
408.0812064952019
 30
0.0
 10
40.32690971214049
 20
408.0812064952019
 30
0.0
 10
39.43394096236373
 20
407.1882377454252
 30
0.0
 10
39.43394096236373
 20
406.0858071901452
 30
0.0
 10
39.43394096236373
 20
406.0858071901452
 30
0.0
 10
39.44496526791652
 20
406.0858071901452
 30
0.0
 10
39.44496526791652
 20
406.0858071901452
 30
0.0
 10
39.44496526791652
 20
406.0858071901452
 30
0.0
 10
39.44496526791652
 20
355.0983940084476
 30
0.0
 10
39.44496526791652
 20
355.0983940084476
 30
0.0
 10
39.44496526791652
 20
353.9849391476149
 30
0.0
 10
40.33793401769329
 20
353.0919703978381
 30
0.0
 10
41.44036457297324
 20
353.0919703978381
 30
0.0
 10
41.44036457297324
 20
353.0919703978381
 30
0.0
 10
74.44713539805488
 20
353.0919703978381
 30
0.0
 10
74.44713539805488
 20
353.0919703978381
 30
0.0
  0
POLYLINE
  5
51A
330
4DC
100
AcDbEntity
  8
0
 62
     7
100
AcDb2dPolyline
 66
     1
 10
0.0
 20
0.0
 30
0.0
  0
VERTEX
  5
51B
330
51A
100
AcDbEntity
  8
0
 62
     7
100
AcDbVertex
100
AcDb2dVertex
 10
0.0
 20
2.998611110361466
 30
0.0
  0
VERTEX
  5
51C
330
51A
100
AcDbEntity
  8
0
 62
     7
100
AcDbVertex
100
AcDb2dVertex
 10
435.9065537104678
 20
2.998611110361466
 30
0.0
  0
SEQEND
  5
51D
330
51A
100
AcDbEntity
  8
0
  0
SPLINE
  5
51E
330
4DC
100
AcDbEntity
  8
0
 62
     7
100
AcDbSpline
210
0.0
220
0.0
230
1.0
 70
    11
 71
     3
 72
    50
 73
    46
 74
     0
 42
0.0000000001
 43
0.0000000001
 40
0.0
 40
0.0
 40
0.0
 40
0.0
 40
1.0
 40
1.0
 40
1.0
 40
2.0
 40
2.0
 40
2.0
 40
3.0
 40
3.0
 40
3.0
 40
4.0
 40
4.0
 40
4.0
 40
5.0
 40
5.0
 40
5.0
 40
6.0
 40
6.0
 40
6.0
 40
7.0
 40
7.0
 40
7.0
 40
8.0
 40
8.0
 40
8.0
 40
9.0
 40
9.0
 40
9.0
 40
10.0
 40
10.0
 40
10.0
 40
11.0
 40
11.0
 40
11.0
 40
12.0
 40
12.0
 40
12.0
 40
13.0
 40
13.0
 40
13.0
 40
14.0
 40
14.0
 40
14.0
 40
15.0
 40
15.0
 40
15.0
 40
15.0
 10
3.004123263137842
 20
432.9630641278703
 30
0.0
 10
1.350477430217921
 20
432.9685762806467
 30
0.0
 10
0.0
 20
431.6236110032052
 30
0.0
 10
0.0
 20
429.9644530175089
 30
0.0
 10
0.0
 20
429.9644530175089
 30
0.0
 10
0.0
 20
2.998611110361466
 30
0.0
 10
0.0
 20
2.998611110361466
 30
0.0
 10
0.0
 20
2.998611110361466
 30
0.0
 10
0.8819444442239614
 20
2.122178818913909
 30
0.0
 10
0.8819444442239614
 20
2.122178818913909
 30
0.0
 10
0.8819444442239614
 20
2.122178818913909
 30
0.0
 10
3.004123263137842
 20
0.0000000000000071
 30
0.0
 10
3.004123263137842
 20
0.0000000000000071
 30
0.0
 10
3.004123263137842
 20
0.0000000000000071
 30
0.0
 10
431.965364475342
 20
0.0000000000000071
 30
0.0
 10
431.965364475342
 20
0.0000000000000071
 30
0.0
 10
431.965364475342
 20
0.0000000000000071
 30
0.0
 10
435.9065537104678
 20
2.849782985398668
 30
0.0
 10
435.9065537104678
 20
2.849782985398668
 30
0.0
 10
481.3983505740948
 20
140.1630207982925
 30
0.0
 10
522.3205727860865
 20
278.9480034024852
 30
0.0
 10
558.6236109714552
 20
418.9677082285913
 30
0.0
 10
558.6236109714552
 20
418.9677082285913
 30
0.0
 10
559.847308887816
 20
423.7136717690716
 30
0.0
 10
559.847308887816
 20
423.7136717690716
 30
0.0
 10
560.5363279848659
 20
426.3870658656254
 30
0.0
 10
558.9212672213808
 20
429.1155814899433
 30
0.0
 10
556.2533852776033
 20
429.8046005869933
 30
0.0
 10
555.8509981249261
 20
429.9148436425213
 30
0.0
 10
555.4265623611434
 20
429.9644530175089
 30
0.0
 10
554.9966144445842
 20
429.9644530175089
 30
0.0
 10
554.9966144445842
 20
429.9644530175089
 30
0.0
 10
388.612282888958
 20
429.9920137813909
 30
0.0
 10
388.612282888958
 20
429.9920137813909
 30
0.0
 10
388.612282888958
 20
429.9920137813909
 30
0.0
 10
261.3201388235588
 20
430.0085502397201
 30
0.0
 10
261.3201388235588
 20
430.0085502397201
 30
0.0
 10
261.3201388235588
 20
430.0085502397201
 30
0.0
 10
223.6611110551958
 20
430.0195745452729
 30
0.0
 10
223.6611110551958
 20
430.0195745452729
 30
0.0
 10
223.6611110551958
 20
430.0195745452729
 30
0.0
 10
200.4549478665529
 20
430.0526474619313
 30
0.0
 10
200.4549478665529
 20
430.0526474619313
 30
0.0
 10
200.4549478665529
 20
430.0526474619313
 30
0.0
 10
3.004123263137842
 20
432.9630641278703
 30
0.0
 10
3.004123263137842
 20
432.9630641278703
 30
0.0
  0
ENDBLK
  5
520
330
4DC
100
AcDbEntity
  8
0
100
AcDbBlockEnd
  0
ENDSEC
  0
SECTION
  2
ENTITIES
  0
INSERT
  5
521
330
1F
100
AcDbEntity
  8
0
100
AcDbBlockReference
  2
823331S
 10
0.0
 20
0.0
 30
0.0
  0
ENDSEC
  0
SECTION
  2
OBJECTS
  0
DICTIONARY
  5
C
330
0
100
AcDbDictionary
  3
ACAD_GROUP
350
D
  3
ACAD_MLINESTYLE
350
17
  3
ACAD_PLOTSETTINGS
350
19
  3
ACAD_LAYOUT
350
1A
1001
ACAD
1000
TREAT_AS_HARD
1070
     0
  0
DICTIONARY
  5
525
330
1F
100
AcDbDictionary
  3
ACAD_LAYOUTSELFREF
350
526
  0
DICTIONARY
  5
523
330
1B
100
AcDbDictionary
  3
ACAD_LAYOUTSELFREF
350
524
  0
DICTIONARY
  5
D
102
{ACAD_REACTORS
330
C
102
}
330
C
100
AcDbDictionary
1001
ACAD
1000
TREAT_AS_HARD
1070
     0
  0
DICTIONARY
  5
17
102
{ACAD_REACTORS
330
C
102
}
330
C
100
AcDbDictionary
  3
STANDARD
350
18
1001
ACAD
1000
TREAT_AS_HARD
1070
     0
  0
DICTIONARY
  5
19
102
{ACAD_REACTORS
330
C
102
}
330
C
100
AcDbDictionary
1001
ACAD
1000
TREAT_AS_HARD
1070
     0
  0
DICTIONARY
  5
1A
102
{ACAD_REACTORS
330
C
102
}
330
C
100
AcDbDictionary
1001
ACAD
1000
TREAT_AS_HARD
1070
     0
  0
XRECORD
  5
526
102
{ACAD_REACTORS
330
525
102
}
330
525
100
AcDbXrecord
340
1F
  0
XRECORD
  5
524
102
{ACAD_REACTORS
330
523
102
}
330
523
100
AcDbXrecord
340
1B
  0
MLINESTYLE
  5
18
102
{ACAD_REACTORS
330
17
102
}
330
17
100
AcDbMlineStyle
  2
STANDARD
 70
     0
  3

 62
   256
 51
90.0
 52
90.0
 71
     2
 49
0.5
 62
   256
  6
BYLAYER
 49
-0.5
 62
   256
  6
BYLAYER
  0
ENDSEC
  0
EOF
