  0
SECTION
  2
HEADER
  9
$ACADVER
  1
AC1021
  9
$ACADMAINTVER
 70
    25
  9
$DWGCODEPAGE
  3
ANSI_932
  9
$LASTSAVEDBY
  1
bliu
  9
$INSBASE
 10
0.0
 20
0.0
 30
0.0
  9
$EXTMIN
 10
59.79423721481985
 20
38.05452399999999
 30
0.0
  9
$EXTMAX
 10
238.376492
 20
119.8618087851801
 30
0.0
  9
$LIMMIN
 10
59.285787
 20
38.00147
  9
$LIMMAX
 10
238.429546
 20
120.370258
  9
$ORTHOMODE
 70
     0
  9
$REGENMODE
 70
     1
  9
$FILLMODE
 70
     1
  9
$QTEXTMODE
 70
     0
  9
$MIRRTEXT
 70
     1
  9
$LTSCALE
 40
1.0
  9
$ATTMODE
 70
     1
  9
$TEXTSIZE
 40
0.2
  9
$TRACEWID
 40
0.05
  9
$TEXTSTYLE
  7
Standard
  9
$CLAYER
  8
0
  9
$CELTYPE
  6
Continuous
  9
$CECOLOR
 62
   256
  9
$CELTSCALE
 40
1.0
  9
$DISPSILH
 70
     0
  9
$DIMSCALE
 40
1.0
  9
$DIMASZ
 40
0.18
  9
$DIMEXO
 40
0.0625
  9
$DIMDLI
 40
0.38
  9
$DIMRND
 40
0.0
  9
$DIMDLE
 40
0.0
  9
$DIMEXE
 40
0.18
  9
$DIMTP
 40
0.0
  9
$DIMTM
 40
0.0
  9
$DIMTXT
 40
0.18
  9
$DIMCEN
 40
0.09
  9
$DIMTSZ
 40
0.0
  9
$DIMTOL
 70
     0
  9
$DIMLIM
 70
     0
  9
$DIMTIH
 70
     1
  9
$DIMTOH
 70
     1
  9
$DIMSE1
 70
     0
  9
$DIMSE2
 70
     0
  9
$DIMTAD
 70
     0
  9
$DIMZIN
 70
     0
  9
$DIMBLK
  1

  9
$DIMASO
 70
     1
  9
$DIMSHO
 70
     1
  9
$DIMPOST
  1

  9
$DIMAPOST
  1

  9
$DIMALT
 70
     0
  9
$DIMALTD
 70
     2
  9
$DIMALTF
 40
25.4
  9
$DIMLFAC
 40
1.0
  9
$DIMTOFL
 70
     0
  9
$DIMTVP
 40
0.0
  9
$DIMTIX
 70
     0
  9
$DIMSOXD
 70
     0
  9
$DIMSAH
 70
     0
  9
$DIMBLK1
  1

  9
$DIMBLK2
  1

  9
$DIMSTYLE
  2
Standard
  9
$DIMCLRD
 70
     0
  9
$DIMCLRE
 70
     0
  9
$DIMCLRT
 70
     0
  9
$DIMTFAC
 40
1.0
  9
$DIMGAP
 40
0.09
  9
$DIMJUST
 70
     0
  9
$DIMSD1
 70
     0
  9
$DIMSD2
 70
     0
  9
$DIMTOLJ
 70
     1
  9
$DIMTZIN
 70
     0
  9
$DIMALTZ
 70
     0
  9
$DIMALTTZ
 70
     0
  9
$DIMUPT
 70
     0
  9
$DIMDEC
 70
     4
  9
$DIMTDEC
 70
     4
  9
$DIMALTU
 70
     2
  9
$DIMALTTD
 70
     2
  9
$DIMTXSTY
  7
Standard
  9
$DIMAUNIT
 70
     0
  9
$DIMADEC
 70
     0
  9
$DIMALTRND
 40
0.0
  9
$DIMAZIN
 70
     0
  9
$DIMDSEP
 70
     0
  9
$DIMATFIT
 70
     3
  9
$DIMFRAC
 70
     0
  9
$DIMLDRBLK
  1

  9
$DIMLUNIT
 70
     2
  9
$DIMLWD
 70
     0
  9
$DIMLWE
 70
     0
  9
$DIMTMOVE
 70
     0
  9
$DIMFXL
 40
1.0
  9
$DIMFXLON
 70
     0
  9
$DIMJOGANG
 40
0.7853981633974483
  9
$DIMTFILL
 70
     0
  9
$DIMTFILLCLR
 70
     0
  9
$DIMARCSYM
 70
     0
  9
$DIMLTYPE
  6

  9
$DIMLTEX1
  6

  9
$DIMLTEX2
  6

  9
$LUNITS
 70
     2
  9
$LUPREC
 70
     4
  9
$SKETCHINC
 40
0.1
  9
$FILLETRAD
 40
0.0
  9
$AUNITS
 70
     0
  9
$AUPREC
 70
     0
  9
$MENU
  1
.
  9
$ELEVATION
 40
0.0
  9
$PELEVATION
 40
0.0
  9
$THICKNESS
 40
0.0
  9
$LIMCHECK
 70
     0
  9
$CHAMFERA
 40
0.0
  9
$CHAMFERB
 40
0.0
  9
$CHAMFERC
 40
0.0
  9
$CHAMFERD
 40
0.0
  9
$SKPOLY
 70
     0
  9
$TDCREATE
 40
2453354.133792488
  9
$TDUCREATE
 40
2453353.717125822
  9
$TDUPDATE
 40
2447893.459039364
  9
$TDUUPDATE
 40
2447893.042372697
  9
$TDINDWG
 40
0.042881956
  9
$TDUSRTIMER
 40
0.042881956
  9
$USRTIMER
 70
     1
  9
$ANGBASE
 50
0.0
  9
$ANGDIR
 70
     0
  9
$PDMODE
 70
     0
  9
$PDSIZE
 40
0.0
  9
$PLINEWID
 40
0.0
  9
$SPLFRAME
 70
     0
  9
$SPLINETYPE
 70
     6
  9
$SPLINESEGS
 70
     8
  9
$HANDSEED
  5
1E7
  9
$SURFTAB1
 70
     6
  9
$SURFTAB2
 70
     6
  9
$SURFTYPE
 70
     6
  9
$SURFU
 70
     6
  9
$SURFV
 70
     6
  9
$UCSBASE
  2

  9
$UCSNAME
  2

  9
$UCSORG
 10
0.0
 20
0.0
 30
0.0
  9
$UCSXDIR
 10
1.0
 20
0.0
 30
0.0
  9
$UCSYDIR
 10
0.0
 20
1.0
 30
0.0
  9
$UCSORTHOREF
  2

  9
$UCSORTHOVIEW
 70
     0
  9
$UCSORGTOP
 10
0.0
 20
0.0
 30
0.0
  9
$UCSORGBOTTOM
 10
0.0
 20
0.0
 30
0.0
  9
$UCSORGLEFT
 10
0.0
 20
0.0
 30
0.0
  9
$UCSORGRIGHT
 10
0.0
 20
0.0
 30
0.0
  9
$UCSORGFRONT
 10
0.0
 20
0.0
 30
0.0
  9
$UCSORGBACK
 10
0.0
 20
0.0
 30
0.0
  9
$PUCSBASE
  2

  9
$PUCSNAME
  2

  9
$PUCSORG
 10
0.0
 20
0.0
 30
0.0
  9
$PUCSXDIR
 10
1.0
 20
0.0
 30
0.0
  9
$PUCSYDIR
 10
0.0
 20
1.0
 30
0.0
  9
$PUCSORTHOREF
  2

  9
$PUCSORTHOVIEW
 70
     0
  9
$PUCSORGTOP
 10
0.0
 20
0.0
 30
0.0
  9
$PUCSORGBOTTOM
 10
0.0
 20
0.0
 30
0.0
  9
$PUCSORGLEFT
 10
0.0
 20
0.0
 30
0.0
  9
$PUCSORGRIGHT
 10
0.0
 20
0.0
 30
0.0
  9
$PUCSORGFRONT
 10
0.0
 20
0.0
 30
0.0
  9
$PUCSORGBACK
 10
0.0
 20
0.0
 30
0.0
  9
$USERI1
 70
     0
  9
$USERI2
 70
     0
  9
$USERI3
 70
     0
  9
$USERI4
 70
     0
  9
$USERI5
 70
     0
  9
$USERR1
 40
0.0
  9
$USERR2
 40
0.0
  9
$USERR3
 40
0.0
  9
$USERR4
 40
0.0
  9
$USERR5
 40
0.0
  9
$WORLDVIEW
 70
     1
  9
$SHADEDGE
 70
     3
  9
$SHADEDIF
 70
    70
  9
$TILEMODE
 70
     1
  9
$MAXACTVP
 70
    16
  9
$PINSBASE
 10
0.0
 20
0.0
 30
0.0
  9
$PLIMCHECK
 70
     0
  9
$PEXTMIN
 10
0.0
 20
0.0
 30
0.0
  9
$PEXTMAX
 10
0.0
 20
0.0
 30
0.0
  9
$PLIMMIN
 10
0.0
 20
0.0
  9
$PLIMMAX
 10
0.0
 20
0.0
  9
$UNITMODE
 70
     0
  9
$VISRETAIN
 70
     0
  9
$PLINEGEN
 70
     1
  9
$PSLTSCALE
 70
     0
  9
$TREEDEPTH
 70
  3020
  9
$CMLSTYLE
  2
Standard
  9
$CMLJUST
 70
     0
  9
$CMLSCALE
 40
1.0
  9
$PROXYGRAPHICS
 70
     0
  9
$MEASUREMENT
 70
     1
  9
$CELWEIGHT
370
     0
  9
$ENDCAPS
280
     0
  9
$JOINSTYLE
280
     0
  9
$LWDISPLAY
290
     0
  9
$INSUNITS
 70
     0
  9
$HYPERLINKBASE
  1

  9
$STYLESHEET
  1

  9
$XEDIT
290
     0
  9
$CEPSNTYPE
380
     0
  9
$PSTYLEMODE
290
     1
  9
$FINGERPRINTGUID
  2

  9
$VERSIONGUID
  2

  9
$EXTNAMES
290
     1
  9
$PSVPSCALE
 40
0.0
  9
$OLESTARTUP
290
     0
  9
$SORTENTS
280
   127
  9
$INDEXCTL
280
     0
  9
$HIDETEXT
280
     1
  9
$XCLIPFRAME
290
     0
  9
$HALOGAP
280
     0
  9
$OBSCOLOR
 70
   257
  9
$OBSLTYPE
280
     0
  9
$INTERSECTIONDISPLAY
280
     0
  9
$INTERSECTIONCOLOR
 70
   257
  9
$DIMASSOC
280
     2
  9
$PROJECTNAME
  1

  9
$CAMERADISPLAY
290
     0
  9
$LENSLENGTH
 40
50.0
  9
$CAMERAHEIGHT
 40
0.0
  9
$STEPSPERSEC
 40
2.0
  9
$STEPSIZE
 40
6.0
  9
$3DDWFPREC
 40
2.0
  9
$PSOLWIDTH
 40
0.25
  9
$PSOLHEIGHT
 40
4.0
  9
$LOFTANG1
 40
1.570796326794897
  9
$LOFTANG2
 40
1.570796326794897
  9
$LOFTMAG1
 40
0.0
  9
$LOFTMAG2
 40
0.0
  9
$LOFTPARAM
 70
     7
  9
$LOFTNORMALS
280
     1
  9
$LATITUDE
 40
37.795
  9
$LONGITUDE
 40
-122.394
  9
$NORTHDIRECTION
 40
0.0
  9
$TIMEZONE
 70
 -8000
  9
$LIGHTGLYPHDISPLAY
280
     1
  9
$TILEMODELIGHTSYNCH
280
     1
  9
$SOLIDHIST
280
     1
  9
$SHOWHIST
280
     1
  9
$DWFFRAME
280
     2
  9
$DGNFRAME
280
     2
  9
$REALWORLDSCALE
290
     1
  9
$INTERFERECOLOR
 62
   256
  9
$CSHADOW
280
     0
  9
$SHADOWPLANELOCATION
 40
0.0
  0
ENDSEC
  0
SECTION
  2
CLASSES
  0
CLASS
  1
ACDBDICTIONARYWDFLT
  2
AcDbDictionaryWithDefault
  3
ObjectDBX Classes
 90
        0
 91
        4
280
     0
281
     0
  0
CLASS
  1
ACDBPLACEHOLDER
  2
AcDbPlaceHolder
  3
ObjectDBX Classes
 90
        0
 91
        1
280
     0
281
     0
  0
CLASS
  1
LAYOUT
  2
AcDbLayout
  3
ObjectDBX Classes
 90
        0
 91
        1
280
     0
281
     0
  0
CLASS
  1
DICTIONARYVAR
  2
AcDbDictionaryVar
  3
ObjectDBX Classes
 90
        0
 91
        4
280
     0
281
     0
  0
CLASS
  1
TABLESTYLE
  2
AcDbTableStyle
  3
ObjectDBX Classes
 90
     4095
 91
        4
280
     0
281
     0
  0
CLASS
  1
SCALE
  2
AcDbScale
  3
ObjectDBX Classes
 90
     1153
 91
        4
280
     0
281
     0
  0
CLASS
  1
WIPEOUTVARIABLES
  2
AcDbWipeoutVariables
  3
WipeOut|AutoCAD Express Tool|expresstools@autodesk.com
 90
        0
 91
        4
280
     0
281
     0
  0
ENDSEC
  0
SECTION
  2
TABLES
  0
TABLE
  2
VPORT
  5
8
330
0
100
AcDbSymbolTable
 70
     2
  0
VPORT
  5
97
330
8
100
AcDbSymbolTableRecord
100
AcDbViewportTableRecord
  2
*ACTIVE
 70
     0
 10
0.0
 20
0.0
 11
1.0
 21
1.0
 12
148.8576665
 22
79.18586400000001
 13
0.0
 23
0.0
 14
1.0
 24
1.0
 15
0.0
 25
0.0
 16
0.0
 26
0.0
 36
1.0
 17
0.0
 27
0.0
 37
0.0
 40
89.04052089279661
 41
0.688564
 42
50.0
 43
0.0
 44
0.0
 50
0.0
 51
0.0
 71
    16
 72
   100
 73
     1
 74
     1
 75
     0
 76
     0
 77
     0
 78
     0
281
     0
 65
     0
110
0.0
120
0.0
130
0.0
111
1.0
121
0.0
131
0.0
112
0.0
122
1.0
132
0.0
 79
     0
146
0.0
 60
     3
 61
     5
292
     1
282
     1
141
0.0
142
0.0
 63
   256
  0
ENDTAB
  0
TABLE
  2
LTYPE
  5
5
330
0
100
AcDbSymbolTable
 70
     2
  0
LTYPE
  5
14
330
5
100
AcDbSymbolTableRecord
100
AcDbLinetypeTableRecord
  2
ByBlock
 70
     0
  3

 72
    65
 73
     0
 40
0.0
  0
LTYPE
  5
15
330
5
100
AcDbSymbolTableRecord
100
AcDbLinetypeTableRecord
  2
ByLayer
 70
     0
  3

 72
    65
 73
     0
 40
0.0
  0
LTYPE
  5
16
330
5
100
AcDbSymbolTableRecord
100
AcDbLinetypeTableRecord
  2
Continuous
 70
     0
  3
Solid line
 72
    65
 73
     0
 40
0.0
  0
LTYPE
  5
1C7
330
5
100
AcDbSymbolTableRecord
100
AcDbLinetypeTableRecord
  2
AI9-LType1
 70
     0
  3
Illustrator Dash Style No.1
 72
    65
 73
     4
 40
19.05
 49
15.24
 74
     4
 75
     0
340
0
 46
1.0
 50
0.0
 44
0.0
 45
0.0
 49
-1.27
 74
     4
 75
     0
340
0
 46
1.0
 50
0.0
 44
0.0
 45
0.0
 49
1.27
 74
     4
 75
     0
340
0
 46
1.0
 50
0.0
 44
0.0
 45
0.0
 49
-1.27
 74
     4
 75
     0
340
0
 46
1.0
 50
0.0
 44
0.0
 45
0.0
  0
ENDTAB
  0
TABLE
  2
LAYER
  5
2
330
0
100
AcDbSymbolTable
 70
     2
  0
LAYER
  5
10
330
2
100
AcDbSymbolTableRecord
100
AcDbLayerTableRecord
  2
0
 70
     0
 62
     7
  6
Continuous
370
    -3
390
F
347
0
  0
LAYER
  5
28
330
2
100
AcDbSymbolTableRecord
100
AcDbLayerTableRecord
  2
LAYER_1
 70
     0
 62
   160
  6
Continuous
370
    -3
390
F
347
0
  0
ENDTAB
  0
TABLE
  2
STYLE
  5
3
330
0
100
AcDbSymbolTable
 70
     5
  0
STYLE
  5
11
330
3
100
AcDbSymbolTableRecord
100
AcDbTextStyleTableRecord
  2
Standard
 70
     0
 40
0.0
 41
1.0
 50
0.0
 71
     0
 42
0.2
  3
txt
  4

  0
STYLE
  5
24
330
3
100
AcDbSymbolTableRecord
100
AcDbTextStyleTableRecord
  2
STD
 70
     0
 40
0.0
 41
1.0
 50
0.0
 71
     0
 42
0.2
  3
txt
  4

  0
STYLE
  5
25
330
3
100
AcDbSymbolTableRecord
100
AcDbTextStyleTableRecord
  2
TATESTD
 70
     4
 40
0.0
 41
1.0
 50
0.0
 71
     0
 42
0.2
  3
txt
  4

  0
STYLE
  5
26
330
3
100
AcDbSymbolTableRecord
100
AcDbTextStyleTableRecord
  2
KANJISTD
 70
     0
 40
0.0
 41
1.0
 50
0.0
 71
     0
 42
0.2
  3
txt
  4
extfont
  0
STYLE
  5
1C6
330
3
100
AcDbSymbolTableRecord
100
AcDbTextStyleTableRecord
  2
KANJITATE
 70
     4
 40
0.0
 41
1.0
 50
0.0
 71
     0
 42
0.2
  3
txt
  4
extfont
  0
ENDTAB
  0
TABLE
  2
VIEW
  5
6
330
0
100
AcDbSymbolTable
 70
     0
  0
ENDTAB
  0
TABLE
  2
UCS
  5
7
330
0
100
AcDbSymbolTable
 70
     0
  0
ENDTAB
  0
TABLE
  2
APPID
  5
9
330
0
100
AcDbSymbolTable
 70
     1
  0
APPID
  5
12
330
9
100
AcDbSymbolTableRecord
100
AcDbRegAppTableRecord
  2
ACAD
 70
     0
  0
ENDTAB
  0
TABLE
  2
DIMSTYLE
  5
A
330
0
100
AcDbSymbolTable
 70
     1
100
AcDbDimStyleTable
  0
DIMSTYLE
105
27
330
A
100
AcDbSymbolTableRecord
100
AcDbDimStyleTableRecord
  2
Standard
 70
     0
340
11
  0
ENDTAB
  0
TABLE
  2
BLOCK_RECORD
  5
1
330
0
100
AcDbSymbolTable
 70
     6
  0
BLOCK_RECORD
  5
1F
102
{ACAD_XDICTIONARY
360
1E4
102
}
330
1
100
AcDbSymbolTableRecord
100
AcDbBlockTableRecord
  2
*Model_Space
340
22
 70
     0
280
     1
281
     0
  0
BLOCK_RECORD
  5
73
330
1
100
AcDbSymbolTableRecord
100
AcDbBlockTableRecord
  2
*Paper_Space
340
74
 70
     0
280
     1
281
     0
  0
BLOCK_RECORD
  5
29
330
1
100
AcDbSymbolTableRecord
100
AcDbBlockTableRecord
  2
AI9-BLK1
340
0
102
{BLKREFS
331
2A
102
}
 70
     0
280
     1
281
     0
  0
BLOCK_RECORD
  5
43
330
1
100
AcDbSymbolTableRecord
100
AcDbBlockTableRecord
  2
AI9-BLK2
340
0
102
{BLKREFS
331
44
102
}
 70
     0
280
     1
281
     0
  0
BLOCK_RECORD
  5
4B
330
1
100
AcDbSymbolTableRecord
100
AcDbBlockTableRecord
  2
AI9-BLK3
340
0
102
{BLKREFS
331
4C
102
}
 70
     0
280
     1
281
     0
  0
BLOCK_RECORD
  5
50
330
1
100
AcDbSymbolTableRecord
100
AcDbBlockTableRecord
  2
AI9-BLK4
340
0
102
{BLKREFS
331
51
102
}
 70
     0
280
     1
281
     0
  0
BLOCK_RECORD
  5
156
330
1
100
AcDbSymbolTableRecord
100
AcDbBlockTableRecord
  2
AI9-BLK5
340
0
102
{BLKREFS
331
157
102
}
 70
     0
280
     1
281
     0
  0
BLOCK_RECORD
  5
198
330
1
100
AcDbSymbolTableRecord
100
AcDbBlockTableRecord
  2
AI9-BLK6
340
0
102
{BLKREFS
331
199
102
}
 70
     0
280
     1
281
     0
  0
ENDTAB
  0
ENDSEC
  0
SECTION
  2
BLOCKS
  0
BLOCK
  5
20
330
1F
100
AcDbEntity
  8
0
100
AcDbBlockBegin
  2
*Model_Space
 70
     0
 10
0.0
 20
0.0
 30
0.0
  3
*Model_Space
  1

  0
ENDBLK
  5
21
330
1F
100
AcDbEntity
  8
0
100
AcDbBlockEnd
  0
BLOCK
  5
75
330
73
100
AcDbEntity
 67
     1
  8
0
100
AcDbBlockBegin
  2
*Paper_Space
 70
     0
 10
0.0
 20
0.0
 30
0.0
  3
*Paper_Space
  1

  0
ENDBLK
  5
76
330
73
100
AcDbEntity
 67
     1
  8
0
100
AcDbBlockEnd
  0
BLOCK
  5
1C9
330
29
100
AcDbEntity
  8
LAYER_1
100
AcDbBlockBegin
  2
AI9-BLK1
 70
     0
 10
0.0
 20
0.0
 30
0.0
  3
AI9-BLK1
  1

  0
INSERT
  5
199
330
29
100
AcDbEntity
  8
LAYER_1
 62
     7
100
AcDbBlockReference
  2
AI9-BLK6
 10
-86.90417
 20
11.514715
 30
0.0
  0
MTEXT
  5
197
330
29
100
AcDbEntity
  8
LAYER_1
 62
     7
100
AcDbMText
 10
-53.638156
 20
40.591949
 30
0.0
 40
3.339442
 41
0.0
 46
0.0
 71
     1
 72
     2
  1
\fCentury Gothic|b0|i0;\H3.3394;\W1.02;\C7;80
  7
STD
 73
     1
 44
1.0
  0
LINE
  5
196
330
29
100
AcDbEntity
  8
LAYER_1
 62
     7
100
AcDbLine
 10
-16.967698
 20
25.280111
 30
0.0
 11
-21.41256
 21
27.044
 31
0.0
  0
LWPOLYLINE
  5
15C
330
29
100
AcDbEntity
  8
LAYER_1
 62
     7
100
AcDbPolyline
 90
       56
 70
     0
 43
0.0
 10
-19.190474
 20
27.714415
 10
-19.366863
 20
27.714415
 10
-19.543252
 20
27.679275
 10
-19.684156
 20
27.608651
 10
-19.860545
 20
27.573166
 10
-20.001449
 20
27.467402
 10
-20.177838
 20
27.361637
 10
-20.283947
 20
27.255873
 10
-20.425196
 20
27.114624
 10
-20.495476
 20
26.97372
 10
-20.601585
 20
26.797331
 10
-20.671865
 20
26.656082
 10
-20.707005
 20
26.479693
 10
-20.742489
 20
26.303304
 10
-20.742489
 20
26.126915
 10
-20.707005
 20
25.950526
 10
-20.671865
 20
25.774137
 10
-20.636725
 20
25.597748
 10
-20.5661
 20
25.42136
 10
-20.460336
 20
25.280111
 10
-20.354227
 20
25.139206
 10
-20.213323
 20
24.997957
 10
-20.107558
 20
24.892193
 10
-19.931169
 20
24.821568
 10
-19.78992
 20
24.715804
 10
-19.613531
 20
24.680664
 10
-19.437143
 20
24.64518
 10
-19.260754
 20
24.61004
 10
-19.084365
 20
24.61004
 10
-18.907976
 20
24.64518
 10
-18.731587
 20
24.680664
 10
-18.555198
 20
24.715804
 10
-18.413949
 20
24.821568
 10
-18.273045
 20
24.892193
 10
-18.13214
 20
24.997957
 10
-17.990892
 20
25.139206
 10
-17.884783
 20
25.280111
 10
-17.814503
 20
25.42136
 10
-17.743878
 20
25.597748
 10
-17.673254
 20
25.774137
 10
-17.638114
 20
25.950526
 10
-17.638114
 20
26.126915
 10
-17.638114
 20
26.303304
 10
-17.638114
 20
26.479693
 10
-17.708394
 20
26.656082
 10
-17.743878
 20
26.797331
 10
-17.849643
 20
26.97372
 10
-17.955752
 20
27.114624
 10
-18.061171
 20
27.255873
 10
-18.20242
 20
27.361637
 10
-18.343669
 20
27.467402
 10
-18.484918
 20
27.573166
 10
-18.661307
 20
27.608651
 10
-18.837696
 20
27.679275
 10
-19.014085
 20
27.714415
 10
-19.190474
 20
27.714415
  0
INSERT
  5
157
330
29
100
AcDbEntity
  8
LAYER_1
 62
     7
100
AcDbBlockReference
  2
AI9-BLK5
 10
-18.61833
 20
31.30119
 30
0.0
  0
LWPOLYLINE
  5
150
330
29
100
AcDbEntity
  8
LAYER_1
 62
   184
100
AcDbPolyline
 90
        4
 70
     0
 43
0.0
 10
-71.260336
 20
22.881291
 10
-71.119087
 20
22.2815
 10
-71.401585
 20
22.2815
 10
-71.260336
 20
22.881291
  0
LINE
  5
14F
330
29
100
AcDbEntity
  8
LAYER_1
 62
   253
100
AcDbLine
 10
-70.766309
 20
11.204484
 30
0.0
 11
-71.789503
 21
11.204484
 31
0.0
  0
LINE
  5
14E
330
29
100
AcDbEntity
  8
LAYER_1
 62
   253
100
AcDbLine
 10
-71.260336
 20
10.710457
 30
0.0
 11
-71.260336
 21
11.698166
 31
0.0
  0
LINE
  5
14D
330
29
100
AcDbEntity
  8
LAYER_1
 62
   253
100
AcDbLine
 10
-71.613114
 20
10.851706
 30
0.0
 11
-70.907558
 21
11.557262
 31
0.0
  0
LINE
  5
14C
330
29
100
AcDbEntity
  8
LAYER_1
 62
   253
100
AcDbLine
 10
-71.613114
 20
11.557262
 30
0.0
 11
-70.907558
 21
10.851706
 31
0.0
  0
LINE
  5
14B
330
29
100
AcDbEntity
  8
LAYER_1
 62
   184
100
AcDbLine
 10
-71.260336
 20
11.204484
 30
0.0
 11
-71.260336
 21
22.881291
 31
0.0
  0
LINE
  5
14A
330
29
100
AcDbEntity
  8
LAYER_1
 62
     7
100
AcDbLine
 10
-33.548254
 20
36.639624
 30
0.0
 11
-29.985336
 21
36.251706
 31
0.0
  0
LINE
  5
149
330
29
100
AcDbEntity
  8
LAYER_1
 62
     7
100
AcDbLine
 10
-33.548254
 20
35.863444
 30
0.0
 11
-33.548254
 21
36.639624
 31
0.0
  0
LINE
  5
148
330
29
100
AcDbEntity
  8
LAYER_1
 62
     7
100
AcDbLine
 10
-29.985336
 20
36.251706
 30
0.0
 11
-33.548254
 21
35.863444
 31
0.0
  0
LINE
  5
147
330
29
100
AcDbEntity
  8
LAYER_1
 62
     7
100
AcDbLine
 10
-67.732558
 20
35.863444
 30
0.0
 11
-71.260336
 21
36.251706
 31
0.0
  0
LINE
  5
146
330
29
100
AcDbEntity
  8
LAYER_1
 62
     7
100
AcDbLine
 10
-67.732558
 20
36.639624
 30
0.0
 11
-67.732558
 21
35.863444
 31
0.0
  0
LINE
  5
145
330
29
100
AcDbEntity
  8
LAYER_1
 62
     7
100
AcDbLine
 10
-71.260336
 20
36.251706
 30
0.0
 11
-67.732558
 21
36.639624
 31
0.0
  0
LINE
  5
144
330
29
100
AcDbEntity
  8
LAYER_1
 62
     7
100
AcDbLine
 10
-71.260336
 20
36.251706
 30
0.0
 11
-29.985336
 21
36.251706
 31
0.0
  0
LINE
  5
143
330
29
100
AcDbEntity
  8
LAYER_1
 62
     7
100
AcDbLine
 10
-29.985336
 20
18.118791
 30
0.0
 11
-29.985336
 21
37.274555
 31
0.0
  0
LINE
  5
142
330
29
100
AcDbEntity
  8
LAYER_1
 62
     7
100
AcDbLine
 10
-71.260336
 20
25.632888
 30
0.0
 11
-71.260336
 21
37.274555
 31
0.0
  0
LINE
  5
141
330
29
100
AcDbEntity
  8
LAYER_1
 62
     7
100
AcDbLine
 10
-16.015474
 20
8.875944
 30
0.0
 11
-16.403392
 21
5.313026
 31
0.0
  0
LINE
  5
140
330
29
100
AcDbEntity
  8
LAYER_1
 62
     7
100
AcDbLine
 10
-16.791309
 20
8.875944
 30
0.0
 11
-16.015474
 21
8.875944
 31
0.0
  0
LINE
  5
13F
330
29
100
AcDbEntity
  8
LAYER_1
 62
     7
100
AcDbLine
 10
-16.403392
 20
5.313026
 30
0.0
 11
-16.791309
 21
8.875944
 31
0.0
  0
LINE
  5
13E
330
29
100
AcDbEntity
  8
LAYER_1
 62
     7
100
AcDbLine
 10
-16.791309
 20
13.53268
 30
0.0
 11
-16.403392
 21
17.095942
 31
0.0
  0
LINE
  5
13D
330
29
100
AcDbEntity
  8
LAYER_1
 62
     7
100
AcDbLine
 10
-16.015474
 20
13.53268
 30
0.0
 11
-16.791309
 21
13.53268
 31
0.0
  0
LINE
  5
13C
330
29
100
AcDbEntity
  8
LAYER_1
 62
     7
100
AcDbLine
 10
-16.403392
 20
17.095942
 30
0.0
 11
-16.015474
 21
13.53268
 31
0.0
  0
LINE
  5
13B
330
29
100
AcDbEntity
  8
LAYER_1
 62
     7
100
AcDbLine
 10
-16.403392
 20
17.095942
 30
0.0
 11
-16.403392
 21
5.313026
 31
0.0
  0
LINE
  5
13A
330
29
100
AcDbEntity
  8
LAYER_1
 62
     7
100
AcDbLine
 10
-16.403392
 20
17.095942
 30
0.0
 11
-16.403392
 21
35.369762
 31
0.0
  0
LINE
  5
139
330
29
100
AcDbEntity
  8
LAYER_1
 62
     7
100
AcDbLine
 10
-28.997283
 20
5.313026
 30
0.0
 11
-15.415338
 21
5.313026
 31
0.0
  0
LINE
  5
138
330
29
100
AcDbEntity
  8
LAYER_1
 62
     7
100
AcDbLine
 10
-28.997283
 20
17.095942
 30
0.0
 11
-15.415338
 21
17.095942
 31
0.0
  0
LINE
  5
137
330
29
100
AcDbEntity
  8
LAYER_1
 62
     7
100
AcDbLine
 10
-84.313114
 20
1.326706
 30
0.0
 11
-84.701031
 21
-2.236556
 31
0.0
  0
LINE
  5
136
330
29
100
AcDbEntity
  8
LAYER_1
 62
     7
100
AcDbLine
 10
-85.053809
 20
1.326706
 30
0.0
 11
-84.313114
 21
1.326706
 31
0.0
  0
LINE
  5
135
330
29
100
AcDbEntity
  8
LAYER_1
 62
     7
100
AcDbLine
 10
-84.701031
 20
-2.236556
 30
0.0
 11
-85.053809
 21
1.326706
 31
0.0
  0
LINE
  5
134
330
29
100
AcDbEntity
  8
LAYER_1
 62
     7
100
AcDbLine
 10
-85.053809
 20
21.082262
 30
0.0
 11
-84.701031
 21
24.64518
 31
0.0
  0
LINE
  5
133
330
29
100
AcDbEntity
  8
LAYER_1
 62
     7
100
AcDbLine
 10
-84.313114
 20
21.082262
 30
0.0
 11
-85.053809
 21
21.082262
 31
0.0
  0
LINE
  5
132
330
29
100
AcDbEntity
  8
LAYER_1
 62
     7
100
AcDbLine
 10
-84.701031
 20
24.64518
 30
0.0
 11
-84.313114
 21
21.082262
 31
0.0
  0
LINE
  5
131
330
29
100
AcDbEntity
  8
LAYER_1
 62
     7
100
AcDbLine
 10
-84.701031
 20
24.64518
 30
0.0
 11
-84.701031
 21
-2.236556
 31
0.0
  0
LINE
  5
130
330
29
100
AcDbEntity
  8
LAYER_1
 62
     7
100
AcDbLine
 10
-72.283529
 20
-2.236556
 30
0.0
 11
-85.689085
 21
-2.236556
 31
0.0
  0
LINE
  5
12F
330
29
100
AcDbEntity
  8
LAYER_1
 62
     7
100
AcDbLine
 10
-72.283529
 20
24.64518
 30
0.0
 11
-85.689085
 21
24.64518
 31
0.0
  0
HATCH
  5
12E
330
29
100
AcDbEntity
  8
LAYER_1
 62
   184
100
AcDbHatch
 10
0.0
 20
0.0
 30
0.0
210
0.0
220
0.0
230
1.0
  2
SOLID
 70
     1
 71
     0
 91
        1
 92
        1
 93
        1
 72
     4
 94
        3
 73
     0
 74
     0
 95
       11
 96
        7
 40
0.0
 40
0.0
 40
0.0
 40
0.0
 40
1.0
 40
1.0
 40
1.0
 40
2.0
 40
2.0
 40
2.0
 40
2.0
 10
-71.26033596462673
 20
22.88129069010417
 10
-71.26033596462673
 20
22.88129069010417
 10
-71.11908704969618
 20
22.28149956597222
 10
-71.11908704969618
 20
22.28149956597222
 10
-71.11908704969618
 20
22.28149956597222
 10
-71.40158487955729
 20
22.28149956597222
 10
-71.40158487955729
 20
22.28149956597222
 97
        0
 75
     2
 76
     1
 98
        1
 10
0.0
 20
0.0
  0
LWPOLYLINE
  5
120
330
29
100
AcDbEntity
  8
LAYER_1
 62
     7
100
AcDbPolyline
 90
       12
 70
     0
 43
0.0
 10
-29.985336
 20
5.313026
 10
-29.985336
 20
5.348166
 10
-29.985336
 20
5.489415
 10
-29.985336
 20
5.771568
 10
-29.985336
 20
6.159831
 10
-29.985336
 20
6.653513
 10
-29.985336
 20
7.253304
 10
-29.985336
 20
7.95886
 10
-29.985336
 20
8.699555
 10
-29.985336
 20
9.51122
 10
-29.985336
 20
10.35768
 10
-29.985336
 20
11.204484
  0
LWPOLYLINE
  5
112
330
29
100
AcDbEntity
  8
LAYER_1
 62
     7
100
AcDbPolyline
 90
       12
 70
     0
 43
0.0
 10
-29.985336
 20
11.204484
 10
-29.985336
 20
12.050944
 10
-29.985336
 20
12.897748
 10
-29.985336
 20
13.709068
 10
-29.985336
 20
14.450109
 10
-29.985336
 20
15.155664
 10
-29.985336
 20
15.755111
 10
-29.985336
 20
16.249137
 10
-29.985336
 20
16.637055
 10
-29.985336
 20
16.919553
 10
-29.985336
 20
17.060457
 10
-29.985336
 20
17.095942
  0
LWPOLYLINE
  5
102
330
29
100
AcDbEntity
  8
LAYER_1
 62
     7
100
AcDbPolyline
 90
       14
 70
     0
 43
0.0
 10
-54.256378
 20
2.949346
 10
-54.256378
 20
2.984831
 10
-54.256378
 20
3.16122
 10
-54.256378
 20
3.407888
 10
-54.256378
 20
3.831291
 10
-54.256378
 20
4.325317
 10
-54.256378
 20
4.925109
 10
-54.256378
 20
5.630664
 10
-54.256378
 20
6.441984
 10
-54.256378
 20
7.288444
 10
-54.256378
 20
8.205873
 10
-54.256378
 20
9.193582
 10
-54.256378
 20
10.181291
 10
-54.256378
 20
11.204484
  0
LWPOLYLINE
  5
F2
330
29
100
AcDbEntity
  8
LAYER_1
 62
     7
100
AcDbPolyline
 90
       14
 70
     0
 43
0.0
 10
-54.256378
 20
11.204484
 10
-54.256378
 20
12.227333
 10
-54.256378
 20
13.215386
 10
-54.256378
 20
14.167611
 10
-54.256378
 20
15.12018
 10
-54.256378
 20
15.966984
 10
-54.256378
 20
16.778304
 10
-54.256378
 20
17.48386
 10
-54.256378
 20
18.083651
 10
-54.256378
 20
18.577333
 10
-54.256378
 20
19.000735
 10
-54.256378
 20
19.247748
 10
-54.256378
 20
19.424137
 10
-54.256378
 20
19.459277
  0
LWPOLYLINE
  5
DE
330
29
100
AcDbEntity
  8
LAYER_1
 62
     7
100
AcDbPolyline
 90
       18
 70
     0
 43
0.0
 10
-71.260336
 20
-2.236556
 10
-71.260336
 20
-2.201072
 10
-71.260336
 20
-2.095307
 10
-71.260336
 20
-1.848294
 10
-71.260336
 20
-1.495516
 10
-71.260336
 20
-1.001834
 10
-71.260336
 20
-0.437183
 10
-71.260336
 20
0.268373
 10
-71.260336
 20
1.044553
 10
-71.260336
 20
1.926497
 10
-71.260336
 20
2.914206
 10
-71.260336
 20
3.937055
 10
-71.260336
 20
5.066013
 10
-71.260336
 20
6.230111
 10
-71.260336
 20
7.429693
 10
-71.260336
 20
8.664415
 10
-71.260336
 20
9.934277
 10
-71.260336
 20
11.204484
  0
LWPOLYLINE
  5
CA
330
29
100
AcDbEntity
  8
LAYER_1
 62
     7
100
AcDbPolyline
 90
       18
 70
     0
 43
0.0
 10
-71.260336
 20
11.204484
 10
-71.260336
 20
12.474346
 10
-71.260336
 20
13.744553
 10
-71.260336
 20
14.979275
 10
-71.260336
 20
16.178513
 10
-71.260336
 20
17.342611
 10
-71.260336
 20
18.471568
 10
-71.260336
 20
19.494762
 10
-71.260336
 20
20.482471
 10
-71.260336
 20
21.364415
 10
-71.260336
 20
22.140595
 10
-71.260336
 20
22.846151
 10
-71.260336
 20
23.410457
 10
-71.260336
 20
23.904484
 10
-71.260336
 20
24.257262
 10
-71.260336
 20
24.504275
 10
-71.260336
 20
24.61004
 10
-71.260336
 20
24.64518
  0
LWPOLYLINE
  5
1D5
330
29
100
AcDbEntity
  8
LAYER_1
 62
     7
100
AcDbPolyline
 90
       18
 70
     0
 43
0.0
 10
-67.767698
 20
-1.813154
 10
-67.767698
 20
-1.777669
 10
-67.767698
 20
-1.707389
 10
-67.767698
 20
-1.495516
 10
-67.767698
 20
-1.142738
 10
-67.767698
 20
-0.719336
 10
-67.767698
 20
-0.155029
 10
-67.767698
 20
0.515386
 10
-67.767698
 20
1.256082
 10
-67.767698
 20
2.138026
 10
-67.767698
 20
3.055111
 10
-67.767698
 20
4.078304
 10
-67.767698
 20
5.171777
 10
-67.767698
 20
6.300735
 10
-67.767698
 20
7.500317
 10
-67.767698
 20
8.699555
 10
-67.767698
 20
9.934277
 10
-67.767698
 20
11.204484
  0
LWPOLYLINE
  5
1D6
330
29
100
AcDbEntity
  8
LAYER_1
 62
     7
100
AcDbPolyline
 90
       17
 70
     0
 43
0.0
 10
-67.767698
 20
11.204484
 10
-67.767698
 20
12.474346
 10
-67.767698
 20
13.709068
 10
-67.767698
 20
14.908651
 10
-67.767698
 20
16.107888
 10
-67.767698
 20
17.236846
 10
-67.767698
 20
18.330664
 10
-67.767698
 20
19.353513
 10
-67.767698
 20
20.270942
 10
-67.767698
 20
21.152886
 10
-67.767698
 20
21.893582
 10
-67.767698
 20
22.563997
 10
-67.767698
 20
23.128304
 10
-67.767698
 20
23.551706
 10
-67.767698
 20
23.904484
 10
-67.767698
 20
24.116013
 10
-67.767698
 20
24.186637
  0
LINE
  5
1D7
330
29
100
AcDbEntity
  8
LAYER_1
 62
     7
100
AcDbLine
 10
-29.985336
 20
17.095942
 30
0.0
 11
-54.256378
 21
17.095942
 31
0.0
  0
LINE
  5
1D8
330
29
100
AcDbEntity
  8
LAYER_1
 62
     7
100
AcDbLine
 10
-34.781942
 20
5.313026
 30
0.0
 11
-29.985336
 21
5.313026
 31
0.0
  0
LINE
  5
1D9
330
29
100
AcDbEntity
  8
LAYER_1
 62
     7
100
AcDbLine
 10
-54.256378
 20
5.313026
 30
0.0
 11
-38.190175
 21
5.313026
 31
0.0
  0
LINE
  5
1DA
330
29
100
AcDbEntity
  8
LAYER_1
 62
     7
100
AcDbLine
 10
-54.256378
 20
19.459277
 30
0.0
 11
-67.767698
 21
19.459277
 31
0.0
  0
LINE
  5
1DB
330
29
100
AcDbEntity
  8
LAYER_1
 62
     7
100
AcDbLine
 10
-67.767698
 20
2.949346
 30
0.0
 11
-54.256378
 21
2.949346
 31
0.0
  0
LINE
  5
1DC
330
29
100
AcDbEntity
  8
LAYER_1
 62
     7
100
AcDbLine
 10
-67.767698
 20
24.186637
 30
0.0
 11
-71.260336
 21
24.64518
 31
0.0
  0
LINE
  5
1DD
330
29
100
AcDbEntity
  8
LAYER_1
 62
     7
100
AcDbLine
 10
-71.260336
 20
-2.236556
 30
0.0
 11
-67.767698
 21
-1.813154
 31
0.0
  0
INSERT
  5
4C
330
29
100
AcDbEntity
  8
LAYER_1
 62
     7
100
AcDbBlockReference
  2
AI9-BLK3
 10
31.143922
 20
11.175373
 30
0.0
  0
INSERT
  5
44
330
29
100
AcDbEntity
  8
LAYER_1
 62
     7
100
AcDbBlockReference
  2
AI9-BLK2
 10
30.242512
 20
-7.431932
 30
0.0
  0
LINE
  5
42
330
29
100
AcDbEntity
  8
LAYER_1
 62
     7
100
AcDbLine
 10
43.411045
 20
12.583556
 30
0.0
 11
43.411045
 21
9.616984
 31
0.0
  0
LINE
  5
41
330
29
100
AcDbEntity
  8
LAYER_1
 62
     7
100
AcDbLine
 10
68.177837
 20
-14.873855
 30
0.0
 11
71.212966
 21
-14.873855
 31
0.0
  0
SPLINE
  5
40
330
29
100
AcDbEntity
  8
LAYER_1
 62
     7
100
AcDbSpline
210
0.0
220
0.0
230
1.0
 70
    11
 71
     3
 72
    29
 73
    25
 74
     0
 42
0.00000001
 43
0.00000001
 40
0.0
 40
0.0
 40
0.0
 40
0.0
 40
1.0
 40
1.0
 40
1.0
 40
2.0
 40
2.0
 40
2.0
 40
3.0
 40
3.0
 40
3.0
 40
4.0
 40
4.0
 40
4.0
 40
5.0
 40
5.0
 40
5.0
 40
6.0
 40
6.0
 40
6.0
 40
7.0
 40
7.0
 40
7.0
 40
8.0
 40
8.0
 40
8.0
 40
8.0
 10
-35.00484008789062
 20
-25.83821614583333
 30
0.0
 10
-35.00484008789062
 20
-26.66676161024305
 30
0.0
 10
-35.67663370768229
 20
-27.33821072048611
 30
0.0
 10
-36.5048346625434
 20
-27.33821072048611
 30
0.0
 10
-36.5048346625434
 20
-27.33821072048611
 30
0.0
 10
-36.5048346625434
 20
-27.33821072048611
 30
0.0
 10
-36.5048346625434
 20
-27.33821072048611
 30
0.0
 10
-37.33338012695312
 20
-27.33821072048611
 30
0.0
 10
-38.00482923719618
 20
-26.66676161024305
 30
0.0
 10
-38.00482923719618
 20
-25.83821614583333
 30
0.0
 10
-38.00482923719618
 20
-25.83821614583333
 30
0.0
 10
-38.00482923719618
 20
11.17830132378472
 30
0.0
 10
-38.00482923719618
 20
11.17830132378472
 30
0.0
 10
-38.00482923719618
 20
12.00684678819444
 30
0.0
 10
-37.33338012695312
 20
12.6782958984375
 30
0.0
 10
-36.5048346625434
 20
12.6782958984375
 30
0.0
 10
-36.5048346625434
 20
12.6782958984375
 30
0.0
 10
-36.5048346625434
 20
12.6782958984375
 30
0.0
 10
-36.5048346625434
 20
12.6782958984375
 30
0.0
 10
-35.67663370768229
 20
12.6782958984375
 30
0.0
 10
-35.00484008789062
 20
12.00684678819444
 30
0.0
 10
-35.00484008789062
 20
11.17830132378472
 30
0.0
 10
-35.00484008789062
 20
11.17830132378472
 30
0.0
 10
-35.00484008789062
 20
-25.83821614583333
 30
0.0
 10
-35.00484008789062
 20
-25.83821614583333
 30
0.0
  0
MTEXT
  5
3F
330
29
100
AcDbEntity
  8
LAYER_1
 62
     7
100
AcDbMText
 10
24.614604
 20
-34.945215
 30
0.0
 40
3.339442
 41
0.0
 46
0.0
 71
     1
 72
     2
  1
\fCentury Gothic|b0|i0;\H3.3394;\W1.02;\C7;180
  7
STD
 73
     1
 44
1.0
  0
LINE
  5
3E
330
29
100
AcDbEntity
  8
LAYER_1
 62
     7
100
AcDbLine
 10
-6.049502
 20
-40.496408
 30
0.0
 11
-9.612419
 21
-40.108491
 31
0.0
  0
LINE
  5
3D
330
29
100
AcDbEntity
  8
LAYER_1
 62
     7
100
AcDbLine
 10
-6.049502
 20
-39.720228
 30
0.0
 11
-6.049502
 21
-40.496408
 31
0.0
  0
LINE
  5
3C
330
29
100
AcDbEntity
  8
LAYER_1
 62
     7
100
AcDbLine
 10
-9.612419
 20
-40.108491
 30
0.0
 11
-6.049502
 21
-39.720228
 31
0.0
  0
LINE
  5
3B
330
29
100
AcDbEntity
  8
LAYER_1
 62
     7
100
AcDbLine
 10
66.234803
 20
-39.720228
 30
0.0
 11
69.762581
 21
-40.108491
 31
0.0
  0
LINE
  5
3A
330
29
100
AcDbEntity
  8
LAYER_1
 62
     7
100
AcDbLine
 10
66.234803
 20
-40.496408
 30
0.0
 11
66.234803
 21
-39.720228
 31
0.0
  0
LINE
  5
39
330
29
100
AcDbEntity
  8
LAYER_1
 62
     7
100
AcDbLine
 10
69.762581
 20
-40.108491
 30
0.0
 11
66.234803
 21
-40.496408
 31
0.0
  0
LINE
  5
38
330
29
100
AcDbEntity
  8
LAYER_1
 62
     7
100
AcDbLine
 10
69.762581
 20
-40.108491
 30
0.0
 11
-9.612419
 21
-40.108491
 31
0.0
  0
LINE
  5
37
330
29
100
AcDbEntity
  8
LAYER_1
 62
     7
100
AcDbLine
 10
-9.612419
 20
-27.62002
 30
0.0
 11
-9.612419
 21
-41.13134
 31
0.0
  0
LINE
  5
36
330
29
100
AcDbEntity
  8
LAYER_1
 62
     7
100
AcDbLine
 10
69.762581
 20
-28.078562
 30
0.0
 11
69.762581
 21
-41.13134
 31
0.0
  0
MTEXT
  5
35
330
29
100
AcDbEntity
  8
LAYER_1
 62
     7
100
AcDbMText
 10
83.016786
 20
-8.238946
 30
0.0
 40
3.339442
 41
0.0
 46
0.0
 71
     1
 72
     2
  1
\fCentury Gothic|b0|i0;\H3.3394;\W1.02;\C7;80
  7
STD
 11
0.0
 21
1.0
 31
0.0
 73
     1
 44
1.0
  0
LINE
  5
34
330
29
100
AcDbEntity
  8
LAYER_1
 62
     7
100
AcDbLine
 10
88.88355
 20
-22.838916
 30
0.0
 11
88.495632
 21
-26.402178
 31
0.0
  0
LINE
  5
33
330
29
100
AcDbEntity
  8
LAYER_1
 62
     7
100
AcDbLine
 10
88.107714
 20
-22.838916
 30
0.0
 11
88.88355
 21
-22.838916
 31
0.0
  0
LINE
  5
32
330
29
100
AcDbEntity
  8
LAYER_1
 62
     7
100
AcDbLine
 10
88.495632
 20
-26.402178
 30
0.0
 11
88.107714
 21
-22.838916
 31
0.0
  0
LINE
  5
31
330
29
100
AcDbEntity
  8
LAYER_1
 62
     7
100
AcDbLine
 10
88.107714
 20
7.111711
 30
0.0
 11
88.495632
 21
10.639488
 31
0.0
  0
LINE
  5
30
330
29
100
AcDbEntity
  8
LAYER_1
 62
     7
100
AcDbLine
 10
88.88355
 20
7.111711
 30
0.0
 11
88.107714
 21
7.111711
 31
0.0
  0
LINE
  5
2F
330
29
100
AcDbEntity
  8
LAYER_1
 62
     7
100
AcDbLine
 10
88.495632
 20
10.639488
 30
0.0
 11
88.88355
 21
7.111711
 31
0.0
  0
LINE
  5
2E
330
29
100
AcDbEntity
  8
LAYER_1
 62
     7
100
AcDbLine
 10
88.495632
 20
10.639488
 30
0.0
 11
88.495632
 21
-26.402178
 31
0.0
  0
LINE
  5
2D
330
29
100
AcDbEntity
  8
LAYER_1
 62
     7
100
AcDbLine
 10
70.362716
 20
-26.402178
 30
0.0
 11
89.518825
 21
-26.402178
 31
0.0
  0
LINE
  5
2C
330
29
100
AcDbEntity
  8
LAYER_1
 62
     7
100
AcDbLine
 10
41.669894
 20
10.992266
 30
0.0
 11
89.518136
 21
10.992266
 31
0.0
  0
ENDBLK
  5
1CA
330
29
100
AcDbEntity
  8
LAYER_1
100
AcDbBlockEnd
  0
BLOCK
  5
1CB
330
43
100
AcDbEntity
  8
LAYER_1
100
AcDbBlockBegin
  2
AI9-BLK2
 70
     0
 10
0.0
 20
0.0
 30
0.0
  3
AI9-BLK2
  1

  0
LINE
  5
49
330
43
100
AcDbEntity
  8
LAYER_1
 62
     7
100
AcDbLine
 10
6.846094
 20
19.999985
 30
0.0
 11
13.237435
 21
19.999985
 31
0.0
  0
SPLINE
  5
48
330
43
100
AcDbEntity
  8
LAYER_1
 62
     7
100
AcDbSpline
210
0.0
220
0.0
230
1.0
 70
     8
 71
     3
 72
    26
 73
    22
 74
     0
 42
0.00000001
 43
0.00000001
 40
0.0
 40
0.0
 40
0.0
 40
0.0
 40
1.0
 40
1.0
 40
1.0
 40
2.0
 40
2.0
 40
2.0
 40
3.0
 40
3.0
 40
3.0
 40
4.0
 40
4.0
 40
4.0
 40
5.0
 40
5.0
 40
5.0
 40
6.0
 40
6.0
 40
6.0
 40
7.0
 40
7.0
 40
7.0
 40
7.0
 10
41.00008138020833
 20
-7.372676595052083
 30
0.0
 10
41.00008138020833
 20
-7.372676595052083
 30
0.0
 10
41.00008138020833
 20
-12.99989556206597
 30
0.0
 10
41.00008138020833
 20
-12.99989556206597
 30
0.0
 10
41.00008138020833
 20
-16.86598171657986
 30
0.0
 10
37.86607801649305
 20
-19.99998508029514
 30
0.0
 10
33.99999186197916
 20
-19.99998508029514
 30
0.0
 10
33.99999186197916
 20
-19.99998508029514
 30
0.0
 10
-33.99999186197916
 20
-19.99998508029514
 30
0.0
 10
-33.99999186197916
 20
-19.99998508029514
 30
0.0
 10
-37.86607801649305
 20
-19.99998508029514
 30
0.0
 10
-41.00008138020833
 20
-16.86598171657986
 30
0.0
 10
-41.00008138020833
 20
-12.99989556206597
 30
0.0
 10
-41.00008138020833
 20
-12.99989556206597
 30
0.0
 10
-41.00008138020833
 20
12.99989556206597
 30
0.0
 10
-41.00008138020833
 20
12.99989556206597
 30
0.0
 10
-41.00008138020833
 20
16.86598171657986
 30
0.0
 10
-37.86607801649305
 20
19.99998508029514
 30
0.0
 10
-33.99999186197916
 20
19.99998508029514
 30
0.0
 10
-33.99999186197916
 20
19.99998508029514
 30
0.0
 10
-5.052232530381944
 20
19.99998508029514
 30
0.0
 10
-5.052232530381944
 20
19.99998508029514
 30
0.0
  0
LINE
  5
47
330
43
100
AcDbEntity
  8
LAYER_1
 62
     7
100
AcDbLine
 10
6.737918
 20
16.999996
 30
0.0
 11
13.099631
 21
16.999996
 31
0.0
  0
SPLINE
  5
46
330
43
100
AcDbEntity
  8
LAYER_1
 62
     7
100
AcDbSpline
210
0.0
220
0.0
230
1.0
 70
     8
 71
     3
 72
    26
 73
    22
 74
     0
 42
0.00000001
 43
0.00000001
 40
0.0
 40
0.0
 40
0.0
 40
0.0
 40
1.0
 40
1.0
 40
1.0
 40
2.0
 40
2.0
 40
2.0
 40
3.0
 40
3.0
 40
3.0
 40
4.0
 40
4.0
 40
4.0
 40
5.0
 40
5.0
 40
5.0
 40
6.0
 40
6.0
 40
6.0
 40
7.0
 40
7.0
 40
7.0
 40
7.0
 10
38.00009223090277
 20
-7.441923014322916
 30
0.0
 10
38.00009223090277
 20
-7.441923014322916
 30
0.0
 10
38.00009223090277
 20
-12.99989556206597
 30
0.0
 10
38.00009223090277
 20
-12.99989556206597
 30
0.0
 10
38.00009223090277
 20
-15.20923529730903
 30
0.0
 10
36.20898708767361
 20
-16.99999593098958
 30
0.0
 10
33.99999186197916
 20
-16.99999593098958
 30
0.0
 10
33.99999186197916
 20
-16.99999593098958
 30
0.0
 10
-33.99999186197916
 20
-16.99999593098958
 30
0.0
 10
-33.99999186197916
 20
-16.99999593098958
 30
0.0
 10
-36.20898708767361
 20
-16.99999593098958
 30
0.0
 10
-38.00009223090277
 20
-15.20923529730903
 30
0.0
 10
-38.00009223090277
 20
-12.99989556206597
 30
0.0
 10
-38.00009223090277
 20
-12.99989556206597
 30
0.0
 10
-38.00009223090277
 20
12.99989556206597
 30
0.0
 10
-38.00009223090277
 20
12.99989556206597
 30
0.0
 10
-38.00009223090277
 20
15.20923529730903
 30
0.0
 10
-36.20898708767361
 20
16.99999593098958
 30
0.0
 10
-33.99999186197916
 20
16.99999593098958
 30
0.0
 10
-33.99999186197916
 20
16.99999593098958
 30
0.0
 10
-5.088406032986111
 20
16.99999593098958
 30
0.0
 10
-5.088406032986111
 20
16.99999593098958
 30
0.0
  0
ENDBLK
  5
1CC
330
43
100
AcDbEntity
  8
LAYER_1
100
AcDbBlockEnd
  0
BLOCK
  5
1CD
330
4B
100
AcDbEntity
  8
LAYER_1
100
AcDbBlockBegin
  2
AI9-BLK3
 70
     0
 10
0.0
 20
0.0
 30
0.0
  3
AI9-BLK3
  1

  0
LINE
  5
1DE
330
4B
100
AcDbEntity
  8
LAYER_1
  6
AI9-LType1
 62
     7
100
AcDbLine
 10
-0.052538
 20
2.500278
 30
0.0
 11
-0.052538
 21
9.500023
 31
0.0
  0
LINE
  5
1DF
330
4B
100
AcDbEntity
  8
LAYER_1
  6
AI9-LType1
 62
     7
100
AcDbLine
 10
-2.552299
 20
0.000172
 30
0.0
 11
-9.552389
 21
0.000172
 31
0.0
  0
LINE
  5
1E0
330
4B
100
AcDbEntity
  8
LAYER_1
  6
AI9-LType1
 62
     7
100
AcDbLine
 10
-0.052538
 20
-2.499934
 30
0.0
 11
-0.052538
 21
-9.499679
 31
0.0
  0
LINE
  5
1E1
330
4B
100
AcDbEntity
  8
LAYER_1
  6
AI9-LType1
 62
     7
100
AcDbLine
 10
2.447568
 20
0.000172
 30
0.0
 11
9.447658
 21
0.000172
 31
0.0
  0
LINE
  5
95
330
4B
100
AcDbEntity
  8
LAYER_1
 62
     7
100
AcDbLine
 10
-0.076309
 20
-0.016364
 30
0.0
 11
1.193553
 21
-0.016364
 31
0.0
  0
LINE
  5
94
330
4B
100
AcDbEntity
  8
LAYER_1
 62
     7
100
AcDbLine
 10
-0.076309
 20
-0.016364
 30
0.0
 11
-0.076309
 21
-1.251086
 31
0.0
  0
LINE
  5
1E2
330
4B
100
AcDbEntity
  8
LAYER_1
 62
     7
100
AcDbLine
 10
-0.076309
 20
-0.016364
 30
0.0
 11
-1.311031
 21
-0.016364
 31
0.0
  0
LINE
  5
1E3
330
4B
100
AcDbEntity
  8
LAYER_1
 62
     7
100
AcDbLine
 10
-0.076309
 20
-0.016364
 30
0.0
 11
-0.076309
 21
1.218358
 31
0.0
  0
LWPOLYLINE
  5
8D
330
4B
100
AcDbEntity
  8
LAYER_1
 62
     7
100
AcDbPolyline
 90
        3
 70
     0
 43
0.0
 10
-5.720753
 20
-1.709629
 10
-5.897142
 20
-0.863169
 10
-5.967767
 20
-0.016364
  0
LWPOLYLINE
  5
78
330
4B
100
AcDbEntity
  8
LAYER_1
 62
     7
100
AcDbPolyline
 90
       19
 70
     0
 43
0.0
 10
5.573992
 20
-1.628324
 10
5.426887
 20
-2.133031
 10
5.074109
 20
-2.909211
 10
4.615567
 20
-3.614766
 10
4.015776
 20
-4.249698
 10
3.34536
 20
-4.814349
 10
2.639804
 20
-5.272891
 10
1.828484
 20
-5.590184
 10
1.017164
 20
-5.802058
 10
0.13522
 20
-5.907822
 10
-0.711584
 20
-5.872682
 10
-1.558044
 20
-5.731433
 10
-2.369364
 20
-5.44928
 10
-3.145544
 20
-5.061018
 10
-3.8511
 20
-4.567335
 10
-4.450891
 20
-3.967544
 10
-4.980058
 20
-3.261989
 10
-5.40346
 20
-2.521293
 10
-5.720753
 20
-1.709629
  0
LWPOLYLINE
  5
70
330
4B
100
AcDbEntity
  8
LAYER_1
 62
     7
100
AcDbPolyline
 90
        6
 70
     0
 43
0.0
 10
5.547465
 20
1.686891
 10
5.6739
 20
1.253498
 10
5.814804
 20
0.407038
 10
5.814804
 20
-0.439766
 10
5.6739
 20
-1.286571
 10
5.573992
 20
-1.628324
  0
LWPOLYLINE
  5
5B
330
4B
100
AcDbEntity
  8
LAYER_1
 62
     7
100
AcDbPolyline
 90
       19
 70
     0
 43
0.0
 10
-5.720753
 20
1.6769
 10
-5.40346
 20
2.48822
 10
-4.980058
 20
3.22926
 10
-4.450891
 20
3.934816
 10
-3.8511
 20
4.534262
 10
-3.145544
 20
5.028289
 10
-2.369364
 20
5.416207
 10
-1.558044
 20
5.698705
 10
-0.711584
 20
5.839609
 10
0.13522
 20
5.875094
 10
1.017164
 20
5.768985
 10
1.828484
 20
5.557456
 10
2.639804
 20
5.239818
 10
3.34536
 20
4.781276
 10
4.015776
 20
4.216969
 10
4.615567
 20
3.582038
 10
5.074109
 20
2.876482
 10
5.426887
 20
2.100302
 10
5.547465
 20
1.686891
  0
LWPOLYLINE
  5
56
330
4B
100
AcDbEntity
  8
LAYER_1
 62
     7
100
AcDbPolyline
 90
        3
 70
     0
 43
0.0
 10
-5.967767
 20
-0.016364
 10
-5.897142
 20
0.830096
 10
-5.720753
 20
1.6769
  0
INSERT
  5
51
330
4B
100
AcDbEntity
  8
LAYER_1
 62
     7
100
AcDbBlockReference
  2
AI9-BLK4
 10
0.0
 20
0.0
 30
0.0
  0
SPLINE
  5
4F
330
4B
100
AcDbEntity
  8
LAYER_1
 62
     7
100
AcDbSpline
210
0.0
220
0.0
230
1.0
 70
     8
 71
     3
 72
    11
 73
     7
 74
     0
 42
0.00000001
 43
0.00000001
 40
0.0
 40
0.0
 40
0.0
 40
0.0
 40
1.0
 40
1.0
 40
1.0
 40
2.0
 40
2.0
 40
2.0
 40
2.0
 10
8.060662163628471
 20
-1.590428331163194
 30
0.0
 10
7.31927761501736
 20
-5.394502766927083
 30
0.0
 10
3.968577745225694
 20
-8.265989854600694
 30
0.0
 10
-0.0525377061631944
 20
-8.265989854600694
 30
0.0
 10
-3.98890380859375
 20
-8.265989854600694
 30
0.0
 10
-7.282415093315971
 20
-5.514047580295139
 30
0.0
 10
-8.114750162760416
 20
-1.829517957899305
 30
0.0
  0
SPLINE
  5
4E
330
4B
100
AcDbEntity
  8
LAYER_1
 62
     7
100
AcDbSpline
210
0.0
220
0.0
230
1.0
 70
     8
 71
     3
 72
    11
 73
     7
 74
     0
 42
0.00000001
 43
0.00000001
 40
0.0
 40
0.0
 40
0.0
 40
0.0
 40
1.0
 40
1.0
 40
1.0
 40
2.0
 40
2.0
 40
2.0
 40
2.0
 10
-8.14989013671875
 20
1.665531412760417
 30
0.0
 10
-7.379566786024305
 20
5.432398817274305
 30
0.0
 10
-4.046781412760416
 20
8.265645345052082
 30
0.0
 10
-0.0525377061631944
 20
8.265645345052082
 30
0.0
 10
3.941706000434027
 20
8.265645345052082
 30
0.0
 10
7.274491373697916
 20
5.432398817274305
 30
0.0
 10
8.045503743489583
 20
1.665531412760417
 30
0.0
  0
ENDBLK
  5
1CE
330
4B
100
AcDbEntity
  8
LAYER_1
100
AcDbBlockEnd
  0
BLOCK
  5
1CF
330
50
100
AcDbEntity
  8
LAYER_1
100
AcDbBlockBegin
  2
AI9-BLK4
 70
     0
 10
0.0
 20
0.0
 30
0.0
  3
AI9-BLK4
  1

  0
SPLINE
  5
54
330
50
100
AcDbEntity
  8
LAYER_1
 62
     7
100
AcDbSpline
210
0.0
220
0.0
230
1.0
 70
     8
 71
     3
 72
    17
 73
    13
 74
     0
 42
0.00000001
 43
0.00000001
 40
0.0
 40
0.0
 40
0.0
 40
0.0
 40
1.0
 40
1.0
 40
1.0
 40
2.0
 40
2.0
 40
2.0
 40
3.0
 40
3.0
 40
3.0
 40
4.0
 40
4.0
 40
4.0
 40
4.0
 10
-12.83935411241319
 20
1.648650444878472
 30
0.0
 10
-12.03113471137153
 20
8.005885145399304
 30
0.0
 10
-6.614755588107638
 20
12.9203138563368
 30
0.0
 10
-0.0521931966145833
 20
12.9203138563368
 30
0.0
 10
7.067096625434028
 20
12.9203138563368
 30
0.0
 10
12.83832058376736
 20
7.135654025607638
 30
0.0
 10
12.83832058376736
 20
0.0001722547743056
 30
0.0
 10
12.83832058376736
 20
-7.135654025607638
 30
0.0
 10
7.067096625434028
 20
-12.9203138563368
 30
0.0
 10
-0.0521931966145833
 20
-12.9203138563368
 30
0.0
 10
-6.539997016059028
 20
-12.9203138563368
 30
0.0
 10
-11.90814480251736
 20
-8.116817220052083
 30
0.0
 10
-12.80972629123264
 20
-1.864313422309028
 30
0.0
  0
SPLINE
  5
53
330
50
100
AcDbEntity
  8
LAYER_1
 62
     7
100
AcDbSpline
210
0.0
220
0.0
230
1.0
 70
     8
 71
     3
 72
    17
 73
    13
 74
     0
 42
0.00000001
 43
0.00000001
 40
0.0
 40
0.0
 40
0.0
 40
0.0
 40
1.0
 40
1.0
 40
1.0
 40
2.0
 40
2.0
 40
2.0
 40
3.0
 40
3.0
 40
3.0
 40
4.0
 40
4.0
 40
4.0
 40
4.0
 10
-13.28549397786458
 20
1.681723361545139
 30
0.0
 10
-12.46039360894097
 20
8.27081298828125
 30
0.0
 10
-6.850400119357638
 20
13.36817626953125
 30
0.0
 10
-0.0521931966145833
 20
13.36817626953125
 30
0.0
 10
7.313765462239583
 20
13.36817626953125
 30
0.0
 10
13.28549397786458
 20
7.383011881510416
 30
0.0
 10
13.28549397786458
 20
0.0001722547743056
 30
0.0
 10
13.28549397786458
 20
-7.383011881510416
 30
0.0
 10
7.313765462239583
 20
-13.36817626953125
 30
0.0
 10
-0.0521931966145833
 20
-13.36817626953125
 30
0.0
 10
-6.782187228732639
 20
-13.36817626953125
 30
0.0
 10
-12.34773898654514
 20
-8.372443305121527
 30
0.0
 10
-13.25896674262153
 20
-1.879127332899305
 30
0.0
  0
ENDBLK
  5
1D0
330
50
100
AcDbEntity
  8
LAYER_1
100
AcDbBlockEnd
  0
BLOCK
  5
1D1
330
156
100
AcDbEntity
  8
LAYER_1
100
AcDbBlockBegin
  2
AI9-BLK5
 70
     0
 10
0.0
 20
0.0
 30
0.0
  3
AI9-BLK5
  1

  0
MTEXT
  5
15A
330
156
100
AcDbEntity
  8
LAYER_1
 62
     7
100
AcDbMText
 10
-2.075178
 20
-0.000603
 30
0.0
 40
3.339442
 41
0.0
 46
0.0
 71
     1
 72
     2
  1
\fCentury Gothic|b0|i0;\H3.3394;\W1.02;\C7;4
  7
STD
 11
0.0
 21
1.0
 31
0.0
 73
     1
 44
1.0
  0
MTEXT
  5
159
330
156
100
AcDbEntity
  8
LAYER_1
 62
     7
100
AcDbMText
 10
-2.07535
 20
-2.586492
 30
0.0
 40
3.339442
 41
0.0
 46
0.0
 71
     1
 72
     2
  1
\fCentury Gothic|b0|i0;\H3.3394;\W1.02;\C7;2
  7
STD
 11
0.0
 21
1.0
 31
0.0
 73
     1
 44
1.0
  0
ENDBLK
  5
1D2
330
156
100
AcDbEntity
  8
LAYER_1
100
AcDbBlockEnd
  0
BLOCK
  5
1D3
330
198
100
AcDbEntity
  8
LAYER_1
100
AcDbBlockBegin
  2
AI9-BLK6
 70
     0
 10
0.0
 20
0.0
 30
0.0
  3
AI9-BLK6
  1

  0
MTEXT
  5
19C
330
198
100
AcDbEntity
  8
LAYER_1
 62
     7
100
AcDbMText
 10
-2.075264
 20
-0.000172
 30
0.0
 40
3.339442
 41
0.0
 46
0.0
 71
     1
 72
     2
  1
\fCentury Gothic|b0|i0;\H3.3394;\W1.02;\C7;4
  7
STD
 11
0.0
 21
1.0
 31
0.0
 73
     1
 44
1.0
  0
MTEXT
  5
19B
330
198
100
AcDbEntity
  8
LAYER_1
 62
     7
100
AcDbMText
 10
-2.075264
 20
-2.58675
 30
0.0
 40
3.339442
 41
0.0
 46
0.0
 71
     1
 72
     2
  1
\fCentury Gothic|b0|i0;\H3.3394;\W1.02;\C7;5
  7
STD
 11
0.0
 21
1.0
 31
0.0
 73
     1
 44
1.0
  0
ENDBLK
  5
1D4
330
198
100
AcDbEntity
  8
LAYER_1
100
AcDbBlockEnd
  0
ENDSEC
  0
SECTION
  2
ENTITIES
  0
INSERT
  5
2A
330
1F
100
AcDbEntity
  8
LAYER_1
 62
     7
100
AcDbBlockReference
  2
AI9-BLK1
 10
148.857667
 20
79.185864
 30
0.0
  0
ENDSEC
  0
SECTION
  2
OBJECTS
  0
DICTIONARY
  5
C
330
0
100
AcDbDictionary
281
     1
  3
ACAD_COLOR
350
6C
  3
ACAD_GROUP
350
D
  3
ACAD_LAYOUT
350
1A
  3
ACAD_MATERIAL
350
6B
  3
ACAD_MLEADERSTYLE
350
1E5
  3
ACAD_MLINESTYLE
350
17
  3
ACAD_PLOTSETTINGS
350
19
  3
ACAD_PLOTSTYLENAME
350
E
  3
ACAD_SCALELIST
350
99
  3
ACAD_TABLESTYLE
350
92
  3
ACAD_WIPEOUT_VARS
350
1C8
  3
AcDbVariableDictionary
350
59
  0
DICTIONARY
  5
1E4
330
1F
100
AcDbDictionary
280
     1
281
     1
  0
DICTIONARY
  5
6C
102
{ACAD_REACTORS
330
C
102
}
330
C
100
AcDbDictionary
281
     1
  0
DICTIONARY
  5
D
102
{ACAD_REACTORS
330
C
102
}
330
C
100
AcDbDictionary
281
     1
  0
DICTIONARY
  5
1A
102
{ACAD_REACTORS
330
C
102
}
330
C
100
AcDbDictionary
281
     1
  3
Layout1
350
74
  3
Model
350
22
  0
DICTIONARY
  5
6B
102
{ACAD_REACTORS
330
C
102
}
330
C
100
AcDbDictionary
281
     1
  0
DICTIONARY
  5
1E5
102
{ACAD_REACTORS
330
C
102
}
330
C
100
AcDbDictionary
281
     1
  0
DICTIONARY
  5
17
102
{ACAD_REACTORS
330
C
102
}
330
C
100
AcDbDictionary
281
     1
  3
Standard
350
18
  0
DICTIONARY
  5
19
102
{ACAD_REACTORS
330
C
102
}
330
C
100
AcDbDictionary
281
     1
  0
ACDBDICTIONARYWDFLT
  5
E
102
{ACAD_REACTORS
330
C
102
}
330
C
100
AcDbDictionary
281
     1
  3
Normal
350
F
100
AcDbDictionaryWithDefault
340
F
  0
DICTIONARY
  5
99
102
{ACAD_REACTORS
330
C
102
}
330
C
100
AcDbDictionary
281
     1
  3
A0
350
9A
  3
A1
350
9B
  3
A2
350
9C
  3
A3
350
9D
  3
A4
350
9E
  3
A5
350
9F
  3
A6
350
A0
  3
A7
350
A1
  3
A8
350
A2
  3
A9
350
A3
  3
B0
350
A4
  3
B1
350
A5
  3
B2
350
A6
  3
B3
350
A7
  3
B4
350
A8
  3
B5
350
A9
  3
B6
350
AA
  3
B7
350
AB
  3
B8
350
AC
  3
B9
350
AD
  3
C0
350
AE
  3
C1
350
AF
  3
C2
350
B0
  3
C3
350
B1
  3
C4
350
B2
  3
C5
350
B3
  3
C6
350
B4
  3
C7
350
B5
  3
C8
350
B6
  3
C9
350
B7
  3
D0
350
B8
  3
D1
350
B9
  3
D2
350
BA
  0
DICTIONARY
  5
92
102
{ACAD_REACTORS
330
C
102
}
330
C
100
AcDbDictionary
281
     1
  3
Standard
350
93
  0
WIPEOUTVARIABLES
  5
1C8
102
{ACAD_REACTORS
330
C
102
}
330
C
100
AcDbWipeoutVariables
 70
     1
  0
DICTIONARY
  5
59
102
{ACAD_REACTORS
330
C
102
}
330
C
100
AcDbDictionary
281
     1
  3
CANNOSCALE
350
1E6
  3
CTABLESTYLE
350
98
  3
DIMASSOC
350
1C2
  3
HIDETEXT
350
5E
  0
LAYOUT
  5
74
102
{ACAD_REACTORS
330
1A
102
}
330
1A
100
AcDbPlotSettings
  1

  2
none_device
  4
ISO_C5_(229.00_x_162.00_MM)
  6

 40
0.0
 41
0.0
 42
0.0
 43
0.0
 44
229.0
 45
162.0
 46
0.0
 47
0.0
 48
0.0
 49
0.0
140
0.0
141
0.0
142
1.0
143
1.0
 70
   544
 72
     1
 73
     0
 74
     0
  7

 75
    16
 76
     0
 77
     2
 78
   300
147
1.0
148
0.0
149
0.0
100
AcDbLayout
  1
Layout1
 70
     0
 71
     0
 10
0.0
 20
0.0
 11
0.0
 21
0.0
 12
0.0
 22
0.0
 32
0.0
 14
0.0
 24
0.0
 34
0.0
 15
0.0
 25
0.0
 35
0.0
146
0.0
 13
0.0
 23
0.0
 33
0.0
 16
1.0
 26
0.0
 36
0.0
 17
0.0
 27
1.0
 37
0.0
 76
     0
330
73
  0
LAYOUT
  5
22
102
{ACAD_REACTORS
330
1A
102
}
330
1A
100
AcDbPlotSettings
  1

  2
none_device
  4
ISO_C5_(229.00_x_162.00_MM)
  6

 40
0.0
 41
0.0
 42
0.0
 43
0.0
 44
229.0
 45
162.0
 46
0.0
 47
0.0
 48
0.0
 49
0.0
140
0.0
141
0.0
142
1.0
143
1.0
 70
 11936
 72
     1
 73
     0
 74
     0
  7

 75
     0
 76
     0
 77
     2
 78
   300
147
1.370162694206227
148
0.0
149
0.0
100
AcDbLayout
  1
Model
 70
     1
 71
     0
 10
59.285787
 20
38.00147
 11
238.429546
 21
120.370258
 12
0.0
 22
0.0
 32
0.0
 14
59.79423721481985
 24
38.05452399999999
 34
0.0
 15
238.376492
 25
119.8618087851801
 35
0.0
146
0.0
 13
0.0
 23
0.0
 33
0.0
 16
1.0
 26
0.0
 36
0.0
 17
0.0
 27
1.0
 37
0.0
 76
     0
330
1F
331
97
  0
MLINESTYLE
  5
18
102
{ACAD_REACTORS
330
17
102
}
330
17
100
AcDbMlineStyle
  2
Standard
 70
     0
  3

 62
     0
 51
90.0
 52
90.0
 71
     2
 49
0.5
 62
   256
  6
BYLAYER
 49
-0.5
 62
   256
  6
BYLAYER
  0
ACDBPLACEHOLDER
  5
F
102
{ACAD_REACTORS
330
E
102
}
330
E
  0
SCALE
  5
9A
102
{ACAD_REACTORS
330
99
102
}
330
99
100
AcDbScale
 70
     0
300
1:1
140
1.0
141
1.0
290
     1
  0
SCALE
  5
9B
102
{ACAD_REACTORS
330
99
102
}
330
99
100
AcDbScale
 70
     0
300
1:2
140
1.0
141
2.0
290
     0
  0
SCALE
  5
9C
102
{ACAD_REACTORS
330
99
102
}
330
99
100
AcDbScale
 70
     0
300
1:4
140
1.0
141
4.0
290
     0
  0
SCALE
  5
9D
102
{ACAD_REACTORS
330
99
102
}
330
99
100
AcDbScale
 70
     0
300
1:5
140
1.0
141
5.0
290
     0
  0
SCALE
  5
9E
102
{ACAD_REACTORS
330
99
102
}
330
99
100
AcDbScale
 70
     0
300
1:8
140
1.0
141
8.0
290
     0
  0
SCALE
  5
9F
102
{ACAD_REACTORS
330
99
102
}
330
99
100
AcDbScale
 70
     0
300
1:10
140
1.0
141
10.0
290
     0
  0
SCALE
  5
A0
102
{ACAD_REACTORS
330
99
102
}
330
99
100
AcDbScale
 70
     0
300
1:16
140
1.0
141
16.0
290
     0
  0
SCALE
  5
A1
102
{ACAD_REACTORS
330
99
102
}
330
99
100
AcDbScale
 70
     0
300
1:20
140
1.0
141
20.0
290
     0
  0
SCALE
  5
A2
102
{ACAD_REACTORS
330
99
102
}
330
99
100
AcDbScale
 70
     0
300
1:30
140
1.0
141
30.0
290
     0
  0
SCALE
  5
A3
102
{ACAD_REACTORS
330
99
102
}
330
99
100
AcDbScale
 70
     0
300
1:40
140
1.0
141
40.0
290
     0
  0
SCALE
  5
A4
102
{ACAD_REACTORS
330
99
102
}
330
99
100
AcDbScale
 70
     0
300
1:50
140
1.0
141
50.0
290
     0
  0
SCALE
  5
A5
102
{ACAD_REACTORS
330
99
102
}
330
99
100
AcDbScale
 70
     0
300
1:100
140
1.0
141
100.0
290
     0
  0
SCALE
  5
A6
102
{ACAD_REACTORS
330
99
102
}
330
99
100
AcDbScale
 70
     0
300
2:1
140
2.0
141
1.0
290
     0
  0
SCALE
  5
A7
102
{ACAD_REACTORS
330
99
102
}
330
99
100
AcDbScale
 70
     0
300
4:1
140
4.0
141
1.0
290
     0
  0
SCALE
  5
A8
102
{ACAD_REACTORS
330
99
102
}
330
99
100
AcDbScale
 70
     0
300
8:1
140
8.0
141
1.0
290
     0
  0
SCALE
  5
A9
102
{ACAD_REACTORS
330
99
102
}
330
99
100
AcDbScale
 70
     0
300
10:1
140
10.0
141
1.0
290
     0
  0
SCALE
  5
AA
102
{ACAD_REACTORS
330
99
102
}
330
99
100
AcDbScale
 70
     0
300
100:1
140
100.0
141
1.0
290
     0
  0
SCALE
  5
AB
102
{ACAD_REACTORS
330
99
102
}
330
99
100
AcDbScale
 70
     0
300
1/128" = 1'-0"
140
0.0078125
141
12.0
290
     0
  0
SCALE
  5
AC
102
{ACAD_REACTORS
330
99
102
}
330
99
100
AcDbScale
 70
     0
300
1/64" = 1'-0"
140
0.015625
141
12.0
290
     0
  0
SCALE
  5
AD
102
{ACAD_REACTORS
330
99
102
}
330
99
100
AcDbScale
 70
     0
300
1/32" = 1'-0"
140
0.03125
141
12.0
290
     0
  0
SCALE
  5
AE
102
{ACAD_REACTORS
330
99
102
}
330
99
100
AcDbScale
 70
     0
300
1/16" = 1'-0"
140
0.0625
141
12.0
290
     0
  0
SCALE
  5
AF
102
{ACAD_REACTORS
330
99
102
}
330
99
100
AcDbScale
 70
     0
300
3/32" = 1'-0"
140
0.09375
141
12.0
290
     0
  0
SCALE
  5
B0
102
{ACAD_REACTORS
330
99
102
}
330
99
100
AcDbScale
 70
     0
300
1/8" = 1'-0"
140
0.125
141
12.0
290
     0
  0
SCALE
  5
B1
102
{ACAD_REACTORS
330
99
102
}
330
99
100
AcDbScale
 70
     0
300
3/16" = 1'-0"
140
0.1875
141
12.0
290
     0
  0
SCALE
  5
B2
102
{ACAD_REACTORS
330
99
102
}
330
99
100
AcDbScale
 70
     0
300
1/4" = 1'-0"
140
0.25
141
12.0
290
     0
  0
SCALE
  5
B3
102
{ACAD_REACTORS
330
99
102
}
330
99
100
AcDbScale
 70
     0
300
3/8" = 1'-0"
140
0.375
141
12.0
290
     0
  0
SCALE
  5
B4
102
{ACAD_REACTORS
330
99
102
}
330
99
100
AcDbScale
 70
     0
300
1/2" = 1'-0"
140
0.5
141
12.0
290
     0
  0
SCALE
  5
B5
102
{ACAD_REACTORS
330
99
102
}
330
99
100
AcDbScale
 70
     0
300
3/4" = 1'-0"
140
0.75
141
12.0
290
     0
  0
SCALE
  5
B6
102
{ACAD_REACTORS
330
99
102
}
330
99
100
AcDbScale
 70
     0
300
1" = 1'-0"
140
1.0
141
12.0
290
     0
  0
SCALE
  5
B7
102
{ACAD_REACTORS
330
99
102
}
330
99
100
AcDbScale
 70
     0
300
1-1/2" = 1'-0"
140
1.5
141
12.0
290
     0
  0
SCALE
  5
B8
102
{ACAD_REACTORS
330
99
102
}
330
99
100
AcDbScale
 70
     0
300
3" = 1'-0"
140
3.0
141
12.0
290
     0
  0
SCALE
  5
B9
102
{ACAD_REACTORS
330
99
102
}
330
99
100
AcDbScale
 70
     0
300
6" = 1'-0"
140
6.0
141
12.0
290
     0
  0
SCALE
  5
BA
102
{ACAD_REACTORS
330
99
102
}
330
99
100
AcDbScale
 70
     0
300
1'-0" = 1'-0"
140
12.0
141
12.0
290
     0
  0
TABLESTYLE
  5
93
102
{ACAD_REACTORS
330
92
102
}
330
92
100
AcDbTableStyle
  3
Standard
 70
     0
 71
     0
 40
0.06
 41
0.06
280
     0
281
     0
  7
Standard
140
0.18
170
     2
 62
     0
 63
     7
283
     0
 90
      512
 91
        0
  1

274
    -2
284
     1
 64
     0
275
    -2
285
     1
 65
     0
276
    -2
286
     1
 66
     0
277
    -2
287
     1
 67
     0
278
    -2
288
     1
 68
     0
279
    -2
289
     1
 69
     0
  7
Standard
140
0.25
170
     5
 62
     0
 63
     7
283
     0
 90
      512
 91
        0
  1

274
    -2
284
     1
 64
     0
275
    -2
285
     1
 65
     0
276
    -2
286
     1
 66
     0
277
    -2
287
     1
 67
     0
278
    -2
288
     1
 68
     0
279
    -2
289
     1
 69
     0
  7
Standard
140
0.18
170
     5
 62
     0
 63
     7
283
     0
 90
      512
 91
        0
  1

274
    -2
284
     1
 64
     0
275
    -2
285
     1
 65
     0
276
    -2
286
     1
 66
     0
277
    -2
287
     1
 67
     0
278
    -2
288
     1
 68
     0
279
    -2
289
     1
 69
     0
  0
DICTIONARYVAR
  5
1E6
102
{ACAD_REACTORS
330
59
102
}
330
59
100
DictionaryVariables
280
     0
  1
1:1
  0
DICTIONARYVAR
  5
98
102
{ACAD_REACTORS
330
59
102
}
330
59
100
DictionaryVariables
280
     0
  1
Standard
  0
DICTIONARYVAR
  5
1C2
102
{ACAD_REACTORS
330
59
102
}
330
59
100
DictionaryVariables
280
     0
  1
2
  0
DICTIONARYVAR
  5
5E
102
{ACAD_REACTORS
330
59
102
}
330
59
100
DictionaryVariables
280
     0
  1
1
  0
ENDSEC
  0
EOF
