  0
SECTION
  2
HEADER
  9
$ACADVER
  1
AC1021
  9
$ACADMAINTVER
 70
    25
  9
$DWGCODEPAGE
  3
ANSI_932
  9
$LASTSAVEDBY
  1
bliu
  9
$INSBASE
 10
0.0
 20
0.0
 30
0.0
  9
$EXTMIN
 10
27.62070899999999
 20
59.576725
 30
0.0
  9
$EXTMAX
 10
269.363404
 20
148.3865097851802
 30
0.0
  9
$LIMMIN
 10
27.44432
 20
59.523671
  9
$LIMMAX
 10
269.539792
 20
148.89496
  9
$ORTHOMODE
 70
     0
  9
$REGENMODE
 70
     1
  9
$FILLMODE
 70
     1
  9
$QTEXTMODE
 70
     0
  9
$MIRRTEXT
 70
     1
  9
$LTSCALE
 40
1.0
  9
$ATTMODE
 70
     1
  9
$TEXTSIZE
 40
0.2
  9
$TRACEWID
 40
0.05
  9
$TEXTSTYLE
  7
Standard
  9
$CLAYER
  8
0
  9
$CELTYPE
  6
Continuous
  9
$CECOLOR
 62
   256
  9
$CELTSCALE
 40
1.0
  9
$DISPSILH
 70
     0
  9
$DIMSCALE
 40
1.0
  9
$DIMASZ
 40
0.18
  9
$DIMEXO
 40
0.0625
  9
$DIMDLI
 40
0.38
  9
$DIMRND
 40
0.0
  9
$DIMDLE
 40
0.0
  9
$DIMEXE
 40
0.18
  9
$DIMTP
 40
0.0
  9
$DIMTM
 40
0.0
  9
$DIMTXT
 40
0.18
  9
$DIMCEN
 40
0.09
  9
$DIMTSZ
 40
0.0
  9
$DIMTOL
 70
     0
  9
$DIMLIM
 70
     0
  9
$DIMTIH
 70
     1
  9
$DIMTOH
 70
     1
  9
$DIMSE1
 70
     0
  9
$DIMSE2
 70
     0
  9
$DIMTAD
 70
     0
  9
$DIMZIN
 70
     0
  9
$DIMBLK
  1

  9
$DIMASO
 70
     1
  9
$DIMSHO
 70
     1
  9
$DIMPOST
  1

  9
$DIMAPOST
  1

  9
$DIMALT
 70
     0
  9
$DIMALTD
 70
     2
  9
$DIMALTF
 40
25.4
  9
$DIMLFAC
 40
1.0
  9
$DIMTOFL
 70
     0
  9
$DIMTVP
 40
0.0
  9
$DIMTIX
 70
     0
  9
$DIMSOXD
 70
     0
  9
$DIMSAH
 70
     0
  9
$DIMBLK1
  1

  9
$DIMBLK2
  1

  9
$DIMSTYLE
  2
Standard
  9
$DIMCLRD
 70
     0
  9
$DIMCLRE
 70
     0
  9
$DIMCLRT
 70
     0
  9
$DIMTFAC
 40
1.0
  9
$DIMGAP
 40
0.09
  9
$DIMJUST
 70
     0
  9
$DIMSD1
 70
     0
  9
$DIMSD2
 70
     0
  9
$DIMTOLJ
 70
     1
  9
$DIMTZIN
 70
     0
  9
$DIMALTZ
 70
     0
  9
$DIMALTTZ
 70
     0
  9
$DIMUPT
 70
     0
  9
$DIMDEC
 70
     4
  9
$DIMTDEC
 70
     4
  9
$DIMALTU
 70
     2
  9
$DIMALTTD
 70
     2
  9
$DIMTXSTY
  7
Standard
  9
$DIMAUNIT
 70
     0
  9
$DIMADEC
 70
     0
  9
$DIMALTRND
 40
0.0
  9
$DIMAZIN
 70
     0
  9
$DIMDSEP
 70
     0
  9
$DIMATFIT
 70
     3
  9
$DIMFRAC
 70
     0
  9
$DIMLDRBLK
  1

  9
$DIMLUNIT
 70
     2
  9
$DIMLWD
 70
     0
  9
$DIMLWE
 70
     0
  9
$DIMTMOVE
 70
     0
  9
$DIMFXL
 40
1.0
  9
$DIMFXLON
 70
     0
  9
$DIMJOGANG
 40
0.7853981633974483
  9
$DIMTFILL
 70
     0
  9
$DIMTFILLCLR
 70
     0
  9
$DIMARCSYM
 70
     0
  9
$DIMLTYPE
  6

  9
$DIMLTEX1
  6

  9
$DIMLTEX2
  6

  9
$LUNITS
 70
     2
  9
$LUPREC
 70
     4
  9
$SKETCHINC
 40
0.1
  9
$FILLETRAD
 40
0.0
  9
$AUNITS
 70
     0
  9
$AUPREC
 70
     0
  9
$MENU
  1
.
  9
$ELEVATION
 40
0.0
  9
$PELEVATION
 40
0.0
  9
$THICKNESS
 40
0.0
  9
$LIMCHECK
 70
     0
  9
$CHAMFERA
 40
0.0
  9
$CHAMFERB
 40
0.0
  9
$CHAMFERC
 40
0.0
  9
$CHAMFERD
 40
0.0
  9
$SKPOLY
 70
     0
  9
$TDCREATE
 40
2453354.133792488
  9
$TDUCREATE
 40
2453353.717125822
  9
$TDUPDATE
 40
2447893.459039364
  9
$TDUUPDATE
 40
2447893.042372697
  9
$TDINDWG
 40
0.042569456
  9
$TDUSRTIMER
 40
0.042569456
  9
$USRTIMER
 70
     1
  9
$ANGBASE
 50
0.0
  9
$ANGDIR
 70
     0
  9
$PDMODE
 70
     0
  9
$PDSIZE
 40
0.0
  9
$PLINEWID
 40
0.0
  9
$SPLFRAME
 70
     0
  9
$SPLINETYPE
 70
     6
  9
$SPLINESEGS
 70
     8
  9
$HANDSEED
  5
224
  9
$SURFTAB1
 70
     6
  9
$SURFTAB2
 70
     6
  9
$SURFTYPE
 70
     6
  9
$SURFU
 70
     6
  9
$SURFV
 70
     6
  9
$UCSBASE
  2

  9
$UCSNAME
  2

  9
$UCSORG
 10
0.0
 20
0.0
 30
0.0
  9
$UCSXDIR
 10
1.0
 20
0.0
 30
0.0
  9
$UCSYDIR
 10
0.0
 20
1.0
 30
0.0
  9
$UCSORTHOREF
  2

  9
$UCSORTHOVIEW
 70
     0
  9
$UCSORGTOP
 10
0.0
 20
0.0
 30
0.0
  9
$UCSORGBOTTOM
 10
0.0
 20
0.0
 30
0.0
  9
$UCSORGLEFT
 10
0.0
 20
0.0
 30
0.0
  9
$UCSORGRIGHT
 10
0.0
 20
0.0
 30
0.0
  9
$UCSORGFRONT
 10
0.0
 20
0.0
 30
0.0
  9
$UCSORGBACK
 10
0.0
 20
0.0
 30
0.0
  9
$PUCSBASE
  2

  9
$PUCSNAME
  2

  9
$PUCSORG
 10
0.0
 20
0.0
 30
0.0
  9
$PUCSXDIR
 10
1.0
 20
0.0
 30
0.0
  9
$PUCSYDIR
 10
0.0
 20
1.0
 30
0.0
  9
$PUCSORTHOREF
  2

  9
$PUCSORTHOVIEW
 70
     0
  9
$PUCSORGTOP
 10
0.0
 20
0.0
 30
0.0
  9
$PUCSORGBOTTOM
 10
0.0
 20
0.0
 30
0.0
  9
$PUCSORGLEFT
 10
0.0
 20
0.0
 30
0.0
  9
$PUCSORGRIGHT
 10
0.0
 20
0.0
 30
0.0
  9
$PUCSORGFRONT
 10
0.0
 20
0.0
 30
0.0
  9
$PUCSORGBACK
 10
0.0
 20
0.0
 30
0.0
  9
$USERI1
 70
     0
  9
$USERI2
 70
     0
  9
$USERI3
 70
     0
  9
$USERI4
 70
     0
  9
$USERI5
 70
     0
  9
$USERR1
 40
0.0
  9
$USERR2
 40
0.0
  9
$USERR3
 40
0.0
  9
$USERR4
 40
0.0
  9
$USERR5
 40
0.0
  9
$WORLDVIEW
 70
     1
  9
$SHADEDGE
 70
     3
  9
$SHADEDIF
 70
    70
  9
$TILEMODE
 70
     1
  9
$MAXACTVP
 70
    16
  9
$PINSBASE
 10
0.0
 20
0.0
 30
0.0
  9
$PLIMCHECK
 70
     0
  9
$PEXTMIN
 10
0.0
 20
0.0
 30
0.0
  9
$PEXTMAX
 10
0.0
 20
0.0
 30
0.0
  9
$PLIMMIN
 10
0.0
 20
0.0
  9
$PLIMMAX
 10
0.0
 20
0.0
  9
$UNITMODE
 70
     0
  9
$VISRETAIN
 70
     0
  9
$PLINEGEN
 70
     1
  9
$PSLTSCALE
 70
     0
  9
$TREEDEPTH
 70
  3020
  9
$CMLSTYLE
  2
Standard
  9
$CMLJUST
 70
     0
  9
$CMLSCALE
 40
1.0
  9
$PROXYGRAPHICS
 70
     0
  9
$MEASUREMENT
 70
     1
  9
$CELWEIGHT
370
     0
  9
$ENDCAPS
280
     0
  9
$JOINSTYLE
280
     0
  9
$LWDISPLAY
290
     0
  9
$INSUNITS
 70
     0
  9
$HYPERLINKBASE
  1

  9
$STYLESHEET
  1

  9
$XEDIT
290
     0
  9
$CEPSNTYPE
380
     0
  9
$PSTYLEMODE
290
     1
  9
$FINGERPRINTGUID
  2

  9
$VERSIONGUID
  2

  9
$EXTNAMES
290
     1
  9
$PSVPSCALE
 40
0.0
  9
$OLESTARTUP
290
     0
  9
$SORTENTS
280
   127
  9
$INDEXCTL
280
     0
  9
$HIDETEXT
280
     1
  9
$XCLIPFRAME
290
     0
  9
$HALOGAP
280
     0
  9
$OBSCOLOR
 70
   257
  9
$OBSLTYPE
280
     0
  9
$INTERSECTIONDISPLAY
280
     0
  9
$INTERSECTIONCOLOR
 70
   257
  9
$DIMASSOC
280
     2
  9
$PROJECTNAME
  1

  9
$CAMERADISPLAY
290
     0
  9
$LENSLENGTH
 40
50.0
  9
$CAMERAHEIGHT
 40
0.0
  9
$STEPSPERSEC
 40
2.0
  9
$STEPSIZE
 40
6.0
  9
$3DDWFPREC
 40
2.0
  9
$PSOLWIDTH
 40
0.25
  9
$PSOLHEIGHT
 40
4.0
  9
$LOFTANG1
 40
1.570796326794897
  9
$LOFTANG2
 40
1.570796326794897
  9
$LOFTMAG1
 40
0.0
  9
$LOFTMAG2
 40
0.0
  9
$LOFTPARAM
 70
     7
  9
$LOFTNORMALS
280
     1
  9
$LATITUDE
 40
37.795
  9
$LONGITUDE
 40
-122.394
  9
$NORTHDIRECTION
 40
0.0
  9
$TIMEZONE
 70
 -8000
  9
$LIGHTGLYPHDISPLAY
280
     1
  9
$TILEMODELIGHTSYNCH
280
     1
  9
$SOLIDHIST
280
     1
  9
$SHOWHIST
280
     1
  9
$DWFFRAME
280
     2
  9
$DGNFRAME
280
     2
  9
$REALWORLDSCALE
290
     1
  9
$INTERFERECOLOR
 62
   256
  9
$CSHADOW
280
     0
  9
$SHADOWPLANELOCATION
 40
0.0
  0
ENDSEC
  0
SECTION
  2
CLASSES
  0
CLASS
  1
ACDBDICTIONARYWDFLT
  2
AcDbDictionaryWithDefault
  3
ObjectDBX Classes
 90
        0
 91
        4
280
     0
281
     0
  0
CLASS
  1
ACDBPLACEHOLDER
  2
AcDbPlaceHolder
  3
ObjectDBX Classes
 90
        0
 91
        1
280
     0
281
     0
  0
CLASS
  1
LAYOUT
  2
AcDbLayout
  3
ObjectDBX Classes
 90
        0
 91
        1
280
     0
281
     0
  0
CLASS
  1
DICTIONARYVAR
  2
AcDbDictionaryVar
  3
ObjectDBX Classes
 90
        0
 91
        4
280
     0
281
     0
  0
CLASS
  1
TABLESTYLE
  2
AcDbTableStyle
  3
ObjectDBX Classes
 90
     4095
 91
        4
280
     0
281
     0
  0
CLASS
  1
SCALE
  2
AcDbScale
  3
ObjectDBX Classes
 90
     1153
 91
        4
280
     0
281
     0
  0
CLASS
  1
WIPEOUTVARIABLES
  2
AcDbWipeoutVariables
  3
WipeOut|AutoCAD Express Tool|expresstools@autodesk.com
 90
        0
 91
        4
280
     0
281
     0
  0
ENDSEC
  0
SECTION
  2
TABLES
  0
TABLE
  2
VPORT
  5
8
330
0
100
AcDbSymbolTable
 70
     2
  0
VPORT
  5
97
330
8
100
AcDbSymbolTableRecord
100
AcDbViewportTableRecord
  2
*ACTIVE
 70
     0
 10
0.0
 20
0.0
 11
1.0
 21
1.0
 12
148.492056
 22
104.2093155
 13
0.0
 23
0.0
 14
1.0
 24
1.0
 15
0.0
 25
0.0
 16
0.0
 26
0.0
 36
1.0
 17
0.0
 27
0.0
 37
0.0
 40
120.3296562101695
 41
0.688564
 42
50.0
 43
0.0
 44
0.0
 50
0.0
 51
0.0
 71
    16
 72
   100
 73
     1
 74
     1
 75
     0
 76
     0
 77
     0
 78
     0
281
     0
 65
     0
110
0.0
120
0.0
130
0.0
111
1.0
121
0.0
131
0.0
112
0.0
122
1.0
132
0.0
 79
     0
146
0.0
 60
     3
 61
     5
292
     1
282
     1
141
0.0
142
0.0
 63
   256
  0
ENDTAB
  0
TABLE
  2
LTYPE
  5
5
330
0
100
AcDbSymbolTable
 70
     1
  0
LTYPE
  5
14
330
5
100
AcDbSymbolTableRecord
100
AcDbLinetypeTableRecord
  2
ByBlock
 70
     0
  3

 72
    65
 73
     0
 40
0.0
  0
LTYPE
  5
15
330
5
100
AcDbSymbolTableRecord
100
AcDbLinetypeTableRecord
  2
ByLayer
 70
     0
  3

 72
    65
 73
     0
 40
0.0
  0
LTYPE
  5
16
330
5
100
AcDbSymbolTableRecord
100
AcDbLinetypeTableRecord
  2
Continuous
 70
     0
  3
Solid line
 72
    65
 73
     0
 40
0.0
  0
ENDTAB
  0
TABLE
  2
LAYER
  5
2
330
0
100
AcDbSymbolTable
 70
     2
  0
LAYER
  5
10
330
2
100
AcDbSymbolTableRecord
100
AcDbLayerTableRecord
  2
0
 70
     0
 62
     7
  6
Continuous
370
    -3
390
F
347
0
  0
LAYER
  5
28
330
2
100
AcDbSymbolTableRecord
100
AcDbLayerTableRecord
  2
LAYER_1
 70
     0
 62
   160
  6
Continuous
370
    -3
390
F
347
0
  0
ENDTAB
  0
TABLE
  2
STYLE
  5
3
330
0
100
AcDbSymbolTable
 70
     5
  0
STYLE
  5
11
330
3
100
AcDbSymbolTableRecord
100
AcDbTextStyleTableRecord
  2
Standard
 70
     0
 40
0.0
 41
1.0
 50
0.0
 71
     0
 42
0.2
  3
txt
  4

  0
STYLE
  5
24
330
3
100
AcDbSymbolTableRecord
100
AcDbTextStyleTableRecord
  2
STD
 70
     0
 40
0.0
 41
1.0
 50
0.0
 71
     0
 42
0.2
  3
txt
  4

  0
STYLE
  5
25
330
3
100
AcDbSymbolTableRecord
100
AcDbTextStyleTableRecord
  2
TATESTD
 70
     4
 40
0.0
 41
1.0
 50
0.0
 71
     0
 42
0.2
  3
txt
  4

  0
STYLE
  5
26
330
3
100
AcDbSymbolTableRecord
100
AcDbTextStyleTableRecord
  2
KANJISTD
 70
     0
 40
0.0
 41
1.0
 50
0.0
 71
     0
 42
0.2
  3
txt
  4
extfont
  0
STYLE
  5
20B
330
3
100
AcDbSymbolTableRecord
100
AcDbTextStyleTableRecord
  2
KANJITATE
 70
     4
 40
0.0
 41
1.0
 50
0.0
 71
     0
 42
0.2
  3
txt
  4
extfont
  0
ENDTAB
  0
TABLE
  2
VIEW
  5
6
330
0
100
AcDbSymbolTable
 70
     0
  0
ENDTAB
  0
TABLE
  2
UCS
  5
7
330
0
100
AcDbSymbolTable
 70
     0
  0
ENDTAB
  0
TABLE
  2
APPID
  5
9
330
0
100
AcDbSymbolTable
 70
     1
  0
APPID
  5
12
330
9
100
AcDbSymbolTableRecord
100
AcDbRegAppTableRecord
  2
ACAD
 70
     0
  0
ENDTAB
  0
TABLE
  2
DIMSTYLE
  5
A
330
0
100
AcDbSymbolTable
 70
     1
100
AcDbDimStyleTable
  0
DIMSTYLE
105
27
330
A
100
AcDbSymbolTableRecord
100
AcDbDimStyleTableRecord
  2
Standard
 70
     0
340
11
  0
ENDTAB
  0
TABLE
  2
BLOCK_RECORD
  5
1
330
0
100
AcDbSymbolTable
 70
     5
  0
BLOCK_RECORD
  5
1F
102
{ACAD_XDICTIONARY
360
221
102
}
330
1
100
AcDbSymbolTableRecord
100
AcDbBlockTableRecord
  2
*Model_Space
340
22
 70
     0
280
     1
281
     0
  0
BLOCK_RECORD
  5
73
330
1
100
AcDbSymbolTableRecord
100
AcDbBlockTableRecord
  2
*Paper_Space
340
74
 70
     0
280
     1
281
     0
  0
BLOCK_RECORD
  5
29
330
1
100
AcDbSymbolTableRecord
100
AcDbBlockTableRecord
  2
AI9-BLK1
340
0
102
{BLKREFS
331
2A
102
}
 70
     0
280
     1
281
     0
  0
BLOCK_RECORD
  5
2C
330
1
100
AcDbSymbolTableRecord
100
AcDbBlockTableRecord
  2
AI9-BLK2
340
0
102
{BLKREFS
331
2D
102
}
 70
     0
280
     1
281
     0
  0
BLOCK_RECORD
  5
34
330
1
100
AcDbSymbolTableRecord
100
AcDbBlockTableRecord
  2
AI9-BLK3
340
0
102
{BLKREFS
331
35
102
}
 70
     0
280
     1
281
     0
  0
BLOCK_RECORD
  5
213
330
1
100
AcDbSymbolTableRecord
100
AcDbBlockTableRecord
  2
AI9-BLK4
340
0
102
{BLKREFS
331
218
102
}
 70
     0
280
     1
281
     0
  0
BLOCK_RECORD
  5
1DD
330
1
100
AcDbSymbolTableRecord
100
AcDbBlockTableRecord
  2
AI9-BLK5
340
0
102
{BLKREFS
331
1DE
102
}
 70
     0
280
     1
281
     0
  0
ENDTAB
  0
ENDSEC
  0
SECTION
  2
BLOCKS
  0
BLOCK
  5
20
330
1F
100
AcDbEntity
  8
0
100
AcDbBlockBegin
  2
*Model_Space
 70
     0
 10
0.0
 20
0.0
 30
0.0
  3
*Model_Space
  1

  0
ENDBLK
  5
21
330
1F
100
AcDbEntity
  8
0
100
AcDbBlockEnd
  0
BLOCK
  5
75
330
73
100
AcDbEntity
 67
     1
  8
0
100
AcDbBlockBegin
  2
*Paper_Space
 70
     0
 10
0.0
 20
0.0
 30
0.0
  3
*Paper_Space
  1

  0
ENDBLK
  5
76
330
73
100
AcDbEntity
 67
     1
  8
0
100
AcDbBlockEnd
  0
BLOCK
  5
20D
330
29
100
AcDbEntity
  8
LAYER_1
100
AcDbBlockBegin
  2
AI9-BLK1
 70
     0
 10
0.0
 20
0.0
 30
0.0
  3
AI9-BLK1
  1

  0
INSERT
  5
1DE
330
29
100
AcDbEntity
  8
LAYER_1
 62
     7
100
AcDbBlockReference
  2
AI9-BLK5
 10
-107.119818
 20
42.017935
 30
0.0
  0
MTEXT
  5
1DC
330
29
100
AcDbEntity
  8
LAYER_1
 62
     7
100
AcDbMText
 10
-87.484349
 20
-3.948424
 30
0.0
 40
3.339442
 41
0.0
 46
0.0
 71
     1
 72
     2
  1
\fCentury Gothic|b0|i0;\H3.3394;\W1.02;\C7;120
  7
STD
 11
0.0
 21
1.0
 31
0.0
 73
     1
 44
1.0
  0
LWPOLYLINE
  5
1D6
330
29
100
AcDbEntity
  8
LAYER_1
 62
   184
100
AcDbPolyline
 90
        4
 70
     0
 43
0.0
 10
-95.753501
 20
28.137817
 10
-96.353292
 20
27.996913
 10
-96.353292
 20
28.279066
 10
-95.753501
 20
28.137817
  0
LINE
  5
1D5
330
29
100
AcDbEntity
  8
LAYER_1
 62
   253
100
AcDbLine
 10
-107.430307
 20
27.644135
 30
0.0
 11
-107.430307
 21
28.666984
 31
0.0
  0
LINE
  5
1D4
330
29
100
AcDbEntity
  8
LAYER_1
 62
   253
100
AcDbLine
 10
-107.924334
 20
28.137817
 30
0.0
 11
-106.936625
 21
28.137817
 31
0.0
  0
LINE
  5
1D3
330
29
100
AcDbEntity
  8
LAYER_1
 62
   253
100
AcDbLine
 10
-107.783085
 20
28.490595
 30
0.0
 11
-107.07753
 21
27.78504
 31
0.0
  0
LINE
  5
1D2
330
29
100
AcDbEntity
  8
LAYER_1
 62
   253
100
AcDbLine
 10
-107.07753
 20
28.490595
 30
0.0
 11
-107.783085
 21
27.78504
 31
0.0
  0
LINE
  5
1D1
330
29
100
AcDbEntity
  8
LAYER_1
 62
   184
100
AcDbLine
 10
-107.430307
 20
28.137817
 30
0.0
 11
-95.753501
 21
28.137817
 31
0.0
  0
LINE
  5
1D0
330
29
100
AcDbEntity
  8
LAYER_1
 62
     7
100
AcDbLine
 10
-81.995167
 20
-25.44892
 30
0.0
 11
-82.383085
 21
-29.012183
 31
0.0
  0
LINE
  5
1CF
330
29
100
AcDbEntity
  8
LAYER_1
 62
     7
100
AcDbLine
 10
-82.771692
 20
-25.44892
 30
0.0
 11
-81.995167
 21
-25.44892
 31
0.0
  0
LINE
  5
1CE
330
29
100
AcDbEntity
  8
LAYER_1
 62
     7
100
AcDbLine
 10
-82.383085
 20
-29.012183
 30
0.0
 11
-82.771692
 21
-25.44892
 31
0.0
  0
LINE
  5
1CD
330
29
100
AcDbEntity
  8
LAYER_1
 62
     7
100
AcDbLine
 10
-82.771347
 20
24.61004
 30
0.0
 11
-82.383085
 21
28.137817
 31
0.0
  0
LINE
  5
1CC
330
29
100
AcDbEntity
  8
LAYER_1
 62
     7
100
AcDbLine
 10
-81.995167
 20
24.61004
 30
0.0
 11
-82.771347
 21
24.61004
 31
0.0
  0
LINE
  5
1CB
330
29
100
AcDbEntity
  8
LAYER_1
 62
     7
100
AcDbLine
 10
-82.383085
 20
28.137817
 30
0.0
 11
-81.995167
 21
24.61004
 31
0.0
  0
LINE
  5
1CA
330
29
100
AcDbEntity
  8
LAYER_1
 62
     7
100
AcDbLine
 10
-82.383085
 20
28.137817
 30
0.0
 11
-82.383085
 21
-29.012183
 31
0.0
  0
LINE
  5
1C9
330
29
100
AcDbEntity
  8
LAYER_1
 62
     7
100
AcDbLine
 10
-100.516345
 20
-29.012183
 30
0.0
 11
-81.360581
 21
-29.012183
 31
0.0
  0
LINE
  5
1C8
330
29
100
AcDbEntity
  8
LAYER_1
 62
     7
100
AcDbLine
 10
-93.001903
 20
28.137817
 30
0.0
 11
-81.360236
 21
28.137817
 31
0.0
  0
LINE
  5
1C7
330
29
100
AcDbEntity
  8
LAYER_1
 62
     7
100
AcDbLine
 10
-117.308085
 20
39.426706
 30
0.0
 11
-120.871347
 21
39.814969
 31
0.0
  0
LINE
  5
1C6
330
29
100
AcDbEntity
  8
LAYER_1
 62
     7
100
AcDbLine
 10
-117.308085
 20
40.167746
 30
0.0
 11
-117.308085
 21
39.426706
 31
0.0
  0
LINE
  5
1C5
330
29
100
AcDbEntity
  8
LAYER_1
 62
     7
100
AcDbLine
 10
-120.871347
 20
39.814969
 30
0.0
 11
-117.308085
 21
40.167746
 31
0.0
  0
LINE
  5
1C4
330
29
100
AcDbEntity
  8
LAYER_1
 62
     7
100
AcDbLine
 10
-97.55253
 20
40.167746
 30
0.0
 11
-93.989612
 21
39.814969
 31
0.0
  0
LINE
  5
1C3
330
29
100
AcDbEntity
  8
LAYER_1
 62
     7
100
AcDbLine
 10
-97.55253
 20
39.426706
 30
0.0
 11
-97.55253
 21
40.167746
 31
0.0
  0
LINE
  5
1C2
330
29
100
AcDbEntity
  8
LAYER_1
 62
     7
100
AcDbLine
 10
-93.989612
 20
39.814969
 30
0.0
 11
-97.55253
 21
39.426706
 31
0.0
  0
LINE
  5
1C1
330
29
100
AcDbEntity
  8
LAYER_1
 62
     7
100
AcDbLine
 10
-93.989612
 20
39.814969
 30
0.0
 11
-120.871347
 21
39.814969
 31
0.0
  0
LINE
  5
1C0
330
29
100
AcDbEntity
  8
LAYER_1
 62
     7
100
AcDbLine
 10
-120.871347
 20
29.161011
 30
0.0
 11
-120.871347
 21
40.802677
 31
0.0
  0
LINE
  5
1BF
330
29
100
AcDbEntity
  8
LAYER_1
 62
     7
100
AcDbLine
 10
-93.989612
 20
29.161011
 30
0.0
 11
-93.989612
 21
40.802677
 31
0.0
  0
HATCH
  5
1BE
330
29
100
AcDbEntity
  8
LAYER_1
 62
   184
100
AcDbHatch
 10
0.0
 20
0.0
 30
0.0
210
0.0
220
0.0
230
1.0
  2
SOLID
 70
     1
 71
     0
 91
        1
 92
        1
 93
        1
 72
     4
 94
        3
 73
     0
 74
     0
 95
       11
 96
        7
 40
0.0
 40
0.0
 40
0.0
 40
0.0
 40
1.0
 40
1.0
 40
1.0
 40
2.0
 40
2.0
 40
2.0
 40
2.0
 10
-95.75350070529512
 20
28.1378173828125
 10
-95.75350070529512
 20
28.1378173828125
 10
-96.35329182942708
 20
27.99691297743055
 10
-96.35329182942708
 20
27.99691297743055
 10
-96.35329182942708
 20
27.99691297743055
 10
-96.35329182942708
 20
28.27906629774305
 10
-96.35329182942708
 20
28.27906629774305
 97
        0
 75
     2
 76
     1
 98
        1
 10
0.0
 20
0.0
  0
LWPOLYLINE
  5
1B0
330
29
100
AcDbEntity
  8
LAYER_1
 62
     7
100
AcDbPolyline
 90
       12
 70
     0
 43
0.0
 10
-113.321937
 20
-27.601072
 10
-113.286797
 20
-27.601072
 10
-113.145549
 20
-27.601072
 10
-112.863395
 20
-27.601072
 10
-112.475133
 20
-27.601072
 10
-111.981451
 20
-27.601072
 10
-111.38166
 20
-27.601072
 10
-110.676104
 20
-27.601072
 10
-109.935409
 20
-27.601072
 10
-109.123744
 20
-27.601072
 10
-108.277456
 20
-27.601072
 10
-107.430652
 20
-27.601072
  0
LWPOLYLINE
  5
1A2
330
29
100
AcDbEntity
  8
LAYER_1
 62
     7
100
AcDbPolyline
 90
       12
 70
     0
 43
0.0
 10
-107.430652
 20
-27.601072
 10
-106.583847
 20
-27.601072
 10
-105.737043
 20
-27.601072
 10
-104.926067
 20
-27.601072
 10
-104.184683
 20
-27.601072
 10
-103.479127
 20
-27.601072
 10
-102.879681
 20
-27.601072
 10
-102.385654
 20
-27.601072
 10
-101.997736
 20
-27.601072
 10
-101.715238
 20
-27.601072
 10
-101.574679
 20
-27.601072
 10
-101.53885
 20
-27.601072
  0
LWPOLYLINE
  5
18E
330
29
100
AcDbEntity
  8
LAYER_1
 62
     7
100
AcDbPolyline
 90
       18
 70
     0
 43
0.0
 10
-120.871347
 20
28.137817
 10
-120.835863
 20
28.137817
 10
-120.730098
 20
28.137817
 10
-120.483085
 20
28.137817
 10
-120.130307
 20
28.137817
 10
-119.636625
 20
28.137817
 10
-119.071974
 20
28.137817
 10
-118.366418
 20
28.137817
 10
-117.590238
 20
28.137817
 10
-116.708294
 20
28.137817
 10
-115.720585
 20
28.137817
 10
-114.697736
 20
28.137817
 10
-113.568778
 20
28.137817
 10
-112.404681
 20
28.137817
 10
-111.205098
 20
28.137817
 10
-109.970376
 20
28.137817
 10
-108.700514
 20
28.137817
 10
-107.430307
 20
28.137817
  0
LWPOLYLINE
  5
17A
330
29
100
AcDbEntity
  8
LAYER_1
 62
     7
100
AcDbPolyline
 90
       18
 70
     0
 43
0.0
 10
-107.430307
 20
28.137817
 10
-106.160445
 20
28.137817
 10
-104.890238
 20
28.137817
 10
-103.655516
 20
28.137817
 10
-102.456278
 20
28.137817
 10
-101.292181
 20
28.137817
 10
-100.163223
 20
28.137817
 10
-99.14003
 20
28.137817
 10
-98.152321
 20
28.137817
 10
-97.270376
 20
28.137817
 10
-96.494196
 20
28.137817
 10
-95.788641
 20
28.137817
 10
-95.224334
 20
28.137817
 10
-94.730307
 20
28.137817
 10
-94.37753
 20
28.137817
 10
-94.130516
 20
28.137817
 10
-94.024752
 20
28.137817
 10
-93.989612
 20
28.137817
  0
LWPOLYLINE
  5
166
330
29
100
AcDbEntity
  8
LAYER_1
 62
     7
100
AcDbPolyline
 90
       18
 70
     0
 43
0.0
 10
-120.447945
 20
24.645524
 10
-120.412461
 20
24.645524
 10
-120.342181
 20
24.645524
 10
-120.130307
 20
24.645524
 10
-119.77753
 20
24.645524
 10
-119.354127
 20
24.645524
 10
-118.789821
 20
24.645524
 10
-118.119405
 20
24.645524
 10
-117.37871
 20
24.645524
 10
-116.496765
 20
24.645524
 10
-115.579681
 20
24.645524
 10
-114.556487
 20
24.645524
 10
-113.463014
 20
24.645524
 10
-112.334056
 20
24.645524
 10
-111.134474
 20
24.645524
 10
-109.935236
 20
24.645524
 10
-108.700514
 20
24.645524
 10
-107.430307
 20
24.645524
  0
LWPOLYLINE
  5
153
330
29
100
AcDbEntity
  8
LAYER_1
 62
     7
100
AcDbPolyline
 90
       17
 70
     0
 43
0.0
 10
-107.430307
 20
24.645524
 10
-106.160445
 20
24.645524
 10
-104.925723
 20
24.645524
 10
-103.726141
 20
24.645524
 10
-102.526903
 20
24.645524
 10
-101.397945
 20
24.645524
 10
-100.304127
 20
24.645524
 10
-99.281278
 20
24.645524
 10
-98.36385
 20
24.645524
 10
-97.481905
 20
24.645524
 10
-96.74121
 20
24.645524
 10
-96.070794
 20
24.645524
 10
-95.506487
 20
24.645524
 10
-95.083085
 20
24.645524
 10
-94.730307
 20
24.645524
 10
-94.518778
 20
24.645524
 10
-94.448154
 20
24.645524
  0
LINE
  5
152
330
29
100
AcDbEntity
  8
LAYER_1
 62
     7
100
AcDbLine
 10
-101.53885
 20
-27.601072
 30
0.0
 11
-101.53885
 21
24.539415
 31
0.0
  0
LINE
  5
151
330
29
100
AcDbEntity
  8
LAYER_1
 62
     7
100
AcDbLine
 10
-113.321765
 20
24.539415
 30
0.0
 11
-113.321937
 21
-27.601072
 31
0.0
  0
LINE
  5
150
330
29
100
AcDbEntity
  8
LAYER_1
 62
     7
100
AcDbLine
 10
-94.448154
 20
24.645524
 30
0.0
 11
-93.989612
 21
28.137817
 31
0.0
  0
LINE
  5
14F
330
29
100
AcDbEntity
  8
LAYER_1
 62
     7
100
AcDbLine
 10
-120.871347
 20
28.137817
 30
0.0
 11
-120.447945
 21
24.645524
 31
0.0
  0
MTEXT
  5
14E
330
29
100
AcDbEntity
  8
LAYER_1
 62
     7
100
AcDbMText
 10
22.842878
 20
-38.859533
 30
0.0
 40
3.339442
 41
0.0
 46
0.0
 71
     1
 72
     2
  1
\fCentury Gothic|b0|i0;\H3.3394;\W1.02;\C7;300
  7
STD
 73
     1
 44
1.0
  0
LINE
  5
14D
330
29
100
AcDbEntity
  8
LAYER_1
 62
     7
100
AcDbLine
 10
-45.091994
 20
-43.997659
 30
0.0
 11
-48.619771
 21
-43.609741
 31
0.0
  0
LINE
  5
14C
330
29
100
AcDbEntity
  8
LAYER_1
 62
     7
100
AcDbLine
 10
-45.091994
 20
-43.256963
 30
0.0
 11
-45.091994
 21
-43.997659
 31
0.0
  0
LINE
  5
14B
330
29
100
AcDbEntity
  8
LAYER_1
 62
     7
100
AcDbLine
 10
-48.619771
 20
-43.609741
 30
0.0
 11
-45.091994
 21
-43.256963
 31
0.0
  0
LINE
  5
14A
330
29
100
AcDbEntity
  8
LAYER_1
 62
     7
100
AcDbLine
 10
104.079263
 20
-43.256963
 30
0.0
 11
107.642181
 21
-43.609741
 31
0.0
  0
LINE
  5
149
330
29
100
AcDbEntity
  8
LAYER_1
 62
     7
100
AcDbLine
 10
104.079263
 20
-43.997659
 30
0.0
 11
104.079263
 21
-43.256963
 31
0.0
  0
LINE
  5
148
330
29
100
AcDbEntity
  8
LAYER_1
 62
     7
100
AcDbLine
 10
107.642181
 20
-43.609741
 30
0.0
 11
104.079263
 21
-43.997659
 31
0.0
  0
LINE
  5
147
330
29
100
AcDbEntity
  8
LAYER_1
 62
     7
100
AcDbLine
 10
107.642181
 20
-43.609741
 30
0.0
 11
-48.619771
 21
-43.609741
 31
0.0
  0
LINE
  5
146
330
29
100
AcDbEntity
  8
LAYER_1
 62
     7
100
AcDbLine
 10
-48.619771
 20
-30.027797
 30
0.0
 11
-48.619771
 21
-44.63259
 31
0.0
  0
LINE
  5
145
330
29
100
AcDbEntity
  8
LAYER_1
 62
     7
100
AcDbLine
 10
107.642181
 20
-31.332799
 30
0.0
 11
107.642181
 21
-44.63259
 31
0.0
  0
LWPOLYLINE
  5
13F
330
29
100
AcDbEntity
  8
LAYER_1
 62
     7
100
AcDbPolyline
 90
        4
 70
     1
 43
0.0
 10
-101.500264
 20
-29.005637
 10
-113.305573
 20
-29.005637
 10
-113.305573
 20
-27.580056
 10
-101.500264
 20
-27.580056
  0
LINE
  5
13E
330
29
100
AcDbEntity
  8
LAYER_1
 62
     7
100
AcDbLine
 10
-107.431685
 20
24.544238
 30
0.0
 11
-107.431685
 21
-27.112557
 31
0.0
  0
INSERT
  5
218
330
29
100
AcDbEntity
  8
LAYER_1
 62
     7
100
AcDbBlockReference
  2
AI9-BLK4
 10
-47.962103
 20
-0.484208
 30
0.0
  0
INSERT
  5
35
330
29
100
AcDbEntity
  8
LAYER_1
 62
     7
100
AcDbBlockReference
  2
AI9-BLK3
 10
107.43048
 20
-0.43391
 30
0.0
  0
LINE
  5
33
330
29
100
AcDbEntity
  8
LAYER_1
 62
     7
100
AcDbLine
 10
-42.189501
 20
-27.572477
 30
0.0
 11
101.477871
 21
-27.572477
 31
0.0
  0
LINE
  5
32
330
29
100
AcDbEntity
  8
LAYER_1
 62
     7
100
AcDbLine
 10
-42.189501
 20
24.109467
 30
0.0
 11
101.575023
 21
24.109467
 31
0.0
  0
INSERT
  5
2D
330
29
100
AcDbEntity
  8
LAYER_1
 62
     7
100
AcDbBlockReference
  2
AI9-BLK2
 10
-10.811485
 20
-1.835288
 30
0.0
  0
ENDBLK
  5
20E
330
29
100
AcDbEntity
  8
LAYER_1
100
AcDbBlockEnd
  0
BLOCK
  5
20F
330
2C
100
AcDbEntity
  8
LAYER_1
100
AcDbBlockBegin
  2
AI9-BLK2
 70
     0
 10
0.0
 20
0.0
 30
0.0
  3
AI9-BLK2
  1

  0
ELLIPSE
  5
30
330
2C
100
AcDbEntity
  8
LAYER_1
 62
     7
100
AcDbEllipse
 10
-0.000086
 20
0.000086
 30
0.0
 11
25.9860107421875
 21
0.0
 31
0.0
210
0.0
220
0.0
230
1.0
 40
0.63636
 41
0.0
 42
6.283185307179586
  0
CIRCLE
  5
2F
330
2C
100
AcDbEntity
  8
LAYER_1
 62
     7
100
AcDbCircle
 10
-0.000086
 20
0.000086
 30
0.0
 40
3.464733
  0
ENDBLK
  5
210
330
2C
100
AcDbEntity
  8
LAYER_1
100
AcDbBlockEnd
  0
BLOCK
  5
211
330
34
100
AcDbEntity
  8
LAYER_1
100
AcDbBlockBegin
  2
AI9-BLK3
 70
     0
 10
0.0
 20
0.0
 30
0.0
  3
AI9-BLK3
  1

  0
LWPOLYLINE
  5
219
330
34
100
AcDbEntity
  8
LAYER_1
 62
   184
100
AcDbPolyline
 90
        4
 70
     0
 43
0.0
 10
11.676979
 20
28.395338
 10
11.077188
 20
28.254434
 10
11.077188
 20
28.536587
 10
11.676979
 20
28.395338
  0
LINE
  5
21A
330
34
100
AcDbEntity
  8
LAYER_1
 62
   253
100
AcDbLine
 10
0.000172
 20
27.901656
 30
0.0
 11
0.000172
 21
28.924505
 31
0.0
  0
LINE
  5
21B
330
34
100
AcDbEntity
  8
LAYER_1
 62
   253
100
AcDbLine
 10
-0.493854
 20
28.395338
 30
0.0
 11
0.493854
 21
28.395338
 31
0.0
  0
LINE
  5
21C
330
34
100
AcDbEntity
  8
LAYER_1
 62
   253
100
AcDbLine
 10
-0.352606
 20
28.748116
 30
0.0
 11
0.35295
 21
28.04256
 31
0.0
  0
LINE
  5
21D
330
34
100
AcDbEntity
  8
LAYER_1
 62
   253
100
AcDbLine
 10
0.35295
 20
28.748116
 30
0.0
 11
-0.352606
 21
28.04256
 31
0.0
  0
LINE
  5
21E
330
34
100
AcDbEntity
  8
LAYER_1
 62
   184
100
AcDbLine
 10
0.000172
 20
28.395338
 30
0.0
 11
11.676979
 21
28.395338
 31
0.0
  0
HATCH
  5
21F
330
34
100
AcDbEntity
  8
LAYER_1
 62
   184
100
AcDbHatch
 10
0.0
 20
0.0
 30
0.0
210
0.0
220
0.0
230
1.0
  2
SOLID
 70
     1
 71
     0
 91
        1
 92
        1
 93
        1
 72
     4
 94
        3
 73
     0
 74
     0
 95
       11
 96
        7
 40
0.0
 40
0.0
 40
0.0
 40
0.0
 40
1.0
 40
1.0
 40
1.0
 40
2.0
 40
2.0
 40
2.0
 40
2.0
 10
11.67697889539931
 20
28.3953382703993
 10
11.67697889539931
 20
28.3953382703993
 10
11.07718777126736
 20
28.25443386501736
 10
11.07718777126736
 20
28.25443386501736
 10
11.07718777126736
 20
28.25443386501736
 10
11.07718777126736
 20
28.53658718532986
 10
11.07718777126736
 20
28.53658718532986
 97
        0
 75
     2
 76
     1
 98
        1
 10
0.0
 20
0.0
  0
LWPOLYLINE
  5
220
330
34
100
AcDbEntity
  8
LAYER_1
 62
     7
100
AcDbPolyline
 90
       12
 70
     0
 43
0.0
 10
-5.89163
 20
-27.343551
 10
-5.85649
 20
-27.343551
 10
-5.715241
 20
-27.343551
 10
-5.432743
 20
-27.343551
 10
-5.044826
 20
-27.343551
 10
-4.550799
 20
-27.343551
 10
-3.951352
 20
-27.343551
 10
-3.245797
 20
-27.343551
 10
-2.505101
 20
-27.343551
 10
-1.693437
 20
-27.343551
 10
-0.846632
 20
-27.343551
 10
0.000172
 20
-27.343551
  0
LWPOLYLINE
  5
90
330
34
100
AcDbEntity
  8
LAYER_1
 62
     7
100
AcDbPolyline
 90
       12
 70
     0
 43
0.0
 10
0.000172
 20
-27.343551
 10
0.846288
 20
-27.343551
 10
1.693092
 20
-27.343551
 10
2.504757
 20
-27.343551
 10
3.245452
 20
-27.343551
 10
3.951008
 20
-27.343551
 10
4.550454
 20
-27.343551
 10
5.044481
 20
-27.343551
 10
5.432399
 20
-27.343551
 10
5.714897
 20
-27.343551
 10
5.856146
 20
-27.343551
 10
5.891286
 20
-27.343551
  0
LWPOLYLINE
  5
7C
330
34
100
AcDbEntity
  8
LAYER_1
 62
     7
100
AcDbPolyline
 90
       18
 70
     0
 43
0.0
 10
-13.440868
 20
28.395338
 10
-13.405383
 20
28.395338
 10
-13.299619
 20
28.395338
 10
-13.052606
 20
28.395338
 10
-12.699828
 20
28.395338
 10
-12.206146
 20
28.395338
 10
-11.641494
 20
28.395338
 10
-10.935939
 20
28.395338
 10
-10.159759
 20
28.395338
 10
-9.277814
 20
28.395338
 10
-8.290106
 20
28.395338
 10
-7.267257
 20
28.395338
 10
-6.138299
 20
28.395338
 10
-4.974201
 20
28.395338
 10
-3.774619
 20
28.395338
 10
-2.539897
 20
28.395338
 10
-1.270034
 20
28.395338
 10
0.000172
 20
28.395338
  0
LWPOLYLINE
  5
68
330
34
100
AcDbEntity
  8
LAYER_1
 62
     7
100
AcDbPolyline
 90
       18
 70
     0
 43
0.0
 10
0.000172
 20
28.395338
 10
1.270034
 20
28.395338
 10
2.540241
 20
28.395338
 10
3.774963
 20
28.395338
 10
4.974201
 20
28.395338
 10
6.138299
 20
28.395338
 10
7.267257
 20
28.395338
 10
8.29045
 20
28.395338
 10
9.278159
 20
28.395338
 10
10.160103
 20
28.395338
 10
10.936283
 20
28.395338
 10
11.641839
 20
28.395338
 10
12.206146
 20
28.395338
 10
12.700172
 20
28.395338
 10
13.05295
 20
28.395338
 10
13.299963
 20
28.395338
 10
13.405728
 20
28.395338
 10
13.440868
 20
28.395338
  0
LWPOLYLINE
  5
54
330
34
100
AcDbEntity
  8
LAYER_1
 62
     7
100
AcDbPolyline
 90
       18
 70
     0
 43
0.0
 10
-13.017466
 20
24.903045
 10
-12.981981
 20
24.903045
 10
-12.911701
 20
24.903045
 10
-12.699828
 20
24.903045
 10
-12.34705
 20
24.903045
 10
-11.923648
 20
24.903045
 10
-11.359341
 20
24.903045
 10
-10.688926
 20
24.903045
 10
-9.94823
 20
24.903045
 10
-9.066286
 20
24.903045
 10
-8.149201
 20
24.903045
 10
-7.126008
 20
24.903045
 10
-6.032534
 20
24.903045
 10
-4.903577
 20
24.903045
 10
-3.703994
 20
24.903045
 10
-2.504757
 20
24.903045
 10
-1.270034
 20
24.903045
 10
0.000172
 20
24.903045
  0
LWPOLYLINE
  5
41
330
34
100
AcDbEntity
  8
LAYER_1
 62
     7
100
AcDbPolyline
 90
       17
 70
     0
 43
0.0
 10
0.000172
 20
24.903045
 10
1.270034
 20
24.903045
 10
2.504757
 20
24.903045
 10
3.704339
 20
24.903045
 10
4.903577
 20
24.903045
 10
6.032534
 20
24.903045
 10
7.126352
 20
24.903045
 10
8.149201
 20
24.903045
 10
9.06663
 20
24.903045
 10
9.948574
 20
24.903045
 10
10.68927
 20
24.903045
 10
11.359686
 20
24.903045
 10
11.923992
 20
24.903045
 10
12.347394
 20
24.903045
 10
12.700172
 20
24.903045
 10
12.911701
 20
24.903045
 10
12.982326
 20
24.903045
  0
LINE
  5
40
330
34
100
AcDbEntity
  8
LAYER_1
 62
     7
100
AcDbLine
 10
5.891286
 20
-27.343551
 30
0.0
 11
5.89163
 21
24.796936
 31
0.0
  0
LINE
  5
3F
330
34
100
AcDbEntity
  8
LAYER_1
 62
     7
100
AcDbLine
 10
-5.891286
 20
24.796936
 30
0.0
 11
-5.89163
 21
-27.343551
 31
0.0
  0
LINE
  5
3E
330
34
100
AcDbEntity
  8
LAYER_1
 62
     7
100
AcDbLine
 10
12.982326
 20
24.903045
 30
0.0
 11
13.440868
 21
28.395338
 31
0.0
  0
LINE
  5
3D
330
34
100
AcDbEntity
  8
LAYER_1
 62
     7
100
AcDbLine
 10
-13.440868
 20
28.395338
 30
0.0
 11
-13.017466
 21
24.903045
 31
0.0
  0
LWPOLYLINE
  5
37
330
34
100
AcDbEntity
  8
LAYER_1
 62
     7
100
AcDbPolyline
 90
        4
 70
     1
 43
0.0
 10
5.930215
 20
-28.748116
 10
-5.875094
 20
-28.748116
 10
-5.875094
 20
-27.322536
 10
5.930215
 20
-27.322536
  0
ENDBLK
  5
212
330
34
100
AcDbEntity
  8
LAYER_1
100
AcDbBlockEnd
  0
BLOCK
  5
214
330
213
100
AcDbEntity
  8
LAYER_1
100
AcDbBlockBegin
  2
AI9-BLK4
 70
     0
 10
0.0
 20
0.0
 30
0.0
  3
AI9-BLK4
  1

  0
LWPOLYLINE
  5
137
330
213
100
AcDbEntity
  8
LAYER_1
 62
   184
100
AcDbPolyline
 90
        4
 70
     0
 43
0.0
 10
11.677151
 20
28.395338
 10
11.077016
 20
28.254434
 10
11.077016
 20
28.536587
 10
11.677151
 20
28.395338
  0
LINE
  5
136
330
213
100
AcDbEntity
  8
LAYER_1
 62
   253
100
AcDbLine
 10
0.000345
 20
27.901656
 30
0.0
 11
0.000345
 21
28.924505
 31
0.0
  0
LINE
  5
135
330
213
100
AcDbEntity
  8
LAYER_1
 62
   253
100
AcDbLine
 10
-0.493682
 20
28.395338
 30
0.0
 11
0.493682
 21
28.395338
 31
0.0
  0
LINE
  5
134
330
213
100
AcDbEntity
  8
LAYER_1
 62
   253
100
AcDbLine
 10
-0.352433
 20
28.748116
 30
0.0
 11
0.353122
 21
28.04256
 31
0.0
  0
LINE
  5
133
330
213
100
AcDbEntity
  8
LAYER_1
 62
   253
100
AcDbLine
 10
0.353122
 20
28.748116
 30
0.0
 11
-0.352433
 21
28.04256
 31
0.0
  0
LINE
  5
132
330
213
100
AcDbEntity
  8
LAYER_1
 62
   184
100
AcDbLine
 10
0.000345
 20
28.395338
 30
0.0
 11
11.677151
 21
28.395338
 31
0.0
  0
HATCH
  5
131
330
213
100
AcDbEntity
  8
LAYER_1
 62
   184
100
AcDbHatch
 10
0.0
 20
0.0
 30
0.0
210
0.0
220
0.0
230
1.0
  2
SOLID
 70
     1
 71
     0
 91
        1
 92
        1
 93
        1
 72
     4
 94
        3
 73
     0
 74
     0
 95
       11
 96
        7
 40
0.0
 40
0.0
 40
0.0
 40
0.0
 40
1.0
 40
1.0
 40
1.0
 40
2.0
 40
2.0
 40
2.0
 40
2.0
 10
11.67715115017361
 20
28.3953382703993
 10
11.67715115017361
 20
28.3953382703993
 10
11.07701551649305
 20
28.25443386501736
 10
11.07701551649305
 20
28.25443386501736
 10
11.07701551649305
 20
28.25443386501736
 10
11.07701551649305
 20
28.53658718532986
 10
11.07701551649305
 20
28.53658718532986
 97
        0
 75
     2
 76
     1
 98
        1
 10
0.0
 20
0.0
  0
LWPOLYLINE
  5
123
330
213
100
AcDbEntity
  8
LAYER_1
 62
     7
100
AcDbPolyline
 90
       12
 70
     0
 43
0.0
 10
-5.891458
 20
-27.343551
 10
-5.856318
 20
-27.343551
 10
-5.715069
 20
-27.343551
 10
-5.432916
 20
-27.343551
 10
-5.044653
 20
-27.343551
 10
-4.550971
 20
-27.343551
 10
-3.95118
 20
-27.343551
 10
-3.245624
 20
-27.343551
 10
-2.504929
 20
-27.343551
 10
-1.693264
 20
-27.343551
 10
-0.846804
 20
-27.343551
 10
0.0
 20
-27.343551
  0
LWPOLYLINE
  5
115
330
213
100
AcDbEntity
  8
LAYER_1
 62
     7
100
AcDbPolyline
 90
       12
 70
     0
 43
0.0
 10
0.0
 20
-27.343551
 10
0.84646
 20
-27.343551
 10
1.693264
 20
-27.343551
 10
2.504584
 20
-27.343551
 10
3.245624
 20
-27.343551
 10
3.95118
 20
-27.343551
 10
4.550627
 20
-27.343551
 10
5.044653
 20
-27.343551
 10
5.432571
 20
-27.343551
 10
5.715069
 20
-27.343551
 10
5.855973
 20
-27.343551
 10
5.891458
 20
-27.343551
  0
LWPOLYLINE
  5
101
330
213
100
AcDbEntity
  8
LAYER_1
 62
     7
100
AcDbPolyline
 90
       18
 70
     0
 43
0.0
 10
-13.44104
 20
28.395338
 10
-13.405211
 20
28.395338
 10
-13.299791
 20
28.395338
 10
-13.052433
 20
28.395338
 10
-12.699655
 20
28.395338
 10
-12.206318
 20
28.395338
 10
-11.641322
 20
28.395338
 10
-10.935767
 20
28.395338
 10
-10.159931
 20
28.395338
 10
-9.277987
 20
28.395338
 10
-8.289933
 20
28.395338
 10
-7.267429
 20
28.395338
 10
-6.138127
 20
28.395338
 10
-4.974373
 20
28.395338
 10
-3.774791
 20
28.395338
 10
-2.540069
 20
28.395338
 10
-1.270207
 20
28.395338
 10
0.000345
 20
28.395338
  0
LWPOLYLINE
  5
ED
330
213
100
AcDbEntity
  8
LAYER_1
 62
     7
100
AcDbPolyline
 90
       18
 70
     0
 43
0.0
 10
0.000345
 20
28.395338
 10
1.270207
 20
28.395338
 10
2.540069
 20
28.395338
 10
3.774791
 20
28.395338
 10
4.974373
 20
28.395338
 10
6.138127
 20
28.395338
 10
7.267429
 20
28.395338
 10
8.290622
 20
28.395338
 10
9.277987
 20
28.395338
 10
10.159931
 20
28.395338
 10
10.936456
 20
28.395338
 10
11.642011
 20
28.395338
 10
12.206318
 20
28.395338
 10
12.700345
 20
28.395338
 10
13.053122
 20
28.395338
 10
13.299791
 20
28.395338
 10
13.4059
 20
28.395338
 10
13.44104
 20
28.395338
  0
LWPOLYLINE
  5
D9
330
213
100
AcDbEntity
  8
LAYER_1
 62
     7
100
AcDbPolyline
 90
       18
 70
     0
 43
0.0
 10
-13.017293
 20
24.903045
 10
-12.982153
 20
24.903045
 10
-12.911873
 20
24.903045
 10
-12.699655
 20
24.903045
 10
-12.346878
 20
24.903045
 10
-11.92382
 20
24.903045
 10
-11.359513
 20
24.903045
 10
-10.689098
 20
24.903045
 10
-9.948402
 20
24.903045
 10
-9.066458
 20
24.903045
 10
-8.149373
 20
24.903045
 10
-7.12618
 20
24.903045
 10
-6.032707
 20
24.903045
 10
-4.903404
 20
24.903045
 10
-3.703822
 20
24.903045
 10
-2.504929
 20
24.903045
 10
-1.270207
 20
24.903045
 10
0.000345
 20
24.903045
  0
LWPOLYLINE
  5
C6
330
213
100
AcDbEntity
  8
LAYER_1
 62
     7
100
AcDbPolyline
 90
       17
 70
     0
 43
0.0
 10
0.000345
 20
24.903045
 10
1.270207
 20
24.903045
 10
2.504929
 20
24.903045
 10
3.704511
 20
24.903045
 10
4.903404
 20
24.903045
 10
6.032707
 20
24.903045
 10
7.12618
 20
24.903045
 10
8.149373
 20
24.903045
 10
9.066458
 20
24.903045
 10
9.948402
 20
24.903045
 10
10.689098
 20
24.903045
 10
11.359513
 20
24.903045
 10
11.92382
 20
24.903045
 10
12.347567
 20
24.903045
 10
12.700345
 20
24.903045
 10
12.911873
 20
24.903045
 10
12.982153
 20
24.903045
  0
LINE
  5
C5
330
213
100
AcDbEntity
  8
LAYER_1
 62
     7
100
AcDbLine
 10
5.891458
 20
-27.343551
 30
0.0
 11
5.891458
 21
24.796936
 31
0.0
  0
LINE
  5
C4
330
213
100
AcDbEntity
  8
LAYER_1
 62
     7
100
AcDbLine
 10
-5.891458
 20
24.796936
 30
0.0
 11
-5.891458
 21
-27.343551
 31
0.0
  0
LINE
  5
C3
330
213
100
AcDbEntity
  8
LAYER_1
 62
     7
100
AcDbLine
 10
12.982153
 20
24.903045
 30
0.0
 11
13.44104
 21
28.395338
 31
0.0
  0
LINE
  5
C2
330
213
100
AcDbEntity
  8
LAYER_1
 62
     7
100
AcDbLine
 10
-13.44104
 20
28.395338
 30
0.0
 11
-13.017293
 21
24.903045
 31
0.0
  0
LWPOLYLINE
  5
BC
330
213
100
AcDbEntity
  8
LAYER_1
 62
     7
100
AcDbPolyline
 90
        4
 70
     1
 43
0.0
 10
5.930043
 20
-28.748116
 10
-5.874921
 20
-28.748116
 10
-5.874921
 20
-27.322536
 10
5.930043
 20
-27.322536
  0
ENDBLK
  5
215
330
213
100
AcDbEntity
  8
LAYER_1
100
AcDbBlockEnd
  0
BLOCK
  5
216
330
1DD
100
AcDbEntity
  8
LAYER_1
100
AcDbBlockBegin
  2
AI9-BLK5
 70
     0
 10
0.0
 20
0.0
 30
0.0
  3
AI9-BLK5
  1

  0
MTEXT
  5
1E1
330
1DD
100
AcDbEntity
  8
LAYER_1
 62
     7
100
AcDbMText
 10
-0.000431
 20
2.075264
 30
0.0
 40
3.339442
 41
0.0
 46
0.0
 71
     1
 72
     2
  1
\fCentury Gothic|b0|i0;\H3.3394;\W1.02;\C7;4
  7
STD
 73
     1
 44
1.0
  0
MTEXT
  5
1E0
330
1DD
100
AcDbEntity
  8
LAYER_1
 62
     7
100
AcDbMText
 10
-2.586664
 20
2.075264
 30
0.0
 40
3.339442
 41
0.0
 46
0.0
 71
     1
 72
     2
  1
\fCentury Gothic|b0|i0;\H3.3394;\W1.02;\C7;5
  7
STD
 73
     1
 44
1.0
  0
ENDBLK
  5
217
330
1DD
100
AcDbEntity
  8
LAYER_1
100
AcDbBlockEnd
  0
ENDSEC
  0
SECTION
  2
ENTITIES
  0
INSERT
  5
2A
330
1F
100
AcDbEntity
  8
LAYER_1
 62
     7
100
AcDbBlockReference
  2
AI9-BLK1
 10
148.492056
 20
104.209315
 30
0.0
  0
ENDSEC
  0
SECTION
  2
OBJECTS
  0
DICTIONARY
  5
C
330
0
100
AcDbDictionary
281
     1
  3
ACAD_COLOR
350
6C
  3
ACAD_GROUP
350
D
  3
ACAD_LAYOUT
350
1A
  3
ACAD_MATERIAL
350
6B
  3
ACAD_MLEADERSTYLE
350
222
  3
ACAD_MLINESTYLE
350
17
  3
ACAD_PLOTSETTINGS
350
19
  3
ACAD_PLOTSTYLENAME
350
E
  3
ACAD_SCALELIST
350
99
  3
ACAD_TABLESTYLE
350
92
  3
ACAD_WIPEOUT_VARS
350
20C
  3
AcDbVariableDictionary
350
59
  0
DICTIONARY
  5
221
330
1F
100
AcDbDictionary
280
     1
281
     1
  0
DICTIONARY
  5
6C
102
{ACAD_REACTORS
330
C
102
}
330
C
100
AcDbDictionary
281
     1
  0
DICTIONARY
  5
D
102
{ACAD_REACTORS
330
C
102
}
330
C
100
AcDbDictionary
281
     1
  0
DICTIONARY
  5
1A
102
{ACAD_REACTORS
330
C
102
}
330
C
100
AcDbDictionary
281
     1
  3
Layout1
350
74
  3
Model
350
22
  0
DICTIONARY
  5
6B
102
{ACAD_REACTORS
330
C
102
}
330
C
100
AcDbDictionary
281
     1
  0
DICTIONARY
  5
222
102
{ACAD_REACTORS
330
C
102
}
330
C
100
AcDbDictionary
281
     1
  0
DICTIONARY
  5
17
102
{ACAD_REACTORS
330
C
102
}
330
C
100
AcDbDictionary
281
     1
  3
Standard
350
18
  0
DICTIONARY
  5
19
102
{ACAD_REACTORS
330
C
102
}
330
C
100
AcDbDictionary
281
     1
  0
ACDBDICTIONARYWDFLT
  5
E
102
{ACAD_REACTORS
330
C
102
}
330
C
100
AcDbDictionary
281
     1
  3
Normal
350
F
100
AcDbDictionaryWithDefault
340
F
  0
DICTIONARY
  5
99
102
{ACAD_REACTORS
330
C
102
}
330
C
100
AcDbDictionary
281
     1
  3
A0
350
9A
  3
A1
350
9B
  3
A2
350
9C
  3
A3
350
9D
  3
A4
350
9E
  3
A5
350
9F
  3
A6
350
A0
  3
A7
350
A1
  3
A8
350
A2
  3
A9
350
A3
  3
B0
350
A4
  3
B1
350
A5
  3
B2
350
A6
  3
B3
350
A7
  3
B4
350
A8
  3
B5
350
A9
  3
B6
350
AA
  3
B7
350
AB
  3
B8
350
AC
  3
B9
350
AD
  3
C0
350
AE
  3
C1
350
AF
  3
C2
350
B0
  3
C3
350
B1
  3
C4
350
B2
  3
C5
350
B3
  3
C6
350
B4
  3
C7
350
B5
  3
C8
350
B6
  3
C9
350
B7
  3
D0
350
B8
  3
D1
350
B9
  3
D2
350
BA
  0
DICTIONARY
  5
92
102
{ACAD_REACTORS
330
C
102
}
330
C
100
AcDbDictionary
281
     1
  3
Standard
350
93
  0
WIPEOUTVARIABLES
  5
20C
102
{ACAD_REACTORS
330
C
102
}
330
C
100
AcDbWipeoutVariables
 70
     1
  0
DICTIONARY
  5
59
102
{ACAD_REACTORS
330
C
102
}
330
C
100
AcDbDictionary
281
     1
  3
CANNOSCALE
350
223
  3
CTABLESTYLE
350
98
  3
DIMASSOC
350
207
  3
HIDETEXT
350
5E
  0
LAYOUT
  5
74
102
{ACAD_REACTORS
330
1A
102
}
330
1A
100
AcDbPlotSettings
  1

  2
none_device
  4
ISO_C5_(229.00_x_162.00_MM)
  6

 40
0.0
 41
0.0
 42
0.0
 43
0.0
 44
229.0
 45
162.0
 46
0.0
 47
0.0
 48
0.0
 49
0.0
140
0.0
141
0.0
142
1.0
143
1.0
 70
   544
 72
     1
 73
     0
 74
     0
  7

 75
    16
 76
     0
 77
     2
 78
   300
147
1.0
148
0.0
149
0.0
100
AcDbLayout
  1
Layout1
 70
     0
 71
     0
 10
0.0
 20
0.0
 11
0.0
 21
0.0
 12
0.0
 22
0.0
 32
0.0
 14
0.0
 24
0.0
 34
0.0
 15
0.0
 25
0.0
 35
0.0
146
0.0
 13
0.0
 23
0.0
 33
0.0
 16
1.0
 26
0.0
 36
0.0
 17
0.0
 27
1.0
 37
0.0
 76
     0
330
73
  0
LAYOUT
  5
22
102
{ACAD_REACTORS
330
1A
102
}
330
1A
100
AcDbPlotSettings
  1

  2
none_device
  4
ISO_C5_(229.00_x_162.00_MM)
  6

 40
0.0
 41
0.0
 42
0.0
 43
0.0
 44
229.0
 45
162.0
 46
0.0
 47
0.0
 48
0.0
 49
0.0
140
0.0
141
0.0
142
1.0
143
1.0
 70
 11936
 72
     1
 73
     0
 74
     0
  7

 75
     0
 76
     0
 77
     2
 78
   300
147
1.013881397507802
148
0.0
149
0.0
100
AcDbLayout
  1
Model
 70
     1
 71
     0
 10
27.44432
 20
59.523671
 11
269.539792
 21
148.89496
 12
0.0
 22
0.0
 32
0.0
 14
27.62070899999999
 24
59.576725
 34
0.0
 15
269.363404
 25
148.3865097851802
 35
0.0
146
0.0
 13
0.0
 23
0.0
 33
0.0
 16
1.0
 26
0.0
 36
0.0
 17
0.0
 27
1.0
 37
0.0
 76
     0
330
1F
331
97
  0
MLINESTYLE
  5
18
102
{ACAD_REACTORS
330
17
102
}
330
17
100
AcDbMlineStyle
  2
Standard
 70
     0
  3

 62
     0
 51
90.0
 52
90.0
 71
     2
 49
0.5
 62
   256
  6
BYLAYER
 49
-0.5
 62
   256
  6
BYLAYER
  0
ACDBPLACEHOLDER
  5
F
102
{ACAD_REACTORS
330
E
102
}
330
E
  0
SCALE
  5
9A
102
{ACAD_REACTORS
330
99
102
}
330
99
100
AcDbScale
 70
     0
300
1:1
140
1.0
141
1.0
290
     1
  0
SCALE
  5
9B
102
{ACAD_REACTORS
330
99
102
}
330
99
100
AcDbScale
 70
     0
300
1:2
140
1.0
141
2.0
290
     0
  0
SCALE
  5
9C
102
{ACAD_REACTORS
330
99
102
}
330
99
100
AcDbScale
 70
     0
300
1:4
140
1.0
141
4.0
290
     0
  0
SCALE
  5
9D
102
{ACAD_REACTORS
330
99
102
}
330
99
100
AcDbScale
 70
     0
300
1:5
140
1.0
141
5.0
290
     0
  0
SCALE
  5
9E
102
{ACAD_REACTORS
330
99
102
}
330
99
100
AcDbScale
 70
     0
300
1:8
140
1.0
141
8.0
290
     0
  0
SCALE
  5
9F
102
{ACAD_REACTORS
330
99
102
}
330
99
100
AcDbScale
 70
     0
300
1:10
140
1.0
141
10.0
290
     0
  0
SCALE
  5
A0
102
{ACAD_REACTORS
330
99
102
}
330
99
100
AcDbScale
 70
     0
300
1:16
140
1.0
141
16.0
290
     0
  0
SCALE
  5
A1
102
{ACAD_REACTORS
330
99
102
}
330
99
100
AcDbScale
 70
     0
300
1:20
140
1.0
141
20.0
290
     0
  0
SCALE
  5
A2
102
{ACAD_REACTORS
330
99
102
}
330
99
100
AcDbScale
 70
     0
300
1:30
140
1.0
141
30.0
290
     0
  0
SCALE
  5
A3
102
{ACAD_REACTORS
330
99
102
}
330
99
100
AcDbScale
 70
     0
300
1:40
140
1.0
141
40.0
290
     0
  0
SCALE
  5
A4
102
{ACAD_REACTORS
330
99
102
}
330
99
100
AcDbScale
 70
     0
300
1:50
140
1.0
141
50.0
290
     0
  0
SCALE
  5
A5
102
{ACAD_REACTORS
330
99
102
}
330
99
100
AcDbScale
 70
     0
300
1:100
140
1.0
141
100.0
290
     0
  0
SCALE
  5
A6
102
{ACAD_REACTORS
330
99
102
}
330
99
100
AcDbScale
 70
     0
300
2:1
140
2.0
141
1.0
290
     0
  0
SCALE
  5
A7
102
{ACAD_REACTORS
330
99
102
}
330
99
100
AcDbScale
 70
     0
300
4:1
140
4.0
141
1.0
290
     0
  0
SCALE
  5
A8
102
{ACAD_REACTORS
330
99
102
}
330
99
100
AcDbScale
 70
     0
300
8:1
140
8.0
141
1.0
290
     0
  0
SCALE
  5
A9
102
{ACAD_REACTORS
330
99
102
}
330
99
100
AcDbScale
 70
     0
300
10:1
140
10.0
141
1.0
290
     0
  0
SCALE
  5
AA
102
{ACAD_REACTORS
330
99
102
}
330
99
100
AcDbScale
 70
     0
300
100:1
140
100.0
141
1.0
290
     0
  0
SCALE
  5
AB
102
{ACAD_REACTORS
330
99
102
}
330
99
100
AcDbScale
 70
     0
300
1/128" = 1'-0"
140
0.0078125
141
12.0
290
     0
  0
SCALE
  5
AC
102
{ACAD_REACTORS
330
99
102
}
330
99
100
AcDbScale
 70
     0
300
1/64" = 1'-0"
140
0.015625
141
12.0
290
     0
  0
SCALE
  5
AD
102
{ACAD_REACTORS
330
99
102
}
330
99
100
AcDbScale
 70
     0
300
1/32" = 1'-0"
140
0.03125
141
12.0
290
     0
  0
SCALE
  5
AE
102
{ACAD_REACTORS
330
99
102
}
330
99
100
AcDbScale
 70
     0
300
1/16" = 1'-0"
140
0.0625
141
12.0
290
     0
  0
SCALE
  5
AF
102
{ACAD_REACTORS
330
99
102
}
330
99
100
AcDbScale
 70
     0
300
3/32" = 1'-0"
140
0.09375
141
12.0
290
     0
  0
SCALE
  5
B0
102
{ACAD_REACTORS
330
99
102
}
330
99
100
AcDbScale
 70
     0
300
1/8" = 1'-0"
140
0.125
141
12.0
290
     0
  0
SCALE
  5
B1
102
{ACAD_REACTORS
330
99
102
}
330
99
100
AcDbScale
 70
     0
300
3/16" = 1'-0"
140
0.1875
141
12.0
290
     0
  0
SCALE
  5
B2
102
{ACAD_REACTORS
330
99
102
}
330
99
100
AcDbScale
 70
     0
300
1/4" = 1'-0"
140
0.25
141
12.0
290
     0
  0
SCALE
  5
B3
102
{ACAD_REACTORS
330
99
102
}
330
99
100
AcDbScale
 70
     0
300
3/8" = 1'-0"
140
0.375
141
12.0
290
     0
  0
SCALE
  5
B4
102
{ACAD_REACTORS
330
99
102
}
330
99
100
AcDbScale
 70
     0
300
1/2" = 1'-0"
140
0.5
141
12.0
290
     0
  0
SCALE
  5
B5
102
{ACAD_REACTORS
330
99
102
}
330
99
100
AcDbScale
 70
     0
300
3/4" = 1'-0"
140
0.75
141
12.0
290
     0
  0
SCALE
  5
B6
102
{ACAD_REACTORS
330
99
102
}
330
99
100
AcDbScale
 70
     0
300
1" = 1'-0"
140
1.0
141
12.0
290
     0
  0
SCALE
  5
B7
102
{ACAD_REACTORS
330
99
102
}
330
99
100
AcDbScale
 70
     0
300
1-1/2" = 1'-0"
140
1.5
141
12.0
290
     0
  0
SCALE
  5
B8
102
{ACAD_REACTORS
330
99
102
}
330
99
100
AcDbScale
 70
     0
300
3" = 1'-0"
140
3.0
141
12.0
290
     0
  0
SCALE
  5
B9
102
{ACAD_REACTORS
330
99
102
}
330
99
100
AcDbScale
 70
     0
300
6" = 1'-0"
140
6.0
141
12.0
290
     0
  0
SCALE
  5
BA
102
{ACAD_REACTORS
330
99
102
}
330
99
100
AcDbScale
 70
     0
300
1'-0" = 1'-0"
140
12.0
141
12.0
290
     0
  0
TABLESTYLE
  5
93
102
{ACAD_REACTORS
330
92
102
}
330
92
100
AcDbTableStyle
  3
Standard
 70
     0
 71
     0
 40
0.06
 41
0.06
280
     0
281
     0
  7
Standard
140
0.18
170
     2
 62
     0
 63
     7
283
     0
 90
      512
 91
        0
  1

274
    -2
284
     1
 64
     0
275
    -2
285
     1
 65
     0
276
    -2
286
     1
 66
     0
277
    -2
287
     1
 67
     0
278
    -2
288
     1
 68
     0
279
    -2
289
     1
 69
     0
  7
Standard
140
0.25
170
     5
 62
     0
 63
     7
283
     0
 90
      512
 91
        0
  1

274
    -2
284
     1
 64
     0
275
    -2
285
     1
 65
     0
276
    -2
286
     1
 66
     0
277
    -2
287
     1
 67
     0
278
    -2
288
     1
 68
     0
279
    -2
289
     1
 69
     0
  7
Standard
140
0.18
170
     5
 62
     0
 63
     7
283
     0
 90
      512
 91
        0
  1

274
    -2
284
     1
 64
     0
275
    -2
285
     1
 65
     0
276
    -2
286
     1
 66
     0
277
    -2
287
     1
 67
     0
278
    -2
288
     1
 68
     0
279
    -2
289
     1
 69
     0
  0
DICTIONARYVAR
  5
223
102
{ACAD_REACTORS
330
59
102
}
330
59
100
DictionaryVariables
280
     0
  1
1:1
  0
DICTIONARYVAR
  5
98
102
{ACAD_REACTORS
330
59
102
}
330
59
100
DictionaryVariables
280
     0
  1
Standard
  0
DICTIONARYVAR
  5
207
102
{ACAD_REACTORS
330
59
102
}
330
59
100
DictionaryVariables
280
     0
  1
2
  0
DICTIONARYVAR
  5
5E
102
{ACAD_REACTORS
330
59
102
}
330
59
100
DictionaryVariables
280
     0
  1
1
  0
ENDSEC
  0
EOF
