  0
SECTION
  2
HEADER
  9
$ACADVER
  1
AC1027
  9
$ACADMAINTVER
 70
   125
  9
$DWGCODEPAGE
  3
ANSI_1252
  9
$LASTSAVEDBY
  1
fleminab
  9
$REQUIREDVERSIONS
160
                 0
  9
$INSBASE
 10
0.0
 20
0.0
 30
0.0
  9
$EXTMIN
 10
1.924486120865722
 20
0.2538105015953036
 30
-0.0000000349181948
  9
$EXTMAX
 10
14.73972821939824
 20
12.23768549751239
 30
0.0000000814935746
  9
$LIMMIN
 10
0.0
 20
0.0
  9
$LIMMAX
 10
12.0
 20
9.0
  9
$ORTHOMODE
 70
     0
  9
$REGENMODE
 70
     1
  9
$FILLMODE
 70
     1
  9
$QTEXTMODE
 70
     0
  9
$MIRRTEXT
 70
     0
  9
$LTSCALE
 40
1.0
  9
$ATTMODE
 70
     1
  9
$TEXTSIZE
 40
0.2
  9
$TRACEWID
 40
0.05
  9
$TEXTSTYLE
  7
Standard
  9
$CLAYER
  8
0
  9
$CELTYPE
  6
ByLayer
  9
$CECOLOR
 62
   256
  9
$CELTSCALE
 40
1.0
  9
$DISPSILH
 70
     0
  9
$DIMSCALE
 40
1.0
  9
$DIMASZ
 40
0.18
  9
$DIMEXO
 40
0.0625
  9
$DIMDLI
 40
0.38
  9
$DIMRND
 40
0.0
  9
$DIMDLE
 40
0.0
  9
$DIMEXE
 40
0.18
  9
$DIMTP
 40
0.0
  9
$DIMTM
 40
0.0
  9
$DIMTXT
 40
0.18
  9
$DIMCEN
 40
0.09
  9
$DIMTSZ
 40
0.0
  9
$DIMTOL
 70
     0
  9
$DIMLIM
 70
     0
  9
$DIMTIH
 70
     1
  9
$DIMTOH
 70
     1
  9
$DIMSE1
 70
     0
  9
$DIMSE2
 70
     0
  9
$DIMTAD
 70
     0
  9
$DIMZIN
 70
     0
  9
$DIMBLK
  1

  9
$DIMASO
 70
     1
  9
$DIMSHO
 70
     1
  9
$DIMPOST
  1

  9
$DIMAPOST
  1

  9
$DIMALT
 70
     0
  9
$DIMALTD
 70
     2
  9
$DIMALTF
 40
25.4
  9
$DIMLFAC
 40
1.0
  9
$DIMTOFL
 70
     0
  9
$DIMTVP
 40
0.0
  9
$DIMTIX
 70
     0
  9
$DIMSOXD
 70
     0
  9
$DIMSAH
 70
     0
  9
$DIMBLK1
  1

  9
$DIMBLK2
  1

  9
$DIMSTYLE
  2
Standard
  9
$DIMCLRD
 70
     0
  9
$DIMCLRE
 70
     0
  9
$DIMCLRT
 70
     0
  9
$DIMTFAC
 40
1.0
  9
$DIMGAP
 40
0.09
  9
$DIMJUST
 70
     0
  9
$DIMSD1
 70
     0
  9
$DIMSD2
 70
     0
  9
$DIMTOLJ
 70
     1
  9
$DIMTZIN
 70
     0
  9
$DIMALTZ
 70
     0
  9
$DIMALTTZ
 70
     0
  9
$DIMUPT
 70
     0
  9
$DIMDEC
 70
     4
  9
$DIMTDEC
 70
     4
  9
$DIMALTU
 70
     2
  9
$DIMALTTD
 70
     2
  9
$DIMTXSTY
  7
Standard
  9
$DIMAUNIT
 70
     0
  9
$DIMADEC
 70
     0
  9
$DIMALTRND
 40
0.0
  9
$DIMAZIN
 70
     0
  9
$DIMDSEP
 70
    46
  9
$DIMATFIT
 70
     3
  9
$DIMFRAC
 70
     0
  9
$DIMLDRBLK
  1

  9
$DIMLUNIT
 70
     2
  9
$DIMLWD
 70
    -2
  9
$DIMLWE
 70
    -2
  9
$DIMTMOVE
 70
     0
  9
$DIMFXL
 40
1.0
  9
$DIMFXLON
 70
     0
  9
$DIMJOGANG
 40
0.7853981633974483
  9
$DIMTFILL
 70
     0
  9
$DIMTFILLCLR
 70
     0
  9
$DIMARCSYM
 70
     0
  9
$DIMLTYPE
  6

  9
$DIMLTEX1
  6

  9
$DIMLTEX2
  6

  9
$DIMTXTDIRECTION
 70
     0
  9
$LUNITS
 70
     2
  9
$LUPREC
 70
     4
  9
$SKETCHINC
 40
0.1
  9
$FILLETRAD
 40
0.0
  9
$AUNITS
 70
     0
  9
$AUPREC
 70
     0
  9
$MENU
  1
.
  9
$ELEVATION
 40
0.0
  9
$PELEVATION
 40
0.0
  9
$THICKNESS
 40
0.0
  9
$LIMCHECK
 70
     0
  9
$CHAMFERA
 40
0.0
  9
$CHAMFERB
 40
0.0
  9
$CHAMFERC
 40
0.0
  9
$CHAMFERD
 40
0.0
  9
$SKPOLY
 70
     0
  9
$TDCREATE
 40
2458248.511886574
  9
$TDUCREATE
 40
2458248.095219907
  9
$TDUPDATE
 40
2458248.512210648
  9
$TDUUPDATE
 40
2458248.095543982
  9
$TDINDWG
 40
0.0003240741
  9
$TDUSRTIMER
 40
0.0003240741
  9
$USRTIMER
 70
     1
  9
$ANGBASE
 50
0.0
  9
$ANGDIR
 70
     0
  9
$PDMODE
 70
     0
  9
$PDSIZE
 40
0.0
  9
$PLINEWID
 40
0.0
  9
$SPLFRAME
 70
     0
  9
$SPLINETYPE
 70
     6
  9
$SPLINESEGS
 70
     8
  9
$HANDSEED
  5
363
  9
$SURFTAB1
 70
     6
  9
$SURFTAB2
 70
     6
  9
$SURFTYPE
 70
     6
  9
$SURFU
 70
     6
  9
$SURFV
 70
     6
  9
$UCSBASE
  2

  9
$UCSNAME
  2

  9
$UCSORG
 10
0.0
 20
0.0
 30
0.0
  9
$UCSXDIR
 10
1.0
 20
0.0
 30
0.0
  9
$UCSYDIR
 10
0.0
 20
1.0
 30
0.0
  9
$UCSORTHOREF
  2

  9
$UCSORTHOVIEW
 70
     0
  9
$UCSORGTOP
 10
0.0
 20
0.0
 30
0.0
  9
$UCSORGBOTTOM
 10
0.0
 20
0.0
 30
0.0
  9
$UCSORGLEFT
 10
0.0
 20
0.0
 30
0.0
  9
$UCSORGRIGHT
 10
0.0
 20
0.0
 30
0.0
  9
$UCSORGFRONT
 10
0.0
 20
0.0
 30
0.0
  9
$UCSORGBACK
 10
0.0
 20
0.0
 30
0.0
  9
$PUCSBASE
  2

  9
$PUCSNAME
  2

  9
$PUCSORG
 10
0.0
 20
0.0
 30
0.0
  9
$PUCSXDIR
 10
1.0
 20
0.0
 30
0.0
  9
$PUCSYDIR
 10
0.0
 20
1.0
 30
0.0
  9
$PUCSORTHOREF
  2

  9
$PUCSORTHOVIEW
 70
     0
  9
$PUCSORGTOP
 10
0.0
 20
0.0
 30
0.0
  9
$PUCSORGBOTTOM
 10
0.0
 20
0.0
 30
0.0
  9
$PUCSORGLEFT
 10
0.0
 20
0.0
 30
0.0
  9
$PUCSORGRIGHT
 10
0.0
 20
0.0
 30
0.0
  9
$PUCSORGFRONT
 10
0.0
 20
0.0
 30
0.0
  9
$PUCSORGBACK
 10
0.0
 20
0.0
 30
0.0
  9
$USERI1
 70
     0
  9
$USERI2
 70
     0
  9
$USERI3
 70
     0
  9
$USERI4
 70
     0
  9
$USERI5
 70
     0
  9
$USERR1
 40
0.0
  9
$USERR2
 40
0.0
  9
$USERR3
 40
0.0
  9
$USERR4
 40
0.0
  9
$USERR5
 40
0.0
  9
$WORLDVIEW
 70
     1
  9
$SHADEDGE
 70
     3
  9
$SHADEDIF
 70
    70
  9
$TILEMODE
 70
     1
  9
$MAXACTVP
 70
    64
  9
$PINSBASE
 10
0.0
 20
0.0
 30
0.0
  9
$PLIMCHECK
 70
     0
  9
$PEXTMIN
 10
1.000000000000000E+20
 20
1.000000000000000E+20
 30
1.000000000000000E+20
  9
$PEXTMAX
 10
-1.000000000000000E+20
 20
-1.000000000000000E+20
 30
-1.000000000000000E+20
  9
$PLIMMIN
 10
-0.7524054877282309
 20
-0.5025428238148726
  9
$PLIMMAX
 10
35.24759547345533
 20
23.49745621500156
  9
$UNITMODE
 70
     0
  9
$VISRETAIN
 70
     1
  9
$PLINEGEN
 70
     0
  9
$PSLTSCALE
 70
     1
  9
$TREEDEPTH
 70
  3020
  9
$CMLSTYLE
  2
Standard
  9
$CMLJUST
 70
     0
  9
$CMLSCALE
 40
1.0
  9
$PROXYGRAPHICS
 70
     1
  9
$MEASUREMENT
 70
     0
  9
$CELWEIGHT
370
    -1
  9
$ENDCAPS
280
     0
  9
$JOINSTYLE
280
     0
  9
$LWDISPLAY
290
     0
  9
$INSUNITS
 70
     1
  9
$HYPERLINKBASE
  1

  9
$STYLESHEET
  1

  9
$XEDIT
290
     1
  9
$CEPSNTYPE
380
     0
  9
$PSTYLEMODE
290
     1
  9
$FINGERPRINTGUID
  2
{645B545C-A925-F04D-A8E0-BD45A68EDAF0}
  9
$VERSIONGUID
  2
{BA7F1EFB-92EF-2D40-B565-4BBF0AB364B2}
  9
$EXTNAMES
290
     1
  9
$PSVPSCALE
 40
0.0
  9
$OLESTARTUP
290
     0
  9
$SORTENTS
280
   127
  9
$INDEXCTL
280
     0
  9
$HIDETEXT
280
     0
  9
$XCLIPFRAME
280
     0
  9
$HALOGAP
280
     0
  9
$OBSCOLOR
 70
   257
  9
$OBSLTYPE
280
     0
  9
$INTERSECTIONDISPLAY
280
     0
  9
$INTERSECTIONCOLOR
 70
   257
  9
$DIMASSOC
280
     1
  9
$PROJECTNAME
  1

  9
$CAMERADISPLAY
290
     0
  9
$LENSLENGTH
 40
50.0
  9
$CAMERAHEIGHT
 40
0.0
  9
$STEPSPERSEC
 40
2.0
  9
$STEPSIZE
 40
6.0
  9
$3DDWFPREC
 40
2.0
  9
$PSOLWIDTH
 40
0.25
  9
$PSOLHEIGHT
 40
4.0
  9
$LOFTANG1
 40
1.570796326794896
  9
$LOFTANG2
 40
1.570796326794896
  9
$LOFTMAG1
 40
0.0
  9
$LOFTMAG2
 40
0.0
  9
$LOFTPARAM
 70
     7
  9
$LOFTNORMALS
280
     1
  9
$LATITUDE
 40
37.795
  9
$LONGITUDE
 40
-122.394
  9
$NORTHDIRECTION
 40
0.0
  9
$TIMEZONE
 70
 -8000
  9
$LIGHTGLYPHDISPLAY
280
     1
  9
$TILEMODELIGHTSYNCH
280
     1
  9
$CMATERIAL
347
7F
  9
$SOLIDHIST
280
     1
  9
$SHOWHIST
280
     1
  9
$DWFFRAME
280
     2
  9
$DGNFRAME
280
     0
  9
$REALWORLDSCALE
290
     1
  9
$INTERFERECOLOR
 62
     1
  9
$INTERFEREOBJVS
345
8C
  9
$INTERFEREVPVS
346
A5
  9
$CSHADOW
280
     0
  9
$SHADOWPLANELOCATION
 40
0.0
  0
ENDSEC
  0
SECTION
  2
CLASSES
  0
CLASS
  1
ACDBDICTIONARYWDFLT
  2
AcDbDictionaryWithDefault
  3
ObjectDBX Classes
 90
        0
 91
        1
280
     0
281
     0
  0
CLASS
  1
PLOTSETTINGS
  2
AcDbPlotSettings
  3
ObjectDBX Classes
 90
        0
 91
        0
280
     0
281
     0
  0
CLASS
  1
MATERIAL
  2
AcDbMaterial
  3
ObjectDBX Classes
 90
     1153
 91
        3
280
     0
281
     0
  0
CLASS
  1
VISUALSTYLE
  2
AcDbVisualStyle
  3
ObjectDBX Classes
 90
     4095
 91
       26
280
     0
281
     0
  0
CLASS
  1
TABLESTYLE
  2
AcDbTableStyle
  3
ObjectDBX Classes
 90
     4095
 91
        1
280
     0
281
     0
  0
CLASS
  1
DICTIONARYVAR
  2
AcDbDictionaryVar
  3
ObjectDBX Classes
 90
        0
 91
       17
280
     0
281
     0
  0
CLASS
  1
SCALE
  2
AcDbScale
  3
ObjectDBX Classes
 90
     1153
 91
       17
280
     0
281
     0
  0
CLASS
  1
MLEADERSTYLE
  2
AcDbMLeaderStyle
  3
ACDB_MLEADERSTYLE_CLASS
 90
     4095
 91
        1
280
     0
281
     0
  0
CLASS
  1
ACDBSECTIONVIEWSTYLE
  2
AcDbSectionViewStyle
  3
ObjectDBX Classes
 90
     1025
 91
        1
280
     0
281
     0
  0
CLASS
  1
ACDBDETAILVIEWSTYLE
  2
AcDbDetailViewStyle
  3
ObjectDBX Classes
 90
     1025
 91
        1
280
     0
281
     0
  0
CLASS
  1
CELLSTYLEMAP
  2
AcDbCellStyleMap
  3
ObjectDBX Classes
 90
     1152
 91
        1
280
     0
281
     0
  0
ENDSEC
  0
SECTION
  2
TABLES
  0
TABLE
  2
VPORT
  5
19
330
0
100
AcDbSymbolTable
 70
     1
1001
ACAD
1000
DbSaveVer
1071
        5
  0
VPORT
  5
7D
330
19
100
AcDbSymbolTableRecord
100
AcDbViewportTableRecord
  2
*Active
 70
     0
 10
0.0
 20
0.0
 11
1.0
 21
1.0
 12
8.332107170131983
 22
6.245747999553845
 13
0.0
 23
0.0
 14
0.5
 24
0.5
 15
0.5
 25
0.5
 16
0.0
 26
0.0
 36
1.0
 17
0.0
 27
0.0
 37
0.0
 40
12.0696783968425
 41
2.292712066905615
 42
50.0
 43
0.0
 44
0.0
 50
0.0
 51
0.0
 71
     0
 72
  1000
 73
     1
 74
     3
 75
     0
 76
     0
 77
     0
 78
     0
281
     0
 65
     1
110
0.0
120
0.0
130
0.0
111
1.0
121
0.0
131
0.0
112
0.0
122
1.0
132
0.0
 79
     0
146
0.0
348
88
 60
     3
 61
     5
292
     1
282
     1
141
0.0
142
0.0
 63
   250
421
  3355443
1001
ACAD_NAV_VCDISPLAY
1070
     3
  0
ENDTAB
  0
TABLE
  2
LTYPE
  5
14
330
0
100
AcDbSymbolTable
 70
     1
  0
LTYPE
  5
15
330
14
100
AcDbSymbolTableRecord
100
AcDbLinetypeTableRecord
  2
ByBlock
 70
     0
  3

 72
    65
 73
     0
 40
0.0
  0
LTYPE
  5
16
330
14
100
AcDbSymbolTableRecord
100
AcDbLinetypeTableRecord
  2
ByLayer
 70
     0
  3

 72
    65
 73
     0
 40
0.0
  0
LTYPE
  5
8
330
14
100
AcDbSymbolTableRecord
100
AcDbLinetypeTableRecord
  2
Continuous
 70
     0
  3
Solid line
 72
    65
 73
     0
 40
0.0
  0
ENDTAB
  0
TABLE
  2
LAYER
  5
10
330
0
100
AcDbSymbolTable
 70
     4
  0
LAYER
  5
4
102
{ACAD_XDICTIONARY
360
33E
102
}
330
10
100
AcDbSymbolTableRecord
100
AcDbLayerTableRecord
  2
0
 70
     0
 62
     7
  6
Continuous
370
    -3
390
5
347
81
348
0
  0
LAYER
  5
25
102
{ACAD_XDICTIONARY
360
340
102
}
330
10
100
AcDbSymbolTableRecord
100
AcDbLayerTableRecord
  2
Title Block
 70
     0
 62
     7
  6
Continuous
370
    -3
390
5
347
81
348
0
  0
LAYER
  5
CE
102
{ACAD_XDICTIONARY
360
342
102
}
330
10
100
AcDbSymbolTableRecord
100
AcDbLayerTableRecord
  2
PDF_Layer 1
 70
     0
 62
    28
420
  1052429
  6
Continuous
370
    -3
390
5
347
81
348
0
  0
LAYER
  5
D7
102
{ACAD_XDICTIONARY
360
344
102
}
330
10
100
AcDbSymbolTableRecord
100
AcDbLayerTableRecord
  2
PDF_Text
 70
     0
 62
   250
420
  2301728
  6
Continuous
370
    -3
390
5
347
81
348
0
  0
ENDTAB
  0
TABLE
  2
STYLE
  5
11
330
0
100
AcDbSymbolTable
 70
     3
  0
STYLE
  5
12
330
11
100
AcDbSymbolTableRecord
100
AcDbTextStyleTableRecord
  2
Standard
 70
     0
 40
0.0
 41
1.0
 50
0.0
 71
     0
 42
0.2
  3
txt
  4

  0
STYLE
  5
27
330
11
100
AcDbSymbolTableRecord
100
AcDbTextStyleTableRecord
  2
Roman
 70
     0
 40
0.0
 41
1.0
 50
0.0
 71
     0
 42
0.2
  3
ROMANS.SHX
  4

  0
STYLE
  5
D6
330
11
100
AcDbSymbolTableRecord
100
AcDbTextStyleTableRecord
  2
PDF Arial
 70
     0
 40
0.0
 41
1.0
 50
0.0
 71
     0
 42
0.2
  3
arial.ttf
  4

1001
ACAD
1000
Arial
1071
       34
  0
ENDTAB
  0
TABLE
  2
VIEW
  5
17
330
0
100
AcDbSymbolTable
 70
     0
  0
ENDTAB
  0
TABLE
  2
UCS
  5
18
330
0
100
AcDbSymbolTable
 70
     0
  0
ENDTAB
  0
TABLE
  2
APPID
  5
1B
330
0
100
AcDbSymbolTable
 70
     2
  0
APPID
  5
1C
330
1B
100
AcDbSymbolTableRecord
100
AcDbRegAppTableRecord
  2
ACAD
 70
     0
  0
APPID
  5
346
330
1B
100
AcDbSymbolTableRecord
100
AcDbRegAppTableRecord
  2
ACAD_NAV_VCDISPLAY
 70
     0
  0
ENDTAB
  0
TABLE
  2
DIMSTYLE
  5
1D
330
0
100
AcDbSymbolTable
 70
     1
100
AcDbDimStyleTable
 71
     0
  0
DIMSTYLE
105
23
330
1D
100
AcDbSymbolTableRecord
100
AcDbDimStyleTableRecord
  2
Standard
 70
     0
340
12
  0
ENDTAB
  0
TABLE
  2
BLOCK_RECORD
  5
1
330
0
100
AcDbSymbolTable
 70
     0
  0
BLOCK_RECORD
  5
2
330
1
100
AcDbSymbolTableRecord
100
AcDbBlockTableRecord
  2
*Model_Space
340
A
 70
     0
280
     1
281
     0
  0
BLOCK_RECORD
  5
C
330
1
100
AcDbSymbolTableRecord
100
AcDbBlockTableRecord
  2
*Paper_Space
340
F
 70
     0
280
     1
281
     0
  0
ENDTAB
  0
ENDSEC
  0
SECTION
  2
BLOCKS
  0
BLOCK
  5
3
330
2
100
AcDbEntity
  8
0
100
AcDbBlockBegin
  2
*Model_Space
 70
     2
 10
0.0
 20
0.0
 30
0.0
  3
*Model_Space
  1

  0
ENDBLK
  5
9
330
2
100
AcDbEntity
  8
0
100
AcDbBlockEnd
  0
BLOCK
  5
D
330
C
100
AcDbEntity
 67
     1
  8
0
100
AcDbBlockBegin
  2
*Paper_Space
 70
     0
 10
0.0
 20
0.0
 30
0.0
  3
*Paper_Space
  1

  0
ENDBLK
  5
E
330
C
100
AcDbEntity
 67
     1
  8
0
100
AcDbBlockEnd
  0
ENDSEC
  0
SECTION
  2
ENTITIES
  0
SOLID
  5
CF
330
2
100
AcDbEntity
  8
PDF_Layer 1
 62
     7
420
 16777215
440
 33554559
370
    25
100
AcDbTrace
 10
11.5602625
 20
6.83049861111111
 30
0.0
 11
11.54347083333333
 21
6.86999861111111
 31
0.0
 12
11.46662361111111
 22
6.86999861111111
 32
0.0
 13
11.5602625
 23
6.90949861111111
 33
0.0
  0
SOLID
  5
D0
330
2
100
AcDbEntity
  8
PDF_Layer 1
 62
     7
420
 16777215
440
 33554559
370
    25
100
AcDbTrace
 10
14.64469444444444
 20
6.83049861111111
 30
0.0
 11
14.66147222222222
 21
6.86999861111111
 31
0.0
 12
14.73831944444444
 22
6.86999861111111
 32
0.0
 13
14.64469444444444
 23
6.90949861111111
 33
0.0
  0
SOLID
  5
D1
330
2
100
AcDbEntity
  8
PDF_Layer 1
 62
     7
420
 16777215
440
 33554559
370
    25
100
AcDbTrace
 10
6.57929861111111
 20
0.2771541666666666
 30
0.0
 11
6.562520833333333
 21
0.3166541666666666
 31
0.0
 12
6.485659722222221
 22
0.3166541666666666
 32
0.0
 13
6.57929861111111
 23
0.3561402777777777
 33
0.0
  0
SOLID
  5
D2
330
2
100
AcDbEntity
  8
PDF_Layer 1
 62
     7
420
 16777215
440
 33554559
370
    25
100
AcDbTrace
 10
7.927205555555556
 20
0.2771541666666666
 30
0.0
 11
7.943983333333333
 21
0.3166541666666666
 31
0.0
 12
8.020844444444444
 22
0.3166541666666666
 32
0.0
 13
7.927205555555556
 23
0.3561402777777777
 33
0.0
  0
SOLID
  5
D3
330
2
100
AcDbEntity
  8
PDF_Layer 1
 62
     7
420
 16777215
440
 33554559
370
    25
100
AcDbTrace
 10
4.130466666666666
 20
5.625529166666665
 30
0.0
 11
4.169966666666666
 21
5.642306944444443
 31
0.0
 12
4.169966666666666
 22
5.719154166666665
 32
0.0
 13
4.209466666666665
 23
5.625529166666665
 33
0.0
  0
SOLID
  5
D4
330
2
100
AcDbEntity
  8
PDF_Layer 1
 62
     7
420
 16777215
440
 33554559
370
    25
100
AcDbTrace
 10
4.130466666666666
 20
2.067111111111111
 30
0.0
 11
4.169966666666666
 21
2.050333333333333
 31
0.0
 12
4.169966666666666
 22
1.973472222222222
 32
0.0
 13
4.209466666666665
 23
2.067111111111111
 33
0.0
  0
LWPOLYLINE
  5
D8
330
2
100
AcDbEntity
  8
PDF_Layer 1
 62
     7
420
 16777215
370
    25
100
AcDbPolyline
 90
        2
 70
     0
 43
0.0
 10
11.5303
 20
6.870001388888888
 10
14.67464722222222
 20
6.870001388888888
  0
LWPOLYLINE
  5
E0
330
2
100
AcDbEntity
  8
PDF_Layer 1
 62
     7
420
 16777215
370
    70
100
AcDbPolyline
 90
      104
 70
     0
 43
0.0
 10
14.31887083333333
 20
9.917179166666665
 10
14.31887083333333
 20
9.912984722222221
 10
14.31887083333333
 20
9.904595833333331
 10
14.31467638888889
 20
9.900401388888887
 10
14.31049583333333
 20
9.896206944444443
 10
14.3062875
 20
9.892012499999998
 10
14.30209305555555
 20
9.892012499999998
 10
14.29789861111111
 20
9.887818055555554
 10
14.28950972222222
 20
9.887818055555554
 10
14.2307875
 20
9.887818055555554
 10
14.22660694444444
 20
9.887818055555554
 10
14.21820416666666
 20
9.892012499999998
 10
14.21400972222222
 20
9.892012499999998
 10
14.20982916666666
 20
9.896206944444443
 10
14.20562083333333
 20
9.900401388888887
 10
14.20562083333333
 20
9.904595833333331
 10
14.20142638888888
 20
9.912984722222221
 10
14.20142638888888
 20
9.917179166666665
 10
14.20142638888888
 20
9.929762499999998
 10
14.20142638888888
 20
9.954929166666664
 10
14.20142638888888
 20
9.992679166666665
 10
14.20142638888888
 20
10.0430125
 10
14.20142638888888
 20
10.09754027777777
 10
14.20142638888888
 20
10.16465138888889
 10
14.20142638888888
 20
10.2317625
 10
14.20142638888888
 20
10.3072625
 10
14.20142638888888
 20
10.3827625
 10
14.20142638888888
 20
10.4582625
 10
14.20142638888888
 20
10.52958194444444
 10
14.20142638888888
 20
10.59669305555555
 10
14.20142638888888
 20
10.65959583333333
 10
14.20142638888888
 20
10.70992916666666
 10
14.20142638888888
 20
10.75187361111111
 10
14.20142638888888
 20
10.78544305555555
 10
14.20142638888888
 20
10.80222083333333
 10
14.20142638888888
 20
10.81060972222222
 10
14.20142638888888
 20
10.81480416666666
 10
14.20562083333333
 20
10.81898472222222
 10
14.20562083333333
 20
10.8273875
 10
14.20982916666666
 20
10.83158194444444
 10
14.21400972222222
 20
10.8357625
 10
14.21820416666666
 20
10.8357625
 10
14.22660694444444
 20
10.83997083333333
 10
14.2307875
 20
10.83997083333333
 10
14.28950972222222
 20
10.83997083333333
 10
14.29789861111111
 20
10.83997083333333
 10
14.30209305555555
 20
10.8357625
 10
14.3062875
 20
10.8357625
 10
14.31049583333333
 20
10.83158194444444
 10
14.31467638888889
 20
10.8273875
 10
14.31887083333333
 20
10.81898472222222
 10
14.31887083333333
 20
10.81480416666666
 10
14.31887083333333
 20
10.81060972222222
 10
14.31887083333333
 20
10.80641527777777
 10
14.31887083333333
 20
10.79381805555555
 10
14.31887083333333
 20
10.76866527777777
 10
14.31887083333333
 20
10.73091527777777
 10
14.31887083333333
 20
10.6847625
 10
14.31887083333333
 20
10.63024861111111
 10
14.31887083333333
 20
10.5631375
 10
14.31887083333333
 20
10.49181805555555
 10
14.31887083333333
 20
10.4205125
 10
14.31887083333333
 20
10.3450125
 10
14.31887083333333
 20
10.2695125
 10
14.31887083333333
 20
10.19820694444444
 10
14.31887083333333
 20
10.13109583333333
 10
14.31887083333333
 20
10.06817916666666
 10
14.31887083333333
 20
10.01784583333333
 10
14.31887083333333
 20
9.975901388888887
 10
14.31887083333333
 20
9.942345833333332
 10
14.31887083333333
 20
9.925568055555554
 10
14.31887083333333
 20
9.917179166666665
 10
14.32306527777777
 20
9.925568055555554
 10
14.32306527777777
 20
9.929762499999998
 10
14.32306527777777
 20
9.933956944444442
 10
14.32727361111111
 20
9.938151388888886
 10
14.33146805555555
 20
9.942345833333332
 10
14.33564861111111
 20
9.946540277777776
 10
14.34405138888888
 20
9.946540277777776
 10
14.34824583333333
 20
9.946540277777776
 10
14.42373194444444
 20
9.95912361111111
 10
14.49924583333333
 20
9.988484722222221
 10
14.56635694444444
 20
10.02623472222222
 10
14.62507916666666
 20
10.0807625
 10
14.67120416666666
 20
10.13948472222222
 10
14.70896805555555
 20
10.21079027777777
 10
14.72994027777778
 20
10.28629027777777
 10
14.73831527777777
 20
10.36179027777778
 10
14.72994027777778
 20
10.44148472222222
 10
14.70896805555555
 20
10.51698472222222
 10
14.67120416666666
 20
10.58409583333333
 10
14.62507916666666
 20
10.64702638888888
 10
14.56635694444444
 20
10.69735972222222
 10
14.49924583333333
 20
10.73930416666666
 10
14.42373194444444
 20
10.76447083333333
 10
14.34824583333333
 20
10.77704027777777
 10
14.34405138888888
 20
10.78124861111111
 10
14.33564861111111
 20
10.78124861111111
 10
14.33146805555555
 20
10.78544305555555
 10
14.32727361111111
 20
10.78963749999999
 10
14.32306527777777
 20
10.79381805555555
 10
14.32306527777777
 20
10.79802638888889
 10
14.32306527777777
 20
10.80222083333333
 10
14.31887083333333
 20
10.80641527777777
  0
LWPOLYLINE
  5
E1
330
2
100
AcDbEntity
  8
PDF_Layer 1
 62
     7
420
 16777215
370
    70
100
AcDbPolyline
 90
       17
 70
     0
 43
0.0
 10
12.03287083333333
 20
10.12270694444444
 10
12.24680138888889
 20
10.1185125
 10
12.52362083333333
 20
10.11012361111111
 10
12.80046805555555
 20
10.09754027777777
 10
13.07731527777777
 20
10.07656805555555
 10
13.34995416666666
 20
10.05559583333333
 10
13.6267875
 20
10.03042916666666
 10
13.90362083333333
 20
9.996873611111109
 10
14.17627361111111
 20
9.963318055555554
 10
14.18045416666666
 20
9.963318055555554
 10
14.18464861111111
 20
9.95912361111111
 10
14.18884305555555
 20
9.954929166666664
 10
14.19305138888889
 20
9.95073472222222
 10
14.19723194444444
 20
9.946540277777776
 10
14.20142638888888
 20
9.942345833333332
 10
14.20142638888888
 20
9.938151388888886
 10
14.20142638888888
 20
9.933956944444442
  0
LWPOLYLINE
  5
E2
330
2
100
AcDbEntity
  8
PDF_Layer 1
 62
     7
420
 16777215
370
    70
100
AcDbPolyline
 90
       17
 70
     0
 43
0.0
 10
14.20142638888888
 20
10.79381805555555
 10
14.20142638888888
 20
10.78963749999999
 10
14.20142638888888
 20
10.78124861111111
 10
14.19723194444444
 20
10.77704027777777
 10
14.19305138888889
 20
10.77285972222222
 10
14.18884305555555
 20
10.76866527777777
 10
14.18464861111111
 20
10.76866527777777
 10
14.18045416666666
 20
10.76447083333333
 10
14.17627361111111
 20
10.76447083333333
 10
13.90362083333333
 20
10.72672083333333
 10
13.6267875
 20
10.69735972222222
 10
13.34995416666666
 20
10.67219305555555
 10
13.07731527777777
 20
10.64702638888888
 10
12.80046805555555
 20
10.63024861111111
 10
12.52362083333333
 20
10.61765138888889
 10
12.24680138888889
 20
10.60508194444444
 10
12.02869027777778
 20
10.60087361111111
  0
LWPOLYLINE
  5
ED
330
2
100
AcDbEntity
  8
PDF_Layer 1
 62
     7
420
 16777215
370
    70
100
AcDbPolyline
 90
      106
 70
     0
 43
0.0
 10
2.343593055555555
 20
10.80641527777777
 10
2.343593055555555
 20
10.80222083333333
 10
2.343593055555555
 20
10.79802638888889
 10
2.339398611111109
 20
10.79381805555555
 10
2.335204166666665
 20
10.78963749999999
 10
2.331009722222221
 20
10.78544305555555
 10
2.326815277777777
 20
10.78124861111111
 10
2.322620833333331
 20
10.78124861111111
 10
2.314231944444442
 20
10.77704027777777
 10
2.314231944444442
 20
10.77285972222222
 10
2.314231944444442
 20
10.75187361111111
 10
2.314231944444442
 20
10.72252638888889
 10
2.314231944444442
 20
10.68058194444444
 10
2.314231944444442
 20
10.63024861111111
 10
2.314231944444442
 20
10.57152638888888
 10
2.314231944444442
 20
10.50441527777777
 10
2.314231944444442
 20
10.43730416666666
 10
2.314231944444442
 20
10.36179027777778
 10
2.314231944444442
 20
10.29048472222222
 10
2.314231944444442
 20
10.22337361111111
 10
2.314231944444442
 20
10.1562625
 10
2.314231944444442
 20
10.09754027777777
 10
2.314231944444442
 20
10.04720694444444
 10
2.314231944444442
 20
10.0052625
 10
2.314231944444442
 20
9.971706944444443
 10
2.314231944444442
 20
9.954929166666664
 10
2.314231944444442
 20
9.946540277777776
 10
2.322620833333331
 20
9.946540277777776
 10
2.326815277777777
 20
9.946540277777776
 10
2.331009722222221
 20
9.942345833333332
 10
2.335204166666665
 20
9.938151388888886
 10
2.339398611111109
 20
9.933956944444442
 10
2.343593055555555
 20
9.929762499999998
 10
2.343593055555555
 20
9.925568055555554
 10
2.343593055555555
 20
9.917179166666665
 10
2.343593055555555
 20
9.929762499999998
 10
2.343593055555555
 20
9.954929166666664
 10
2.343593055555555
 20
9.992679166666665
 10
2.343593055555555
 20
10.0430125
 10
2.343593055555555
 20
10.09754027777777
 10
2.343593055555555
 20
10.16465138888889
 10
2.343593055555555
 20
10.2317625
 10
2.343593055555555
 20
10.3072625
 10
2.343593055555555
 20
10.3827625
 10
2.343593055555555
 20
10.4582625
 10
2.343593055555555
 20
10.52958194444444
 10
2.343593055555555
 20
10.59669305555555
 10
2.343593055555555
 20
10.65959583333333
 10
2.343593055555555
 20
10.70992916666666
 10
2.343593055555555
 20
10.75187361111111
 10
2.343593055555555
 20
10.78544305555555
 10
2.343593055555555
 20
10.80222083333333
 10
2.343593055555555
 20
10.81060972222222
 10
2.343593055555555
 20
10.81480416666666
 10
2.347787499999999
 20
10.81898472222222
 10
2.347787499999999
 20
10.8273875
 10
2.351981944444444
 20
10.83158194444444
 10
2.356176388888886
 20
10.8357625
 10
2.360370833333332
 20
10.8357625
 10
2.36875972222222
 20
10.83997083333333
 10
2.372954166666666
 20
10.83997083333333
 10
2.431676388888886
 20
10.83997083333333
 10
2.440065277777776
 20
10.83997083333333
 10
2.444259722222222
 20
10.8357625
 10
2.448454166666666
 20
10.8357625
 10
2.45264861111111
 20
10.83158194444444
 10
2.456843055555555
 20
10.8273875
 10
2.461037499999999
 20
10.81898472222222
 10
2.461037499999999
 20
10.81480416666666
 10
2.461037499999999
 20
10.81060972222222
 10
2.461037499999999
 20
10.80641527777777
 10
2.461037499999999
 20
10.79381805555555
 10
2.461037499999999
 20
10.76866527777777
 10
2.461037499999999
 20
10.73091527777777
 10
2.461037499999999
 20
10.6847625
 10
2.461037499999999
 20
10.63024861111111
 10
2.461037499999999
 20
10.5631375
 10
2.461037499999999
 20
10.49181805555555
 10
2.461037499999999
 20
10.4205125
 10
2.461037499999999
 20
10.3450125
 10
2.461037499999999
 20
10.2695125
 10
2.461037499999999
 20
10.19820694444444
 10
2.461037499999999
 20
10.13109583333333
 10
2.461037499999999
 20
10.06817916666666
 10
2.461037499999999
 20
10.01784583333333
 10
2.461037499999999
 20
9.975901388888887
 10
2.461037499999999
 20
9.942345833333332
 10
2.461037499999999
 20
9.925568055555554
 10
2.461037499999999
 20
9.917179166666665
 10
2.461037499999999
 20
9.912984722222221
 10
2.461037499999999
 20
9.904595833333331
 10
2.456843055555555
 20
9.900401388888887
 10
2.45264861111111
 20
9.896206944444443
 10
2.448454166666666
 20
9.892012499999998
 10
2.444259722222222
 20
9.892012499999998
 10
2.440065277777776
 20
9.887818055555554
 10
2.431676388888886
 20
9.887818055555554
 10
2.372954166666666
 20
9.887818055555554
 10
2.36875972222222
 20
9.887818055555554
 10
2.360370833333332
 20
9.892012499999998
 10
2.356176388888886
 20
9.892012499999998
 10
2.351981944444444
 20
9.896206944444443
 10
2.347787499999999
 20
9.900401388888887
 10
2.347787499999999
 20
9.904595833333331
 10
2.343593055555555
 20
9.912984722222221
 10
2.343593055555555
 20
9.917179166666665
  0
LWPOLYLINE
  5
EF
330
2
100
AcDbEntity
  8
PDF_Layer 1
 62
     7
420
 16777215
370
    70
100
AcDbPolyline
 90
       17
 70
     0
 43
0.0
 10
4.637981944444444
 20
10.60087361111111
 10
4.415676388888888
 20
10.60508194444444
 10
4.138843055555554
 20
10.61765138888889
 10
3.86200972222222
 20
10.63024861111111
 10
3.589356944444444
 20
10.64702638888888
 10
3.31252361111111
 20
10.67219305555555
 10
3.035690277777774
 20
10.69735972222222
 10
2.763051388888888
 20
10.72672083333333
 10
2.49039861111111
 20
10.76447083333333
 10
2.482009722222221
 20
10.76447083333333
 10
2.477815277777777
 20
10.76866527777777
 10
2.473620833333331
 20
10.76866527777777
 10
2.469426388888889
 20
10.77285972222222
 10
2.465231944444443
 20
10.77704027777777
 10
2.465231944444443
 20
10.78124861111111
 10
2.465231944444443
 20
10.78963749999999
 10
2.461037499999999
 20
10.79381805555555
  0
LWPOLYLINE
  5
F0
330
2
100
AcDbEntity
  8
PDF_Layer 1
 62
     7
420
 16777215
370
    70
100
AcDbPolyline
 90
       17
 70
     0
 43
0.0
 10
2.461037499999999
 20
9.933956944444442
 10
2.465231944444443
 20
9.938151388888886
 10
2.465231944444443
 20
9.942345833333332
 10
2.465231944444443
 20
9.946540277777776
 10
2.469426388888889
 20
9.95073472222222
 10
2.473620833333331
 20
9.954929166666664
 10
2.477815277777777
 20
9.95912361111111
 10
2.482009722222221
 20
9.963318055555554
 10
2.49039861111111
 20
9.963318055555554
 10
2.763051388888888
 20
9.996873611111109
 10
3.035690277777774
 20
10.03042916666666
 10
3.31252361111111
 20
10.05559583333333
 10
3.589356944444444
 20
10.07656805555555
 10
3.86200972222222
 20
10.09754027777777
 10
4.138843055555554
 20
10.11012361111111
 10
4.415676388888888
 20
10.1185125
 10
4.637981944444444
 20
10.12270694444444
  0
ARC
  5
F1
330
2
100
AcDbEntity
  8
PDF_Layer 1
 62
     7
420
 16777215
370
    70
100
AcDbCircle
 10
2.342863586956518
 20
10.36179027777778
 30
0.0
 40
0.4162359108161323
100
AcDbArc
 50
93.94432265149051
 51
266.0556773485095
  0
CIRCLE
  5
F4
330
2
100
AcDbEntity
  8
PDF_Layer 1
 62
     7
420
 16777215
370
    70
100
AcDbCircle
 10
5.198563248461508
 20
10.36372934748828
 30
0.0
 40
0.6104697068230988
  0
CIRCLE
  5
F5
330
2
100
AcDbEntity
  8
PDF_Layer 1
 62
     7
420
 16777215
370
    70
100
AcDbCircle
 10
11.46726699189677
 20
10.36553886401815
 30
0.0
 40
0.6088660314073069
  0
LWPOLYLINE
  5
F7
330
2
100
AcDbEntity
  8
PDF_Layer 1
 62
     7
420
 16777215
370
    70
100
AcDbPolyline
 90
       25
 70
     0
 43
0.0
 10
5.904718055555553
 20
8.461693055555553
 10
5.934079166666665
 20
8.478470833333332
 10
5.963440277777776
 20
8.49524861111111
 10
5.963440277777776
 20
8.512026388888887
 10
5.934079166666665
 20
8.528804166666665
 10
5.904718055555553
 20
8.545581944444442
 10
5.904718055555553
 20
8.558165277777776
 10
5.904718055555553
 20
8.57074861111111
 10
5.900523611111109
 20
8.57074861111111
 10
5.875356944444444
 20
8.566554166666666
 10
5.820829166666666
 20
8.56235972222222
 10
5.74952361111111
 20
8.558165277777776
 10
5.65724583333333
 20
8.558165277777776
 10
5.543995833333331
 20
8.553970833333332
 10
5.422356944444443
 20
8.549776388888886
 10
5.292329166666664
 20
8.545581944444442
 10
5.158106944444444
 20
8.541387499999999
 10
5.02388472222222
 20
8.541387499999999
 10
4.898037499999999
 20
8.537193055555555
 10
4.7847875
 20
8.532998611111109
 10
4.684120833333331
 20
8.528804166666665
 10
4.600231944444443
 20
8.528804166666665
 10
4.541509722222222
 20
8.524609722222221
 10
4.499565277777776
 20
8.520415277777775
 10
4.491176388888886
 20
8.516220833333331
  0
LWPOLYLINE
  5
FA
330
2
100
AcDbEntity
  8
PDF_Layer 1
 62
     7
420
 16777215
370
    70
100
AcDbPolyline
 90
      108
 70
     0
 43
0.0
 10
5.904718055555553
 20
8.868554166666665
 10
5.900523611111109
 20
8.864359722222221
 10
5.875356944444444
 20
8.864359722222221
 10
5.820829166666666
 20
8.860165277777776
 10
5.74952361111111
 20
8.855970833333332
 10
5.65724583333333
 20
8.851776388888888
 10
5.543995833333331
 20
8.847581944444442
 10
5.422356944444443
 20
8.847581944444442
 10
5.292329166666664
 20
8.843387499999998
 10
5.191662499999999
 20
8.839193055555554
 10
5.028079166666666
 20
8.83499861111111
 10
4.877065277777775
 20
8.83499861111111
 10
4.763815277777778
 20
8.830804166666665
 10
4.667343055555553
 20
8.826609722222221
 10
4.587648611111109
 20
8.822415277777777
 10
4.533120833333333
 20
8.818220833333331
 10
4.499565277777776
 20
8.818220833333331
 10
4.491176388888886
 20
8.814026388888887
 10
4.461815277777775
 20
8.797248611111109
 10
4.432454166666664
 20
8.780470833333332
 10
4.432454166666664
 20
8.767887499999998
 10
4.43664861111111
 20
8.767887499999998
 10
4.445037499999999
 20
8.772081944444442
 10
4.457620833333333
 20
8.772081944444442
 10
4.478593055555554
 20
8.772081944444442
 10
4.491176388888886
 20
8.772081944444442
 10
4.507954166666664
 20
8.776276388888888
 10
4.524731944444443
 20
8.776276388888888
 10
4.545704166666665
 20
8.776276388888888
 10
4.570870833333332
 20
8.776276388888888
 10
4.596037499999999
 20
8.776276388888888
 10
4.612815277777777
 20
8.780470833333332
 10
4.633787499999998
 20
8.780470833333332
 10
4.658954166666665
 20
8.780470833333332
 10
4.69250972222222
 20
8.780470833333332
 10
4.730259722222221
 20
8.780470833333332
 10
4.77639861111111
 20
8.784665277777776
 10
4.801565277777777
 20
8.784665277777776
 10
4.835120833333332
 20
8.784665277777776
 10
4.868676388888887
 20
8.784665277777776
 10
4.906426388888887
 20
8.78885972222222
 10
4.948370833333333
 20
8.78885972222222
 10
4.99450972222222
 20
8.78885972222222
 10
5.019690277777778
 20
8.78885972222222
 10
5.049051388888887
 20
8.78885972222222
 10
5.082606944444444
 20
8.793054166666665
 10
5.128745833333331
 20
8.793054166666665
 10
5.179079166666666
 20
8.793054166666665
 10
5.233606944444444
 20
8.793054166666665
 10
5.267162499999997
 20
8.797248611111109
 10
5.300718055555552
 20
8.797248611111109
 10
5.338468055555553
 20
8.797248611111109
 10
5.3804125
 20
8.797248611111109
 10
5.422356944444443
 20
8.797248611111109
 10
5.472690277777777
 20
8.801443055555553
 10
5.506245833333332
 20
8.801443055555553
 10
5.552384722222219
 20
8.801443055555553
 10
5.577551388888888
 20
8.801443055555553
 10
5.59852361111111
 20
8.801443055555553
 10
5.627884722222221
 20
8.805637499999997
 10
5.653051388888888
 20
8.805637499999997
 10
5.682412499999998
 20
8.805637499999997
 10
5.699190277777775
 20
8.805637499999997
 10
5.720162499999997
 20
8.805637499999997
 10
5.74113472222222
 20
8.805637499999997
 10
5.766301388888887
 20
8.809831944444443
 10
5.791468055555554
 20
8.809831944444443
 10
5.816634722222222
 20
8.809831944444443
 10
5.841801388888887
 20
8.809831944444443
 10
5.862773611111109
 20
8.809831944444443
 10
5.887940277777776
 20
8.814026388888887
 10
5.896329166666665
 20
8.814026388888887
 10
5.908912499999997
 20
8.814026388888887
 10
5.917301388888885
 20
8.814026388888887
 10
5.929884722222221
 20
8.814026388888887
 10
5.938273611111108
 20
8.818220833333331
 10
5.946662499999998
 20
8.818220833333331
 10
5.950856944444442
 20
8.818220833333331
 10
5.955051388888886
 20
8.818220833333331
 10
5.95924583333333
 20
8.818220833333331
 10
5.963440277777776
 20
8.818220833333331
 10
5.963440277777776
 20
8.822415277777777
 10
5.963440277777776
 20
8.83499861111111
 10
5.934079166666665
 20
8.851776388888888
 10
5.904718055555553
 20
8.868554166666665
 10
5.904718055555553
 20
8.881137499999997
 10
5.904718055555553
 20
8.893720833333333
 10
5.900523611111109
 20
8.893720833333333
 10
5.875356944444444
 20
8.889526388888887
 10
5.820829166666666
 20
8.885331944444443
 10
5.74952361111111
 20
8.881137499999997
 10
5.65724583333333
 20
8.881137499999997
 10
5.543995833333331
 20
8.876943055555553
 10
5.422356944444443
 20
8.872748611111109
 10
5.292329166666664
 20
8.868554166666665
 10
5.158106944444444
 20
8.868554166666665
 10
5.02388472222222
 20
8.864359722222221
 10
4.898037499999999
 20
8.860165277777776
 10
4.7847875
 20
8.855970833333332
 10
4.684120833333331
 20
8.851776388888888
 10
4.600231944444443
 20
8.851776388888888
 10
4.541509722222222
 20
8.847581944444442
 10
4.499565277777776
 20
8.843387499999998
 10
4.491176388888886
 20
8.839193055555554
 10
4.491176388888886
 20
8.826609722222221
 10
4.491176388888886
 20
8.814026388888887
 10
4.491176388888886
 20
8.826609722222221
 10
4.491176388888886
 20
8.839193055555554
  0
LWPOLYLINE
  5
FB
330
2
100
AcDbEntity
  8
PDF_Layer 1
 62
     7
420
 16777215
370
    70
100
AcDbPolyline
 90
       25
 70
     0
 43
0.0
 10
5.904718055555553
 20
8.893720833333333
 10
5.934079166666665
 20
8.910498611111108
 10
5.963440277777776
 20
8.927276388888888
 10
5.963440277777776
 20
8.944054166666665
 10
5.934079166666665
 20
8.960831944444443
 10
5.904718055555553
 20
8.97760972222222
 10
5.904718055555553
 20
8.990193055555554
 10
5.904718055555553
 20
9.002776388888888
 10
5.900523611111109
 20
9.002776388888888
 10
5.875356944444444
 20
8.998581944444442
 10
5.820829166666666
 20
8.994387499999998
 10
5.74952361111111
 20
8.990193055555554
 10
5.65724583333333
 20
8.98599861111111
 10
5.543995833333331
 20
8.98599861111111
 10
5.422356944444443
 20
8.981804166666664
 10
5.292329166666664
 20
8.97760972222222
 10
5.158106944444444
 20
8.973415277777776
 10
5.02388472222222
 20
8.973415277777776
 10
4.898037499999999
 20
8.969220833333331
 10
4.7847875
 20
8.965026388888887
 10
4.684120833333331
 20
8.960831944444443
 10
4.600231944444443
 20
8.956637499999999
 10
4.541509722222222
 20
8.956637499999999
 10
4.499565277777776
 20
8.952443055555553
 10
4.491176388888886
 20
8.948248611111109
  0
LWPOLYLINE
  5
FC
330
2
100
AcDbEntity
  8
PDF_Layer 1
 62
     7
420
 16777215
370
    70
100
AcDbPolyline
 90
       66
 70
     0
 43
0.0
 10
5.904718055555553
 20
9.082470833333331
 10
5.900523611111109
 20
9.082470833333331
 10
5.875356944444444
 20
9.078276388888887
 10
5.820829166666666
 20
9.074081944444444
 10
5.74952361111111
 20
9.069887499999998
 10
5.65724583333333
 20
9.069887499999998
 10
5.543995833333331
 20
9.065693055555554
 10
5.422356944444443
 20
9.06149861111111
 10
5.292329166666664
 20
9.057304166666664
 10
5.191662499999999
 20
9.057304166666664
 10
5.028079166666666
 20
9.05310972222222
 10
4.877065277777775
 20
9.048915277777776
 10
4.763815277777778
 20
9.044720833333332
 10
4.667343055555553
 20
9.040526388888887
 10
4.587648611111109
 20
9.040526388888887
 10
4.533120833333333
 20
9.036331944444443
 10
4.499565277777776
 20
9.032137499999999
 10
4.491176388888886
 20
9.032137499999999
 10
4.461815277777775
 20
9.015359722222221
 10
4.432454166666664
 20
8.998581944444442
 10
4.445037499999999
 20
8.998581944444442
 10
4.470204166666665
 20
9.002776388888888
 10
4.49537083333333
 20
9.002776388888888
 10
4.520537500000001
 20
9.002776388888888
 10
4.537315277777777
 20
9.006970833333332
 10
4.570870833333332
 20
9.006970833333332
 10
4.608620833333331
 20
9.006970833333332
 10
4.62539861111111
 20
9.006970833333332
 10
4.637981944444444
 20
9.006970833333332
 10
4.642176388888886
 20
9.006970833333332
 10
4.646370833333334
 20
9.011165277777775
 10
4.650565277777776
 20
9.011165277777775
 10
4.658954166666665
 20
9.011165277777775
 10
4.705093055555552
 20
9.011165277777775
 10
4.780593055555554
 20
9.011165277777775
 10
4.847704166666666
 20
9.015359722222221
 10
4.898037499999999
 20
9.015359722222221
 10
4.952565277777777
 20
9.015359722222221
 10
4.981926388888888
 20
9.019554166666665
 10
5.011287499999999
 20
9.019554166666665
 10
5.02388472222222
 20
9.019554166666665
 10
5.040662499999999
 20
9.019554166666665
 10
5.086801388888886
 20
9.019554166666665
 10
5.162301388888888
 20
9.023748611111109
 10
5.262968055555555
 20
9.023748611111109
 10
5.330079166666664
 20
9.027943055555553
 10
5.418162499999999
 20
9.027943055555553
 10
5.481079166666665
 20
9.027943055555553
 10
5.52302361111111
 20
9.032137499999999
 10
5.573356944444443
 20
9.032137499999999
 10
5.636273611111109
 20
9.032137499999999
 10
5.707579166666665
 20
9.036331944444443
 10
5.762106944444441
 20
9.036331944444443
 10
5.816634722222222
 20
9.040526388888887
 10
5.845995833333331
 20
9.040526388888887
 10
5.871162499999998
 20
9.040526388888887
 10
5.896329166666665
 20
9.044720833333332
 10
5.925690277777775
 20
9.044720833333332
 10
5.950856944444442
 20
9.044720833333332
 10
5.95924583333333
 20
9.048915277777776
 10
5.963440277777776
 20
9.048915277777776
 10
5.934079166666665
 20
9.065693055555554
 10
5.904718055555553
 20
9.082470833333331
 10
5.904718055555553
 20
9.095054166666665
 10
5.791468055555554
 20
9.174748611111109
 10
5.791468055555554
 20
9.485137499999998
  0
LWPOLYLINE
  5
FD
330
2
100
AcDbEntity
  8
PDF_Layer 1
 62
     7
420
 16777215
370
    70
100
AcDbPolyline
 90
       25
 70
     0
 43
0.0
 10
5.904718055555553
 20
8.545581944444442
 10
5.900523611111109
 20
8.541387499999999
 10
5.875356944444444
 20
8.537193055555555
 10
5.820829166666666
 20
8.537193055555555
 10
5.74952361111111
 20
8.532998611111109
 10
5.65724583333333
 20
8.528804166666665
 10
5.543995833333331
 20
8.524609722222221
 10
5.422356944444443
 20
8.524609722222221
 10
5.292329166666664
 20
8.520415277777775
 10
5.191662499999999
 20
8.516220833333331
 10
5.028079166666666
 20
8.512026388888887
 10
4.877065277777775
 20
8.507831944444443
 10
4.763815277777778
 20
8.507831944444443
 10
4.667343055555553
 20
8.503637499999998
 10
4.587648611111109
 20
8.499443055555554
 10
4.533120833333333
 20
8.49524861111111
 10
4.499565277777776
 20
8.491054166666664
 10
4.491176388888886
 20
8.491054166666664
 10
4.491176388888886
 20
8.503637499999998
 10
4.491176388888886
 20
8.516220833333331
 10
4.491176388888886
 20
8.503637499999998
 10
4.491176388888886
 20
8.491054166666664
 10
4.461815277777775
 20
8.474276388888887
 10
4.432454166666664
 20
8.457498611111109
 10
4.432454166666664
 20
8.444901388888887
  0
LWPOLYLINE
  5
FE
330
2
100
AcDbEntity
  8
PDF_Layer 1
 62
     7
420
 16777215
370
    70
100
AcDbPolyline
 90
       78
 70
     0
 43
0.0
 10
5.904718055555553
 20
8.650443055555554
 10
5.900523611111109
 20
8.650443055555554
 10
5.875356944444444
 20
8.64624861111111
 10
5.820829166666666
 20
8.642054166666666
 10
5.74952361111111
 20
8.642054166666666
 10
5.65724583333333
 20
8.63785972222222
 10
5.543995833333331
 20
8.633665277777776
 10
5.422356944444443
 20
8.629470833333332
 10
5.292329166666664
 20
8.629470833333332
 10
5.191662499999999
 20
8.625276388888886
 10
5.028079166666666
 20
8.621081944444442
 10
4.877065277777775
 20
8.616887499999998
 10
4.763815277777778
 20
8.612693055555554
 10
4.667343055555553
 20
8.612693055555554
 10
4.587648611111109
 20
8.608498611111109
 10
4.533120833333333
 20
8.604304166666665
 10
4.499565277777776
 20
8.600109722222221
 10
4.491176388888886
 20
8.600109722222221
 10
4.491176388888886
 20
8.612693055555554
 10
4.491176388888886
 20
8.625276388888886
 10
4.491176388888886
 20
8.612693055555554
 10
4.491176388888886
 20
8.600109722222221
 10
4.461815277777775
 20
8.583331944444443
 10
4.432454166666664
 20
8.566554166666666
 10
4.432454166666664
 20
8.549776388888886
 10
4.432454166666664
 20
8.553970833333332
 10
4.440843055555554
 20
8.553970833333332
 10
4.457620833333333
 20
8.553970833333332
 10
4.482787499999998
 20
8.558165277777776
 10
4.507954166666664
 20
8.558165277777776
 10
4.520537500000001
 20
8.558165277777776
 10
4.528926388888889
 20
8.558165277777776
 10
4.537315277777777
 20
8.56235972222222
 10
4.545704166666665
 20
8.56235972222222
 10
4.554093055555554
 20
8.56235972222222
 10
4.583454166666667
 20
8.56235972222222
 10
4.612815277777777
 20
8.56235972222222
 10
4.642176388888886
 20
8.56235972222222
 10
4.667343055555553
 20
8.566554166666666
 10
4.69250972222222
 20
8.566554166666666
 10
4.717676388888888
 20
8.566554166666666
 10
4.763815277777778
 20
8.566554166666666
 10
4.805759722222221
 20
8.57074861111111
 10
4.84350972222222
 20
8.57074861111111
 10
4.877065277777775
 20
8.57074861111111
 10
4.902245833333331
 20
8.57074861111111
 10
4.92739861111111
 20
8.57074861111111
 10
4.973537499999999
 20
8.574943055555554
 10
5.01549583333333
 20
8.574943055555554
 10
5.057440277777775
 20
8.574943055555554
 10
5.095190277777776
 20
8.574943055555554
 10
5.128745833333331
 20
8.574943055555554
 10
5.162301388888888
 20
8.579137499999998
 10
5.2294125
 20
8.579137499999998
 10
5.288134722222221
 20
8.579137499999998
 10
5.334273611111109
 20
8.579137499999998
 10
5.37202361111111
 20
8.583331944444443
 10
5.401384722222221
 20
8.583331944444443
 10
5.447523611111108
 20
8.583331944444443
 10
5.489468055555553
 20
8.583331944444443
 10
5.527218055555554
 20
8.587526388888887
 10
5.560773611111111
 20
8.587526388888887
 10
5.594329166666664
 20
8.587526388888887
 10
5.623690277777777
 20
8.587526388888887
 10
5.67402361111111
 20
8.587526388888887
 10
5.720162499999997
 20
8.591720833333331
 10
5.753718055555554
 20
8.591720833333331
 10
5.778884722222221
 20
8.591720833333331
 10
5.799856944444442
 20
8.591720833333331
 10
5.833412499999999
 20
8.595915277777775
 10
5.858579166666666
 20
8.595915277777775
 10
5.883745833333332
 20
8.595915277777775
 10
5.900523611111109
 20
8.595915277777775
 10
5.917301388888885
 20
8.600109722222221
 10
5.938273611111108
 20
8.600109722222221
 10
5.950856944444442
 20
8.600109722222221
 10
5.95924583333333
 20
8.604304166666665
 10
5.963440277777776
 20
8.604304166666665
  0
LWPOLYLINE
  5
FF
330
2
100
AcDbEntity
  8
PDF_Layer 1
 62
     7
420
 16777215
370
    70
100
AcDbPolyline
 90
       35
 70
     0
 43
0.0
 10
5.963440277777776
 20
8.616887499999998
 10
5.963440277777776
 20
8.621081944444442
 10
5.934079166666665
 20
8.63785972222222
 10
5.904718055555553
 20
8.650443055555554
 10
5.904718055555553
 20
8.667220833333331
 10
5.904718055555553
 20
8.679804166666665
 10
5.934079166666665
 20
8.696581944444442
 10
5.963440277777776
 20
8.71335972222222
 10
5.963440277777776
 20
8.725943055555553
 10
5.934079166666665
 20
8.742720833333331
 10
5.904718055555553
 20
8.759498611111109
 10
5.900523611111109
 20
8.759498611111109
 10
5.875356944444444
 20
8.755304166666665
 10
5.820829166666666
 20
8.751109722222221
 10
5.74952361111111
 20
8.746915277777777
 10
5.65724583333333
 20
8.746915277777777
 10
5.543995833333331
 20
8.742720833333331
 10
5.422356944444443
 20
8.738526388888887
 10
5.292329166666664
 20
8.734331944444443
 10
5.191662499999999
 20
8.734331944444443
 10
5.028079166666666
 20
8.730137499999997
 10
4.877065277777775
 20
8.725943055555553
 10
4.763815277777778
 20
8.721748611111109
 10
4.667343055555553
 20
8.717554166666666
 10
4.587648611111109
 20
8.71335972222222
 10
4.533120833333333
 20
8.71335972222222
 10
4.499565277777776
 20
8.709165277777776
 10
4.491176388888886
 20
8.704970833333332
 10
4.491176388888886
 20
8.717554166666666
 10
4.491176388888886
 20
8.734331944444443
 10
4.491176388888886
 20
8.717554166666666
 10
4.491176388888886
 20
8.704970833333332
 10
4.461815277777775
 20
8.688193055555554
 10
4.432454166666664
 20
8.671415277777775
 10
4.432454166666664
 20
8.658831944444443
  0
LWPOLYLINE
  5
101
330
2
100
AcDbEntity
  8
PDF_Layer 1
 62
     7
420
 16777215
370
    70
100
AcDbPolyline
 90
       91
 70
     0
 43
0.0
 10
5.904718055555553
 20
8.97760972222222
 10
5.900523611111109
 20
8.973415277777776
 10
5.875356944444444
 20
8.969220833333331
 10
5.820829166666666
 20
8.969220833333331
 10
5.74952361111111
 20
8.965026388888887
 10
5.65724583333333
 20
8.960831944444443
 10
5.543995833333331
 20
8.956637499999999
 10
5.422356944444443
 20
8.952443055555553
 10
5.292329166666664
 20
8.952443055555553
 10
5.191662499999999
 20
8.948248611111109
 10
5.028079166666666
 20
8.944054166666665
 10
4.877065277777775
 20
8.93985972222222
 10
4.763815277777778
 20
8.935665277777776
 10
4.667343055555553
 20
8.935665277777776
 10
4.587648611111109
 20
8.931470833333332
 10
4.533120833333333
 20
8.927276388888888
 10
4.499565277777776
 20
8.923081944444442
 10
4.491176388888886
 20
8.923081944444442
 10
4.491176388888886
 20
8.935665277777776
 10
4.491176388888886
 20
8.948248611111109
 10
4.491176388888886
 20
8.935665277777776
 10
4.491176388888886
 20
8.923081944444442
 10
4.461815277777775
 20
8.906304166666664
 10
4.432454166666664
 20
8.889526388888887
 10
4.432454166666664
 20
8.872748611111109
 10
4.432454166666664
 20
8.876943055555553
 10
4.440843055555554
 20
8.876943055555553
 10
4.449231944444443
 20
8.876943055555553
 10
4.466009722222221
 20
8.881137499999997
 10
4.491176388888886
 20
8.881137499999997
 10
4.50375972222222
 20
8.881137499999997
 10
4.520537500000001
 20
8.881137499999997
 10
4.537315277777777
 20
8.885331944444443
 10
4.558287499999998
 20
8.885331944444443
 10
4.575065277777778
 20
8.885331944444443
 10
4.596037499999999
 20
8.885331944444443
 10
4.617009722222221
 20
8.885331944444443
 10
4.621204166666665
 20
8.885331944444443
 10
4.633787499999998
 20
8.885331944444443
 10
4.667343055555553
 20
8.889526388888887
 10
4.684120833333331
 20
8.889526388888887
 10
4.709287499999998
 20
8.889526388888887
 10
4.734454166666665
 20
8.889526388888887
 10
4.76800972222222
 20
8.889526388888887
 10
4.805759722222221
 20
8.893720833333333
 10
4.835120833333332
 20
8.893720833333333
 10
4.864481944444444
 20
8.893720833333333
 10
4.898037499999999
 20
8.893720833333333
 10
4.931593055555552
 20
8.893720833333333
 10
4.960968055555554
 20
8.897915277777777
 10
4.99450972222222
 20
8.897915277777777
 10
5.028079166666666
 20
8.897915277777777
 10
5.03227361111111
 20
8.897915277777777
 10
5.049051388888887
 20
8.897915277777777
 10
5.095190277777776
 20
8.897915277777777
 10
5.120356944444441
 20
8.897915277777777
 10
5.149718055555554
 20
8.90210972222222
 10
5.187468055555555
 20
8.90210972222222
 10
5.225218055555554
 20
8.90210972222222
 10
5.271356944444445
 20
8.90210972222222
 10
5.304912499999998
 20
8.90210972222222
 10
5.338468055555553
 20
8.906304166666664
 10
5.37202361111111
 20
8.906304166666664
 10
5.405579166666665
 20
8.906304166666664
 10
5.43913472222222
 20
8.906304166666664
 10
5.472690277777777
 20
8.906304166666664
 10
5.506245833333332
 20
8.910498611111108
 10
5.510440277777775
 20
8.910498611111108
 10
5.518829166666664
 20
8.910498611111108
 10
5.560773611111111
 20
8.910498611111108
 10
5.585940277777776
 20
8.910498611111108
 10
5.611106944444443
 20
8.910498611111108
 10
5.640468055555555
 20
8.910498611111108
 10
5.67402361111111
 20
8.914693055555554
 10
5.707579166666665
 20
8.914693055555554
 10
5.799856944444442
 20
8.918887499999998
 10
5.837606944444443
 20
8.918887499999998
 10
5.850190277777777
 20
8.918887499999998
 10
5.854384722222221
 20
8.918887499999998
 10
5.858579166666666
 20
8.918887499999998
 10
5.862773611111109
 20
8.918887499999998
 10
5.866968055555554
 20
8.918887499999998
 10
5.887940277777776
 20
8.918887499999998
 10
5.900523611111109
 20
8.923081944444442
 10
5.913106944444443
 20
8.923081944444442
 10
5.925690277777775
 20
8.923081944444442
 10
5.938273611111108
 20
8.923081944444442
 10
5.946662499999998
 20
8.923081944444442
 10
5.955051388888886
 20
8.927276388888888
 10
5.95924583333333
 20
8.927276388888888
 10
5.963440277777776
 20
8.927276388888888
  0
LWPOLYLINE
  5
103
330
2
100
AcDbEntity
  8
PDF_Layer 1
 62
     7
420
 16777215
370
    70
100
AcDbPolyline
 90
       44
 70
     0
 43
0.0
 10
5.904718055555553
 20
8.436526388888887
 10
5.900523611111109
 20
8.436526388888887
 10
5.875356944444444
 20
8.432331944444442
 10
5.820829166666666
 20
8.428123611111109
 10
5.74952361111111
 20
8.423943055555554
 10
5.65724583333333
 20
8.41974861111111
 10
5.543995833333331
 20
8.41974861111111
 10
5.422356944444443
 20
8.415554166666664
 10
5.292329166666664
 20
8.411345833333331
 10
5.191662499999999
 20
8.411345833333331
 10
5.028079166666666
 20
8.407165277777776
 10
4.877065277777775
 20
8.402956944444442
 10
4.763815277777778
 20
8.398776388888887
 10
4.667343055555553
 20
8.394581944444443
 10
4.587648611111109
 20
8.390387499999999
 10
4.533120833333333
 20
8.390387499999999
 10
4.499565277777776
 20
8.386179166666664
 10
4.491176388888886
 20
8.381998611111109
 10
4.491176388888886
 20
8.394581944444443
 10
4.491176388888886
 20
8.411345833333331
 10
4.491176388888886
 20
8.394581944444443
 10
4.491176388888886
 20
8.381998611111109
 10
4.461815277777775
 20
8.365220833333331
 10
4.440843055555554
 20
8.352623611111109
 10
4.466009722222221
 20
8.356831944444442
 10
4.512148611111109
 20
8.356831944444442
 10
4.583454166666667
 20
8.361012499999999
 10
4.633787499999998
 20
8.361012499999999
 10
4.684120833333331
 20
8.361012499999999
 10
4.742843055555555
 20
8.361012499999999
 10
4.805759722222221
 20
8.361012499999999
 10
4.872870833333331
 20
8.361012499999999
 10
4.944190277777776
 20
8.361012499999999
 10
5.01549583333333
 20
8.361012499999999
 10
5.09099583333333
 20
8.361012499999999
 10
4.952565277777777
 20
8.352623611111109
 10
4.809954166666665
 20
8.344234722222221
 10
4.713481944444442
 20
8.33585972222222
 10
4.633787499999998
 20
8.331665277777776
 10
4.566676388888888
 20
8.323276388888887
 10
4.520537500000001
 20
8.314887499999999
 10
4.49537083333333
 20
8.310679166666664
 10
4.486981944444442
 20
8.302290277777776
 10
4.491176388888886
 20
8.302290277777776
  0
LWPOLYLINE
  5
106
330
2
100
AcDbEntity
  8
PDF_Layer 1
 62
     7
420
 16777215
370
    70
100
AcDbPolyline
 90
       56
 70
     0
 43
0.0
 10
5.904718055555553
 20
8.57074861111111
 10
5.934079166666665
 20
8.587526388888887
 10
5.963440277777776
 20
8.604304166666665
 10
5.963440277777776
 20
8.616887499999998
 10
5.95924583333333
 20
8.616887499999998
 10
5.955051388888886
 20
8.616887499999998
 10
5.950856944444442
 20
8.616887499999998
 10
5.942468055555554
 20
8.612693055555554
 10
5.917301388888885
 20
8.612693055555554
 10
5.896329166666665
 20
8.612693055555554
 10
5.875356944444444
 20
8.608498611111109
 10
5.871162499999998
 20
8.608498611111109
 10
5.845995833333331
 20
8.608498611111109
 10
5.82502361111111
 20
8.608498611111109
 10
5.7956625
 20
8.608498611111109
 10
5.770495833333333
 20
8.604304166666665
 10
5.74113472222222
 20
8.604304166666665
 10
5.715968055555553
 20
8.604304166666665
 10
5.690801388888887
 20
8.604304166666665
 10
5.627884722222221
 20
8.600109722222221
 10
5.5691625
 20
8.600109722222221
 10
5.531412499999998
 20
8.600109722222221
 10
5.518829166666664
 20
8.600109722222221
 10
5.476884722222219
 20
8.595915277777775
 10
5.434940277777776
 20
8.595915277777775
 10
5.392995833333332
 20
8.595915277777775
 10
5.346856944444443
 20
8.595915277777775
 10
5.304912499999998
 20
8.595915277777775
 10
5.275551388888887
 20
8.591720833333331
 10
5.250384722222221
 20
8.591720833333331
 10
5.166495833333334
 20
8.591720833333331
 10
5.09938472222222
 20
8.587526388888887
 10
5.061634722222221
 20
8.587526388888887
 10
5.044856944444443
 20
8.587526388888887
 10
5.002912499999998
 20
8.587526388888887
 10
4.956759722222221
 20
8.587526388888887
 10
4.914815277777774
 20
8.583331944444443
 10
4.872870833333331
 20
8.583331944444443
 10
4.835120833333332
 20
8.583331944444443
 10
4.809954166666665
 20
8.583331944444443
 10
4.788981944444442
 20
8.583331944444443
 10
4.759620833333332
 20
8.579137499999998
 10
4.717676388888888
 20
8.579137499999998
 10
4.684120833333331
 20
8.579137499999998
 10
4.658954166666665
 20
8.579137499999998
 10
4.629593055555554
 20
8.579137499999998
 10
4.604426388888889
 20
8.574943055555554
 10
4.57925972222222
 20
8.574943055555554
 10
4.558287499999998
 20
8.574943055555554
 10
4.537315277777777
 20
8.574943055555554
 10
4.516343055555553
 20
8.57074861111111
 10
4.499565277777776
 20
8.57074861111111
 10
4.474398611111109
 20
8.57074861111111
 10
4.449231944444443
 20
8.566554166666666
 10
4.43664861111111
 20
8.566554166666666
 10
4.432454166666664
 20
8.566554166666666
  0
LWPOLYLINE
  5
108
330
2
100
AcDbEntity
  8
PDF_Layer 1
 62
     7
420
 16777215
370
    70
100
AcDbPolyline
 90
        5
 70
     0
 43
0.0
 10
5.904718055555553
 20
8.759498611111109
 10
5.904718055555553
 20
8.772081944444442
 10
5.904718055555553
 20
8.784665277777776
 10
5.934079166666665
 20
8.801443055555553
 10
5.963440277777776
 20
8.818220833333331
  0
LWPOLYLINE
  5
10A
330
2
100
AcDbEntity
  8
PDF_Layer 1
 62
     7
420
 16777215
370
    70
100
AcDbPolyline
 90
        4
 70
     0
 43
0.0
 10
5.904718055555553
 20
9.002776388888888
 10
5.934079166666665
 20
9.019554166666665
 10
5.963440277777776
 20
9.036331944444443
 10
5.963440277777776
 20
9.057304166666664
  0
LWPOLYLINE
  5
10B
330
2
100
AcDbEntity
  8
PDF_Layer 1
 62
     7
420
 16777215
370
    70
100
AcDbPolyline
 90
        5
 70
     0
 43
0.0
 10
4.432454166666664
 20
8.549776388888886
 10
4.43664861111111
 20
8.549776388888886
 10
4.449231944444443
 20
8.545581944444442
 10
4.474398611111109
 20
8.528804166666665
 10
4.50375972222222
 20
8.512026388888887
  0
LWPOLYLINE
  5
10C
330
2
100
AcDbEntity
  8
PDF_Layer 1
 62
     7
420
 16777215
370
    70
100
AcDbPolyline
 90
       34
 70
     0
 43
0.0
 10
5.963440277777776
 20
8.71335972222222
 10
5.95924583333333
 20
8.709165277777776
 10
5.946662499999998
 20
8.709165277777776
 10
5.929884722222221
 20
8.709165277777776
 10
5.89213472222222
 20
8.704970833333332
 10
5.854384722222221
 20
8.704970833333332
 10
5.820829166666666
 20
8.700776388888886
 10
5.778884722222221
 20
8.700776388888886
 10
5.724356944444442
 20
8.700776388888886
 10
5.653051388888888
 20
8.696581944444442
 10
5.5691625
 20
8.696581944444442
 10
5.497856944444443
 20
8.692387499999998
 10
5.43913472222222
 20
8.692387499999998
 10
5.376218055555554
 20
8.688193055555554
 10
5.29652361111111
 20
8.688193055555554
 10
5.200051388888889
 20
8.68399861111111
 10
5.09938472222222
 20
8.68399861111111
 10
5.019690277777778
 20
8.679804166666665
 10
4.960968055555554
 20
8.679804166666665
 10
4.902245833333331
 20
8.679804166666665
 10
4.826731944444444
 20
8.675609722222221
 10
4.742843055555555
 20
8.675609722222221
 10
4.671537499999997
 20
8.671415277777775
 10
4.617009722222221
 20
8.671415277777775
 10
4.575065277777778
 20
8.671415277777775
 10
4.541509722222222
 20
8.667220833333331
 10
4.50375972222222
 20
8.667220833333331
 10
4.466009722222221
 20
8.663026388888887
 10
4.445037499999999
 20
8.663026388888887
 10
4.432454166666664
 20
8.658831944444443
 10
4.445037499999999
 20
8.654637499999997
 10
4.449231944444443
 20
8.654637499999997
 10
4.474398611111109
 20
8.63785972222222
 10
4.50375972222222
 20
8.621081944444442
  0
LWPOLYLINE
  5
10D
330
2
100
AcDbEntity
  8
PDF_Layer 1
 62
     7
420
 16777215
370
    70
100
AcDbPolyline
 90
        5
 70
     0
 43
0.0
 10
4.432454166666664
 20
8.767887499999998
 10
4.440843055555554
 20
8.763693055555554
 10
4.449231944444443
 20
8.763693055555554
 10
4.474398611111109
 20
8.746915277777777
 10
4.50375972222222
 20
8.730137499999997
  0
LWPOLYLINE
  5
10E
330
2
100
AcDbEntity
  8
PDF_Layer 1
 62
     7
420
 16777215
370
    70
100
AcDbPolyline
 90
        5
 70
     0
 43
0.0
 10
4.432454166666664
 20
8.872748611111109
 10
4.43664861111111
 20
8.872748611111109
 10
4.449231944444443
 20
8.872748611111109
 10
4.474398611111109
 20
8.855970833333332
 10
4.50375972222222
 20
8.839193055555554
  0
LWPOLYLINE
  5
10F
330
2
100
AcDbEntity
  8
PDF_Layer 1
 62
     7
420
 16777215
370
    70
100
AcDbPolyline
 90
        6
 70
     0
 43
0.0
 10
4.432454166666664
 20
8.994387499999998
 10
4.432454166666664
 20
8.981804166666664
 10
4.445037499999999
 20
8.97760972222222
 10
4.449231944444443
 20
8.97760972222222
 10
4.474398611111109
 20
8.960831944444443
 10
4.50375972222222
 20
8.944054166666665
  0
LWPOLYLINE
  5
110
330
2
100
AcDbEntity
  8
PDF_Layer 1
 62
     7
420
 16777215
370
    70
100
AcDbPolyline
 90
        2
 70
     0
 43
0.0
 10
4.474398611111109
 20
9.069887499999998
 10
4.50375972222222
 20
9.05310972222222
  0
LWPOLYLINE
  5
111
330
2
100
AcDbEntity
  8
PDF_Layer 1
 62
     7
420
 16777215
370
    70
100
AcDbPolyline
 90
       57
 70
     0
 43
0.0
 10
5.963440277777776
 20
8.49524861111111
 10
5.942468055555554
 20
8.491054166666664
 10
5.904718055555553
 20
8.491054166666664
 10
5.854384722222221
 20
8.486845833333331
 10
5.804051388888888
 20
8.486845833333331
 10
5.762106944444441
 20
8.482665277777776
 10
5.724356944444442
 20
8.482665277777776
 10
5.669829166666666
 20
8.482665277777776
 10
5.590134722222222
 20
8.478470833333332
 10
5.556579166666663
 20
8.478470833333332
 10
5.52302361111111
 20
8.478470833333332
 10
5.485273611111109
 20
8.478470833333332
 10
5.455912499999998
 20
8.474276388888887
 10
5.426551388888887
 20
8.474276388888887
 10
5.397190277777777
 20
8.474276388888887
 10
5.367829166666666
 20
8.474276388888887
 10
5.36363472222222
 20
8.474276388888887
 10
5.359440277777776
 20
8.474276388888887
 10
5.346856944444443
 20
8.474276388888887
 10
5.29652361111111
 20
8.474276388888887
 10
5.225218055555554
 20
8.470081944444443
 10
5.124551388888887
 20
8.470081944444443
 10
5.09938472222222
 20
8.465887499999999
 10
5.074218055555554
 20
8.465887499999999
 10
5.049051388888887
 20
8.465887499999999
 10
5.007106944444442
 20
8.465887499999999
 10
4.977745833333333
 20
8.465887499999999
 10
4.948370833333333
 20
8.465887499999999
 10
4.91900972222222
 20
8.465887499999999
 10
4.893843055555553
 20
8.461693055555553
 10
4.889648611111109
 20
8.461693055555553
 10
4.885454166666665
 20
8.461693055555553
 10
4.872870833333331
 20
8.461693055555553
 10
4.830926388888887
 20
8.461693055555553
 10
4.76800972222222
 20
8.461693055555553
 10
4.688315277777775
 20
8.457498611111109
 10
4.658954166666665
 20
8.457498611111109
 10
4.633787499999998
 20
8.457498611111109
 10
4.617009722222221
 20
8.453304166666665
 10
4.604426388888889
 20
8.453304166666665
 10
4.587648611111109
 20
8.453304166666665
 10
4.566676388888888
 20
8.453304166666665
 10
4.54989861111111
 20
8.453304166666665
 10
4.537315277777777
 20
8.453304166666665
 10
4.533120833333333
 20
8.453304166666665
 10
4.528926388888889
 20
8.453304166666665
 10
4.50375972222222
 20
8.449109722222221
 10
4.474398611111109
 20
8.449109722222221
 10
4.449231944444443
 20
8.444901388888887
 10
4.440843055555554
 20
8.444901388888887
 10
4.43664861111111
 20
8.444901388888887
 10
4.432454166666664
 20
8.444901388888887
 10
4.432454166666664
 20
8.440720833333331
 10
4.43664861111111
 20
8.440720833333331
 10
4.449231944444443
 20
8.440720833333331
 10
4.474398611111109
 20
8.423943055555554
 10
4.50375972222222
 20
8.407165277777776
  0
LWPOLYLINE
  5
113
330
2
100
AcDbEntity
  8
PDF_Layer 1
 62
     7
420
 16777215
370
    70
100
AcDbPolyline
 90
       71
 70
     0
 43
0.0
 10
4.491176388888886
 20
8.411345833333331
 10
4.499565277777776
 20
8.411345833333331
 10
4.541509722222222
 20
8.415554166666664
 10
4.600231944444443
 20
8.41974861111111
 10
4.684120833333331
 20
8.423943055555554
 10
4.7847875
 20
8.423943055555554
 10
4.898037499999999
 20
8.428123611111109
 10
5.02388472222222
 20
8.432331944444442
 10
5.158106944444444
 20
8.436526388888887
 10
5.292329166666664
 20
8.440720833333331
 10
5.422356944444443
 20
8.440720833333331
 10
5.543995833333331
 20
8.444901388888887
 10
5.65724583333333
 20
8.449109722222221
 10
5.74952361111111
 20
8.453304166666665
 10
5.820829166666666
 20
8.453304166666665
 10
5.875356944444444
 20
8.457498611111109
 10
5.900523611111109
 20
8.461693055555553
 10
5.904718055555553
 20
8.461693055555553
 10
5.904718055555553
 20
8.449109722222221
 10
5.904718055555553
 20
8.436526388888887
 10
5.934079166666665
 20
8.41974861111111
 10
5.963440277777776
 20
8.402956944444442
 10
5.963440277777776
 20
8.390387499999999
 10
5.934079166666665
 20
8.373609722222221
 10
5.904718055555553
 20
8.356831944444442
 10
5.900523611111109
 20
8.352623611111109
 10
5.875356944444444
 20
8.348443055555554
 10
5.820829166666666
 20
8.348443055555554
 10
5.74952361111111
 20
8.344234722222221
 10
5.65724583333333
 20
8.340054166666664
 10
5.543995833333331
 20
8.33585972222222
 10
5.422356944444443
 20
8.33585972222222
 10
5.292329166666664
 20
8.331665277777776
 10
5.158106944444444
 20
8.327456944444442
 10
5.02388472222222
 20
8.323276388888887
 10
4.898037499999999
 20
8.323276388888887
 10
4.7847875
 20
8.319068055555554
 10
4.684120833333331
 20
8.314887499999999
 10
4.600231944444443
 20
8.310679166666664
 10
4.541509722222222
 20
8.306498611111109
 10
4.499565277777776
 20
8.306498611111109
 10
4.491176388888886
 20
8.302290277777776
 10
4.507954166666664
 20
8.281331944444442
 10
4.512148611111109
 20
8.281331944444442
 10
4.533120833333333
 20
8.281331944444442
 10
4.562481944444444
 20
8.281331944444442
 10
4.604426388888889
 20
8.281331944444442
 10
4.654759722222221
 20
8.281331944444442
 10
4.717676388888888
 20
8.281331944444442
 10
4.788981944444442
 20
8.281331944444442
 10
4.864481944444444
 20
8.281331944444442
 10
4.948370833333333
 20
8.281331944444442
 10
5.036468055555554
 20
8.281331944444442
 10
5.128745833333331
 20
8.281331944444442
 10
5.22102361111111
 20
8.281331944444442
 10
5.313301388888886
 20
8.281331944444442
 10
5.401384722222221
 20
8.281331944444442
 10
5.489468055555553
 20
8.281331944444442
 10
5.5691625
 20
8.281331944444442
 10
5.644662499999999
 20
8.281331944444442
 10
5.707579166666665
 20
8.281331944444442
 10
5.766301388888887
 20
8.281331944444442
 10
5.812440277777778
 20
8.281331944444442
 10
5.850190277777777
 20
8.281331944444442
 10
5.875356944444444
 20
8.281331944444442
 10
5.883745833333332
 20
8.281331944444442
 10
5.887940277777776
 20
8.281331944444442
 10
5.921495833333333
 20
8.319068055555554
 10
5.904718055555553
 20
8.327456944444442
 10
5.904718055555553
 20
8.340054166666664
 10
5.904718055555553
 20
8.356831944444442
  0
LWPOLYLINE
  5
114
330
2
100
AcDbEntity
  8
PDF_Layer 1
 62
     7
420
 16777215
370
    70
100
AcDbPolyline
 90
       13
 70
     0
 43
0.0
 10
4.43664861111111
 20
8.352623611111109
 10
4.486981944444442
 20
8.302290277777776
 10
4.491176388888886
 20
8.302290277777776
 10
4.507954166666664
 20
8.302290277777776
 10
4.545704166666665
 20
8.302290277777776
 10
4.600231944444443
 20
8.302290277777776
 10
4.663148611111109
 20
8.302290277777776
 10
4.742843055555555
 20
8.302290277777776
 10
4.830926388888887
 20
8.302290277777776
 10
4.92739861111111
 20
8.302290277777776
 10
5.03227361111111
 20
8.302290277777776
 10
5.137134722222221
 20
8.302290277777776
 10
5.191662499999999
 20
8.302290277777776
  0
LWPOLYLINE
  5
124
330
2
100
AcDbEntity
  8
PDF_Layer 1
 62
     7
420
 16777215
370
    70
100
AcDbPolyline
 90
        4
 70
     0
 43
0.0
 10
4.604426388888889
 20
9.485137499999998
 10
4.604426388888889
 20
9.174748611111109
 10
4.461815277777775
 20
9.074081944444444
 42
-0.006437298059526
 10
5.657245833333319
 20
9.095054166666663
  0
LWPOLYLINE
  5
12B
330
2
100
AcDbEntity
  8
PDF_Layer 1
 62
     7
420
 16777215
370
    70
100
AcDbPolyline
 90
        4
 70
     1
 43
0.0
 10
4.491176388888886
 20
9.027943055555553
 10
4.491176388888886
 20
9.044720833333332
 10
4.491176388888886
 20
9.057304166666664
 10
4.491176388888886
 20
9.044720833333332
  0
LWPOLYLINE
  5
143
330
2
100
AcDbEntity
  8
PDF_Layer 1
 62
     7
420
 16777215
370
    70
100
AcDbPolyline
 90
       48
 70
     0
 43
0.0
 10
10.70321805555555
 20
8.998581944444442
 10
10.71162083333333
 20
8.998581944444442
 10
10.73677361111111
 20
9.002776388888888
 10
10.76613472222222
 20
9.002776388888888
 10
10.78710694444444
 20
9.002776388888888
 10
10.80807916666666
 20
9.006970833333332
 10
10.84163472222222
 20
9.006970833333332
 10
10.87519027777777
 20
9.006970833333332
 10
10.89617638888888
 20
9.006970833333332
 10
10.90455138888889
 20
9.006970833333332
 10
10.91295416666666
 20
9.006970833333332
 10
10.91295416666666
 20
9.011165277777775
 10
10.91713472222222
 20
9.011165277777775
 10
10.92132916666666
 20
9.011165277777775
 10
10.92973194444444
 20
9.011165277777775
 10
10.97166249999999
 20
9.011165277777775
 10
11.04717638888889
 20
9.011165277777775
 10
11.1142875
 20
9.015359722222221
 10
11.16881527777777
 20
9.015359722222221
 10
11.22332916666666
 20
9.015359722222221
 10
11.25270416666666
 20
9.019554166666665
 10
11.28206527777777
 20
9.019554166666665
 10
11.29464861111111
 20
9.019554166666665
 10
11.30721805555555
 20
9.019554166666665
 10
11.35755138888888
 20
9.019554166666665
 10
11.42887083333333
 20
9.023748611111109
 10
11.53373194444444
 20
9.023748611111109
 10
11.60084305555555
 20
9.027943055555553
 10
11.68473194444444
 20
9.027943055555553
 10
11.75184305555555
 20
9.027943055555553
 10
11.78959305555555
 20
9.032137499999999
 10
11.84413472222222
 20
9.032137499999999
 10
11.90284305555555
 20
9.032137499999999
 10
11.97414861111111
 20
9.036331944444443
 10
12.03287083333333
 20
9.036331944444443
 10
12.08739861111111
 20
9.040526388888887
 10
12.11677361111111
 20
9.040526388888887
 10
12.14192638888889
 20
9.040526388888887
 10
12.16710694444444
 20
9.044720833333332
 10
12.19646805555555
 20
9.044720833333332
 10
12.21744027777777
 20
9.044720833333332
 10
12.23002361111111
 20
9.048915277777776
 10
12.23421805555555
 20
9.048915277777776
 10
12.20484305555555
 20
9.065693055555554
 10
12.17548194444444
 20
9.082470833333331
 10
12.17548194444444
 20
9.095054166666665
 10
12.06224583333333
 20
9.174748611111109
 10
12.06224583333333
 20
9.485137499999998
  0
LWPOLYLINE
  5
144
330
2
100
AcDbEntity
  8
PDF_Layer 1
 62
     7
420
 16777215
370
    70
100
AcDbPolyline
 90
        8
 70
     0
 43
0.0
 10
10.75774583333333
 20
8.491054166666664
 10
10.75774583333333
 20
8.503637499999998
 10
10.75774583333333
 20
8.516220833333331
 10
10.75774583333333
 20
8.503637499999998
 10
10.75774583333333
 20
8.491054166666664
 10
10.72839861111111
 20
8.474276388888887
 10
10.69902361111111
 20
8.457498611111109
 10
10.69902361111111
 20
8.444901388888887
  0
LWPOLYLINE
  5
145
330
2
100
AcDbEntity
  8
PDF_Layer 1
 62
     7
420
 16777215
370
    70
100
AcDbPolyline
 90
       62
 70
     0
 43
0.0
 10
10.75774583333333
 20
8.600109722222221
 10
10.75774583333333
 20
8.612693055555554
 10
10.75774583333333
 20
8.625276388888886
 10
10.75774583333333
 20
8.612693055555554
 10
10.75774583333333
 20
8.600109722222221
 10
10.72839861111111
 20
8.583331944444443
 10
10.69902361111111
 20
8.566554166666666
 10
10.69902361111111
 20
8.549776388888886
 10
10.70321805555555
 20
8.553970833333332
 10
10.71162083333333
 20
8.553970833333332
 10
10.72419027777777
 20
8.553970833333332
 10
10.75355138888888
 20
8.558165277777776
 10
10.77873194444444
 20
8.558165277777776
 10
10.79130138888888
 20
8.558165277777776
 10
10.79969027777777
 20
8.558165277777776
 10
10.80807916666666
 20
8.56235972222222
 10
10.81646805555555
 20
8.56235972222222
 10
10.82485694444444
 20
8.56235972222222
 10
10.85421805555555
 20
8.56235972222222
 10
10.88357916666666
 20
8.56235972222222
 10
10.90874583333333
 20
8.56235972222222
 10
10.93810694444444
 20
8.566554166666666
 10
10.9632875
 20
8.566554166666666
 10
10.98424583333333
 20
8.566554166666666
 10
11.03039861111111
 20
8.566554166666666
 10
11.07232916666666
 20
8.57074861111111
 10
11.11009305555555
 20
8.57074861111111
 10
11.14364861111111
 20
8.57074861111111
 10
11.17299583333333
 20
8.57074861111111
 10
11.19398194444444
 20
8.57074861111111
 10
11.24010694444444
 20
8.574943055555554
 10
11.28625972222222
 20
8.574943055555554
 10
11.32820416666666
 20
8.574943055555554
 10
11.36595416666666
 20
8.574943055555554
 10
11.39950972222222
 20
8.574943055555554
 10
11.43306527777777
 20
8.579137499999998
 10
11.50017638888888
 20
8.579137499999998
 10
11.55470416666666
 20
8.579137499999998
 10
11.6050375
 20
8.579137499999998
 10
11.64280138888889
 20
8.583331944444443
 10
11.67214861111111
 20
8.583331944444443
 10
11.7182875
 20
8.583331944444443
 10
11.76024583333333
 20
8.583331944444443
 10
11.79798194444444
 20
8.587526388888887
 10
11.8315375
 20
8.587526388888887
 10
11.8609125
 20
8.587526388888887
 10
11.89025972222222
 20
8.587526388888887
 10
11.94480138888889
 20
8.587526388888887
 10
11.98673194444444
 20
8.591720833333331
 10
12.02448194444444
 20
8.591720833333331
 10
12.04964861111111
 20
8.591720833333331
 10
12.07062083333333
 20
8.591720833333331
 10
12.09998194444444
 20
8.595915277777775
 10
12.12935694444444
 20
8.595915277777775
 10
12.15032916666666
 20
8.595915277777775
 10
12.1712875
 20
8.595915277777775
 10
12.18806527777777
 20
8.600109722222221
 10
12.20905138888889
 20
8.600109722222221
 10
12.22162083333333
 20
8.600109722222221
 10
12.22582916666666
 20
8.604304166666665
 10
12.23002361111111
 20
8.604304166666665
 10
12.23421805555555
 20
8.604304166666665
  0
LWPOLYLINE
  5
146
330
2
100
AcDbEntity
  8
PDF_Layer 1
 62
     7
420
 16777215
370
    70
100
AcDbPolyline
 90
        8
 70
     0
 43
0.0
 10
10.75774583333333
 20
8.704970833333332
 10
10.75774583333333
 20
8.717554166666666
 10
10.75774583333333
 20
8.734331944444443
 10
10.75774583333333
 20
8.717554166666666
 10
10.75774583333333
 20
8.704970833333332
 10
10.72839861111111
 20
8.688193055555554
 10
10.69902361111111
 20
8.671415277777775
 10
10.69902361111111
 20
8.658831944444443
  0
LWPOLYLINE
  5
148
330
2
100
AcDbEntity
  8
PDF_Layer 1
 62
     7
420
 16777215
370
    70
100
AcDbPolyline
 90
       74
 70
     0
 43
0.0
 10
10.75774583333333
 20
8.923081944444442
 10
10.75774583333333
 20
8.935665277777776
 10
10.75774583333333
 20
8.948248611111109
 10
10.75774583333333
 20
8.935665277777776
 10
10.75774583333333
 20
8.923081944444442
 10
10.72839861111111
 20
8.906304166666664
 10
10.69902361111111
 20
8.889526388888887
 10
10.69902361111111
 20
8.872748611111109
 10
10.69902361111111
 20
8.876943055555553
 10
10.70321805555555
 20
8.876943055555553
 10
10.7074125
 20
8.876943055555553
 10
10.71999583333333
 20
8.876943055555553
 10
10.73677361111111
 20
8.881137499999997
 10
10.76195416666666
 20
8.881137499999997
 10
10.77452361111111
 20
8.881137499999997
 10
10.79130138888888
 20
8.881137499999997
 10
10.80807916666666
 20
8.885331944444443
 10
10.82485694444444
 20
8.885331944444443
 10
10.84584305555555
 20
8.885331944444443
 10
10.86680138888889
 20
8.885331944444443
 10
10.88777361111111
 20
8.885331944444443
 10
10.89198194444444
 20
8.885331944444443
 10
10.90035694444444
 20
8.885331944444443
 10
10.9339125
 20
8.889526388888887
 10
10.95488472222222
 20
8.889526388888887
 10
10.97587083333333
 20
8.889526388888887
 10
11.00521805555555
 20
8.889526388888887
 10
11.03877361111111
 20
8.889526388888887
 10
11.0765375
 20
8.893720833333333
 10
11.10588472222222
 20
8.893720833333333
 10
11.13525972222222
 20
8.893720833333333
 10
11.16881527777777
 20
8.893720833333333
 10
11.19817638888888
 20
8.893720833333333
 10
11.23173194444444
 20
8.897915277777777
 10
11.2652875
 20
8.897915277777777
 10
11.29884305555555
 20
8.897915277777777
 10
11.31562083333333
 20
8.897915277777777
 10
11.36175972222222
 20
8.897915277777777
 10
11.38692638888889
 20
8.897915277777777
 10
11.42048194444444
 20
8.90210972222222
 10
11.4540375
 20
8.90210972222222
 10
11.49598194444444
 20
8.90210972222222
 10
11.54212083333333
 20
8.90210972222222
 10
11.57567638888888
 20
8.90210972222222
 10
11.60923194444444
 20
8.906304166666664
 10
11.64280138888889
 20
8.906304166666664
 10
11.67635694444444
 20
8.906304166666664
 10
11.7099125
 20
8.906304166666664
 10
11.74346805555555
 20
8.906304166666664
 10
11.77281527777777
 20
8.910498611111108
 10
11.77702361111111
 20
8.910498611111108
 10
11.78959305555555
 20
8.910498611111108
 10
11.8315375
 20
8.910498611111108
 10
11.85250972222222
 20
8.910498611111108
 10
11.88187083333333
 20
8.910498611111108
 10
11.91124583333333
 20
8.910498611111108
 10
11.94480138888889
 20
8.914693055555554
 10
11.97835694444444
 20
8.914693055555554
 10
12.07062083333333
 20
8.918887499999998
 10
12.10417638888889
 20
8.918887499999998
 10
12.12095416666666
 20
8.918887499999998
 10
12.1251625
 20
8.918887499999998
 10
12.12935694444444
 20
8.918887499999998
 10
12.13355138888889
 20
8.918887499999998
 10
12.13773194444444
 20
8.918887499999998
 10
12.15870416666666
 20
8.918887499999998
 10
12.1712875
 20
8.923081944444442
 10
12.17969027777777
 20
8.923081944444442
 10
12.19227361111111
 20
8.923081944444442
 10
12.20484305555555
 20
8.923081944444442
 10
12.21744027777777
 20
8.923081944444442
 10
12.22582916666666
 20
8.927276388888888
 10
12.23002361111111
 20
8.927276388888888
 10
12.23421805555555
 20
8.927276388888888
  0
LWPOLYLINE
  5
149
330
2
100
AcDbEntity
  8
PDF_Layer 1
 62
     7
420
 16777215
370
    70
100
AcDbPolyline
 90
        3
 70
     0
 43
0.0
 10
10.75774583333333
 20
9.032137499999999
 10
10.72839861111111
 20
9.015359722222221
 10
10.69902361111111
 20
8.998581944444442
  0
LWPOLYLINE
  5
14A
330
2
100
AcDbEntity
  8
PDF_Layer 1
 62
     7
420
 16777215
370
    70
100
AcDbPolyline
 90
      106
 70
     0
 43
0.0
 10
10.75774583333333
 20
8.381998611111109
 10
10.75774583333333
 20
8.394581944444443
 10
10.75774583333333
 20
8.411345833333331
 10
10.75774583333333
 20
8.394581944444443
 10
10.75774583333333
 20
8.381998611111109
 10
10.72839861111111
 20
8.365220833333331
 10
10.7074125
 20
8.352623611111109
 10
10.75774583333333
 20
8.302290277777776
 10
10.77873194444444
 20
8.281331944444442
 10
10.7829125
 20
8.281331944444442
 10
10.79969027777777
 20
8.281331944444442
 10
10.83324583333333
 20
8.281331944444442
 10
10.87519027777777
 20
8.281331944444442
 10
10.92552361111111
 20
8.281331944444442
 10
10.98844027777778
 20
8.281331944444442
 10
11.05975972222222
 20
8.281331944444442
 10
11.13525972222222
 20
8.281331944444442
 10
11.21914861111111
 20
8.281331944444442
 10
11.30721805555555
 20
8.281331944444442
 10
11.39950972222222
 20
8.281331944444442
 10
11.49177361111111
 20
8.281331944444442
 10
11.57987083333333
 20
8.281331944444442
 10
11.67214861111111
 20
8.281331944444442
 10
11.7560375
 20
8.281331944444442
 10
11.83992638888889
 20
8.281331944444442
 10
11.91124583333333
 20
8.281331944444442
 10
11.97835694444444
 20
8.281331944444442
 10
12.03706527777777
 20
8.281331944444442
 10
12.08320416666666
 20
8.281331944444442
 10
12.11677361111111
 20
8.281331944444442
 10
12.14192638888889
 20
8.281331944444442
 10
12.15450972222222
 20
8.281331944444442
 10
12.19227361111111
 20
8.319068055555554
 10
12.17548194444444
 20
8.327456944444442
 10
12.17548194444444
 20
8.340054166666664
 10
12.17548194444444
 20
8.356831944444442
 10
12.20484305555555
 20
8.373609722222221
 10
12.23421805555555
 20
8.390387499999999
 10
12.23421805555555
 20
8.402956944444442
 10
12.20484305555555
 20
8.41974861111111
 10
12.17548194444444
 20
8.436526388888887
 10
12.17548194444444
 20
8.449109722222221
 10
12.17548194444444
 20
8.461693055555553
 10
12.20484305555555
 20
8.478470833333332
 10
12.23421805555555
 20
8.49524861111111
 10
12.23421805555555
 20
8.512026388888887
 10
12.20484305555555
 20
8.528804166666665
 10
12.17548194444444
 20
8.545581944444442
 10
12.17548194444444
 20
8.558165277777776
 10
12.17548194444444
 20
8.57074861111111
 10
12.20484305555555
 20
8.587526388888887
 10
12.23421805555555
 20
8.604304166666665
 10
12.23421805555555
 20
8.616887499999998
 10
12.23002361111111
 20
8.616887499999998
 10
12.22582916666666
 20
8.616887499999998
 10
12.21744027777777
 20
8.616887499999998
 10
12.21324583333333
 20
8.612693055555554
 10
12.18806527777777
 20
8.612693055555554
 10
12.1629125
 20
8.612693055555554
 10
12.14613472222222
 20
8.608498611111109
 10
12.13773194444444
 20
8.608498611111109
 10
12.11677361111111
 20
8.608498611111109
 10
12.09159305555555
 20
8.608498611111109
 10
12.06642638888889
 20
8.608498611111109
 10
12.03706527777777
 20
8.604304166666665
 10
12.00770416666666
 20
8.604304166666665
 10
11.98673194444444
 20
8.604304166666665
 10
11.95737083333333
 20
8.604304166666665
 10
11.89446805555555
 20
8.600109722222221
 10
11.83992638888889
 20
8.600109722222221
 10
11.80217638888888
 20
8.600109722222221
 10
11.78959305555555
 20
8.600109722222221
 10
11.74764861111111
 20
8.595915277777775
 10
11.70570416666666
 20
8.595915277777775
 10
11.66375972222222
 20
8.595915277777775
 10
11.61762083333333
 20
8.595915277777775
 10
11.57148194444444
 20
8.595915277777775
 10
11.54212083333333
 20
8.591720833333331
 10
11.51695416666666
 20
8.591720833333331
 10
11.43725972222222
 20
8.591720833333331
 10
11.37014861111111
 20
8.587526388888887
 10
11.32820416666666
 20
8.587526388888887
 10
11.31562083333333
 20
8.587526388888887
 10
11.26948194444444
 20
8.587526388888887
 10
11.2275375
 20
8.587526388888887
 10
11.18559305555555
 20
8.583331944444443
 10
11.14364861111111
 20
8.583331944444443
 10
11.10170416666666
 20
8.583331944444443
 10
11.0765375
 20
8.583331944444443
 10
11.05555138888888
 20
8.583331944444443
 10
11.02620416666666
 20
8.579137499999998
 10
10.98844027777778
 20
8.579137499999998
 10
10.95488472222222
 20
8.579137499999998
 10
10.92973194444444
 20
8.579137499999998
 10
10.90035694444444
 20
8.579137499999998
 10
10.87519027777777
 20
8.574943055555554
 10
10.85002361111111
 20
8.574943055555554
 10
10.82485694444444
 20
8.574943055555554
 10
10.80388472222222
 20
8.574943055555554
 10
10.78710694444444
 20
8.57074861111111
 10
10.76613472222222
 20
8.57074861111111
 10
10.74096805555555
 20
8.57074861111111
 10
10.71999583333333
 20
8.566554166666666
 10
10.7074125
 20
8.566554166666666
 10
10.70321805555555
 20
8.566554166666666
 10
10.69902361111111
 20
8.566554166666666
  0
LWPOLYLINE
  5
14F
330
2
100
AcDbEntity
  8
PDF_Layer 1
 62
     7
420
 16777215
370
    70
100
AcDbPolyline
 90
       15
 70
     0
 43
0.0
 10
12.23421805555555
 20
8.616887499999998
 10
12.23421805555555
 20
8.621081944444442
 10
12.20484305555555
 20
8.63785972222222
 10
12.17548194444444
 20
8.650443055555554
 10
12.17548194444444
 20
8.667220833333331
 10
12.17548194444444
 20
8.679804166666665
 10
12.20484305555555
 20
8.696581944444442
 10
12.23421805555555
 20
8.71335972222222
 10
12.23421805555555
 20
8.725943055555553
 10
12.20484305555555
 20
8.742720833333331
 10
12.17548194444444
 20
8.759498611111109
 10
12.17548194444444
 20
8.772081944444442
 10
12.17548194444444
 20
8.784665277777776
 10
12.20484305555555
 20
8.801443055555553
 10
12.23421805555555
 20
8.818220833333331
  0
LWPOLYLINE
  5
151
330
2
100
AcDbEntity
  8
PDF_Layer 1
 62
     7
420
 16777215
370
    70
100
AcDbPolyline
 90
       85
 70
     0
 43
0.0
 10
10.75774583333333
 20
8.814026388888887
 10
10.75774583333333
 20
8.826609722222221
 10
10.75774583333333
 20
8.839193055555554
 10
10.75774583333333
 20
8.826609722222221
 10
10.75774583333333
 20
8.814026388888887
 10
10.72839861111111
 20
8.797248611111109
 10
10.69902361111111
 20
8.780470833333332
 10
10.69902361111111
 20
8.767887499999998
 10
10.70321805555555
 20
8.767887499999998
 10
10.7074125
 20
8.767887499999998
 10
10.71580138888889
 20
8.772081944444442
 10
10.72839861111111
 20
8.772081944444442
 10
10.74935694444444
 20
8.772081944444442
 10
10.76195416666666
 20
8.772081944444442
 10
10.77452361111111
 20
8.776276388888888
 10
10.79550972222222
 20
8.776276388888888
 10
10.8122875
 20
8.776276388888888
 10
10.83744027777777
 20
8.776276388888888
 10
10.86680138888889
 20
8.776276388888888
 10
10.87939861111111
 20
8.780470833333332
 10
10.90035694444444
 20
8.780470833333332
 10
10.92973194444444
 20
8.780470833333332
 10
10.95907916666666
 20
8.780470833333332
 10
10.99684305555555
 20
8.780470833333332
 10
11.04296805555555
 20
8.784665277777776
 10
11.07232916666666
 20
8.784665277777776
 10
11.10170416666666
 20
8.784665277777776
 10
11.13525972222222
 20
8.784665277777776
 10
11.17720416666666
 20
8.78885972222222
 10
11.21914861111111
 20
8.78885972222222
 10
11.2652875
 20
8.78885972222222
 10
11.28625972222222
 20
8.78885972222222
 10
11.31562083333333
 20
8.78885972222222
 10
11.35337083333333
 20
8.793054166666665
 10
11.39531527777777
 20
8.793054166666665
 10
11.44564861111111
 20
8.793054166666665
 10
11.50437083333333
 20
8.793054166666665
 10
11.53373194444444
 20
8.797248611111109
 10
11.5672875
 20
8.797248611111109
 10
11.6050375
 20
8.797248611111109
 10
11.64698194444444
 20
8.797248611111109
 10
11.69313472222222
 20
8.797248611111109
 10
11.73925972222222
 20
8.801443055555553
 10
11.77702361111111
 20
8.801443055555553
 10
11.82314861111111
 20
8.801443055555553
 10
11.84413472222222
 20
8.801443055555553
 10
11.8692875
 20
8.801443055555553
 10
11.89446805555555
 20
8.805637499999997
 10
11.92381527777778
 20
8.805637499999997
 10
11.94898194444444
 20
8.805637499999997
 10
11.96995416666666
 20
8.805637499999997
 10
11.98673194444444
 20
8.805637499999997
 10
12.0119125
 20
8.805637499999997
 10
12.03287083333333
 20
8.809831944444443
 10
12.0580375
 20
8.809831944444443
 10
12.08739861111111
 20
8.809831944444443
 10
12.11257916666667
 20
8.809831944444443
 10
12.12935694444444
 20
8.809831944444443
 10
12.15450972222222
 20
8.814026388888887
 10
12.16710694444444
 20
8.814026388888887
 10
12.17548194444444
 20
8.814026388888887
 10
12.18806527777777
 20
8.814026388888887
 10
12.2006625
 20
8.814026388888887
 10
12.20905138888889
 20
8.818220833333331
 10
12.21324583333333
 20
8.818220833333331
 10
12.21744027777777
 20
8.818220833333331
 10
12.22582916666666
 20
8.818220833333331
 10
12.23002361111111
 20
8.818220833333331
 10
12.23421805555555
 20
8.818220833333331
 10
12.23421805555555
 20
8.822415277777777
 10
12.23421805555555
 20
8.83499861111111
 10
12.20484305555555
 20
8.851776388888888
 10
12.17548194444444
 20
8.868554166666665
 10
12.17548194444444
 20
8.881137499999997
 10
12.17548194444444
 20
8.893720833333333
 10
12.20484305555555
 20
8.910498611111108
 10
12.23421805555555
 20
8.927276388888888
 10
12.23421805555555
 20
8.944054166666665
 10
12.20484305555555
 20
8.960831944444443
 10
12.17548194444444
 20
8.97760972222222
 10
12.17548194444444
 20
8.990193055555554
 10
12.17548194444444
 20
9.002776388888888
 10
12.20484305555555
 20
9.019554166666665
 10
12.23421805555555
 20
9.036331944444443
 10
12.23421805555555
 20
9.057304166666664
  0
LWPOLYLINE
  5
152
330
2
100
AcDbEntity
  8
PDF_Layer 1
 62
     7
420
 16777215
370
    70
100
AcDbPolyline
 90
        5
 70
     0
 43
0.0
 10
10.69902361111111
 20
8.549776388888886
 10
10.70321805555555
 20
8.549776388888886
 10
10.71580138888889
 20
8.545581944444442
 10
10.74517638888888
 20
8.528804166666665
 10
10.77452361111111
 20
8.512026388888887
  0
LWPOLYLINE
  5
153
330
2
100
AcDbEntity
  8
PDF_Layer 1
 62
     7
420
 16777215
370
    70
100
AcDbPolyline
 90
       35
 70
     0
 43
0.0
 10
12.23421805555555
 20
8.71335972222222
 10
12.22582916666666
 20
8.709165277777776
 10
12.21744027777777
 20
8.709165277777776
 10
12.2006625
 20
8.709165277777776
 10
12.1629125
 20
8.704970833333332
 10
12.1251625
 20
8.704970833333332
 10
12.09159305555555
 20
8.700776388888886
 10
12.04964861111111
 20
8.700776388888886
 10
11.99513472222222
 20
8.700776388888886
 10
11.91962083333333
 20
8.696581944444442
 10
11.83992638888889
 20
8.696581944444442
 10
11.76442638888889
 20
8.692387499999998
 10
11.70570416666666
 20
8.692387499999998
 10
11.64280138888889
 20
8.688193055555554
 10
11.56309305555555
 20
8.688193055555554
 10
11.46662083333333
 20
8.68399861111111
 10
11.37014861111111
 20
8.68399861111111
 10
11.29044027777777
 20
8.679804166666665
 10
11.2275375
 20
8.679804166666665
 10
11.16881527777777
 20
8.679804166666665
 10
11.09750972222222
 20
8.675609722222221
 10
11.01362083333333
 20
8.675609722222221
 10
10.94230138888889
 20
8.671415277777775
 10
10.88357916666666
 20
8.671415277777775
 10
10.84584305555555
 20
8.671415277777775
 10
10.80807916666666
 20
8.667220833333331
 10
10.77032916666666
 20
8.667220833333331
 10
10.73677361111111
 20
8.663026388888887
 10
10.71162083333333
 20
8.663026388888887
 10
10.70321805555555
 20
8.658831944444443
 10
10.69902361111111
 20
8.658831944444443
 10
10.70321805555555
 20
8.658831944444443
 10
10.71580138888889
 20
8.654637499999997
 10
10.74517638888888
 20
8.63785972222222
 10
10.77452361111111
 20
8.621081944444442
  0
LWPOLYLINE
  5
154
330
2
100
AcDbEntity
  8
PDF_Layer 1
 62
     7
420
 16777215
370
    70
100
AcDbPolyline
 90
        3
 70
     0
 43
0.0
 10
10.71580138888889
 20
8.763693055555554
 10
10.74517638888888
 20
8.746915277777777
 10
10.77452361111111
 20
8.730137499999997
  0
LWPOLYLINE
  5
155
330
2
100
AcDbEntity
  8
PDF_Layer 1
 62
     7
420
 16777215
370
    70
100
AcDbPolyline
 90
        5
 70
     0
 43
0.0
 10
10.70321805555555
 20
8.872748611111109
 10
10.7074125
 20
8.872748611111109
 10
10.71580138888889
 20
8.872748611111109
 10
10.74517638888888
 20
8.855970833333332
 10
10.77452361111111
 20
8.839193055555554
  0
LWPOLYLINE
  5
156
330
2
100
AcDbEntity
  8
PDF_Layer 1
 62
     7
420
 16777215
370
    70
100
AcDbPolyline
 90
        5
 70
     0
 43
0.0
 10
10.70321805555555
 20
8.981804166666664
 10
10.71162083333333
 20
8.97760972222222
 10
10.71580138888889
 20
8.97760972222222
 10
10.74517638888888
 20
8.960831944444443
 10
10.77452361111111
 20
8.944054166666665
  0
LWPOLYLINE
  5
157
330
2
100
AcDbEntity
  8
PDF_Layer 1
 62
     7
420
 16777215
370
    70
100
AcDbPolyline
 90
        3
 70
     0
 43
0.0
 10
10.74096805555555
 20
9.069887499999998
 10
10.74517638888888
 20
9.069887499999998
 10
10.77452361111111
 20
9.05310972222222
  0
LWPOLYLINE
  5
158
330
2
100
AcDbEntity
  8
PDF_Layer 1
 62
     7
420
 16777215
370
    70
100
AcDbPolyline
 90
        3
 70
     0
 43
0.0
 10
10.71580138888889
 20
8.440720833333331
 10
10.74517638888888
 20
8.423943055555554
 10
10.77452361111111
 20
8.407165277777776
  0
LWPOLYLINE
  5
162
330
2
100
AcDbEntity
  8
PDF_Layer 1
 62
     7
420
 16777215
370
    70
100
AcDbPolyline
 90
       37
 70
     0
 43
0.0
 10
10.69902361111111
 20
8.994387499999998
 10
10.69902361111111
 20
8.981804166666664
 10
10.7074125
 20
8.98599861111111
 10
10.71999583333333
 20
8.98599861111111
 10
10.74517638888888
 20
8.990193055555554
 10
10.77452361111111
 20
8.990193055555554
 10
10.80388472222222
 20
8.990193055555554
 10
10.83744027777777
 20
8.994387499999998
 10
10.87939861111111
 20
8.994387499999998
 10
10.91295416666666
 20
8.994387499999998
 10
10.95488472222222
 20
8.998581944444442
 10
11.00521805555555
 20
8.998581944444442
 10
11.05555138888888
 20
8.998581944444442
 10
11.10588472222222
 20
9.002776388888888
 10
11.17299583333333
 20
9.002776388888888
 10
11.26109305555555
 20
9.002776388888888
 10
11.33239861111111
 20
9.006970833333332
 10
11.39531527777777
 20
9.006970833333332
 10
11.4540375
 20
9.011165277777775
 10
11.51695416666666
 20
9.011165277777775
 10
11.57567638888888
 20
9.011165277777775
 10
11.65117638888888
 20
9.015359722222221
 10
11.73506527777777
 20
9.015359722222221
 10
11.80637083333333
 20
9.015359722222221
 10
11.8609125
 20
9.019554166666665
 10
11.91124583333333
 20
9.019554166666665
 10
11.95737083333333
 20
9.019554166666665
 10
12.00350972222222
 20
9.023748611111109
 10
12.05384305555555
 20
9.023748611111109
 10
12.10838472222222
 20
9.027943055555553
 10
12.14613472222222
 20
9.027943055555553
 10
12.1712875
 20
9.027943055555553
 10
12.19646805555555
 20
9.032137499999999
 10
12.21324583333333
 20
9.032137499999999
 10
12.22582916666666
 20
9.032137499999999
 10
12.23002361111111
 20
9.036331944444443
 10
12.23421805555555
 20
9.036331944444443
  0
LWPOLYLINE
  5
16B
330
2
100
AcDbEntity
  8
PDF_Layer 1
 62
     7
420
 16777215
370
    70
100
AcDbPolyline
 90
       29
 70
     0
 43
0.0
 10
10.87099583333333
 20
9.485137499999998
 10
10.87099583333333
 20
9.174748611111109
 10
10.72839861111111
 20
9.074081944444444
 10
10.73257916666666
 20
9.074081944444444
 10
10.75355138888888
 20
9.078276388888887
 10
10.79130138888888
 20
9.078276388888887
 10
10.85421805555555
 20
9.078276388888887
 10
10.92973194444444
 20
9.082470833333331
 10
11.02199583333333
 20
9.082470833333331
 10
11.1226625
 20
9.082470833333331
 10
11.23592638888888
 20
9.086665277777775
 10
11.34917638888889
 20
9.086665277777775
 10
11.47081527777777
 20
9.090859722222221
 10
11.58825972222222
 20
9.090859722222221
 10
11.70150972222222
 20
9.090859722222221
 10
11.81057916666666
 20
9.095054166666665
 10
11.92381527777778
 20
9.095054166666665
 10
11.81475972222222
 20
9.090859722222221
 10
11.69313472222222
 20
9.090859722222221
 10
11.56309305555555
 20
9.086665277777775
 10
11.42887083333333
 20
9.082470833333331
 10
11.29464861111111
 20
9.078276388888887
 10
11.16881527777777
 20
9.078276388888887
 10
11.05137083333333
 20
9.074081944444444
 10
10.95069027777777
 20
9.069887499999998
 10
10.87099583333333
 20
9.065693055555554
 10
10.80807916666666
 20
9.06149861111111
 10
10.77032916666666
 20
9.06149861111111
 10
10.75774583333333
 20
9.057304166666664
  0
LWPOLYLINE
  5
172
330
2
100
AcDbEntity
  8
PDF_Layer 1
 62
     7
420
 16777215
370
    70
100
AcDbPolyline
 90
        4
 70
     1
 43
0.0
 10
10.75774583333333
 20
9.027943055555553
 10
10.75774583333333
 20
9.044720833333332
 10
10.75774583333333
 20
9.057304166666664
 10
10.75774583333333
 20
9.044720833333332
  0
CIRCLE
  5
188
330
2
100
AcDbEntity
  8
PDF_Layer 1
 62
     7
420
 16777215
370
    70
100
AcDbCircle
 10
5.199070487455008
 20
10.36359807874661
 30
0.0
 40
0.5644652354651204
  0
CIRCLE
  5
189
330
2
100
AcDbEntity
  8
PDF_Layer 1
 62
     7
420
 16777215
370
    70
100
AcDbCircle
 10
11.46734937385775
 20
10.36428390841477
 30
0.0
 40
0.5645496562765486
  0
LWPOLYLINE
  5
18A
330
2
100
AcDbEntity
  8
PDF_Layer 1
 62
     7
420
 16777215
370
    70
100
AcDbPolyline
 90
       53
 70
     0
 43
0.0
 10
12.41038472222222
 20
10.61347083333333
 10
12.40199583333333
 20
10.6386375
 10
12.36424583333333
 20
10.74349861111111
 10
12.3139125
 20
10.84416527777777
 10
12.25517638888889
 20
10.93644305555555
 10
12.18388472222222
 20
11.02452638888888
 10
12.10417638888889
 20
11.10002638888889
 10
12.01609305555555
 20
11.1671375
 10
11.92381527777778
 20
11.22585972222222
 10
11.81895416666666
 20
11.27199861111111
 10
11.71409305555555
 20
11.30555416666666
 10
11.6050375
 20
11.32652638888888
 10
11.49598194444444
 20
11.33910972222222
 10
11.38273194444444
 20
11.33491527777777
 10
11.2736625
 20
11.3181375
 10
11.16462083333333
 20
11.28877638888889
 10
11.06395416666666
 20
11.25102638888888
 10
10.9632875
 20
11.19649861111111
 10
10.87099583333333
 20
11.13358194444444
 10
10.78710694444444
 20
11.06227638888888
 10
10.71162083333333
 20
10.9783875
 10
10.64869027777777
 20
10.89030416666666
 10
10.58996805555555
 20
10.79381805555555
 10
10.54802361111111
 20
10.68897083333333
 10
10.5186625
 20
10.58409583333333
 10
10.49769027777777
 20
10.47504027777777
 10
10.49350972222222
 20
10.36179027777778
 10
10.49769027777777
 20
10.25273472222222
 10
10.5186625
 20
10.14367916666666
 10
10.54802361111111
 20
10.03462361111111
 10
10.58996805555555
 20
9.933956944444442
 10
10.64869027777777
 20
9.837484722222221
 10
10.71162083333333
 20
9.745206944444442
 10
10.78710694444444
 20
9.665512499999998
 10
10.87099583333333
 20
9.590012499999998
 10
10.9632875
 20
9.527081944444443
 10
11.06395416666666
 20
9.476748611111108
 10
11.16462083333333
 20
9.434804166666665
 10
11.2736625
 20
9.409637499999998
 10
11.38273194444444
 20
9.392859722222221
 10
11.49598194444444
 20
9.388679166666666
 10
11.6050375
 20
9.397068055555553
 10
11.71409305555555
 20
9.422234722222221
 10
11.81895416666666
 20
9.455790277777776
 10
11.92381527777778
 20
9.501915277777776
 10
12.01609305555555
 20
9.556456944444443
 10
12.10417638888889
 20
9.627762499999999
 10
12.18388472222222
 20
9.703262499999999
 10
12.25517638888889
 20
9.791345833333332
 10
12.3139125
 20
9.88362361111111
 10
12.36424583333333
 20
9.984290277777775
 10
12.40199583333333
 20
10.08915138888888
 10
12.41038472222222
 20
10.11431805555555
  0
LWPOLYLINE
  5
18C
330
2
100
AcDbEntity
  8
PDF_Layer 1
 62
     7
420
 16777215
370
    70
100
AcDbPolyline
 90
       95
 70
     0
 43
0.0
 10
12.48588472222222
 20
10.61765138888889
 10
12.44813472222222
 20
10.70992916666666
 10
12.38102361111111
 20
10.87772083333333
 10
12.30971805555555
 20
11.04969305555555
 10
12.28035694444444
 20
11.11680416666666
 10
12.27195416666666
 20
11.12519305555555
 10
12.26777361111111
 20
11.13358194444444
 10
12.25938472222222
 20
11.13777638888889
 10
12.25099583333333
 20
11.14616527777777
 10
12.24260694444444
 20
11.15455416666666
 10
12.23421805555555
 20
11.16294305555555
 10
12.22582916666666
 20
11.17133194444444
 10
12.21744027777777
 20
11.17972083333333
 10
12.07062083333333
 20
11.23844305555555
 10
11.91542638888889
 20
11.30135972222222
 10
11.74764861111111
 20
11.37266527777778
 10
11.57567638888888
 20
11.44397083333333
 10
11.51275972222222
 20
11.4691375
 10
11.50017638888888
 20
11.47333194444444
 10
11.48759305555555
 20
11.47333194444444
 10
11.47920416666666
 20
11.47333194444444
 10
11.46662083333333
 20
11.47333194444444
 10
11.4540375
 20
11.47333194444444
 10
11.44564861111111
 20
11.47333194444444
 10
11.43306527777777
 20
11.47333194444444
 10
11.4246625
 20
11.4691375
 10
11.27787083333333
 20
11.41041527777777
 10
11.11848194444444
 20
11.34749861111111
 10
10.95069027777777
 20
11.27619305555555
 10
10.7829125
 20
11.2048875
 10
10.71580138888889
 20
11.17972083333333
 10
10.7074125
 20
11.17133194444444
 10
10.69902361111111
 20
11.16294305555555
 10
10.69063472222222
 20
11.15455416666666
 10
10.68224583333333
 20
11.14616527777777
 10
10.67385694444444
 20
11.13777638888889
 10
10.66546805555555
 20
11.13358194444444
 10
10.6612875
 20
11.12519305555555
 10
10.65288472222222
 20
11.11680416666666
 10
10.58996805555555
 20
10.96999861111111
 10
10.52706527777777
 20
10.81480416666666
 10
10.45574583333333
 20
10.64281805555555
 10
10.38863472222222
 20
10.47504027777777
 10
10.35925972222222
 20
10.40792916666666
 10
10.35925972222222
 20
10.39534583333333
 10
10.35925972222222
 20
10.38695694444444
 10
10.35925972222222
 20
10.37437361111111
 10
10.35925972222222
 20
10.36179027777778
 10
10.35925972222222
 20
10.35340138888888
 10
10.35925972222222
 20
10.34081805555555
 10
10.35925972222222
 20
10.32823472222222
 10
10.35925972222222
 20
10.31984583333333
 10
10.41799583333333
 20
10.17304027777777
 10
10.48510694444444
 20
10.01784583333333
 10
10.55221805555555
 20
9.850068055555553
 10
10.62352361111111
 20
9.678095833333332
 10
10.65288472222222
 20
9.61098472222222
 10
10.6612875
 20
9.602581944444443
 10
10.66546805555555
 20
9.594206944444442
 10
10.67385694444444
 20
9.585804166666665
 10
10.68224583333333
 20
9.577415277777776
 10
10.69063472222222
 20
9.57323472222222
 10
10.69902361111111
 20
9.564845833333331
 10
10.7074125
 20
9.556456944444443
 10
10.71580138888889
 20
9.548068055555553
 10
10.86262083333333
 20
9.489345833333331
 10
11.01781527777777
 20
9.422234722222221
 10
11.18559305555555
 20
9.355123611111109
 10
11.35755138888888
 20
9.283804166666666
 10
11.4246625
 20
9.254443055555555
 10
11.43306527777777
 20
9.254443055555555
 10
11.44564861111111
 20
9.254443055555555
 10
11.4540375
 20
9.254443055555555
 10
11.46662083333333
 20
9.254443055555555
 10
11.47920416666666
 20
9.254443055555555
 10
11.48759305555555
 20
9.254443055555555
 10
11.50017638888888
 20
9.254443055555555
 10
11.51275972222222
 20
9.254443055555555
 10
11.65957916666666
 20
9.317359722222221
 10
11.81475972222222
 20
9.380290277777776
 10
11.9825375
 20
9.451581944444443
 10
12.15450972222222
 20
9.522901388888888
 10
12.21744027777777
 20
9.548068055555553
 10
12.22582916666666
 20
9.556456944444443
 10
12.23421805555555
 20
9.564845833333331
 10
12.24260694444444
 20
9.57323472222222
 10
12.25099583333333
 20
9.577415277777776
 10
12.25938472222222
 20
9.585804166666665
 10
12.26777361111111
 20
9.594206944444442
 10
12.27195416666666
 20
9.602581944444443
 10
12.28035694444444
 20
9.61098472222222
 10
12.34327361111111
 20
9.757790277777775
 10
12.40617638888888
 20
9.912984722222221
 10
12.47749583333333
 20
10.0807625
 10
12.48588472222222
 20
10.10592916666666
  0
ARC
  5
19B
330
2
100
AcDbEntity
  8
PDF_Layer 1
 62
     7
420
 16777215
370
    70
100
AcDbCircle
 10
5.197301911429856
 20
10.36457794855812
 30
0.0
 40
0.9737238502595776
100
AcDbArc
 50
194.8929101490641
 51
165.1848531870324
  0
LWPOLYLINE
  5
19C
330
2
100
AcDbEntity
  8
PDF_Layer 1
 62
     7
420
 16777215
370
    70
100
AcDbPolyline
 90
       95
 70
     0
 43
0.0
 10
4.176593055555555
 20
10.10592916666666
 10
4.214343055555556
 20
10.01784583333333
 10
4.285648611111108
 20
9.850068055555553
 10
4.356954166666666
 20
9.678095833333332
 10
4.382120833333333
 20
9.61098472222222
 10
4.390509722222219
 20
9.602581944444443
 10
4.398898611111109
 20
9.594206944444442
 10
4.407287499999998
 20
9.585804166666665
 10
4.415676388888888
 20
9.577415277777776
 10
4.419870833333332
 20
9.57323472222222
 10
4.42825972222222
 20
9.564845833333331
 10
4.43664861111111
 20
9.556456944444443
 10
4.445037499999999
 20
9.548068055555553
 10
4.591843055555555
 20
9.489345833333331
 10
4.747037499999999
 20
9.422234722222221
 10
4.914815277777774
 20
9.355123611111109
 10
5.086801388888886
 20
9.283804166666666
 10
5.153912499999998
 20
9.254443055555555
 10
5.166495833333334
 20
9.254443055555555
 10
5.17488472222222
 20
9.254443055555555
 10
5.187468055555555
 20
9.254443055555555
 10
5.195856944444441
 20
9.254443055555555
 10
5.208440277777778
 20
9.254443055555555
 10
5.22102361111111
 20
9.254443055555555
 10
5.2294125
 20
9.254443055555555
 10
5.241995833333332
 20
9.254443055555555
 10
5.388801388888889
 20
9.317359722222221
 10
5.543995833333331
 20
9.380290277777776
 10
5.711773611111109
 20
9.451581944444443
 10
5.883745833333332
 20
9.522901388888888
 10
5.950856944444442
 20
9.548068055555553
 10
5.95924583333333
 20
9.556456944444443
 10
5.96763472222222
 20
9.564845833333331
 10
5.971829166666664
 20
9.57323472222222
 10
5.980218055555553
 20
9.577415277777776
 10
5.988606944444443
 20
9.585804166666665
 10
5.996995833333333
 20
9.594206944444442
 10
6.005384722222222
 20
9.602581944444443
 10
6.01377361111111
 20
9.61098472222222
 10
6.072495833333331
 20
9.757790277777775
 10
6.135426388888886
 20
9.912984722222221
 10
6.206731944444443
 20
10.0807625
 10
6.278037499999999
 20
10.25273472222222
 10
6.30739861111111
 20
10.31984583333333
 10
6.30739861111111
 20
10.32823472222222
 10
6.30739861111111
 20
10.34081805555555
 10
6.30739861111111
 20
10.35340138888888
 10
6.30739861111111
 20
10.36179027777778
 10
6.30739861111111
 20
10.37437361111111
 10
6.30739861111111
 20
10.38695694444444
 10
6.30739861111111
 20
10.39534583333333
 10
6.30739861111111
 20
10.40792916666666
 10
6.244481944444443
 20
10.55474861111111
 10
6.181565277777774
 20
10.70992916666666
 10
6.110245833333333
 20
10.87772083333333
 10
6.038940277777777
 20
11.04969305555555
 10
6.01377361111111
 20
11.11680416666666
 10
6.005384722222222
 20
11.12519305555555
 10
5.996995833333333
 20
11.13358194444444
 10
5.988606944444443
 20
11.13777638888889
 10
5.980218055555553
 20
11.14616527777777
 10
5.971829166666664
 20
11.15455416666666
 10
5.96763472222222
 20
11.16294305555555
 10
5.95924583333333
 20
11.17133194444444
 10
5.950856944444442
 20
11.17972083333333
 10
5.804051388888888
 20
11.23844305555555
 10
5.648856944444442
 20
11.30135972222222
 10
5.476884722222219
 20
11.37266527777778
 10
5.309106944444442
 20
11.44397083333333
 10
5.241995833333332
 20
11.4691375
 10
5.2294125
 20
11.47333194444444
 10
5.22102361111111
 20
11.47333194444444
 10
5.208440277777778
 20
11.47333194444444
 10
5.195856944444441
 20
11.47333194444444
 10
5.187468055555555
 20
11.47333194444444
 10
5.17488472222222
 20
11.47333194444444
 10
5.166495833333334
 20
11.47333194444444
 10
5.153912499999998
 20
11.4691375
 10
5.007106944444442
 20
11.41041527777777
 10
4.851898611111108
 20
11.34749861111111
 10
4.684120833333331
 20
11.27619305555555
 10
4.512148611111109
 20
11.2048875
 10
4.445037499999999
 20
11.17972083333333
 10
4.43664861111111
 20
11.17133194444444
 10
4.42825972222222
 20
11.16294305555555
 10
4.419870833333332
 20
11.15455416666666
 10
4.415676388888888
 20
11.14616527777777
 10
4.407287499999998
 20
11.13777638888889
 10
4.398898611111109
 20
11.13358194444444
 10
4.390509722222219
 20
11.12519305555555
 10
4.382120833333333
 20
11.11680416666666
 10
4.323398611111111
 20
10.96999861111111
 10
4.256287499999999
 20
10.81480416666666
 10
4.189176388888887
 20
10.64281805555555
 10
4.176593055555555
 20
10.61765138888889
  0
ARC
  5
1AB
330
2
100
AcDbEntity
  8
PDF_Layer 1
 62
     7
420
 16777215
370
    70
100
AcDbCircle
 10
4.299569498166596
 20
40.42288431972074
 30
0.0
 40
32.06312859172062
100
AcDbArc
 50
270.5072993999149
 51
272.974619667334
  0
LWPOLYLINE
  5
1AC
330
2
100
AcDbEntity
  8
PDF_Layer 1
 62
     7
420
 16777215
370
    70
100
AcDbPolyline
 90
       38
 70
     0
 43
0.0
 10
4.432454166666664
 20
8.457498611111109
 10
4.440843055555554
 20
8.457498611111109
 10
4.457620833333333
 20
8.461693055555553
 10
4.491176388888886
 20
8.461693055555553
 10
4.507954166666664
 20
8.465887499999999
 10
4.520537500000001
 20
8.465887499999999
 10
4.537315277777777
 20
8.465887499999999
 10
4.545704166666665
 20
8.465887499999999
 10
4.575065277777778
 20
8.465887499999999
 10
4.604426388888889
 20
8.470081944444443
 10
4.633787499999998
 20
8.470081944444443
 10
4.654759722222221
 20
8.470081944444443
 10
4.671537499999997
 20
8.470081944444443
 10
4.684120833333331
 20
8.470081944444443
 10
4.70089861111111
 20
8.470081944444443
 10
4.788981944444442
 20
8.474276388888887
 10
4.860287499999998
 20
8.474276388888887
 10
4.92739861111111
 20
8.478470833333332
 10
5.007106944444442
 20
8.478470833333332
 10
5.128745833333331
 20
8.482665277777776
 10
5.250384722222221
 20
8.486845833333331
 10
5.37202361111111
 20
8.486845833333331
 10
5.485273611111109
 20
8.491054166666664
 10
5.506245833333332
 20
8.491054166666664
 10
5.535606944444442
 20
8.491054166666664
 10
5.581745833333332
 20
8.491054166666664
 10
5.640468055555555
 20
8.49524861111111
 10
5.694995833333333
 20
8.49524861111111
 10
5.757912499999997
 20
8.499443055555554
 10
5.808245833333332
 20
8.499443055555554
 10
5.845995833333331
 20
8.499443055555554
 10
5.883745833333332
 20
8.503637499999998
 10
5.921495833333333
 20
8.503637499999998
 10
5.946662499999998
 20
8.507831944444443
 10
5.955051388888886
 20
8.507831944444443
 10
5.95924583333333
 20
8.507831944444443
 10
5.963440277777776
 20
8.507831944444443
 10
5.963440277777776
 20
8.512026388888887
  0
LWPOLYLINE
  5
1AF
330
2
100
AcDbEntity
  8
PDF_Layer 1
 62
     7
420
 16777215
370
    70
100
AcDbPolyline
 90
       46
 70
     0
 43
0.0
 10
4.432454166666664
 20
8.671415277777775
 10
4.43664861111111
 20
8.675609722222221
 10
4.457620833333333
 20
8.675609722222221
 10
4.491176388888886
 20
8.679804166666665
 10
4.520537500000001
 20
8.679804166666665
 10
4.545704166666665
 20
8.679804166666665
 10
4.57925972222222
 20
8.68399861111111
 10
4.612815277777777
 20
8.68399861111111
 10
4.633787499999998
 20
8.68399861111111
 10
4.646370833333334
 20
8.68399861111111
 10
4.650565277777776
 20
8.68399861111111
 10
4.667343055555553
 20
8.688193055555554
 10
4.69250972222222
 20
8.688193055555554
 10
4.730259722222221
 20
8.688193055555554
 10
4.780593055555554
 20
8.688193055555554
 10
4.818343055555555
 20
8.692387499999998
 10
4.847704166666666
 20
8.692387499999998
 10
4.902245833333331
 20
8.692387499999998
 10
4.960968055555554
 20
8.692387499999998
 10
5.01549583333333
 20
8.696581944444442
 10
5.070023611111109
 20
8.696581944444442
 10
5.162301388888888
 20
8.696581944444442
 10
5.241995833333332
 20
8.700776388888886
 10
5.325884722222221
 20
8.700776388888886
 10
5.359440277777776
 20
8.704970833333332
 10
5.392995833333332
 20
8.704970833333332
 10
5.426551388888887
 20
8.704970833333332
 10
5.455912499999998
 20
8.704970833333332
 10
5.489468055555553
 20
8.704970833333332
 10
5.52302361111111
 20
8.704970833333332
 10
5.552384722222219
 20
8.709165277777776
 10
5.556579166666663
 20
8.709165277777776
 10
5.585940277777776
 20
8.709165277777776
 10
5.636273611111109
 20
8.709165277777776
 10
5.686606944444443
 20
8.709165277777776
 10
5.720162499999997
 20
8.71335972222222
 10
5.74952361111111
 20
8.71335972222222
 10
5.799856944444442
 20
8.71335972222222
 10
5.845995833333331
 20
8.717554166666666
 10
5.887940277777776
 20
8.717554166666666
 10
5.904718055555553
 20
8.717554166666666
 10
5.921495833333333
 20
8.721748611111109
 10
5.938273611111108
 20
8.721748611111109
 10
5.950856944444442
 20
8.721748611111109
 10
5.95924583333333
 20
8.725943055555553
 10
5.963440277777776
 20
8.725943055555553
  0
LWPOLYLINE
  5
1B0
330
2
100
AcDbEntity
  8
PDF_Layer 1
 62
     7
420
 16777215
370
    70
100
AcDbPolyline
 90
        2
 70
     0
 43
0.0
 10
5.963440277777776
 20
8.725943055555553
 10
5.963440277777776
 20
8.725943055555553
  0
LWPOLYLINE
  5
1B1
330
2
100
AcDbEntity
  8
PDF_Layer 1
 62
     7
420
 16777215
370
    70
100
AcDbPolyline
 90
        2
 70
     0
 43
0.0
 10
4.432454166666664
 20
8.780470833333332
 10
4.432454166666664
 20
8.780470833333332
  0
LWPOLYLINE
  5
1B2
330
2
100
AcDbEntity
  8
PDF_Layer 1
 62
     7
420
 16777215
370
    70
100
AcDbPolyline
 90
       51
 70
     0
 43
0.0
 10
4.432454166666664
 20
8.780470833333332
 10
4.43664861111111
 20
8.780470833333332
 10
4.449231944444443
 20
8.784665277777776
 10
4.470204166666665
 20
8.784665277777776
 10
4.50375972222222
 20
8.78885972222222
 10
4.533120833333333
 20
8.78885972222222
 10
4.575065277777778
 20
8.793054166666665
 10
4.621204166666665
 20
8.793054166666665
 10
4.684120833333331
 20
8.793054166666665
 10
4.780593055555554
 20
8.797248611111109
 10
4.885454166666665
 20
8.801443055555553
 10
4.914815277777774
 20
8.801443055555553
 10
4.939981944444443
 20
8.801443055555553
 10
4.969343055555555
 20
8.801443055555553
 10
4.998718055555555
 20
8.801443055555553
 10
5.040662499999999
 20
8.805637499999997
 10
5.061634722222221
 20
8.805637499999997
 10
5.086801388888886
 20
8.805637499999997
 10
5.120356944444441
 20
8.805637499999997
 10
5.22102361111111
 20
8.809831944444443
 10
5.29652361111111
 20
8.809831944444443
 10
5.342662499999997
 20
8.809831944444443
 10
5.355245833333333
 20
8.809831944444443
 10
5.359440277777776
 20
8.809831944444443
 10
5.388801388888889
 20
8.809831944444443
 10
5.418162499999999
 20
8.814026388888887
 10
5.447523611111108
 20
8.814026388888887
 10
5.476884722222219
 20
8.814026388888887
 10
5.493662499999999
 20
8.814026388888887
 10
5.518829166666664
 20
8.814026388888887
 10
5.548190277777775
 20
8.814026388888887
 10
5.585940277777776
 20
8.818220833333331
 10
5.669829166666666
 20
8.818220833333331
 10
5.724356944444442
 20
8.818220833333331
 10
5.757912499999997
 20
8.822415277777777
 10
5.766301388888887
 20
8.822415277777777
 10
5.770495833333333
 20
8.822415277777777
 10
5.774690277777777
 20
8.822415277777777
 10
5.791468055555554
 20
8.822415277777777
 10
5.812440277777778
 20
8.822415277777777
 10
5.829218055555553
 20
8.822415277777777
 10
5.845995833333331
 20
8.822415277777777
 10
5.866968055555554
 20
8.826609722222221
 10
5.879551388888888
 20
8.826609722222221
 10
5.887940277777776
 20
8.826609722222221
 10
5.900523611111109
 20
8.826609722222221
 10
5.934079166666665
 20
8.830804166666665
 10
5.950856944444442
 20
8.830804166666665
 10
5.95924583333333
 20
8.830804166666665
 10
5.963440277777776
 20
8.830804166666665
 10
5.963440277777776
 20
8.83499861111111
  0
LWPOLYLINE
  5
1B3
330
2
100
AcDbEntity
  8
PDF_Layer 1
 62
     7
420
 16777215
370
    70
100
AcDbPolyline
 90
        2
 70
     0
 43
0.0
 10
4.432454166666664
 20
8.889526388888887
 10
4.432454166666664
 20
8.889526388888887
  0
LWPOLYLINE
  5
1B4
330
2
100
AcDbEntity
  8
PDF_Layer 1
 62
     7
420
 16777215
370
    70
100
AcDbPolyline
 90
       33
 70
     0
 43
0.0
 10
4.432454166666664
 20
8.889526388888887
 10
4.43664861111111
 20
8.889526388888887
 10
4.453426388888885
 20
8.893720833333333
 10
4.482787499999998
 20
8.893720833333333
 10
4.520537500000001
 20
8.897915277777777
 10
4.554093055555554
 20
8.897915277777777
 10
4.621204166666665
 20
8.90210972222222
 10
4.709287499999998
 20
8.90210972222222
 10
4.788981944444442
 20
8.906304166666664
 10
4.864481944444444
 20
8.906304166666664
 10
4.923204166666664
 20
8.910498611111108
 10
4.981926388888888
 20
8.910498611111108
 10
5.044856944444443
 20
8.910498611111108
 10
5.103579166666666
 20
8.914693055555554
 10
5.158106944444444
 20
8.914693055555554
 10
5.22102361111111
 20
8.914693055555554
 10
5.279745833333331
 20
8.918887499999998
 10
5.330079166666664
 20
8.918887499999998
 10
5.367829166666666
 20
8.918887499999998
 10
5.397190277777777
 20
8.918887499999998
 10
5.510440277777775
 20
8.923081944444442
 10
5.615301388888887
 20
8.923081944444442
 10
5.711773611111109
 20
8.927276388888888
 10
5.791468055555554
 20
8.931470833333332
 10
5.833412499999999
 20
8.931470833333332
 10
5.862773611111109
 20
8.931470833333332
 10
5.89213472222222
 20
8.935665277777776
 10
5.921495833333333
 20
8.935665277777776
 10
5.946662499999998
 20
8.93985972222222
 10
5.955051388888886
 20
8.93985972222222
 10
5.95924583333333
 20
8.93985972222222
 10
5.963440277777776
 20
8.93985972222222
 10
5.963440277777776
 20
8.944054166666665
  0
LWPOLYLINE
  5
1B7
330
2
100
AcDbEntity
  8
PDF_Layer 1
 62
     7
420
 16777215
370
    70
100
AcDbPolyline
 90
       20
 70
     0
 43
0.0
 10
5.921495833333333
 20
8.319068055555554
 10
5.917301388888885
 20
8.319068055555554
 10
5.896329166666665
 20
8.314887499999999
 10
5.854384722222221
 20
8.314887499999999
 10
5.791468055555554
 20
8.310679166666664
 10
5.711773611111109
 20
8.310679166666664
 10
5.619495833333331
 20
8.306498611111109
 10
5.51463472222222
 20
8.306498611111109
 10
5.405579166666665
 20
8.306498611111109
 10
5.283940277777777
 20
8.302290277777776
 10
5.191662499999999
 20
8.302290277777776
 10
5.292329166666664
 20
8.302290277777776
 10
5.422356944444443
 20
8.306498611111109
 10
5.543995833333331
 20
8.310679166666664
 10
5.65724583333333
 20
8.314887499999999
 10
5.74952361111111
 20
8.314887499999999
 10
5.820829166666666
 20
8.319068055555554
 10
5.875356944444444
 20
8.323276388888887
 10
5.900523611111109
 20
8.327456944444442
 10
5.904718055555553
 20
8.327456944444442
  0
LWPOLYLINE
  5
1C3
330
2
100
AcDbEntity
  8
PDF_Layer 1
 62
     7
420
 16777215
370
    70
100
AcDbPolyline
 90
       18
 70
     0
 43
0.0
 10
4.491176388888886
 20
8.625276388888886
 10
4.499565277777776
 20
8.629470833333332
 10
4.541509722222222
 20
8.633665277777776
 10
4.600231944444443
 20
8.633665277777776
 10
4.684120833333331
 20
8.63785972222222
 10
4.7847875
 20
8.642054166666666
 10
4.898037499999999
 20
8.64624861111111
 10
5.02388472222222
 20
8.64624861111111
 10
5.158106944444444
 20
8.650443055555554
 10
5.292329166666664
 20
8.654637499999997
 10
5.422356944444443
 20
8.658831944444443
 10
5.543995833333331
 20
8.658831944444443
 10
5.65724583333333
 20
8.663026388888887
 10
5.74952361111111
 20
8.667220833333331
 10
5.820829166666666
 20
8.671415277777775
 10
5.875356944444444
 20
8.675609722222221
 10
5.900523611111109
 20
8.675609722222221
 10
5.904718055555553
 20
8.679804166666665
  0
LWPOLYLINE
  5
1C4
330
2
100
AcDbEntity
  8
PDF_Layer 1
 62
     7
420
 16777215
370
    70
100
AcDbPolyline
 90
       18
 70
     0
 43
0.0
 10
4.491176388888886
 20
8.734331944444443
 10
4.499565277777776
 20
8.734331944444443
 10
4.541509722222222
 20
8.738526388888887
 10
4.600231944444443
 20
8.742720833333331
 10
4.684120833333331
 20
8.746915277777777
 10
4.7847875
 20
8.751109722222221
 10
4.898037499999999
 20
8.751109722222221
 10
5.02388472222222
 20
8.755304166666665
 10
5.158106944444444
 20
8.759498611111109
 10
5.292329166666664
 20
8.763693055555554
 10
5.422356944444443
 20
8.763693055555554
 10
5.543995833333331
 20
8.767887499999998
 10
5.65724583333333
 20
8.772081944444442
 10
5.74952361111111
 20
8.776276388888888
 10
5.820829166666666
 20
8.780470833333332
 10
5.875356944444444
 20
8.780470833333332
 10
5.900523611111109
 20
8.784665277777776
 10
5.904718055555553
 20
8.784665277777776
  0
LWPOLYLINE
  5
1C7
330
2
100
AcDbEntity
  8
PDF_Layer 1
 62
     7
420
 16777215
370
    70
100
AcDbPolyline
 90
       19
 70
     0
 43
0.0
 10
4.491176388888886
 20
9.057304166666664
 10
4.499565277777776
 20
9.06149861111111
 10
4.541509722222222
 20
9.06149861111111
 10
4.600231944444443
 20
9.065693055555554
 10
4.684120833333331
 20
9.069887499999998
 10
4.7847875
 20
9.074081944444444
 10
4.898037499999999
 20
9.078276388888887
 10
5.02388472222222
 20
9.078276388888887
 10
5.158106944444444
 20
9.082470833333331
 10
5.292329166666664
 20
9.086665277777775
 10
5.422356944444443
 20
9.090859722222221
 10
5.543995833333331
 20
9.090859722222221
 10
5.65724583333333
 20
9.095054166666665
 10
5.682412499999998
 20
9.095054166666665
 10
5.762106944444441
 20
9.095054166666665
 10
5.82502361111111
 20
9.095054166666665
 10
5.871162499999998
 20
9.095054166666665
 10
5.900523611111109
 20
9.095054166666665
 10
5.904718055555553
 20
9.095054166666665
  0
ARC
  5
1CA
330
2
100
AcDbEntity
  8
PDF_Layer 1
 62
     7
420
 16777215
370
    70
100
AcDbCircle
 10
5.17406366700985
 20
18.86446882784248
 30
0.0
 40
10.50378479862787
100
AcDbArc
 50
269.5468789596655
 51
274.3099349905175
  0
LWPOLYLINE
  5
1D4
330
2
100
AcDbEntity
  8
PDF_Layer 1
 62
     7
420
 16777215
370
    70
100
AcDbPolyline
 90
       36
 70
     0
 43
0.0
 10
4.432454166666664
 20
8.981804166666664
 10
4.43664861111111
 20
8.98599861111111
 10
4.453426388888885
 20
8.98599861111111
 10
4.474398611111109
 20
8.990193055555554
 10
4.507954166666664
 20
8.990193055555554
 10
4.533120833333333
 20
8.990193055555554
 10
4.566676388888888
 20
8.994387499999998
 10
4.608620833333331
 20
8.994387499999998
 10
4.642176388888886
 20
8.994387499999998
 10
4.688315277777775
 20
8.998581944444442
 10
4.734454166666665
 20
8.998581944444442
 10
4.7847875
 20
8.998581944444442
 10
4.835120833333332
 20
9.002776388888888
 10
4.902245833333331
 20
9.002776388888888
 10
4.990315277777778
 20
9.002776388888888
 10
5.065829166666665
 20
9.006970833333332
 10
5.124551388888887
 20
9.006970833333332
 10
5.187468055555555
 20
9.011165277777775
 10
5.246190277777776
 20
9.011165277777775
 10
5.309106944444442
 20
9.011165277777775
 10
5.3804125
 20
9.015359722222221
 10
5.464301388888888
 20
9.015359722222221
 10
5.535606944444442
 20
9.015359722222221
 10
5.590134722222222
 20
9.019554166666665
 10
5.640468055555555
 20
9.019554166666665
 10
5.690801388888887
 20
9.019554166666665
 10
5.736940277777774
 20
9.023748611111109
 10
5.78727361111111
 20
9.023748611111109
 10
5.837606944444443
 20
9.027943055555553
 10
5.879551388888888
 20
9.027943055555553
 10
5.904718055555553
 20
9.027943055555553
 10
5.925690277777775
 20
9.032137499999999
 10
5.942468055555554
 20
9.032137499999999
 10
5.955051388888886
 20
9.032137499999999
 10
5.95924583333333
 20
9.036331944444443
 10
5.963440277777776
 20
9.036331944444443
  0
LWPOLYLINE
  5
1DB
330
2
100
AcDbEntity
  8
PDF_Layer 1
 62
     7
420
 16777215
370
    70
100
AcDbPolyline
 90
       22
 70
     0
 43
0.0
 10
4.604426388888889
 20
9.174748611111109
 10
4.608620833333331
 20
9.174748611111109
 10
4.629593055555554
 20
9.174748611111109
 10
4.658954166666665
 20
9.174748611111109
 10
4.70089861111111
 20
9.174748611111109
 10
4.755426388888889
 20
9.174748611111109
 10
4.818343055555555
 20
9.174748611111109
 10
4.889648611111109
 20
9.174748611111109
 10
4.965148611111111
 20
9.174748611111109
 10
5.049051388888887
 20
9.174748611111109
 10
5.132940277777775
 20
9.174748611111109
 10
5.22102361111111
 20
9.174748611111109
 10
5.304912499999998
 20
9.174748611111109
 10
5.388801388888889
 20
9.174748611111109
 10
5.468495833333332
 20
9.174748611111109
 10
5.543995833333331
 20
9.174748611111109
 10
5.611106944444443
 20
9.174748611111109
 10
5.669829166666666
 20
9.174748611111109
 10
5.715968055555553
 20
9.174748611111109
 10
5.753718055555554
 20
9.174748611111109
 10
5.778884722222221
 20
9.174748611111109
 10
5.791468055555554
 20
9.174748611111109
  0
LWPOLYLINE
  5
1DC
330
2
100
AcDbEntity
  8
PDF_Layer 1
 62
     7
420
 16777215
370
    70
100
AcDbPolyline
 90
        2
 70
     0
 43
0.0
 10
4.491176388888886
 20
8.302290277777776
 10
4.491176388888886
 20
8.302290277777776
  0
LWPOLYLINE
  5
1DD
330
2
100
AcDbEntity
  8
PDF_Layer 1
 62
     7
420
 16777215
370
    70
100
AcDbPolyline
 90
       40
 70
     0
 43
0.0
 10
10.7074125
 20
8.352623611111109
 10
10.71162083333333
 20
8.352623611111109
 10
10.73677361111111
 20
8.356831944444442
 10
10.7829125
 20
8.356831944444442
 10
10.85421805555555
 20
8.361012499999999
 10
10.87939861111111
 20
8.361012499999999
 10
10.91713472222222
 20
8.361012499999999
 10
10.96746805555555
 20
8.365220833333331
 10
11.02620416666666
 20
8.365220833333331
 10
11.08073194444444
 20
8.365220833333331
 10
11.13944027777777
 20
8.369401388888887
 10
11.19398194444444
 20
8.369401388888887
 10
11.24431527777777
 20
8.369401388888887
 10
11.28625972222222
 20
8.373609722222221
 10
11.34077361111111
 20
8.373609722222221
 10
11.40788472222222
 20
8.373609722222221
 10
11.48339861111111
 20
8.377804166666665
 10
11.53373194444444
 20
8.377804166666665
 10
11.58406527777777
 20
8.377804166666665
 10
11.63020416666666
 20
8.377804166666665
 10
11.67635694444444
 20
8.381998611111109
 10
11.72248194444444
 20
8.381998611111109
 10
11.76024583333333
 20
8.381998611111109
 10
11.81057916666666
 20
8.381998611111109
 10
11.8692875
 20
8.386179166666664
 10
11.93639861111111
 20
8.386179166666664
 10
11.96995416666666
 20
8.386179166666664
 10
12.00770416666666
 20
8.390387499999999
 10
12.04125972222222
 20
8.390387499999999
 10
12.07062083333333
 20
8.390387499999999
 10
12.09998194444444
 20
8.390387499999999
 10
12.11677361111111
 20
8.394581944444443
 10
12.13773194444444
 20
8.394581944444443
 10
12.15870416666666
 20
8.394581944444443
 10
12.18388472222222
 20
8.394581944444443
 10
12.20484305555555
 20
8.398776388888887
 10
12.21324583333333
 20
8.398776388888887
 10
12.22582916666666
 20
8.398776388888887
 10
12.23002361111111
 20
8.402956944444442
 10
12.23421805555555
 20
8.402956944444442
  0
LWPOLYLINE
  5
1DE
330
2
100
AcDbEntity
  8
PDF_Layer 1
 62
     7
420
 16777215
370
    70
100
AcDbPolyline
 90
       37
 70
     0
 43
0.0
 10
10.69902361111111
 20
8.457498611111109
 10
10.7074125
 20
8.457498611111109
 10
10.72839861111111
 20
8.461693055555553
 10
10.76195416666666
 20
8.461693055555553
 10
10.77873194444444
 20
8.465887499999999
 10
10.79130138888888
 20
8.465887499999999
 10
10.80388472222222
 20
8.465887499999999
 10
10.81646805555555
 20
8.465887499999999
 10
10.84584305555555
 20
8.465887499999999
 10
10.87519027777777
 20
8.470081944444443
 10
10.90035694444444
 20
8.470081944444443
 10
10.92552361111111
 20
8.470081944444443
 10
10.94230138888889
 20
8.470081944444443
 10
10.95069027777777
 20
8.470081944444443
 10
10.97166249999999
 20
8.470081944444443
 10
11.05975972222222
 20
8.474276388888887
 10
11.13106527777777
 20
8.474276388888887
 10
11.19817638888888
 20
8.478470833333332
 10
11.27787083333333
 20
8.478470833333332
 10
11.39950972222222
 20
8.482665277777776
 10
11.52114861111111
 20
8.486845833333331
 10
11.64280138888889
 20
8.486845833333331
 10
11.7560375
 20
8.491054166666664
 10
11.77702361111111
 20
8.491054166666664
 10
11.80637083333333
 20
8.491054166666664
 10
11.85250972222222
 20
8.491054166666664
 10
11.91124583333333
 20
8.49524861111111
 10
11.96575972222222
 20
8.49524861111111
 10
12.02448194444444
 20
8.499443055555554
 10
12.07481527777777
 20
8.499443055555554
 10
12.11257916666667
 20
8.499443055555554
 10
12.15450972222222
 20
8.503637499999998
 10
12.18806527777777
 20
8.503637499999998
 10
12.21744027777777
 20
8.507831944444443
 10
12.22582916666666
 20
8.507831944444443
 10
12.23002361111111
 20
8.507831944444443
 10
12.23421805555555
 20
8.512026388888887
  0
LWPOLYLINE
  5
1E1
330
2
100
AcDbEntity
  8
PDF_Layer 1
 62
     7
420
 16777215
370
    70
100
AcDbPolyline
 90
       47
 70
     0
 43
0.0
 10
10.70321805555555
 20
8.671415277777775
 10
10.7074125
 20
8.675609722222221
 10
10.72419027777777
 20
8.675609722222221
 10
10.76195416666666
 20
8.679804166666665
 10
10.79130138888888
 20
8.679804166666665
 10
10.8122875
 20
8.679804166666665
 10
10.84584305555555
 20
8.68399861111111
 10
10.88357916666666
 20
8.68399861111111
 10
10.90455138888889
 20
8.68399861111111
 10
10.91295416666666
 20
8.68399861111111
 10
10.91713472222222
 20
8.68399861111111
 10
10.9339125
 20
8.688193055555554
 10
10.95907916666666
 20
8.688193055555554
 10
10.99684305555555
 20
8.688193055555554
 10
11.04717638888889
 20
8.688193055555554
 10
11.08910694444444
 20
8.692387499999998
 10
11.11848194444444
 20
8.692387499999998
 10
11.17299583333333
 20
8.692387499999998
 10
11.23173194444444
 20
8.692387499999998
 10
11.28206527777777
 20
8.696581944444442
 10
11.34077361111111
 20
8.696581944444442
 10
11.42887083333333
 20
8.696581944444442
 10
11.51275972222222
 20
8.700776388888886
 10
11.59245416666666
 20
8.700776388888886
 10
11.62602361111111
 20
8.704970833333332
 10
11.65957916666666
 20
8.704970833333332
 10
11.69313472222222
 20
8.704970833333332
 10
11.72669027777778
 20
8.704970833333332
 10
11.76024583333333
 20
8.704970833333332
 10
11.78959305555555
 20
8.704970833333332
 10
11.82314861111111
 20
8.709165277777776
 10
11.82735694444444
 20
8.709165277777776
 10
11.85250972222222
 20
8.709165277777776
 10
11.90284305555555
 20
8.709165277777776
 10
11.95317638888889
 20
8.709165277777776
 10
11.99092638888888
 20
8.71335972222222
 10
12.01609305555555
 20
8.71335972222222
 10
12.06642638888889
 20
8.71335972222222
 10
12.11257916666667
 20
8.717554166666666
 10
12.15450972222222
 20
8.717554166666666
 10
12.17548194444444
 20
8.717554166666666
 10
12.19227361111111
 20
8.721748611111109
 10
12.20905138888889
 20
8.721748611111109
 10
12.21744027777777
 20
8.721748611111109
 10
12.22582916666666
 20
8.725943055555553
 10
12.23002361111111
 20
8.725943055555553
 10
12.23421805555555
 20
8.725943055555553
  0
LWPOLYLINE
  5
1E2
330
2
100
AcDbEntity
  8
PDF_Layer 1
 62
     7
420
 16777215
370
    70
100
AcDbPolyline
 90
        2
 70
     0
 43
0.0
 10
12.23421805555555
 20
8.725943055555553
 10
12.23421805555555
 20
8.725943055555553
  0
LWPOLYLINE
  5
1E3
330
2
100
AcDbEntity
  8
PDF_Layer 1
 62
     7
420
 16777215
370
    70
100
AcDbPolyline
 90
        2
 70
     0
 43
0.0
 10
10.69902361111111
 20
8.780470833333332
 10
10.69902361111111
 20
8.780470833333332
  0
LWPOLYLINE
  5
1E4
330
2
100
AcDbEntity
  8
PDF_Layer 1
 62
     7
420
 16777215
370
    70
100
AcDbPolyline
 90
       50
 70
     0
 43
0.0
 10
10.69902361111111
 20
8.780470833333332
 10
10.70321805555555
 20
8.780470833333332
 10
10.7074125
 20
8.780470833333332
 10
10.71999583333333
 20
8.784665277777776
 10
10.74096805555555
 20
8.784665277777776
 10
10.77452361111111
 20
8.78885972222222
 10
10.80388472222222
 20
8.78885972222222
 10
10.84584305555555
 20
8.793054166666665
 10
10.89198194444444
 20
8.793054166666665
 10
10.95069027777777
 20
8.793054166666665
 10
11.04717638888889
 20
8.797248611111109
 10
11.15621805555555
 20
8.801443055555553
 10
11.18139861111111
 20
8.801443055555553
 10
11.21075972222222
 20
8.801443055555553
 10
11.24010694444444
 20
8.801443055555553
 10
11.26948194444444
 20
8.801443055555553
 10
11.31142638888888
 20
8.805637499999997
 10
11.33239861111111
 20
8.805637499999997
 10
11.35755138888888
 20
8.805637499999997
 10
11.38692638888889
 20
8.805637499999997
 10
11.49177361111111
 20
8.809831944444443
 10
11.5672875
 20
8.809831944444443
 10
11.61342638888889
 20
8.809831944444443
 10
11.62602361111111
 20
8.809831944444443
 10
11.63020416666666
 20
8.809831944444443
 10
11.65957916666666
 20
8.809831944444443
 10
11.68892638888888
 20
8.814026388888887
 10
11.7182875
 20
8.814026388888887
 10
11.74346805555555
 20
8.814026388888887
 10
11.76442638888889
 20
8.814026388888887
 10
11.78539861111111
 20
8.814026388888887
 10
11.81895416666666
 20
8.814026388888887
 10
11.85250972222222
 20
8.818220833333331
 10
11.93639861111111
 20
8.818220833333331
 10
11.99513472222222
 20
8.818220833333331
 10
12.02869027777778
 20
8.822415277777777
 10
12.03706527777777
 20
8.822415277777777
 10
12.04125972222222
 20
8.822415277777777
 10
12.06224583333333
 20
8.822415277777777
 10
12.07902361111111
 20
8.822415277777777
 10
12.09580138888888
 20
8.822415277777777
 10
12.11257916666667
 20
8.822415277777777
 10
12.13773194444444
 20
8.826609722222221
 10
12.14613472222222
 20
8.826609722222221
 10
12.15870416666666
 20
8.826609722222221
 10
12.1712875
 20
8.826609722222221
 10
12.20484305555555
 20
8.830804166666665
 10
12.22162083333333
 20
8.830804166666665
 10
12.23002361111111
 20
8.830804166666665
 10
12.23421805555555
 20
8.83499861111111
  0
LWPOLYLINE
  5
1E5
330
2
100
AcDbEntity
  8
PDF_Layer 1
 62
     7
420
 16777215
370
    70
100
AcDbPolyline
 90
        2
 70
     0
 43
0.0
 10
10.69902361111111
 20
8.889526388888887
 10
10.69902361111111
 20
8.889526388888887
  0
LWPOLYLINE
  5
1E6
330
2
100
AcDbEntity
  8
PDF_Layer 1
 62
     7
420
 16777215
370
    70
100
AcDbPolyline
 90
       33
 70
     0
 43
0.0
 10
10.69902361111111
 20
8.889526388888887
 10
10.7074125
 20
8.889526388888887
 10
10.71999583333333
 20
8.893720833333333
 10
10.75355138888888
 20
8.893720833333333
 10
10.79130138888888
 20
8.897915277777777
 10
10.82485694444444
 20
8.897915277777777
 10
10.88777361111111
 20
8.90210972222222
 10
10.98006527777777
 20
8.90210972222222
 10
11.05975972222222
 20
8.906304166666664
 10
11.13525972222222
 20
8.906304166666664
 10
11.19398194444444
 20
8.910498611111108
 10
11.25270416666666
 20
8.910498611111108
 10
11.31142638888888
 20
8.910498611111108
 10
11.37014861111111
 20
8.914693055555554
 10
11.4246625
 20
8.914693055555554
 10
11.49177361111111
 20
8.914693055555554
 10
11.55050972222222
 20
8.918887499999998
 10
11.59664861111111
 20
8.918887499999998
 10
11.63439861111111
 20
8.918887499999998
 10
11.66375972222222
 20
8.918887499999998
 10
11.78120416666666
 20
8.923081944444442
 10
11.88606527777777
 20
8.923081944444442
 10
11.9825375
 20
8.927276388888888
 10
12.06224583333333
 20
8.931470833333332
 10
12.09998194444444
 20
8.931470833333332
 10
12.12935694444444
 20
8.931470833333332
 10
12.15870416666666
 20
8.935665277777776
 10
12.19227361111111
 20
8.935665277777776
 10
12.21324583333333
 20
8.93985972222222
 10
12.22582916666666
 20
8.93985972222222
 10
12.23002361111111
 20
8.93985972222222
 10
12.23421805555555
 20
8.93985972222222
 10
12.23421805555555
 20
8.944054166666665
  0
ARC
  5
1E9
330
2
100
AcDbEntity
  8
PDF_Layer 1
 62
     7
420
 16777215
370
    70
100
AcDbCircle
 10
11.48521620370383
 20
23.0169606481429
 30
0.0
 40
14.71468801858063
100
AcDbArc
 50
269.9112614059395
 51
272.7377824186428
  0
LWPOLYLINE
  5
1EA
330
2
100
AcDbEntity
  8
PDF_Layer 1
 62
     7
420
 16777215
370
    70
100
AcDbPolyline
 90
       36
 70
     0
 43
0.0
 10
12.1712875
 20
8.356831944444442
 10
12.1712875
 20
8.352623611111109
 10
12.14192638888889
 20
8.348443055555554
 10
12.09159305555555
 20
8.348443055555554
 10
12.0202875
 20
8.344234722222221
 10
11.92381527777778
 20
8.340054166666664
 10
11.81475972222222
 20
8.33585972222222
 10
11.69313472222222
 20
8.33585972222222
 10
11.56309305555555
 20
8.331665277777776
 10
11.42887083333333
 20
8.327456944444442
 10
11.29464861111111
 20
8.323276388888887
 10
11.16881527777777
 20
8.323276388888887
 10
11.05137083333333
 20
8.319068055555554
 10
10.95069027777777
 20
8.314887499999999
 10
10.87099583333333
 20
8.310679166666664
 10
10.80807916666666
 20
8.306498611111109
 10
10.77032916666666
 20
8.306498611111109
 10
10.75774583333333
 20
8.302290277777776
 10
10.77873194444444
 20
8.302290277777776
 10
10.81646805555555
 20
8.302290277777776
 10
10.86680138888889
 20
8.302290277777776
 10
10.9339125
 20
8.302290277777776
 10
11.00942638888888
 20
8.302290277777776
 10
11.09750972222222
 20
8.302290277777776
 10
11.19398194444444
 20
8.302290277777776
 10
11.29884305555555
 20
8.302290277777776
 10
11.40788472222222
 20
8.302290277777776
 10
11.46242638888888
 20
8.302290277777776
 10
11.56309305555555
 20
8.302290277777776
 10
11.69313472222222
 20
8.306498611111109
 10
11.81475972222222
 20
8.310679166666664
 10
11.92381527777778
 20
8.314887499999999
 10
12.0202875
 20
8.314887499999999
 10
12.09159305555555
 20
8.319068055555554
 10
12.14192638888889
 20
8.323276388888887
 10
12.1712875
 20
8.327456944444442
  0
LWPOLYLINE
  5
1EB
330
2
100
AcDbEntity
  8
PDF_Layer 1
 62
     7
420
 16777215
370
    70
100
AcDbPolyline
 90
       17
 70
     0
 43
0.0
 10
10.76195416666666
 20
8.381998611111109
 10
10.76613472222222
 20
8.386179166666664
 10
10.79969027777777
 20
8.390387499999999
 10
10.8584125
 20
8.390387499999999
 10
10.9339125
 20
8.394581944444443
 10
11.03459305555555
 20
8.398776388888887
 10
11.14784305555555
 20
8.402956944444442
 10
11.29884305555555
 20
8.407165277777776
 10
11.46242638888888
 20
8.411345833333331
 10
11.56309305555555
 20
8.411345833333331
 10
11.69313472222222
 20
8.415554166666664
 10
11.81475972222222
 20
8.41974861111111
 10
11.92381527777778
 20
8.41974861111111
 10
12.0202875
 20
8.423943055555554
 10
12.09159305555555
 20
8.428123611111109
 10
12.14192638888889
 20
8.432331944444442
 10
12.1712875
 20
8.436526388888887
  0
LWPOLYLINE
  5
1EC
330
2
100
AcDbEntity
  8
PDF_Layer 1
 62
     7
420
 16777215
370
    70
100
AcDbPolyline
 90
       18
 70
     0
 43
0.0
 10
10.76195416666666
 20
8.491054166666664
 10
10.76613472222222
 20
8.491054166666664
 10
10.79969027777777
 20
8.49524861111111
 10
10.8584125
 20
8.499443055555554
 10
10.9339125
 20
8.503637499999998
 10
11.03459305555555
 20
8.507831944444443
 10
11.14784305555555
 20
8.507831944444443
 10
11.29884305555555
 20
8.512026388888887
 10
11.46242638888888
 20
8.516220833333331
 10
11.56309305555555
 20
8.520415277777775
 10
11.69313472222222
 20
8.524609722222221
 10
11.81475972222222
 20
8.524609722222221
 10
11.92381527777778
 20
8.528804166666665
 10
12.0202875
 20
8.532998611111109
 10
12.09159305555555
 20
8.537193055555555
 10
12.14192638888889
 20
8.537193055555555
 10
12.1712875
 20
8.541387499999999
 10
12.1712875
 20
8.545581944444442
  0
LWPOLYLINE
  5
1ED
330
2
100
AcDbEntity
  8
PDF_Layer 1
 62
     7
420
 16777215
370
    70
100
AcDbPolyline
 90
       17
 70
     0
 43
0.0
 10
10.76195416666666
 20
8.600109722222221
 10
10.76613472222222
 20
8.600109722222221
 10
10.79969027777777
 20
8.604304166666665
 10
10.8584125
 20
8.608498611111109
 10
10.9339125
 20
8.612693055555554
 10
11.03459305555555
 20
8.612693055555554
 10
11.14784305555555
 20
8.616887499999998
 10
11.29884305555555
 20
8.621081944444442
 10
11.46242638888888
 20
8.625276388888886
 10
11.56309305555555
 20
8.629470833333332
 10
11.69313472222222
 20
8.629470833333332
 10
11.81475972222222
 20
8.633665277777776
 10
11.92381527777778
 20
8.63785972222222
 10
12.0202875
 20
8.642054166666666
 10
12.09159305555555
 20
8.642054166666666
 10
12.14192638888889
 20
8.64624861111111
 10
12.1712875
 20
8.650443055555554
  0
LWPOLYLINE
  5
1EE
330
2
100
AcDbEntity
  8
PDF_Layer 1
 62
     7
420
 16777215
370
    70
100
AcDbPolyline
 90
       17
 70
     0
 43
0.0
 10
10.76195416666666
 20
8.704970833333332
 10
10.76613472222222
 20
8.709165277777776
 10
10.79969027777777
 20
8.71335972222222
 10
10.8584125
 20
8.71335972222222
 10
10.9339125
 20
8.717554166666666
 10
11.03459305555555
 20
8.721748611111109
 10
11.14784305555555
 20
8.725943055555553
 10
11.29884305555555
 20
8.730137499999997
 10
11.46242638888888
 20
8.734331944444443
 10
11.56309305555555
 20
8.734331944444443
 10
11.69313472222222
 20
8.738526388888887
 10
11.81475972222222
 20
8.742720833333331
 10
11.92381527777778
 20
8.746915277777777
 10
12.0202875
 20
8.746915277777777
 10
12.09159305555555
 20
8.751109722222221
 10
12.14192638888889
 20
8.755304166666665
 10
12.1712875
 20
8.759498611111109
  0
LWPOLYLINE
  5
1EF
330
2
100
AcDbEntity
  8
PDF_Layer 1
 62
     7
420
 16777215
370
    70
100
AcDbPolyline
 90
       18
 70
     0
 43
0.0
 10
10.76195416666666
 20
8.814026388888887
 10
10.76613472222222
 20
8.818220833333331
 10
10.79969027777777
 20
8.818220833333331
 10
10.8584125
 20
8.822415277777777
 10
10.9339125
 20
8.826609722222221
 10
11.03459305555555
 20
8.830804166666665
 10
11.14784305555555
 20
8.83499861111111
 10
11.29884305555555
 20
8.83499861111111
 10
11.46242638888888
 20
8.839193055555554
 10
11.56309305555555
 20
8.843387499999998
 10
11.69313472222222
 20
8.847581944444442
 10
11.81475972222222
 20
8.847581944444442
 10
11.92381527777778
 20
8.851776388888888
 10
12.0202875
 20
8.855970833333332
 10
12.09159305555555
 20
8.860165277777776
 10
12.14192638888889
 20
8.864359722222221
 10
12.1712875
 20
8.864359722222221
 10
12.1712875
 20
8.868554166666665
  0
LWPOLYLINE
  5
1F0
330
2
100
AcDbEntity
  8
PDF_Layer 1
 62
     7
420
 16777215
370
    70
100
AcDbPolyline
 90
       18
 70
     0
 43
0.0
 10
10.76195416666666
 20
8.923081944444442
 10
10.76613472222222
 20
8.923081944444442
 10
10.79969027777777
 20
8.927276388888888
 10
10.8584125
 20
8.931470833333332
 10
10.9339125
 20
8.935665277777776
 10
11.03459305555555
 20
8.935665277777776
 10
11.14784305555555
 20
8.93985972222222
 10
11.29884305555555
 20
8.944054166666665
 10
11.46242638888888
 20
8.948248611111109
 10
11.56309305555555
 20
8.952443055555553
 10
11.69313472222222
 20
8.952443055555553
 10
11.81475972222222
 20
8.956637499999999
 10
11.92381527777778
 20
8.960831944444443
 10
12.0202875
 20
8.965026388888887
 10
12.09159305555555
 20
8.969220833333331
 10
12.14192638888889
 20
8.969220833333331
 10
12.1712875
 20
8.973415277777776
 10
12.1712875
 20
8.97760972222222
  0
LWPOLYLINE
  5
1F1
330
2
100
AcDbEntity
  8
PDF_Layer 1
 62
     7
420
 16777215
370
    70
100
AcDbPolyline
 90
       17
 70
     0
 43
0.0
 10
10.76195416666666
 20
9.032137499999999
 10
10.76613472222222
 20
9.032137499999999
 10
10.79969027777777
 20
9.036331944444443
 10
10.8584125
 20
9.040526388888887
 10
10.9339125
 20
9.040526388888887
 10
11.03459305555555
 20
9.044720833333332
 10
11.14784305555555
 20
9.048915277777776
 10
11.29884305555555
 20
9.05310972222222
 10
11.46242638888888
 20
9.057304166666664
 10
11.56309305555555
 20
9.057304166666664
 10
11.69313472222222
 20
9.06149861111111
 10
11.81475972222222
 20
9.065693055555554
 10
11.92381527777778
 20
9.069887499999998
 10
12.0202875
 20
9.069887499999998
 10
12.09159305555555
 20
9.074081944444444
 10
12.14192638888889
 20
9.078276388888887
 10
12.1712875
 20
9.082470833333331
  0
LWPOLYLINE
  5
1F3
330
2
100
AcDbEntity
  8
PDF_Layer 1
 62
     7
420
 16777215
370
    70
100
AcDbPolyline
 90
       17
 70
     0
 43
0.0
 10
10.75774583333333
 20
8.411345833333331
 10
10.77032916666666
 20
8.411345833333331
 10
10.80807916666666
 20
8.415554166666664
 10
10.87099583333333
 20
8.41974861111111
 10
10.95069027777777
 20
8.423943055555554
 10
11.05137083333333
 20
8.423943055555554
 10
11.16881527777777
 20
8.428123611111109
 10
11.29464861111111
 20
8.432331944444442
 10
11.42887083333333
 20
8.436526388888887
 10
11.56309305555555
 20
8.440720833333331
 10
11.69313472222222
 20
8.440720833333331
 10
11.81475972222222
 20
8.444901388888887
 10
11.92381527777778
 20
8.449109722222221
 10
12.0202875
 20
8.453304166666665
 10
12.09159305555555
 20
8.453304166666665
 10
12.14192638888889
 20
8.457498611111109
 10
12.1712875
 20
8.461693055555553
  0
LWPOLYLINE
  5
1F4
330
2
100
AcDbEntity
  8
PDF_Layer 1
 62
     7
420
 16777215
370
    70
100
AcDbPolyline
 90
       17
 70
     0
 43
0.0
 10
10.75774583333333
 20
8.516220833333331
 10
10.77032916666666
 20
8.520415277777775
 10
10.80807916666666
 20
8.524609722222221
 10
10.87099583333333
 20
8.528804166666665
 10
10.95069027777777
 20
8.528804166666665
 10
11.05137083333333
 20
8.532998611111109
 10
11.16881527777777
 20
8.537193055555555
 10
11.29464861111111
 20
8.541387499999999
 10
11.42887083333333
 20
8.541387499999999
 10
11.56309305555555
 20
8.545581944444442
 10
11.69313472222222
 20
8.549776388888886
 10
11.81475972222222
 20
8.553970833333332
 10
11.92381527777778
 20
8.558165277777776
 10
12.0202875
 20
8.558165277777776
 10
12.09159305555555
 20
8.56235972222222
 10
12.14192638888889
 20
8.566554166666666
 10
12.1712875
 20
8.57074861111111
  0
LWPOLYLINE
  5
1F5
330
2
100
AcDbEntity
  8
PDF_Layer 1
 62
     7
420
 16777215
370
    70
100
AcDbPolyline
 90
       18
 70
     0
 43
0.0
 10
10.75774583333333
 20
8.625276388888886
 10
10.77032916666666
 20
8.629470833333332
 10
10.80807916666666
 20
8.633665277777776
 10
10.87099583333333
 20
8.633665277777776
 10
10.95069027777777
 20
8.63785972222222
 10
11.05137083333333
 20
8.642054166666666
 10
11.16881527777777
 20
8.64624861111111
 10
11.29464861111111
 20
8.64624861111111
 10
11.42887083333333
 20
8.650443055555554
 10
11.56309305555555
 20
8.654637499999997
 10
11.69313472222222
 20
8.658831944444443
 10
11.81475972222222
 20
8.658831944444443
 10
11.92381527777778
 20
8.663026388888887
 10
12.0202875
 20
8.667220833333331
 10
12.09159305555555
 20
8.671415277777775
 10
12.14192638888889
 20
8.675609722222221
 10
12.1712875
 20
8.675609722222221
 10
12.1712875
 20
8.679804166666665
  0
LWPOLYLINE
  5
1F6
330
2
100
AcDbEntity
  8
PDF_Layer 1
 62
     7
420
 16777215
370
    70
100
AcDbPolyline
 90
       17
 70
     0
 43
0.0
 10
10.75774583333333
 20
8.734331944444443
 10
10.77032916666666
 20
8.734331944444443
 10
10.80807916666666
 20
8.738526388888887
 10
10.87099583333333
 20
8.742720833333331
 10
10.95069027777777
 20
8.746915277777777
 10
11.05137083333333
 20
8.751109722222221
 10
11.16881527777777
 20
8.751109722222221
 10
11.29464861111111
 20
8.755304166666665
 10
11.42887083333333
 20
8.759498611111109
 10
11.56309305555555
 20
8.763693055555554
 10
11.69313472222222
 20
8.763693055555554
 10
11.81475972222222
 20
8.767887499999998
 10
11.92381527777778
 20
8.772081944444442
 10
12.0202875
 20
8.776276388888888
 10
12.09159305555555
 20
8.780470833333332
 10
12.14192638888889
 20
8.780470833333332
 10
12.1712875
 20
8.784665277777776
  0
LWPOLYLINE
  5
1F7
330
2
100
AcDbEntity
  8
PDF_Layer 1
 62
     7
420
 16777215
370
    70
100
AcDbPolyline
 90
       17
 70
     0
 43
0.0
 10
10.75774583333333
 20
8.839193055555554
 10
10.77032916666666
 20
8.843387499999998
 10
10.80807916666666
 20
8.847581944444442
 10
10.87099583333333
 20
8.851776388888888
 10
10.95069027777777
 20
8.851776388888888
 10
11.05137083333333
 20
8.855970833333332
 10
11.16881527777777
 20
8.860165277777776
 10
11.29464861111111
 20
8.864359722222221
 10
11.42887083333333
 20
8.868554166666665
 10
11.56309305555555
 20
8.868554166666665
 10
11.69313472222222
 20
8.872748611111109
 10
11.81475972222222
 20
8.876943055555553
 10
11.92381527777778
 20
8.881137499999997
 10
12.0202875
 20
8.881137499999997
 10
12.09159305555555
 20
8.885331944444443
 10
12.14192638888889
 20
8.889526388888887
 10
12.1712875
 20
8.893720833333333
  0
LWPOLYLINE
  5
1F8
330
2
100
AcDbEntity
  8
PDF_Layer 1
 62
     7
420
 16777215
370
    70
100
AcDbPolyline
 90
       17
 70
     0
 43
0.0
 10
10.75774583333333
 20
8.948248611111109
 10
10.77032916666666
 20
8.952443055555553
 10
10.80807916666666
 20
8.956637499999999
 10
10.87099583333333
 20
8.956637499999999
 10
10.95069027777777
 20
8.960831944444443
 10
11.05137083333333
 20
8.965026388888887
 10
11.16881527777777
 20
8.969220833333331
 10
11.29464861111111
 20
8.973415277777776
 10
11.42887083333333
 20
8.973415277777776
 10
11.56309305555555
 20
8.97760972222222
 10
11.69313472222222
 20
8.981804166666664
 10
11.81475972222222
 20
8.98599861111111
 10
11.92381527777778
 20
8.98599861111111
 10
12.0202875
 20
8.990193055555554
 10
12.09159305555555
 20
8.994387499999998
 10
12.14192638888889
 20
8.998581944444442
 10
12.1712875
 20
9.002776388888888
  0
LWPOLYLINE
  5
1FA
330
2
100
AcDbEntity
  8
PDF_Layer 1
 62
     7
420
 16777215
370
    70
100
AcDbPolyline
 90
        2
 70
     0
 43
0.0
 10
10.75774583333333
 20
8.302290277777776
 10
10.75774583333333
 20
8.302290277777776
  0
LWPOLYLINE
  5
1FB
330
2
100
AcDbEntity
  8
PDF_Layer 1
 62
     7
420
 16777215
370
    70
100
AcDbPolyline
 90
       17
 70
     0
 43
0.0
 10
10.75774583333333
 20
8.302290277777776
 10
10.76195416666666
 20
8.310679166666664
 10
10.79130138888888
 20
8.314887499999999
 10
10.83744027777777
 20
8.323276388888887
 10
10.90035694444444
 20
8.331665277777776
 10
10.98424583333333
 20
8.33585972222222
 10
11.08073194444444
 20
8.344234722222221
 10
11.21914861111111
 20
8.352623611111109
 10
11.35755138888888
 20
8.361012499999999
 10
11.28625972222222
 20
8.361012499999999
 10
11.21495416666666
 20
8.361012499999999
 10
11.14364861111111
 20
8.361012499999999
 10
11.0765375
 20
8.361012499999999
 10
11.01362083333333
 20
8.361012499999999
 10
10.95488472222222
 20
8.361012499999999
 10
10.90035694444444
 20
8.361012499999999
 10
10.85421805555555
 20
8.361012499999999
  0
ARC
  5
1FC
330
2
100
AcDbEntity
  8
PDF_Layer 1
 62
     7
420
 16777215
370
    70
100
AcDbCircle
 10
11.4439258692207
 20
18.87955002432881
 30
0.0
 40
10.51889215657076
100
AcDbArc
 50
269.5295180592089
 51
274.3087345384296
  0
LWPOLYLINE
  5
1FD
330
2
100
AcDbEntity
  8
PDF_Layer 1
 62
     7
420
 16777215
370
    70
100
AcDbPolyline
 90
       54
 70
     0
 43
0.0
 10
10.71999583333333
 20
8.440720833333331
 10
10.7074125
 20
8.440720833333331
 10
10.69902361111111
 20
8.440720833333331
 10
10.69902361111111
 20
8.444901388888887
 10
10.70321805555555
 20
8.444901388888887
 10
10.71162083333333
 20
8.444901388888887
 10
10.71580138888889
 20
8.444901388888887
 10
10.74517638888888
 20
8.449109722222221
 10
10.77452361111111
 20
8.449109722222221
 10
10.79550972222222
 20
8.453304166666665
 10
10.80388472222222
 20
8.453304166666665
 10
10.8206625
 20
8.453304166666665
 10
10.83744027777777
 20
8.453304166666665
 10
10.85421805555555
 20
8.453304166666665
 10
10.87519027777777
 20
8.453304166666665
 10
10.88777361111111
 20
8.453304166666665
 10
10.90455138888889
 20
8.457498611111109
 10
10.92552361111111
 20
8.457498611111109
 10
10.95907916666666
 20
8.457498611111109
 10
11.03877361111111
 20
8.461693055555553
 10
11.10170416666666
 20
8.461693055555553
 10
11.14364861111111
 20
8.461693055555553
 10
11.15621805555555
 20
8.461693055555553
 10
11.16042638888888
 20
8.461693055555553
 10
11.16462083333333
 20
8.461693055555553
 10
11.18977361111111
 20
8.465887499999999
 10
11.21914861111111
 20
8.465887499999999
 10
11.24850972222222
 20
8.465887499999999
 10
11.27787083333333
 20
8.465887499999999
 10
11.31981527777777
 20
8.465887499999999
 10
11.34077361111111
 20
8.465887499999999
 10
11.36595416666666
 20
8.465887499999999
 10
11.39531527777777
 20
8.470081944444443
 10
11.49177361111111
 20
8.470081944444443
 10
11.5672875
 20
8.474276388888887
 10
11.61342638888889
 20
8.474276388888887
 10
11.63020416666666
 20
8.474276388888887
 10
11.63439861111111
 20
8.474276388888887
 10
11.63859305555555
 20
8.474276388888887
 10
11.66795416666666
 20
8.474276388888887
 10
11.69731527777777
 20
8.474276388888887
 10
11.72248194444444
 20
8.474276388888887
 10
11.75184305555555
 20
8.478470833333332
 10
11.79380138888888
 20
8.478470833333332
 10
11.82314861111111
 20
8.478470833333332
 10
11.8609125
 20
8.478470833333332
 10
11.94059305555555
 20
8.482665277777776
 10
11.99513472222222
 20
8.482665277777776
 10
12.02869027777778
 20
8.482665277777776
 10
12.07062083333333
 20
8.486845833333331
 10
12.1251625
 20
8.486845833333331
 10
12.17548194444444
 20
8.491054166666664
 10
12.21324583333333
 20
8.491054166666664
 10
12.23002361111111
 20
8.49524861111111
  0
LWPOLYLINE
  5
201
330
2
100
AcDbEntity
  8
PDF_Layer 1
 62
     7
420
 16777215
370
    70
100
AcDbPolyline
 90
        3
 70
     0
 43
0.0
 10
10.71999583333333
 20
8.763693055555554
 10
10.7074125
 20
8.763693055555554
 10
10.70321805555555
 20
8.767887499999998
  0
LWPOLYLINE
  5
208
330
2
100
AcDbEntity
  8
PDF_Layer 1
 62
     7
420
 16777215
370
    70
100
AcDbPolyline
 90
        2
 70
     0
 43
0.0
 10
10.75774583333333
 20
8.302290277777776
 10
10.75774583333333
 20
8.302290277777776
  0
LWPOLYLINE
  5
20C
330
2
100
AcDbEntity
  8
PDF_Layer 1
 62
     7
420
 16777215
370
    70
100
AcDbPolyline
 90
        7
 70
     0
 43
0.0
 10
12.17548194444444
 20
9.095054166666665
 10
12.16710694444444
 20
9.095054166666665
 10
12.14192638888889
 20
9.095054166666665
 10
12.09580138888888
 20
9.095054166666665
 10
12.03287083333333
 20
9.095054166666665
 10
11.95317638888889
 20
9.095054166666665
 10
11.92381527777778
 20
9.095054166666665
  0
LWPOLYLINE
  5
20D
330
2
100
AcDbEntity
  8
PDF_Layer 1
 62
     7
420
 16777215
370
    70
100
AcDbPolyline
 90
       23
 70
     0
 43
0.0
 10
10.87099583333333
 20
9.174748611111109
 10
10.87939861111111
 20
9.174748611111109
 10
10.89617638888888
 20
9.174748611111109
 10
10.92973194444444
 20
9.174748611111109
 10
10.97166249999999
 20
9.174748611111109
 10
11.02620416666666
 20
9.174748611111109
 10
11.08492638888889
 20
9.174748611111109
 10
11.15621805555555
 20
9.174748611111109
 10
11.23592638888888
 20
9.174748611111109
 10
11.31562083333333
 20
9.174748611111109
 10
11.40370416666666
 20
9.174748611111109
 10
11.48759305555555
 20
9.174748611111109
 10
11.57567638888888
 20
9.174748611111109
 10
11.65957916666666
 20
9.174748611111109
 10
11.73925972222222
 20
9.174748611111109
 10
11.81475972222222
 20
9.174748611111109
 10
11.87769027777777
 20
9.174748611111109
 10
11.93639861111111
 20
9.174748611111109
 10
11.98673194444444
 20
9.174748611111109
 10
12.0202875
 20
9.174748611111109
 10
12.04546805555555
 20
9.174748611111109
 10
12.0580375
 20
9.174748611111109
 10
12.06224583333333
 20
9.174748611111109
  0
LWPOLYLINE
  5
20E
330
2
100
AcDbEntity
  8
PDF_Layer 1
 62
     7
420
 16777215
370
    70
100
AcDbPolyline
 90
        2
 70
     0
 43
0.0
 10
10.75774583333333
 20
8.302290277777776
 10
10.75774583333333
 20
8.302290277777776
  0
ARC
  5
210
330
2
100
AcDbEntity
  8
PDF_Layer 1
 62
     7
420
 16777215
370
    70
100
AcDbCircle
 10
11.45061541513459
 20
10.37730376843841
 30
0.0
 40
1.892607130690321
100
AcDbArc
 50
293.2090702484621
 51
350.3420953766924
  0
LWPOLYLINE
  5
211
330
2
100
AcDbEntity
  8
PDF_Layer 1
 62
     7
420
 16777215
370
    70
100
AcDbPolyline
 90
       20
 70
     0
 43
0.0
 10
13.31639861111111
 20
10.66798472222222
 10
13.30799583333333
 20
10.70574861111111
 10
13.27444027777777
 20
10.85255416666666
 10
13.22831527777778
 20
10.99935972222222
 10
13.16957916666666
 20
11.14197083333333
 10
13.10246805555555
 20
11.27619305555555
 10
13.02277361111111
 20
11.40622083333333
 10
12.93049583333333
 20
11.53205416666666
 10
12.82982916666666
 20
11.64531805555555
 10
12.72077361111111
 20
11.75437361111111
 10
12.60332916666666
 20
11.85083194444444
 10
12.47749583333333
 20
11.93892916666666
 10
12.34746805555555
 20
12.01442916666666
 10
12.20905138888889
 20
12.08154027777778
 10
12.06642638888889
 20
12.13606805555555
 10
11.91962083333333
 20
12.18220694444444
 10
11.77281527777777
 20
12.21156805555555
 10
11.61762083333333
 20
12.22834583333333
 10
11.46662083333333
 20
12.23673472222222
 42
0.8236386391738051
 10
10.76195416666666
 20
8.629470833333339
  0
ARC
  5
213
330
2
100
AcDbEntity
  8
PDF_Layer 1
 62
     7
420
 16777215
370
    70
100
AcDbCircle
 10
5.193601683180676
 20
10.3611251770899
 30
0.0
 40
1.867795787237767
100
AcDbArc
 50
189.2842084382968
 51
246.6539986173799
  0
LWPOLYLINE
  5
214
330
2
100
AcDbEntity
  8
PDF_Layer 1
 62
     7
420
 16777215
370
    70
100
AcDbPolyline
 90
       17
 70
     0
 43
0.0
 10
5.925690277777775
 20
8.63785972222222
 10
5.976023611111109
 20
8.658831944444443
 10
6.110245833333333
 20
8.730137499999997
 10
6.240287499999999
 20
8.809831944444443
 10
6.366120833333331
 20
8.897915277777777
 10
6.479370833333333
 20
8.998581944444442
 10
6.588426388888886
 20
9.107637499999999
 10
6.68489861111111
 20
9.225081944444443
 10
6.772981944444442
 20
9.350915277777776
 10
6.848481944444443
 20
9.480956944444443
 10
6.915593055555555
 20
9.61935972222222
 10
6.970120833333332
 20
9.761984722222221
 10
7.016259722222219
 20
9.908790277777775
 10
7.045620833333332
 20
10.05979027777778
 10
7.062398611111111
 20
10.21079027777777
 10
7.070787499999998
 20
10.36179027777778
 42
0.9206852803898577
 10
3.350273611111112
 20
10.66798472222222
  0
LWPOLYLINE
  5
215
330
2
100
AcDbEntity
  8
PDF_Layer 1
 62
     7
420
 16777215
370
    70
100
AcDbPolyline
 90
       21
 70
     0
 43
0.0
 10
14.28950972222222
 20
9.887818055555554
 10
14.28950972222222
 20
9.892012499999998
 10
14.28950972222222
 20
9.912984722222221
 10
14.28950972222222
 20
9.942345833333332
 10
14.28950972222222
 20
9.984290277777775
 10
14.28950972222222
 20
10.03462361111111
 10
14.28950972222222
 20
10.09334583333333
 10
14.28950972222222
 20
10.16045694444444
 10
14.28950972222222
 20
10.2317625
 10
14.28950972222222
 20
10.3072625
 10
14.28950972222222
 20
10.3827625
 10
14.28950972222222
 20
10.4582625
 10
14.28950972222222
 20
10.5337625
 10
14.28950972222222
 20
10.60087361111111
 10
14.28950972222222
 20
10.66380416666666
 10
14.28950972222222
 20
10.71831805555555
 10
14.28950972222222
 20
10.76447083333333
 10
14.28950972222222
 20
10.80222083333333
 10
14.28950972222222
 20
10.82319305555555
 10
14.28950972222222
 20
10.8357625
 10
14.28950972222222
 20
10.83997083333333
  0
LWPOLYLINE
  5
216
330
2
100
AcDbEntity
  8
PDF_Layer 1
 62
     7
420
 16777215
370
    70
100
AcDbPolyline
 90
       20
 70
     0
 43
0.0
 10
14.2307875
 20
10.83997083333333
 10
14.2307875
 20
10.83158194444444
 10
14.2307875
 20
10.81480416666666
 10
14.2307875
 20
10.78544305555555
 10
14.2307875
 20
10.74349861111111
 10
14.2307875
 20
10.69315138888889
 10
14.2307875
 20
10.63442916666666
 10
14.2307875
 20
10.56731805555555
 10
14.2307875
 20
10.49602638888889
 10
14.2307875
 20
10.4205125
 10
14.2307875
 20
10.3450125
 10
14.2307875
 20
10.2695125
 10
14.2307875
 20
10.1940125
 10
14.2307875
 20
10.12690138888888
 10
14.2307875
 20
10.06398472222222
 10
14.2307875
 20
10.0052625
 10
14.2307875
 20
9.963318055555554
 10
14.2307875
 20
9.925568055555554
 10
14.2307875
 20
9.900401388888887
 10
14.2307875
 20
9.887818055555554
  0
LWPOLYLINE
  5
217
330
2
100
AcDbEntity
  8
PDF_Layer 1
 62
     7
420
 16777215
370
    70
100
AcDbPolyline
 90
       19
 70
     0
 43
0.0
 10
14.34824583333333
 20
10.77704027777777
 10
14.34824583333333
 20
10.77285972222222
 10
14.34824583333333
 20
10.75187361111111
 10
14.34824583333333
 20
10.72252638888889
 10
14.34824583333333
 20
10.68058194444444
 10
14.34824583333333
 20
10.63024861111111
 10
14.34824583333333
 20
10.57152638888888
 10
14.34824583333333
 20
10.50441527777777
 10
14.34824583333333
 20
10.43730416666666
 10
14.34824583333333
 20
10.36179027777778
 10
14.34824583333333
 20
10.29048472222222
 10
14.34824583333333
 20
10.22337361111111
 10
14.34824583333333
 20
10.1562625
 10
14.34824583333333
 20
10.09754027777777
 10
14.34824583333333
 20
10.04720694444444
 10
14.34824583333333
 20
10.0052625
 10
14.34824583333333
 20
9.971706944444443
 10
14.34824583333333
 20
9.954929166666664
 10
14.34824583333333
 20
9.946540277777776
  0
LWPOLYLINE
  5
218
330
2
100
AcDbEntity
  8
PDF_Layer 1
 62
     7
420
 16777215
370
    70
100
AcDbPolyline
 90
       18
 70
     0
 43
0.0
 10
14.17627361111111
 20
9.963318055555554
 10
14.17627361111111
 20
9.967512499999997
 10
14.17627361111111
 20
9.988484722222221
 10
14.17627361111111
 20
10.01784583333333
 10
14.17627361111111
 20
10.05979027777778
 10
14.17627361111111
 20
10.11431805555555
 10
14.17627361111111
 20
10.17304027777777
 10
14.17627361111111
 20
10.24015138888889
 10
14.17627361111111
 20
10.31145694444444
 10
14.17627361111111
 20
10.3827625
 10
14.17627361111111
 20
10.45408194444444
 10
14.17627361111111
 20
10.52119305555555
 10
14.17627361111111
 20
10.58409583333333
 10
14.17627361111111
 20
10.6386375
 10
14.17627361111111
 20
10.68897083333333
 10
14.17627361111111
 20
10.72252638888889
 10
14.17627361111111
 20
10.74769305555555
 10
14.17627361111111
 20
10.76447083333333
  0
LWPOLYLINE
  5
219
330
2
100
AcDbEntity
  8
PDF_Layer 1
 62
     7
420
 16777215
370
    70
100
AcDbPolyline
 90
       20
 70
     0
 43
0.0
 10
2.372954166666666
 20
10.83997083333333
 10
2.372954166666666
 20
10.83158194444444
 10
2.372954166666666
 20
10.81480416666666
 10
2.372954166666666
 20
10.78544305555555
 10
2.372954166666666
 20
10.74349861111111
 10
2.372954166666666
 20
10.69315138888889
 10
2.372954166666666
 20
10.63442916666666
 10
2.372954166666666
 20
10.56731805555555
 10
2.372954166666666
 20
10.49602638888889
 10
2.372954166666666
 20
10.4205125
 10
2.372954166666666
 20
10.3450125
 10
2.372954166666666
 20
10.2695125
 10
2.372954166666666
 20
10.1940125
 10
2.372954166666666
 20
10.12690138888888
 10
2.372954166666666
 20
10.06398472222222
 10
2.372954166666666
 20
10.0052625
 10
2.372954166666666
 20
9.963318055555554
 10
2.372954166666666
 20
9.925568055555554
 10
2.372954166666666
 20
9.900401388888887
 10
2.372954166666666
 20
9.887818055555554
  0
LWPOLYLINE
  5
21A
330
2
100
AcDbEntity
  8
PDF_Layer 1
 62
     7
420
 16777215
370
    70
100
AcDbPolyline
 90
       21
 70
     0
 43
0.0
 10
2.431676388888886
 20
9.887818055555554
 10
2.431676388888886
 20
9.892012499999998
 10
2.431676388888886
 20
9.912984722222221
 10
2.431676388888886
 20
9.942345833333332
 10
2.431676388888886
 20
9.984290277777775
 10
2.431676388888886
 20
10.03462361111111
 10
2.431676388888886
 20
10.09334583333333
 10
2.431676388888886
 20
10.16045694444444
 10
2.431676388888886
 20
10.2317625
 10
2.431676388888886
 20
10.3072625
 10
2.431676388888886
 20
10.3827625
 10
2.431676388888886
 20
10.4582625
 10
2.431676388888886
 20
10.5337625
 10
2.431676388888886
 20
10.60087361111111
 10
2.431676388888886
 20
10.66380416666666
 10
2.431676388888886
 20
10.71831805555555
 10
2.431676388888886
 20
10.76447083333333
 10
2.431676388888886
 20
10.80222083333333
 10
2.431676388888886
 20
10.82319305555555
 10
2.431676388888886
 20
10.8357625
 10
2.431676388888886
 20
10.83997083333333
  0
LWPOLYLINE
  5
21C
330
2
100
AcDbEntity
  8
PDF_Layer 1
 62
     7
420
 16777215
370
    70
100
AcDbPolyline
 90
       18
 70
     0
 43
0.0
 10
2.49039861111111
 20
10.76447083333333
 10
2.49039861111111
 20
10.75608194444444
 10
2.49039861111111
 20
10.73930416666666
 10
2.49039861111111
 20
10.70574861111111
 10
2.49039861111111
 20
10.66380416666666
 10
2.49039861111111
 20
10.61347083333333
 10
2.49039861111111
 20
10.55474861111111
 10
2.49039861111111
 20
10.48763749999999
 10
2.49039861111111
 20
10.41631805555555
 10
2.49039861111111
 20
10.3450125
 10
2.49039861111111
 20
10.27370694444444
 10
2.49039861111111
 20
10.20659583333333
 10
2.49039861111111
 20
10.14367916666666
 10
2.49039861111111
 20
10.08495694444444
 10
2.49039861111111
 20
10.03881805555555
 10
2.49039861111111
 20
10.00106805555555
 10
2.49039861111111
 20
9.975901388888887
 10
2.49039861111111
 20
9.963318055555554
  0
LWPOLYLINE
  5
21D
330
2
100
AcDbEntity
  8
PDF_Layer 1
 62
     7
420
 16777215
370
    70
100
AcDbPolyline
 90
       45
 70
     0
 43
0.0
 10
12.1712875
 20
10.60508194444444
 10
12.15450972222222
 20
10.64702638888888
 10
12.11257916666667
 20
10.73509583333333
 10
12.0580375
 20
10.81480416666666
 10
11.99092638888888
 20
10.89030416666666
 10
11.91962083333333
 20
10.95322083333333
 10
11.83992638888889
 20
11.00774861111111
 10
11.75184305555555
 20
11.04969305555555
 10
11.65957916666666
 20
11.08324861111111
 10
11.56309305555555
 20
11.10002638888889
 10
11.46662083333333
 20
11.10841527777777
 10
11.37014861111111
 20
11.10002638888889
 10
11.2736625
 20
11.08324861111111
 10
11.18139861111111
 20
11.04969305555555
 10
11.09331527777777
 20
11.00774861111111
 10
11.01362083333333
 20
10.95322083333333
 10
10.94230138888889
 20
10.89030416666666
 10
10.87519027777777
 20
10.81480416666666
 10
10.82485694444444
 20
10.73509583333333
 10
10.77873194444444
 20
10.64702638888888
 10
10.74935694444444
 20
10.55474861111111
 10
10.72839861111111
 20
10.4582625
 10
10.72419027777777
 20
10.36179027777778
 10
10.72839861111111
 20
10.26531805555555
 10
10.74935694444444
 20
10.16884583333333
 10
10.77873194444444
 20
10.0807625
 10
10.82485694444444
 20
9.992679166666665
 10
10.87519027777777
 20
9.908790277777775
 10
10.94230138888889
 20
9.837484722222221
 10
11.01362083333333
 20
9.774568055555553
 10
11.09331527777777
 20
9.720040277777776
 10
11.18139861111111
 20
9.678095833333332
 10
11.2736625
 20
9.644540277777776
 10
11.37014861111111
 20
9.627762499999999
 10
11.46662083333333
 20
9.61935972222222
 10
11.56309305555555
 20
9.627762499999999
 10
11.65957916666666
 20
9.644540277777776
 10
11.75184305555555
 20
9.678095833333332
 10
11.83992638888889
 20
9.720040277777776
 10
11.91962083333333
 20
9.774568055555553
 10
11.99092638888888
 20
9.837484722222221
 10
12.0580375
 20
9.908790277777775
 10
12.11257916666667
 20
9.992679166666665
 10
12.15450972222222
 20
10.0807625
 10
12.1712875
 20
10.12270694444444
  0
LWPOLYLINE
  5
21F
330
2
100
AcDbEntity
  8
PDF_Layer 1
 62
     7
420
 16777215
370
    70
100
AcDbPolyline
 90
       45
 70
     0
 43
0.0
 10
4.49537083333333
 20
10.12270694444444
 10
4.512148611111109
 20
10.0807625
 10
4.554093055555554
 20
9.992679166666665
 10
4.608620833333331
 20
9.908790277777775
 10
4.671537499999997
 20
9.837484722222221
 10
4.747037499999999
 20
9.774568055555553
 10
4.826731944444444
 20
9.720040277777776
 10
4.914815277777774
 20
9.678095833333332
 10
5.007106944444442
 20
9.644540277777776
 10
5.09938472222222
 20
9.627762499999999
 10
5.195856944444441
 20
9.61935972222222
 10
5.29652361111111
 20
9.627762499999999
 10
5.388801388888889
 20
9.644540277777776
 10
5.481079166666665
 20
9.678095833333332
 10
5.5691625
 20
9.720040277777776
 10
5.648856944444442
 20
9.774568055555553
 10
5.724356944444442
 20
9.837484722222221
 10
5.78727361111111
 20
9.908790277777775
 10
5.841801388888887
 20
9.992679166666665
 10
5.883745833333332
 20
10.0807625
 10
5.917301388888885
 20
10.16884583333333
 10
5.934079166666665
 20
10.26531805555555
 10
5.942468055555554
 20
10.36179027777778
 10
5.934079166666665
 20
10.4582625
 10
5.917301388888885
 20
10.55474861111111
 10
5.883745833333332
 20
10.64702638888888
 10
5.841801388888887
 20
10.73509583333333
 10
5.78727361111111
 20
10.81480416666666
 10
5.724356944444442
 20
10.89030416666666
 10
5.648856944444442
 20
10.95322083333333
 10
5.5691625
 20
11.00774861111111
 10
5.481079166666665
 20
11.04969305555555
 10
5.388801388888889
 20
11.08324861111111
 10
5.29652361111111
 20
11.10002638888889
 10
5.195856944444441
 20
11.10841527777777
 10
5.09938472222222
 20
11.10002638888889
 10
5.007106944444442
 20
11.08324861111111
 10
4.914815277777774
 20
11.04969305555555
 10
4.826731944444444
 20
11.00774861111111
 10
4.747037499999999
 20
10.95322083333333
 10
4.671537499999997
 20
10.89030416666666
 10
4.608620833333331
 20
10.81480416666666
 10
4.554093055555554
 20
10.73509583333333
 10
4.512148611111109
 20
10.64702638888888
 10
4.49537083333333
 20
10.60508194444444
  0
LWPOLYLINE
  5
221
330
2
100
AcDbEntity
  8
PDF_Layer 1
 62
     7
420
 16777215
370
    70
100
AcDbPolyline
 90
        9
 70
     0
 43
0.0
 10
12.06224583333333
 20
9.371901388888886
 10
12.14613472222222
 20
9.426415277777776
 10
12.24260694444444
 20
9.501915277777776
 10
12.32649583333333
 20
9.590012499999998
 10
12.40199583333333
 20
9.682290277777775
 10
12.46910694444444
 20
9.782956944444443
 10
12.52362083333333
 20
9.892012499999998
 10
12.56557916666666
 20
10.0052625
 10
12.59494027777777
 20
10.10592916666666
  0
LWPOLYLINE
  5
224
330
2
100
AcDbEntity
  8
PDF_Layer 1
 62
     7
420
 16777215
370
    70
100
AcDbPolyline
 90
       10
 70
     0
 43
0.0
 10
12.06224583333333
 20
9.300581944444443
 10
12.1629125
 20
9.363512499999998
 10
12.25938472222222
 20
9.439012499999998
 10
12.34746805555555
 20
9.522901388888888
 10
12.4271625
 20
9.61935972222222
 10
12.49846805555555
 20
9.720040277777776
 10
12.56138472222222
 20
9.829095833333331
 10
12.60750972222222
 20
9.942345833333332
 10
12.64527361111111
 20
10.05979027777778
 10
12.65785694444444
 20
10.10592916666666
  0
LWPOLYLINE
  5
225
330
2
100
AcDbEntity
  8
PDF_Layer 1
 62
     7
420
 16777215
370
    70
100
AcDbPolyline
 90
       16
 70
     0
 43
0.0
 10
12.65785694444444
 20
10.62185972222222
 10
12.64527361111111
 20
10.66798472222222
 10
12.60750972222222
 20
10.78544305555555
 10
12.56138472222222
 20
10.89869305555555
 10
12.49846805555555
 20
11.00774861111111
 10
12.4271625
 20
11.10841527777777
 10
12.34746805555555
 20
11.20069305555555
 10
12.25938472222222
 20
11.28458194444444
 10
12.1629125
 20
11.36008194444444
 10
12.0580375
 20
11.42719305555555
 10
11.94480138888889
 20
11.48172083333333
 10
11.8315375
 20
11.52366527777777
 10
11.7099125
 20
11.55722083333333
 10
11.58825972222222
 20
11.57399861111111
 10
11.46662083333333
 20
11.57820694444444
 42
0.7724798097208012
 10
10.87099583333333
 20
9.300581944444447
  0
LWPOLYLINE
  5
227
330
2
100
AcDbEntity
  8
PDF_Layer 1
 62
     7
420
 16777215
370
    70
100
AcDbPolyline
 90
       13
 70
     0
 43
0.0
 10
12.18806527777777
 20
8.860165277777776
 10
12.22582916666666
 20
8.881137499999997
 10
12.3516625
 20
8.952443055555553
 10
12.46910694444444
 20
9.032137499999999
 10
12.5781625
 20
9.124415277777776
 10
12.68302361111111
 20
9.225081944444443
 10
12.77531527777777
 20
9.334137499999998
 10
12.85920416666666
 20
9.447401388888888
 10
12.93469027777777
 20
9.57323472222222
 10
12.99760694444444
 20
9.699068055555553
 10
13.04794027777777
 20
9.833290277777775
 10
13.08569027777777
 20
9.971706944444443
 10
13.1066625
 20
10.07656805555555
  0
LWPOLYLINE
  5
228
330
2
100
AcDbEntity
  8
PDF_Layer 1
 62
     7
420
 16777215
370
    70
100
AcDbPolyline
 90
       19
 70
     0
 43
0.0
 10
13.1066625
 20
10.65120694444444
 10
13.10246805555555
 20
10.6847625
 10
13.0689125
 20
10.82319305555555
 10
13.02277361111111
 20
10.95741527777778
 10
12.96405138888889
 20
11.0916375
 10
12.89694027777777
 20
11.21747083333333
 10
12.81724583333333
 20
11.33491527777777
 10
12.72916249999999
 20
11.44816527777777
 10
12.63269027777777
 20
11.55304027777777
 10
12.52782916666666
 20
11.64949861111111
 10
12.41038472222222
 20
11.73759583333333
 10
12.28873194444444
 20
11.81309583333333
 10
12.1629125
 20
11.87599861111111
 10
12.02869027777778
 20
11.93054027777777
 10
11.89446805555555
 20
11.97248472222222
 10
11.75184305555555
 20
12.00604027777777
 10
11.60923194444444
 20
12.02281805555555
 10
11.46662083333333
 20
12.03120694444444
 42
0.7855187721369203
 10
10.69902361111112
 20
8.885331944444455
  0
LWPOLYLINE
  5
22A
330
2
100
AcDbEntity
  8
PDF_Layer 1
 62
     7
420
 16777215
370
    70
100
AcDbPolyline
 90
       13
 70
     0
 43
0.0
 10
12.18806527777777
 20
8.793054166666665
 10
12.30971805555555
 20
8.855970833333332
 10
12.43555138888889
 20
8.931470833333332
 10
12.55299583333333
 20
9.019554166666665
 10
12.66205138888889
 20
9.116026388888887
 10
12.76271805555555
 20
9.220887499999998
 10
12.85499583333333
 20
9.338331944444442
 10
12.93888472222222
 20
9.459970833333331
 10
13.01020416666666
 20
9.585804166666665
 10
13.0689125
 20
9.720040277777776
 10
13.11924583333333
 20
9.858456944444442
 10
13.15280138888889
 20
10.00106805555555
 10
13.16957916666666
 20
10.07237361111111
  0
LWPOLYLINE
  5
22B
330
2
100
AcDbEntity
  8
PDF_Layer 1
 62
     7
420
 16777215
370
    70
100
AcDbPolyline
 90
       19
 70
     0
 43
0.0
 10
13.16957916666666
 20
10.65541527777777
 10
13.15280138888889
 20
10.72672083333333
 10
13.11924583333333
 20
10.86933194444444
 10
13.0689125
 20
11.00774861111111
 10
13.01020416666666
 20
11.14197083333333
 10
12.93888472222222
 20
11.26780416666666
 10
12.85499583333333
 20
11.38944305555555
 10
12.76271805555555
 20
11.50269305555555
 10
12.66205138888889
 20
11.6117625
 10
12.55299583333333
 20
11.70822083333333
 10
12.43555138888889
 20
11.79210972222222
 10
12.30971805555555
 20
11.87181805555555
 10
12.17969027777777
 20
11.93472083333333
 10
12.04125972222222
 20
11.99344305555555
 10
11.90284305555555
 20
12.03540138888889
 10
11.76024583333333
 20
12.0647625
 10
11.61342638888889
 20
12.08573472222222
 10
11.46662083333333
 20
12.08992916666666
 42
0.8005837855441564
 10
10.73257916666666
 20
8.801443055555543
  0
LWPOLYLINE
  5
22D
330
2
100
AcDbEntity
  8
PDF_Layer 1
 62
     7
420
 16777215
370
    70
100
AcDbPolyline
 90
       14
 70
     0
 43
0.0
 10
12.20905138888889
 20
8.734331944444443
 10
12.26357916666666
 20
8.759498611111109
 10
12.39360694444444
 20
8.830804166666665
 10
12.51944027777777
 20
8.914693055555554
 10
12.63688472222222
 20
9.006970833333332
 10
12.74594027777778
 20
9.111831944444443
 10
12.84660694444444
 20
9.220887499999998
 10
12.93469027777777
 20
9.342526388888886
 10
13.01857916666666
 20
9.468359722222221
 10
13.08569027777777
 20
9.602581944444443
 10
13.14442638888889
 20
9.741012499999998
 10
13.19055138888889
 20
9.88362361111111
 10
13.22410694444444
 20
10.02623472222222
 10
13.23250972222222
 20
10.06398472222222
  0
LWPOLYLINE
  5
22F
330
2
100
AcDbEntity
  8
PDF_Layer 1
 62
     7
420
 16777215
370
    70
100
AcDbPolyline
 90
       53
 70
     0
 43
0.0
 10
13.29121805555555
 20
10.66380416666666
 10
13.28284305555555
 20
10.70154027777777
 10
13.24928749999999
 20
10.84835972222222
 10
13.20732916666666
 20
10.99097083333333
 10
13.14860694444444
 20
11.1293875
 10
13.08149583333333
 20
11.26780416666666
 10
13.00180138888889
 20
11.3936375
 10
12.91371805555555
 20
11.51527638888889
 10
12.81305138888888
 20
11.62854027777777
 10
12.70399583333333
 20
11.73759583333333
 10
12.59073194444444
 20
11.83405416666666
 10
12.4649125
 20
11.91795694444444
 10
12.33488472222222
 20
11.99344305555555
 10
12.2006625
 20
12.06056805555555
 10
12.0580375
 20
12.11509583333333
 10
11.91542638888889
 20
12.15704027777777
 10
11.76862083333333
 20
12.18640138888889
 10
11.61762083333333
 20
12.20737361111111
 10
11.46662083333333
 20
12.21156805555555
 10
11.31562083333333
 20
12.20737361111111
 10
11.16462083333333
 20
12.18640138888889
 10
11.01781527777777
 20
12.15704027777777
 10
10.87519027777777
 20
12.11509583333333
 10
10.73257916666666
 20
12.06056805555555
 10
10.59835694444444
 20
11.99344305555555
 10
10.46832916666666
 20
11.91795694444444
 10
10.34249583333333
 20
11.83405416666666
 10
10.22924583333333
 20
11.73759583333333
 10
10.12019027777777
 20
11.62854027777777
 10
10.01952361111111
 20
11.51527638888889
 10
9.931440277777777
 20
11.3936375
 10
9.851731944444443
 20
11.26780416666666
 10
9.784620833333331
 20
11.1293875
 10
9.730106944444443
 20
10.99097083333333
 10
9.683954166666666
 20
10.84835972222222
 10
9.650398611111111
 20
10.70154027777777
 10
9.629440277777776
 20
10.55054027777777
 10
9.616843055555555
 20
10.39954027777777
 10
9.621037499999999
 20
10.24854027777777
 10
9.637815277777775
 20
10.10173472222222
 10
9.662995833333331
 20
9.95073472222222
 10
9.704926388888887
 20
9.80812361111111
 10
9.75525972222222
 20
9.665512499999998
 10
9.818176388888888
 20
9.527081944444443
 10
9.889481944444442
 20
9.397068055555553
 10
9.977579166666664
 20
9.271220833333332
 10
10.06985694444444
 20
9.153776388888887
 10
10.17470416666666
 20
9.044720833333332
 10
10.28377361111111
 20
8.93985972222222
 10
10.40541249999999
 20
8.851776388888888
 10
10.53124583333333
 20
8.767887499999998
 10
10.66546805555555
 20
8.696581944444442
 10
10.71162083333333
 20
8.675609722222221
  0
ARC
  5
230
330
2
100
AcDbEntity
  8
PDF_Layer 1
 62
     7
420
 16777215
370
    70
100
AcDbCircle
 10
11.45315483489118
 20
10.37372967106645
 30
0.0
 40
1.864680762440995
100
AcDbArc
 50
292.7911425180043
 51
350.3074660917565
  0
LWPOLYLINE
  5
233
330
2
100
AcDbEntity
  8
PDF_Layer 1
 62
     7
420
 16777215
370
    70
100
AcDbPolyline
 90
        9
 70
     0
 43
0.0
 10
4.071731944444442
 20
10.10592916666666
 10
4.096898611111111
 20
10.0052625
 10
4.1430375
 20
9.892012499999998
 10
4.197565277777776
 20
9.782956944444443
 10
4.260481944444443
 20
9.682290277777775
 10
4.335981944444442
 20
9.590012499999998
 10
4.424065277777778
 20
9.501915277777776
 10
4.516343055555553
 20
9.426415277777776
 10
4.604426388888889
 20
9.371901388888886
  0
LWPOLYLINE
  5
236
330
2
100
AcDbEntity
  8
PDF_Layer 1
 62
     7
420
 16777215
370
    70
100
AcDbPolyline
 90
       10
 70
     0
 43
0.0
 10
4.008815277777776
 20
10.10592916666666
 10
4.038176388888887
 20
10.00106805555555
 10
4.080120833333332
 20
9.88362361111111
 10
4.13464861111111
 20
9.774568055555553
 10
4.197565277777776
 20
9.669706944444442
 10
4.273065277777774
 20
9.569040277777776
 10
4.361148611111111
 20
9.480956944444443
 10
4.453426388888885
 20
9.401248611111109
 10
4.554093055555554
 20
9.329943055555554
 10
4.604426388888889
 20
9.300581944444443
  0
LWPOLYLINE
  5
237
330
2
100
AcDbEntity
  8
PDF_Layer 1
 62
     7
420
 16777215
370
    70
100
AcDbPolyline
 90
       13
 70
     0
 43
0.0
 10
5.791468055555554
 20
9.300581944444443
 10
5.841801388888887
 20
9.329943055555554
 10
5.942468055555554
 20
9.401248611111109
 10
6.034745833333332
 20
9.480956944444443
 10
6.122843055555554
 20
9.569040277777776
 10
6.198343055555554
 20
9.669706944444442
 10
6.26125972222222
 20
9.774568055555553
 10
6.315787499999998
 20
9.88362361111111
 10
6.357731944444442
 20
10.00106805555555
 10
6.391287499999998
 20
10.1185125
 10
6.408065277777777
 20
10.24015138888889
 10
6.416454166666667
 20
10.36179027777778
 42
0.8974742856084347
 10
4.008815277777774
 20
10.62185972222222
  0
LWPOLYLINE
  5
238
330
2
100
AcDbEntity
  8
PDF_Layer 1
 62
     7
420
 16777215
370
    70
100
AcDbPolyline
 90
       50
 70
     0
 43
0.0
 10
5.917301388888885
 20
8.860165277777776
 10
5.925690277777775
 20
8.864359722222221
 10
6.051523611111109
 20
8.931470833333332
 10
6.173176388888887
 20
9.011165277777775
 10
6.282231944444443
 20
9.099248611111109
 10
6.387093055555553
 20
9.195720833333332
 10
6.483565277777776
 20
9.304776388888887
 10
6.571648611111108
 20
9.418026388888886
 10
6.647148611111109
 20
9.539679166666665
 10
6.710065277777776
 20
9.669706944444442
 10
6.764593055555552
 20
9.79973472222222
 10
6.810731944444443
 20
9.938151388888886
 10
6.840093055555555
 20
10.07656805555555
 10
6.856870833333331
 20
10.21917916666666
 10
6.865259722222221
 20
10.36179027777778
 10
6.856870833333331
 20
10.50859583333333
 10
6.840093055555555
 20
10.64702638888888
 10
6.810731944444443
 20
10.78963749999999
 10
6.764593055555552
 20
10.92385972222222
 10
6.710065277777776
 20
11.05808194444444
 10
6.647148611111109
 20
11.18810972222222
 10
6.571648611111108
 20
11.30974861111111
 10
6.483565277777776
 20
11.42299861111111
 10
6.387093055555553
 20
11.52785972222222
 10
6.282231944444443
 20
11.62854027777777
 10
6.173176388888887
 20
11.71660972222222
 10
6.051523611111109
 20
11.79631805555555
 10
5.925690277777775
 20
11.86342916666666
 10
5.7956625
 20
11.91795694444444
 10
5.65724583333333
 20
11.96409583333333
 10
5.518829166666664
 20
11.99765138888889
 10
5.376218055555554
 20
12.01862361111111
 10
5.233606944444444
 20
12.03120694444444
 10
5.09099583333333
 20
12.0270125
 10
4.948370833333333
 20
12.01022083333333
 10
4.805759722222221
 20
11.98506805555555
 10
4.667343055555553
 20
11.94312361111111
 10
4.533120833333333
 20
11.89277638888889
 10
4.407287499999998
 20
11.82987361111111
 10
4.281454166666664
 20
11.75437361111111
 10
4.168204166666665
 20
11.67048472222222
 10
4.05914861111111
 20
11.57820694444444
 10
3.958481944444443
 20
11.47752638888889
 10
3.866190277777775
 20
11.36427638888888
 10
3.78650972222222
 20
11.24683194444444
 10
3.715190277777777
 20
11.12099861111111
 10
3.656468055555553
 20
10.99097083333333
 10
3.60613472222222
 20
10.85674861111111
 10
3.568384722222221
 20
10.71831805555555
 10
3.555801388888889
 20
10.65120694444444
  0
LWPOLYLINE
  5
239
330
2
100
AcDbEntity
  8
PDF_Layer 1
 62
     7
420
 16777215
370
    70
100
AcDbPolyline
 90
       13
 70
     0
 43
0.0
 10
3.555801388888889
 20
10.07656805555555
 10
3.568384722222221
 20
10.00945694444444
 10
3.60613472222222
 20
9.866845833333332
 10
3.656468055555553
 20
9.73262361111111
 10
3.715190277777777
 20
9.602581944444443
 10
3.78650972222222
 20
9.480956944444443
 10
3.866190277777775
 20
9.359304166666666
 10
3.958481944444443
 20
9.250248611111109
 10
4.05914861111111
 20
9.149581944444442
 10
4.168204166666665
 20
9.05310972222222
 10
4.281454166666664
 20
8.969220833333331
 10
4.407287499999998
 20
8.897915277777777
 10
4.42825972222222
 20
8.885331944444443
  0
LWPOLYLINE
  5
23C
330
2
100
AcDbEntity
  8
PDF_Layer 1
 62
     7
420
 16777215
370
    70
100
AcDbPolyline
 90
       13
 70
     0
 43
0.0
 10
3.497079166666665
 20
10.07237361111111
 10
3.526440277777778
 20
9.929762499999998
 10
3.568384722222221
 20
9.787151388888887
 10
3.622912499999998
 20
9.652929166666664
 10
3.69002361111111
 20
9.522901388888888
 10
3.76552361111111
 20
9.397068055555553
 10
3.853620833333332
 20
9.27960972222222
 10
3.950093055555553
 20
9.170554166666665
 10
4.054954166666664
 20
9.065693055555554
 10
4.172398611111111
 20
8.973415277777776
 10
4.294037499999998
 20
8.893720833333333
 10
4.419870833333332
 20
8.822415277777777
 10
4.466009722222221
 20
8.797248611111109
  0
LWPOLYLINE
  5
23D
330
2
100
AcDbEntity
  8
PDF_Layer 1
 62
     7
420
 16777215
370
    70
100
AcDbPolyline
 90
       16
 70
     0
 43
0.0
 10
5.950856944444442
 20
8.809831944444443
 10
5.976023611111109
 20
8.822415277777777
 10
6.101856944444444
 20
8.893720833333333
 10
6.223509722222221
 20
8.973415277777776
 10
6.336759722222219
 20
9.065693055555554
 10
6.445815277777776
 20
9.170554166666665
 10
6.542287499999999
 20
9.27960972222222
 10
6.626176388888887
 20
9.397068055555553
 10
6.705870833333333
 20
9.522901388888888
 10
6.772981944444442
 20
9.652929166666664
 10
6.82750972222222
 20
9.787151388888887
 10
6.869454166666664
 20
9.929762499999998
 10
6.898815277777776
 20
10.07237361111111
 10
6.919787499999998
 20
10.21498472222222
 10
6.923981944444443
 20
10.36179027777778
 42
0.9201159186955225
 10
3.497079166666669
 20
10.65541527777777
  0
LWPOLYLINE
  5
23F
330
2
100
AcDbEntity
  8
PDF_Layer 1
 62
     7
420
 16777215
370
    70
100
AcDbPolyline
 90
       14
 70
     0
 43
0.0
 10
3.434162499999997
 20
10.06398472222222
 10
3.446745833333331
 20
9.992679166666665
 10
3.484495833333333
 20
9.845873611111109
 10
3.534829166666666
 20
9.703262499999999
 10
3.593551388888887
 20
9.569040277777776
 10
3.664856944444442
 20
9.434804166666665
 10
3.748745833333332
 20
9.313165277777775
 10
3.84102361111111
 20
9.195720833333332
 10
3.945898611111109
 20
9.086665277777775
 10
4.054954166666664
 20
8.98599861111111
 10
4.176593055555555
 20
8.893720833333333
 10
4.302426388888887
 20
8.814026388888887
 10
4.43664861111111
 20
8.742720833333331
 10
4.486981944444442
 20
8.721748611111109
  0
LWPOLYLINE
  5
242
330
2
100
AcDbEntity
  8
PDF_Layer 1
 62
     7
420
 16777215
370
    70
100
AcDbPolyline
 90
       14
 70
     0
 43
0.0
 10
3.375440277777776
 20
10.05979027777778
 10
3.38802361111111
 20
9.988484722222221
 10
3.425773611111109
 20
9.841679166666665
 10
3.4719125
 20
9.699068055555553
 10
3.53063472222222
 20
9.560637499999998
 10
3.601940277777776
 20
9.426415277777776
 10
3.685829166666666
 20
9.300581944444443
 10
3.773912499999998
 20
9.183137499999999
 10
3.878773611111109
 20
9.069887499999998
 10
3.987843055555554
 20
8.965026388888887
 10
4.105287499999999
 20
8.872748611111109
 10
4.231120833333331
 20
8.78885972222222
 10
4.361148611111111
 20
8.71335972222222
 10
4.440843055555554
 20
8.675609722222221
  0
LWPOLYLINE
  5
243
330
2
100
AcDbEntity
  8
PDF_Layer 1
 62
     7
420
 16777215
370
    70
100
AcDbPolyline
 90
       17
 70
     0
 43
0.0
 10
5.908912499999997
 20
8.654637499999997
 10
5.96763472222222
 20
8.679804166666665
 10
6.101856944444444
 20
8.751109722222221
 10
6.227690277777778
 20
8.826609722222221
 10
6.349343055555554
 20
8.918887499999998
 10
6.462593055555553
 20
9.015359722222221
 10
6.571648611111108
 20
9.124415277777776
 10
6.668120833333332
 20
9.241859722222221
 10
6.752009722222219
 20
9.363512499999998
 10
6.82750972222222
 20
9.493526388888888
 10
6.894620833333333
 20
9.627762499999999
 10
6.94914861111111
 20
9.770373611111109
 10
6.991093055555554
 20
9.917179166666665
 10
7.020454166666666
 20
10.06398472222222
 10
7.041426388888889
 20
10.21079027777777
 10
7.045620833333332
 20
10.36179027777778
 42
0.9228802958317029
 10
3.375440277777772
 20
10.66380416666666
  0
LWPOLYLINE
  5
244
330
2
100
AcDbEntity
  8
PDF_Layer 1
 62
     7
420
 16777215
370
    25
100
AcDbPolyline
 90
        2
 70
     0
 43
0.0
 10
6.54933611111111
 20
0.31665
 10
7.957169444444444
 20
0.31665
  0
LWPOLYLINE
  5
245
330
2
100
AcDbEntity
  8
PDF_Layer 1
 62
     7
420
 16777215
370
    25
100
AcDbPolyline
 90
        2
 70
     0
 43
0.0
 10
5.02597361111111
 20
1.973469444444444
 10
4.119959722222221
 20
1.973469444444444
  0
LWPOLYLINE
  5
246
330
2
100
AcDbEntity
  8
PDF_Layer 1
 62
     7
420
 16777215
370
    70
100
AcDbPolyline
 90
       90
 70
     0
 43
0.0
 10
12.71868888888889
 20
4.414673611111111
 10
12.72286944444444
 20
4.414673611111111
 10
12.74384166666666
 20
4.410479166666666
 10
12.77320277777777
 20
4.406284722222222
 10
12.81516111111111
 20
4.402090277777777
 10
12.85709166666666
 20
4.402090277777777
 10
12.89484166666666
 20
4.406284722222222
 10
12.92841111111111
 20
4.410479166666666
 10
12.95357777777778
 20
4.414673611111111
 10
12.96616111111111
 20
4.414673611111111
 10
12.71868888888889
 20
4.414673611111111
 10
12.70189722222222
 20
4.414673611111111
 10
12.69771666666666
 20
4.414673611111111
 10
12.69350833333333
 20
4.418868055555555
 10
12.68931388888889
 20
4.418868055555555
 10
12.68931388888889
 20
4.4230625
 10
12.68511944444444
 20
4.4230625
 10
12.68093888888889
 20
4.427256944444444
 10
12.67673055555555
 20
4.431451388888889
 10
12.66834166666666
 20
4.444034722222222
 10
12.65995277777778
 20
4.448229166666666
 10
12.65156388888889
 20
4.452423611111111
 10
12.63898055555555
 20
4.456618055555555
 10
12.62639722222222
 20
4.452423611111111
 10
12.61800833333333
 20
4.448229166666666
 10
12.60961944444444
 20
4.439840277777777
 10
12.605425
 20
4.427256944444444
 10
12.605425
 20
4.4230625
 10
12.60123055555555
 20
4.418868055555555
 10
12.59705
 20
4.414673611111111
 10
12.59284166666666
 20
4.410479166666666
 10
12.55509166666666
 20
4.389493055555555
 10
12.52153611111111
 20
4.364340277777777
 10
12.48798055555555
 20
4.339159722222222
 10
12.45861944444444
 20
4.309798611111111
 10
12.43345277777778
 20
4.276256944444444
 10
12.40828611111111
 20
4.242701388888889
 10
12.38731388888889
 20
4.209131944444444
 10
12.36634166666666
 20
4.171381944444444
 10
12.36634166666666
 20
4.167201388888889
 10
12.36634166666666
 20
4.146229166666667
 10
12.36634166666666
 20
4.116868055555555
 10
12.36634166666666
 20
4.074909722222222
 10
12.36634166666666
 20
4.028784722222222
 10
12.36634166666666
 20
3.970048611111111
 10
12.36634166666666
 20
3.911340277777778
 10
12.36634166666666
 20
3.844229166666666
 10
12.36634166666666
 20
3.781298611111111
 10
12.36634166666666
 20
3.722576388888889
 10
12.36634166666666
 20
3.663854166666666
 10
12.36634166666666
 20
3.613520833333333
 10
12.36634166666666
 20
3.575770833333333
 10
12.36634166666666
 20
3.542215277777778
 10
12.36634166666666
 20
3.5254375
 10
12.36634166666666
 20
3.517048611111111
 10
12.38731388888889
 20
3.483493055555555
 10
12.40828611111111
 20
3.445743055555555
 10
12.43345277777778
 20
3.4121875
 10
12.45861944444444
 20
3.382826388888889
 10
12.48798055555555
 20
3.353465277777778
 10
12.52153611111111
 20
3.328298611111111
 10
12.55509166666666
 20
3.303131944444444
 10
12.59284166666666
 20
3.282159722222222
 10
12.59705
 20
3.277965277777778
 10
12.60123055555555
 20
3.273756944444444
 10
12.605425
 20
3.269576388888889
 10
12.605425
 20
3.265381944444444
 10
12.60961944444444
 20
3.252798611111111
 10
12.61800833333333
 20
3.244409722222222
 10
12.62639722222222
 20
3.240201388888888
 10
12.63898055555555
 20
3.236020833333333
 10
12.65156388888889
 20
3.236020833333333
 10
12.65995277777778
 20
3.240201388888888
 10
12.66834166666666
 20
3.248604166666667
 10
12.67673055555555
 20
3.256979166666666
 10
12.67673055555555
 20
3.2611875
 10
12.68093888888889
 20
3.265381944444444
 10
12.68511944444444
 20
3.269576388888889
 10
12.68931388888889
 20
3.269576388888889
 10
12.68931388888889
 20
3.273756944444444
 10
12.69350833333333
 20
3.273756944444444
 10
12.69771666666666
 20
3.273756944444444
 10
12.70189722222222
 20
3.273756944444444
 10
13.24718888888889
 20
3.273756944444444
 10
13.24718888888889
 20
3.282159722222222
 10
13.24718888888889
 20
3.2989375
 10
13.24718888888889
 20
3.332493055555556
 10
13.24718888888889
 20
3.3744375
 10
13.24718888888889
 20
3.428965277777778
 10
13.24718888888889
 20
3.454131944444444
  0
LWPOLYLINE
  5
248
330
2
100
AcDbEntity
  8
PDF_Layer 1
 62
     7
420
 16777215
370
    70
100
AcDbPolyline
 90
       25
 70
     0
 43
0.0
 10
13.35205
 20
4.142020833333333
 10
13.35205
 20
4.200756944444444
 10
13.35205
 20
4.263673611111111
 10
13.35205
 20
4.314006944444444
 10
13.35205
 20
4.3559375
 10
13.35205
 20
4.389493055555555
 10
13.35205
 20
4.406284722222222
 10
13.35205
 20
4.414673611111111
 10
13.35205
 20
4.427256944444444
 10
13.34366111111111
 20
4.439840277777777
 10
13.33527222222222
 20
4.448229166666666
 10
13.32268888888888
 20
4.452423611111111
 10
13.30591111111111
 20
4.456618055555555
 10
13.29332777777777
 20
4.452423611111111
 10
13.28074444444444
 20
4.444034722222222
 10
13.27655
 20
4.431451388888889
 10
13.27235555555555
 20
4.427256944444444
 10
13.26816111111111
 20
4.427256944444444
 10
13.26816111111111
 20
4.4230625
 10
13.26396666666666
 20
4.418868055555555
 10
13.25977222222222
 20
4.418868055555555
 10
13.25557777777778
 20
4.418868055555555
 10
13.25138333333333
 20
4.414673611111111
 10
13.24718888888889
 20
4.414673611111111
 10
12.96616111111111
 20
4.414673611111111
  0
LWPOLYLINE
  5
249
330
2
100
AcDbEntity
  8
PDF_Layer 1
 62
     7
420
 16777215
370
    70
100
AcDbPolyline
 90
       24
 70
     0
 43
0.0
 10
13.24718888888889
 20
3.273756944444444
 10
13.25138333333333
 20
3.273756944444444
 10
13.25557777777778
 20
3.273756944444444
 10
13.25977222222222
 20
3.273756944444444
 10
13.26396666666666
 20
3.269576388888889
 10
13.26816111111111
 20
3.269576388888889
 10
13.26816111111111
 20
3.265381944444444
 10
13.27235555555555
 20
3.2611875
 10
13.27655
 20
3.256979166666666
 10
13.28074444444444
 20
3.248604166666667
 10
13.29332777777777
 20
3.240201388888888
 10
13.30591111111111
 20
3.236020833333333
 10
13.32268888888888
 20
3.236020833333333
 10
13.33527222222222
 20
3.244409722222222
 10
13.34366111111111
 20
3.252798611111111
 10
13.35205
 20
3.265381944444444
 10
13.35205
 20
3.277965277777778
 10
13.35205
 20
3.282159722222222
 10
13.35205
 20
3.303131944444444
 10
13.35205
 20
3.332493055555556
 10
13.35205
 20
3.3744375
 10
13.35205
 20
3.428965277777778
 10
13.35205
 20
3.491881944444444
 10
13.35205
 20
3.550604166666667
  0
LWPOLYLINE
  5
255
330
2
100
AcDbEntity
  8
PDF_Layer 1
 62
     7
420
 16777215
370
    70
100
AcDbPolyline
 90
       17
 70
     0
 43
0.0
 10
13.35205
 20
3.282159722222222
 10
13.39818888888889
 20
3.340881944444444
 10
13.44013333333333
 20
3.407993055555555
 10
13.47368888888889
 20
3.475104166666667
 10
13.50305
 20
3.546409722222222
 10
13.52402222222222
 20
3.617715277777778
 10
13.5408
 20
3.693229166666666
 10
13.55338333333333
 20
3.768715277777777
 10
13.55338333333333
 20
3.844229166666666
 10
13.55338333333333
 20
3.923909722222222
 10
13.5408
 20
3.999423611111111
 10
13.52402222222222
 20
4.070715277777778
 10
13.50305
 20
4.146229166666667
 10
13.47368888888889
 20
4.217534722222222
 10
13.44013333333333
 20
4.284645833333333
 10
13.39818888888889
 20
4.3475625
 10
13.35205
 20
4.410479166666666
  0
LWPOLYLINE
  5
25A
330
2
100
AcDbEntity
  8
PDF_Layer 1
 62
     7
420
 16777215
370
    70
100
AcDbPolyline
 90
       74
 70
     1
 43
0.0
 10
10.94021666666666
 20
3.277965277777778
 10
10.94021666666666
 20
3.282159722222222
 10
10.94021666666666
 20
3.294743055555556
 10
10.94021666666666
 20
3.319909722222222
 10
10.94021666666666
 20
3.353465277777778
 10
10.94021666666666
 20
3.403798611111111
 10
10.94021666666666
 20
3.462520833333333
 10
10.94021666666666
 20
3.5254375
 10
10.94021666666666
 20
3.6009375
 10
10.94021666666666
 20
3.680631944444444
 10
10.94021666666666
 20
3.760340277777777
 10
10.94021666666666
 20
3.844229166666666
 10
10.94021666666666
 20
3.928118055555555
 10
10.94021666666666
 20
4.012006944444444
 10
10.94021666666666
 20
4.091687499999999
 10
10.94021666666666
 20
4.163006944444444
 10
10.94021666666666
 20
4.230118055555555
 10
10.94021666666666
 20
4.288826388888889
 10
10.94021666666666
 20
4.334979166666666
 10
10.94021666666666
 20
4.372715277777778
 10
10.94021666666666
 20
4.397895833333334
 10
10.94021666666666
 20
4.410479166666666
 10
10.93602222222222
 20
4.444034722222222
 10
10.92761944444444
 20
4.473395833333333
 10
10.91505
 20
4.502756944444445
 10
10.89406388888888
 20
4.532118055555555
 10
10.86891111111111
 20
4.553090277777777
 10
10.84373055555555
 20
4.569868055555556
 10
10.81438333333333
 20
4.582451388888888
 10
10.78082777777777
 20
4.590840277777777
 10
8.738105555555556
 20
4.821534722222222
 10
8.591299999999998
 20
4.955756944444444
 10
8.490633333333331
 20
4.955756944444444
 10
8.415133333333333
 20
4.876062499999999
 10
8.415133333333333
 20
4.871868055555555
 10
8.415133333333333
 20
4.859284722222222
 10
8.415133333333333
 20
4.829923611111111
 10
8.415133333333333
 20
4.792173611111111
 10
8.415133333333333
 20
4.737645833333333
 10
8.415133333333333
 20
4.678923611111111
 10
8.415133333333333
 20
4.603423611111111
 10
8.415133333333333
 20
4.523729166666666
 10
8.415133333333333
 20
4.431451388888889
 10
8.415133333333333
 20
4.334979166666666
 10
8.415133333333333
 20
4.2343125
 10
8.415133333333333
 20
4.125243055555555
 10
8.415133333333333
 20
4.016201388888888
 10
8.415133333333333
 20
3.9029375
 10
8.415133333333333
 20
3.7896875
 10
8.415133333333333
 20
3.676451388888889
 10
8.415133333333333
 20
3.5631875
 10
8.415133333333333
 20
3.458326388888889
 10
8.415133333333333
 20
3.353465277777778
 10
8.415133333333333
 20
3.256979166666666
 10
8.415133333333333
 20
3.168909722222222
 10
8.415133333333333
 20
3.085020833333333
 10
8.415133333333333
 20
3.013715277777778
 10
8.415133333333333
 20
2.950798611111111
 10
8.415133333333333
 20
2.900465277777778
 10
8.415133333333333
 20
2.862715277777778
 10
8.415133333333333
 20
2.833354166666667
 10
8.415133333333333
 20
2.816576388888889
 10
8.415133333333333
 20
2.812381944444444
 10
8.490633333333331
 20
2.736868055555556
 10
8.591299999999998
 20
2.736868055555556
 10
8.738105555555556
 20
2.871090277777778
 10
10.78082777777777
 20
3.101798611111111
 10
10.81438333333333
 20
3.1101875
 10
10.84373055555555
 20
3.122756944444444
 10
10.86891111111111
 20
3.139534722222222
 10
10.89406388888888
 20
3.160520833333333
 10
10.91505
 20
3.1856875
 10
10.92761944444444
 20
3.215048611111111
 10
10.93602222222222
 20
3.248604166666667
  0
LWPOLYLINE
  5
264
330
2
100
AcDbEntity
  8
PDF_Layer 1
 62
     7
420
 16777215
370
    70
100
AcDbPolyline
 90
        2
 70
     0
 43
0.0
 10
8.322855555555555
 20
2.9969375
 10
8.415133333333333
 20
2.9969375
  0
LWPOLYLINE
  5
265
330
2
100
AcDbEntity
  8
PDF_Layer 1
 62
     7
420
 16777215
370
    70
100
AcDbPolyline
 90
        2
 70
     0
 43
0.0
 10
8.415133333333333
 20
4.691506944444444
 10
8.322855555555555
 20
4.691506944444444
  0
LWPOLYLINE
  5
266
330
2
100
AcDbEntity
  8
PDF_Layer 1
 62
     7
420
 16777215
370
    70
100
AcDbPolyline
 90
        2
 70
     0
 43
0.0
 10
8.314466666666666
 20
3.236020833333333
 10
8.322855555555555
 20
3.219243055555556
  0
LWPOLYLINE
  5
267
330
2
100
AcDbEntity
  8
PDF_Layer 1
 62
     7
420
 16777215
370
    70
100
AcDbPolyline
 90
        3
 70
     0
 43
0.0
 10
8.419327777777777
 20
3.236020833333333
 10
8.436105555555554
 20
3.206645833333333
 10
8.457077777777776
 20
3.177298611111111
  0
LWPOLYLINE
  5
268
330
2
100
AcDbEntity
  8
PDF_Layer 1
 62
     7
420
 16777215
370
    70
100
AcDbPolyline
 90
        2
 70
     0
 43
0.0
 10
8.415133333333333
 20
3.236020833333333
 10
8.423522222222221
 20
3.236020833333333
  0
LWPOLYLINE
  5
269
330
2
100
AcDbEntity
  8
PDF_Layer 1
 62
     7
420
 16777215
370
    70
100
AcDbPolyline
 90
        2
 70
     0
 43
0.0
 10
12.36634166666666
 20
4.129451388888889
 10
10.94021666666666
 20
4.129451388888889
  0
LWPOLYLINE
  5
26A
330
2
100
AcDbEntity
  8
PDF_Layer 1
 62
     7
420
 16777215
370
    70
100
AcDbPolyline
 90
        2
 70
     0
 43
0.0
 10
10.94021666666666
 20
3.5631875
 10
12.36634166666666
 20
3.5631875
  0
LWPOLYLINE
  5
275
330
2
100
AcDbEntity
  8
PDF_Layer 1
 62
     7
420
 16777215
370
    70
100
AcDbPolyline
 90
       42
 70
     0
 43
0.0
 10
7.970508333333332
 20
2.573284722222222
 10
7.848869444444443
 20
2.657173611111111
 10
7.848869444444443
 20
2.833354166666667
 10
7.853063888888887
 20
2.862715277777778
 10
7.861452777777777
 20
2.8920625
 10
7.882424999999999
 20
2.921423611111111
 10
7.91178611111111
 20
2.938201388888889
 10
7.936952777777777
 20
2.950798611111111
 10
7.962119444444443
 20
2.954979166666666
 10
7.966313888888887
 20
2.954979166666666
 10
8.293494444444444
 20
2.954979166666666
 10
8.322855555555555
 20
2.984354166666666
 10
8.322855555555555
 20
2.988534722222222
 10
8.322855555555555
 20
3.009506944444444
 10
8.322855555555555
 20
3.038868055555555
 10
8.322855555555555
 20
3.080826388888889
 10
8.322855555555555
 20
3.135354166666666
 10
8.322855555555555
 20
3.202465277777777
 10
8.322855555555555
 20
3.273756944444444
 10
8.322855555555555
 20
3.357659722222222
 10
8.322855555555555
 20
3.445743055555555
 10
8.322855555555555
 20
3.538020833333333
 10
8.322855555555555
 20
3.6386875
 10
8.322855555555555
 20
3.7435625
 10
8.322855555555555
 20
3.844229166666666
 10
8.322855555555555
 20
3.949090277777778
 10
8.322855555555555
 20
4.053937499999999
 10
8.322855555555555
 20
4.150423611111111
 10
8.322855555555555
 20
4.246895833333333
 10
8.322855555555555
 20
4.334979166666666
 10
8.322855555555555
 20
4.418868055555555
 10
8.322855555555555
 20
4.490173611111111
 10
8.322855555555555
 20
4.553090277777777
 10
8.322855555555555
 20
4.607618055555556
 10
8.322855555555555
 20
4.653756944444444
 10
8.322855555555555
 20
4.683118055555556
 10
8.322855555555555
 20
4.699895833333333
 10
8.322855555555555
 20
4.708284722222222
 10
8.293494444444444
 20
4.737645833333333
 10
6.452105555555554
 20
4.737645833333333
 10
6.393383333333333
 20
4.620201388888888
 10
5.588036111111111
 20
4.620201388888888
  0
LWPOLYLINE
  5
279
330
2
100
AcDbEntity
  8
PDF_Layer 1
 62
     7
420
 16777215
370
    70
100
AcDbPolyline
 90
       45
 70
     0
 43
0.0
 10
6.485661111111109
 20
1.9105625
 10
6.485661111111109
 20
1.897979166666667
 10
6.515022222222221
 20
1.881201388888889
 10
6.544383333333332
 20
1.86442361111111
 10
6.544383333333332
 20
1.851840277777778
 10
6.544383333333332
 20
1.839243055555556
 10
6.515022222222221
 20
1.822465277777777
 10
6.510827777777777
 20
1.818284722222222
 10
6.565355555555554
 20
1.763756944444445
 10
6.569549999999999
 20
1.763756944444445
 10
6.582133333333333
 20
1.763756944444445
 10
6.611494444444443
 20
1.763756944444445
 10
6.649244444444444
 20
1.763756944444445
 10
6.699577777777776
 20
1.763756944444445
 10
6.758299999999999
 20
1.763756944444445
 10
6.825411111111111
 20
1.763756944444445
 10
6.900911111111109
 20
1.763756944444445
 10
6.984799999999999
 20
1.763756944444445
 10
7.072883333333332
 20
1.763756944444445
 10
7.160980555555554
 20
1.763756944444445
 10
7.253244444444444
 20
1.763756944444445
 10
7.34553611111111
 20
1.763756944444445
 10
7.437813888888888
 20
1.763756944444445
 10
7.521702777777776
 20
1.763756944444445
 10
7.605591666666665
 20
1.763756944444445
 10
7.681091666666666
 20
1.763756944444445
 10
7.748202777777776
 20
1.763756944444445
 10
7.806924999999999
 20
1.763756944444445
 10
7.857258333333332
 20
1.763756944444445
 10
7.899202777777777
 20
1.763756944444445
 10
7.924369444444443
 20
1.763756944444445
 10
7.941147222222221
 20
1.763756944444445
 10
7.945341666666665
 20
1.763756944444445
 10
7.962119444444443
 20
1.780534722222222
 10
7.962119444444443
 20
1.784729166666667
 10
7.962119444444443
 20
1.7973125
 10
7.962119444444443
 20
1.809895833333333
 10
7.941147222222221
 20
1.8056875
 10
7.895008333333332
 20
1.8056875
 10
7.827897222222222
 20
1.801506944444444
 10
7.739813888888888
 20
1.7973125
 10
7.634952777777777
 20
1.793104166666666
 10
7.517508333333332
 20
1.788909722222222
 10
7.387480555555555
 20
1.788909722222222
 10
7.253244444444444
 20
1.784729166666667
  0
LWPOLYLINE
  5
27A
330
2
100
AcDbEntity
  8
PDF_Layer 1
 62
     7
420
 16777215
370
    70
100
AcDbPolyline
 90
       10
 70
     0
 43
0.0
 10
6.544383333333332
 20
2.082534722222222
 10
6.544383333333332
 20
2.065756944444444
 10
6.544383333333332
 20
2.053173611111111
 10
6.515022222222221
 20
2.036395833333334
 10
6.485661111111109
 20
2.019618055555555
 10
6.485661111111109
 20
2.007020833333333
 10
6.515022222222221
 20
1.990243055555556
 10
6.544383333333332
 20
1.973465277777778
 10
6.544383333333332
 20
1.960881944444444
 10
6.544383333333332
 20
1.944118055555555
  0
LWPOLYLINE
  5
27F
330
2
100
AcDbEntity
  8
PDF_Layer 1
 62
     7
420
 16777215
370
    70
100
AcDbPolyline
 90
       66
 70
     0
 43
0.0
 10
6.485661111111109
 20
2.439062499999999
 10
6.489855555555554
 20
2.439062499999999
 10
6.494049999999998
 20
2.439062499999999
 10
6.498244444444443
 20
2.439062499999999
 10
6.506633333333332
 20
2.443256944444444
 10
6.515022222222221
 20
2.443256944444444
 10
6.527605555555555
 20
2.443256944444444
 10
6.540188888888888
 20
2.443256944444444
 10
6.556966666666665
 20
2.447451388888889
 10
6.565355555555554
 20
2.447451388888889
 10
6.582133333333333
 20
2.447451388888889
 10
6.619883333333333
 20
2.447451388888889
 10
6.666022222222221
 20
2.451645833333333
 10
6.678605555555554
 20
2.451645833333333
 10
6.686994444444444
 20
2.451645833333333
 10
6.695383333333332
 20
2.451645833333333
 10
6.720549999999998
 20
2.451645833333333
 10
6.754105555555555
 20
2.451645833333333
 10
6.783466666666665
 20
2.451645833333333
 10
6.817022222222221
 20
2.455840277777778
 10
6.850577777777777
 20
2.455840277777778
 10
6.884133333333332
 20
2.455840277777778
 10
6.896716666666665
 20
2.455840277777778
 10
6.930272222222221
 20
2.455840277777778
 10
6.984799999999999
 20
2.460048611111111
 10
7.043522222222222
 20
2.460048611111111
 10
7.085466666666666
 20
2.460048611111111
 10
7.114827777777777
 20
2.460048611111111
 10
7.198716666666665
 20
2.464229166666667
 10
7.27003611111111
 20
2.464229166666667
 10
7.34553611111111
 20
2.468423611111111
 10
7.433619444444443
 20
2.468423611111111
 10
7.509119444444444
 20
2.472618055555555
 10
7.584619444444443
 20
2.472618055555555
 10
7.634952777777777
 20
2.472618055555555
 10
7.689480555555554
 20
2.476826388888889
 10
7.744008333333332
 20
2.476826388888889
 10
7.781758333333333
 20
2.476826388888889
 10
7.827897222222222
 20
2.481006944444444
 10
7.865647222222222
 20
2.481006944444444
 10
7.899202777777777
 20
2.481006944444444
 10
7.932758333333333
 20
2.485201388888889
 10
7.962119444444443
 20
2.485201388888889
 10
7.991480555555555
 20
2.485201388888889
 10
8.008258333333333
 20
2.489395833333333
 10
8.016647222222221
 20
2.489395833333333
 10
8.020841666666665
 20
2.493604166666666
 10
8.020841666666665
 20
2.506173611111111
 10
7.991480555555555
 20
2.522951388888889
 10
7.962119444444443
 20
2.539729166666667
 10
7.941147222222221
 20
2.535534722222222
 10
7.886619444444444
 20
2.531340277777777
 10
7.815313888888888
 20
2.527145833333333
 10
7.72303611111111
 20
2.522951388888889
 10
7.613980555555555
 20
2.522951388888889
 10
7.492341666666666
 20
2.518756944444445
 10
7.362313888888888
 20
2.5145625
 10
7.23228611111111
 20
2.510368055555555
 10
7.098049999999998
 20
2.510368055555555
 10
6.968022222222221
 20
2.506173611111111
 10
6.854772222222221
 20
2.501979166666666
 10
6.749911111111111
 20
2.497784722222222
 10
6.666022222222221
 20
2.493604166666666
 10
6.603105555555554
 20
2.493604166666666
 10
6.56116111111111
 20
2.489395833333333
 10
6.548577777777777
 20
2.485201388888889
  0
LWPOLYLINE
  5
280
330
2
100
AcDbEntity
  8
PDF_Layer 1
 62
     7
420
 16777215
370
    70
100
AcDbPolyline
 90
       40
 70
     0
 43
0.0
 10
6.548577777777777
 20
2.296451388888889
 10
6.544383333333332
 20
2.296451388888889
 10
6.56116111111111
 20
2.300645833333333
 10
6.603105555555554
 20
2.304840277777778
 10
6.666022222222221
 20
2.304840277777778
 10
6.749911111111111
 20
2.309034722222222
 10
6.854772222222221
 20
2.313229166666666
 10
6.968022222222221
 20
2.317423611111111
 10
7.098049999999998
 20
2.321618055555555
 10
7.23228611111111
 20
2.321618055555555
 10
7.253244444444444
 20
2.321618055555555
 10
7.387480555555555
 20
2.3258125
 10
7.517508333333332
 20
2.330006944444444
 10
7.634952777777777
 20
2.334201388888889
 10
7.739813888888888
 20
2.334201388888889
 10
7.827897222222222
 20
2.338395833333333
 10
7.895008333333332
 20
2.342590277777777
 10
7.941147222222221
 20
2.346784722222222
 10
7.962119444444443
 20
2.350979166666667
 10
7.991480555555555
 20
2.367756944444444
 10
8.020841666666665
 20
2.384534722222222
 10
8.020841666666665
 20
2.397118055555555
 10
7.991480555555555
 20
2.413895833333334
 10
7.962119444444443
 20
2.430673611111111
 10
7.941147222222221
 20
2.426479166666666
 10
7.886619444444444
 20
2.422284722222222
 10
7.815313888888888
 20
2.418090277777777
 10
7.72303611111111
 20
2.418090277777777
 10
7.613980555555555
 20
2.413895833333334
 10
7.492341666666666
 20
2.409701388888889
 10
7.362313888888888
 20
2.405506944444444
 10
7.23228611111111
 20
2.405506944444444
 10
7.098049999999998
 20
2.4013125
 10
6.968022222222221
 20
2.397118055555555
 10
6.854772222222221
 20
2.392923611111111
 10
6.749911111111111
 20
2.388729166666667
 10
6.666022222222221
 20
2.388729166666667
 10
6.603105555555554
 20
2.384534722222222
 10
6.56116111111111
 20
2.380340277777778
 10
6.548577777777777
 20
2.376145833333333
  0
LWPOLYLINE
  5
281
330
2
100
AcDbEntity
  8
PDF_Layer 1
 62
     7
420
 16777215
370
    70
100
AcDbPolyline
 90
       74
 70
     0
 43
0.0
 10
6.548577777777777
 20
2.162229166666666
 10
6.56116111111111
 20
2.166423611111111
 10
6.603105555555554
 20
2.166423611111111
 10
6.666022222222221
 20
2.170618055555555
 10
6.749911111111111
 20
2.174798611111111
 10
6.854772222222221
 20
2.179006944444445
 10
6.968022222222221
 20
2.183201388888889
 10
7.098049999999998
 20
2.183201388888889
 10
7.23228611111111
 20
2.187395833333333
 10
7.362313888888888
 20
2.191576388888889
 10
7.492341666666666
 20
2.195784722222222
 10
7.613980555555555
 20
2.195784722222222
 10
7.72303611111111
 20
2.199979166666667
 10
7.815313888888888
 20
2.204173611111111
 10
7.886619444444444
 20
2.208368055555555
 10
7.941147222222221
 20
2.2125625
 10
7.962119444444443
 20
2.216756944444444
 10
7.962119444444443
 20
2.229340277777777
 10
7.962119444444443
 20
2.241923611111111
 10
7.991480555555555
 20
2.258701388888888
 10
8.020841666666665
 20
2.275479166666666
 10
8.020841666666665
 20
2.2880625
 10
8.016647222222221
 20
2.2880625
 10
8.012452777777777
 20
2.2880625
 10
8.008258333333333
 20
2.2880625
 10
8.004063888888889
 20
2.2880625
 10
7.995675
 20
2.283868055555555
 10
7.987286111111109
 20
2.283868055555555
 10
7.974702777777777
 20
2.283868055555555
 10
7.966313888888887
 20
2.283868055555555
 10
7.953730555555554
 20
2.283868055555555
 10
7.895008333333332
 20
2.27967361111111
 10
7.823702777777778
 20
2.275479166666666
 10
7.76078611111111
 20
2.275479166666666
 10
7.702063888888888
 20
2.275479166666666
 10
7.639147222222222
 20
2.271284722222222
 10
7.584619444444443
 20
2.271284722222222
 10
7.500730555555554
 20
2.267090277777778
 10
7.42103611111111
 20
2.267090277777778
 10
7.353924999999999
 20
2.262895833333333
 10
7.303591666666665
 20
2.262895833333333
 10
7.265841666666665
 20
2.262895833333333
 10
7.249063888888888
 20
2.262895833333333
 10
7.215508333333333
 20
2.262895833333333
 10
7.177744444444444
 20
2.262895833333333
 10
7.131605555555554
 20
2.258701388888888
 10
7.081272222222221
 20
2.258701388888888
 10
7.01416111111111
 20
2.258701388888888
 10
6.959633333333332
 20
2.254506944444444
 10
6.93866111111111
 20
2.254506944444444
 10
6.934466666666666
 20
2.254506944444444
 10
6.900911111111109
 20
2.254506944444444
 10
6.875744444444443
 20
2.254506944444444
 10
6.850577777777777
 20
2.254506944444444
 10
6.825411111111111
 20
2.254506944444444
 10
6.78766111111111
 20
2.2503125
 10
6.758299999999999
 20
2.2503125
 10
6.737327777777776
 20
2.2503125
 10
6.733133333333332
 20
2.2503125
 10
6.707966666666666
 20
2.2503125
 10
6.682799999999999
 20
2.2503125
 10
6.661827777777777
 20
2.246118055555555
 10
6.640855555555555
 20
2.246118055555555
 10
6.619883333333333
 20
2.246118055555555
 10
6.598911111111109
 20
2.246118055555555
 10
6.582133333333333
 20
2.246118055555555
 10
6.56116111111111
 20
2.241923611111111
 10
6.544383333333332
 20
2.241923611111111
 10
6.527605555555555
 20
2.241923611111111
 10
6.510827777777777
 20
2.241923611111111
 10
6.502438888888887
 20
2.237729166666666
 10
6.494049999999998
 20
2.237729166666666
 10
6.489855555555554
 20
2.237729166666666
 10
6.485661111111109
 20
2.237729166666666
  0
LWPOLYLINE
  5
282
330
2
100
AcDbEntity
  8
PDF_Layer 1
 62
     7
420
 16777215
370
    70
100
AcDbPolyline
 90
       24
 70
     0
 43
0.0
 10
6.548577777777777
 20
2.053173611111111
 10
6.56116111111111
 20
2.057354166666666
 10
6.603105555555554
 20
2.0615625
 10
6.666022222222221
 20
2.065756944444444
 10
6.749911111111111
 20
2.065756944444444
 10
6.854772222222221
 20
2.069951388888889
 10
6.968022222222221
 20
2.074131944444444
 10
7.098049999999998
 20
2.078340277777777
 10
7.23228611111111
 20
2.078340277777777
 10
7.362313888888888
 20
2.082534722222222
 10
7.492341666666666
 20
2.086729166666666
 10
7.613980555555555
 20
2.090909722222222
 10
7.72303611111111
 20
2.095118055555556
 10
7.815313888888888
 20
2.095118055555556
 10
7.886619444444444
 20
2.0993125
 10
7.941147222222221
 20
2.103506944444444
 10
7.962119444444443
 20
2.1076875
 10
7.962119444444443
 20
2.120284722222222
 10
7.962119444444443
 20
2.132868055555555
 10
7.991480555555555
 20
2.149645833333333
 10
8.020841666666665
 20
2.166423611111111
 10
8.020841666666665
 20
2.183201388888889
 10
7.991480555555555
 20
2.199979166666667
 10
7.962119444444443
 20
2.216756944444444
  0
LWPOLYLINE
  5
283
330
2
100
AcDbEntity
  8
PDF_Layer 1
 62
     7
420
 16777215
370
    70
100
AcDbPolyline
 90
       24
 70
     0
 43
0.0
 10
6.548577777777777
 20
1.9483125
 10
6.56116111111111
 20
1.9483125
 10
6.603105555555554
 20
1.952506944444444
 10
6.666022222222221
 20
1.9566875
 10
6.749911111111111
 20
1.960881944444444
 10
6.854772222222221
 20
1.960881944444444
 10
6.968022222222221
 20
1.965090277777778
 10
7.098049999999998
 20
1.969284722222223
 10
7.23228611111111
 20
1.973465277777778
 10
7.362313888888888
 20
1.973465277777778
 10
7.492341666666666
 20
1.977673611111111
 10
7.613980555555555
 20
1.981868055555555
 10
7.72303611111111
 20
1.9860625
 10
7.815313888888888
 20
1.990243055555556
 10
7.886619444444444
 20
1.990243055555556
 10
7.941147222222221
 20
1.994451388888889
 10
7.962119444444443
 20
1.998645833333333
 10
7.962119444444443
 20
2.011229166666666
 10
7.962119444444443
 20
2.028006944444444
 10
7.991480555555555
 20
2.044784722222222
 10
8.020841666666665
 20
2.0615625
 10
8.020841666666665
 20
2.074131944444444
 10
7.991480555555555
 20
2.090909722222222
 10
7.962119444444443
 20
2.1076875
  0
LWPOLYLINE
  5
284
330
2
100
AcDbEntity
  8
PDF_Layer 1
 62
     7
420
 16777215
370
    70
100
AcDbPolyline
 90
       24
 70
     0
 43
0.0
 10
6.548577777777777
 20
1.839243055555556
 10
6.56116111111111
 20
1.8434375
 10
6.603105555555554
 20
1.8434375
 10
6.666022222222221
 20
1.847645833333333
 10
6.749911111111111
 20
1.851840277777778
 10
6.854772222222221
 20
1.856020833333333
 10
6.968022222222221
 20
1.856020833333333
 10
7.098049999999998
 20
1.860215277777778
 10
7.23228611111111
 20
1.86442361111111
 10
7.362313888888888
 20
1.868618055555555
 10
7.492341666666666
 20
1.872798611111111
 10
7.613980555555555
 20
1.872798611111111
 10
7.72303611111111
 20
1.876993055555555
 10
7.815313888888888
 20
1.881201388888889
 10
7.886619444444444
 20
1.885395833333333
 10
7.941147222222221
 20
1.889576388888889
 10
7.962119444444443
 20
1.893784722222222
 10
7.962119444444443
 20
1.906354166666666
 10
7.962119444444443
 20
1.918951388888889
 10
7.991480555555555
 20
1.935729166666666
 10
8.020841666666665
 20
1.952506944444444
 10
8.020841666666665
 20
1.965090277777778
 10
7.991480555555555
 20
1.9860625
 10
7.962119444444443
 20
1.998645833333333
  0
LWPOLYLINE
  5
285
330
2
100
AcDbEntity
  8
PDF_Layer 1
 62
     7
420
 16777215
370
    70
100
AcDbPolyline
 90
        6
 70
     0
 43
0.0
 10
7.962119444444443
 20
1.809895833333333
 10
7.991480555555555
 20
1.826659722222222
 10
8.020841666666665
 20
1.8434375
 10
8.020841666666665
 20
1.860215277777778
 10
7.991480555555555
 20
1.876993055555555
 10
7.962119444444443
 20
1.893784722222222
  0
LWPOLYLINE
  5
28A
330
2
100
AcDbEntity
  8
PDF_Layer 1
 62
     7
420
 16777215
370
    70
100
AcDbPolyline
 90
        5
 70
     0
 43
0.0
 10
8.020841666666665
 20
2.292256944444444
 10
7.991480555555555
 20
2.309034722222222
 10
7.962119444444443
 20
2.321618055555555
 10
7.962119444444443
 20
2.338395833333333
 10
7.962119444444443
 20
2.350979166666667
  0
LWPOLYLINE
  5
28D
330
2
100
AcDbEntity
  8
PDF_Layer 1
 62
     7
420
 16777215
370
    70
100
AcDbPolyline
 90
       45
 70
     0
 43
0.0
 10
6.544383333333332
 20
1.9483125
 10
6.515022222222221
 20
1.931534722222222
 10
6.485661111111109
 20
1.914756944444444
 10
6.489855555555554
 20
1.914756944444444
 10
6.494049999999998
 20
1.914756944444444
 10
6.498244444444443
 20
1.914756944444444
 10
6.506633333333332
 20
1.914756944444444
 10
6.519216666666665
 20
1.918951388888889
 10
6.535994444444443
 20
1.918951388888889
 10
6.544383333333332
 20
1.918951388888889
 10
6.556966666666665
 20
1.918951388888889
 10
6.573744444444444
 20
1.918951388888889
 10
6.594716666666665
 20
1.923131944444445
 10
6.624077777777777
 20
1.923131944444445
 10
6.657633333333332
 20
1.923131944444445
 10
6.674411111111109
 20
1.923131944444445
 10
6.699577777777776
 20
1.923131944444445
 10
6.724744444444443
 20
1.927340277777778
 10
6.758299999999999
 20
1.927340277777778
 10
6.796049999999999
 20
1.927340277777778
 10
6.837994444444443
 20
1.927340277777778
 10
6.888327777777777
 20
1.931534722222222
 10
6.963827777777776
 20
1.931534722222222
 10
7.064494444444444
 20
1.935729166666666
 10
7.152591666666666
 20
1.935729166666666
 10
7.228091666666665
 20
1.939909722222222
 10
7.291008333333333
 20
1.939909722222222
 10
7.366508333333332
 20
1.939909722222222
 10
7.454591666666666
 20
1.944118055555555
 10
7.555258333333332
 20
1.944118055555555
 10
7.588813888888888
 20
1.9483125
 10
7.618174999999999
 20
1.9483125
 10
7.639147222222222
 20
1.9483125
 10
7.660119444444443
 20
1.9483125
 10
7.702063888888888
 20
1.9483125
 10
7.739813888888888
 20
1.952506944444444
 10
7.773369444444443
 20
1.952506944444444
 10
7.802730555555555
 20
1.952506944444444
 10
7.819508333333333
 20
1.952506944444444
 10
7.840480555555554
 20
1.952506944444444
 10
7.903397222222221
 20
1.9566875
 10
7.941147222222221
 20
1.9566875
 10
7.970508333333332
 20
1.960881944444444
 10
7.995675
 20
1.960881944444444
 10
8.016647222222221
 20
1.965090277777778
  0
LWPOLYLINE
  5
299
330
2
100
AcDbEntity
  8
PDF_Layer 1
 62
     7
420
 16777215
370
    70
100
AcDbPolyline
 90
        5
 70
     0
 43
0.0
 10
7.962119444444443
 20
2.430673611111111
 10
7.962119444444443
 20
2.443256944444444
 10
7.962119444444443
 20
2.455840277777778
 10
7.991480555555555
 20
2.472618055555555
 10
8.020841666666665
 20
2.489395833333333
  0
LWPOLYLINE
  5
29A
330
2
100
AcDbEntity
  8
PDF_Layer 1
 62
     7
420
 16777215
370
    70
100
AcDbPolyline
 90
       34
 70
     0
 43
0.0
 10
7.962119444444443
 20
2.539729166666667
 10
7.962119444444443
 20
2.5523125
 10
7.962119444444443
 20
2.564895833333333
 10
7.970508333333332
 20
2.569090277777777
 10
7.966313888888887
 20
2.569090277777777
 10
7.936952777777777
 20
2.569090277777777
 10
7.890813888888888
 20
2.564895833333333
 10
7.827897222222222
 20
2.564895833333333
 10
7.744008333333332
 20
2.564895833333333
 10
7.651730555555555
 20
2.560715277777778
 10
7.542674999999998
 20
2.560715277777778
 10
7.429424999999999
 20
2.560715277777778
 10
7.307786111111109
 20
2.556506944444444
 10
7.186147222222221
 20
2.556506944444444
 10
7.064494444444444
 20
2.556506944444444
 10
6.947049999999999
 20
2.5523125
 10
6.833799999999999
 20
2.5523125
 10
6.737327777777776
 20
2.548118055555556
 10
6.653438888888888
 20
2.548118055555556
 10
6.582133333333333
 20
2.548118055555556
 10
6.531799999999999
 20
2.5439375
 10
6.502438888888887
 20
2.5439375
 10
6.494049999999998
 20
2.5439375
 10
6.657633333333332
 20
2.657173611111111
 10
6.657633333333332
 20
2.837534722222222
 10
6.657633333333332
 20
2.8543125
 10
6.649244444444444
 20
2.887868055555555
 10
6.628272222222221
 20
2.917243055555555
 10
6.603105555555554
 20
2.938201388888889
 10
6.573744444444444
 20
2.950798611111111
 10
6.540188888888888
 20
2.954979166666666
 10
6.452105555555554
 20
2.954979166666666
 10
6.393383333333333
 20
3.072423611111111
 10
5.588036111111111
 20
3.072423611111111
  0
LWPOLYLINE
  5
29C
330
2
100
AcDbEntity
  8
PDF_Layer 1
 62
     7
420
 16777215
370
    70
100
AcDbPolyline
 90
        4
 70
     0
 43
0.0
 10
6.489855555555554
 20
2.111895833333333
 10
6.485661111111109
 20
2.111895833333333
 10
6.515022222222221
 20
2.095118055555556
 10
6.544383333333332
 20
2.078340277777777
  0
LWPOLYLINE
  5
2A0
330
2
100
AcDbEntity
  8
PDF_Layer 1
 62
     7
420
 16777215
370
    70
100
AcDbPolyline
 90
       30
 70
     0
 43
0.0
 10
6.494049999999998
 20
2.539729166666667
 10
6.515022222222221
 20
2.527145833333333
 10
6.544383333333332
 20
2.510368055555555
 10
6.544383333333332
 20
2.497784722222222
 10
6.544383333333332
 20
2.485201388888889
 10
6.515022222222221
 20
2.468423611111111
 10
6.485661111111109
 20
2.451645833333333
 10
6.485661111111109
 20
2.439062499999999
 10
6.515022222222221
 20
2.422284722222222
 10
6.544383333333332
 20
2.405506944444444
 10
6.544383333333332
 20
2.388729166666667
 10
6.544383333333332
 20
2.376145833333333
 10
6.515022222222221
 20
2.359368055555556
 10
6.485661111111109
 20
2.342590277777777
 10
6.485661111111109
 20
2.330006944444444
 10
6.515022222222221
 20
2.313229166666666
 10
6.544383333333332
 20
2.296451388888889
 10
6.544383333333332
 20
2.283868055555555
 10
6.544383333333332
 20
2.271284722222222
 10
6.515022222222221
 20
2.254506944444444
 10
6.485661111111109
 20
2.237729166666666
 10
6.485661111111109
 20
2.220951388888888
 10
6.515022222222221
 20
2.204173611111111
 10
6.544383333333332
 20
2.187395833333333
 10
6.544383333333332
 20
2.174798611111111
 10
6.544383333333332
 20
2.162229166666666
 10
6.515022222222221
 20
2.145451388888889
 10
6.485661111111109
 20
2.128673611111111
 10
6.485661111111109
 20
2.116090277777778
 42
-0.0008361822185456
 10
8.020841666666635
 20
2.166423611111156
  0
LWPOLYLINE
  5
2B6
330
2
100
AcDbEntity
  8
PDF_Layer 1
 62
     7
420
 16777215
370
    70
100
AcDbPolyline
 90
       94
 70
     1
 43
0.0
 10
5.239897222222222
 20
5.693993055555555
 10
5.025980555555555
 20
5.719159722222222
 10
5.025980555555555
 20
5.714965277777777
 10
5.025980555555555
 20
5.6981875
 10
5.025980555555555
 20
5.673020833333333
 10
5.025980555555555
 20
5.631076388888889
 10
5.025980555555555
 20
5.580743055555555
 10
5.025980555555555
 20
5.517826388888889
 10
5.025980555555555
 20
5.442312499999999
 10
5.025980555555555
 20
5.354229166666667
 10
5.025980555555555
 20
5.261965277777777
 10
5.025980555555555
 20
5.157090277777777
 10
5.025980555555555
 20
5.043854166666666
 10
5.025980555555555
 20
4.922201388888889
 10
5.025980555555555
 20
4.792173611111111
 10
5.025980555555555
 20
4.657951388888888
 10
5.025980555555555
 20
4.519534722222222
 10
5.025980555555555
 20
4.372715277777778
 10
5.025980555555555
 20
4.225909722222222
 10
5.025980555555555
 20
4.074909722222222
 10
5.025980555555555
 20
3.923909722222222
 10
5.025980555555555
 20
3.768715277777777
 10
5.025980555555555
 20
3.617715277777778
 10
5.025980555555555
 20
3.466715277777777
 10
5.025980555555555
 20
3.319909722222222
 10
5.025980555555555
 20
3.173090277777778
 10
5.025980555555555
 20
3.0346875
 10
5.025980555555555
 20
2.900465277777778
 10
5.025980555555555
 20
2.770423611111111
 10
5.025980555555555
 20
2.648784722222222
 10
5.025980555555555
 20
2.535534722222222
 10
5.025980555555555
 20
2.430673611111111
 10
5.025980555555555
 20
2.334201388888889
 10
5.025980555555555
 20
2.2503125
 10
5.025980555555555
 20
2.174798611111111
 10
5.025980555555555
 20
2.111895833333333
 10
5.025980555555555
 20
2.0615625
 10
5.025980555555555
 20
2.019618055555555
 10
5.025980555555555
 20
1.990243055555556
 10
5.025980555555555
 20
1.977673611111111
 10
5.025980555555555
 20
1.973465277777778
 10
5.239897222222222
 20
1.998645833333333
 10
5.24828611111111
 20
1.998645833333333
 10
5.260869444444445
 20
2.002840277777778
 10
5.269258333333333
 20
2.007020833333333
 10
5.277647222222221
 20
2.015423611111111
 10
5.281841666666667
 20
2.023798611111111
 10
5.28603611111111
 20
2.036395833333334
 10
5.290230555555555
 20
2.044784722222222
 10
5.290230555555555
 20
2.057354166666666
 10
5.290230555555555
 20
2.065756944444444
 10
5.290230555555555
 20
2.086729166666666
 10
5.290230555555555
 20
2.120284722222222
 10
5.290230555555555
 20
2.166423611111111
 10
5.290230555555555
 20
2.225145833333333
 10
5.290230555555555
 20
2.296451388888889
 10
5.290230555555555
 20
2.376145833333333
 10
5.290230555555555
 20
2.468423611111111
 10
5.290230555555555
 20
2.569090277777777
 10
5.290230555555555
 20
2.678159722222222
 10
5.290230555555555
 20
2.795604166666667
 10
5.290230555555555
 20
2.917243055555555
 10
5.290230555555555
 20
3.051465277777777
 10
5.290230555555555
 20
3.1856875
 10
5.290230555555555
 20
3.328298611111111
 10
5.290230555555555
 20
3.475104166666667
 10
5.290230555555555
 20
3.621909722222222
 10
5.290230555555555
 20
3.768715277777777
 10
5.290230555555555
 20
3.919715277777778
 10
5.290230555555555
 20
4.070715277777778
 10
5.290230555555555
 20
4.217534722222222
 10
5.290230555555555
 20
4.364340277777777
 10
5.290230555555555
 20
4.502756944444445
 10
5.290230555555555
 20
4.641173611111111
 10
5.290230555555555
 20
4.771201388888888
 10
5.290230555555555
 20
4.897034722222222
 10
5.290230555555555
 20
5.014493055555555
 10
5.290230555555555
 20
5.123534722222222
 10
5.290230555555555
 20
5.224201388888888
 10
5.290230555555555
 20
5.316493055555556
 10
5.290230555555555
 20
5.396187499999999
 10
5.290230555555555
 20
5.463298611111111
 10
5.290230555555555
 20
5.522020833333333
 10
5.290230555555555
 20
5.568159722222222
 10
5.290230555555555
 20
5.601715277777778
 10
5.290230555555555
 20
5.626881944444444
 10
5.290230555555555
 20
5.635270833333333
 10
5.290230555555555
 20
5.647854166666666
 10
5.28603611111111
 20
5.656243055555555
 10
5.281841666666667
 20
5.664631944444444
 10
5.277647222222221
 20
5.673020833333333
 10
5.269258333333333
 20
5.681409722222222
 10
5.260869444444445
 20
5.689798611111111
 10
5.24828611111111
 20
5.693993055555555
  0
LWPOLYLINE
  5
2BA
330
2
100
AcDbEntity
  8
PDF_Layer 1
 62
     7
420
 16777215
370
    70
100
AcDbPolyline
 90
       65
 70
     0
 43
0.0
 10
5.290230555555555
 20
2.120284722222222
 10
5.290230555555555
 20
2.128673611111111
 10
5.294425
 20
2.132868055555555
 10
5.294425
 20
2.141243055555555
 10
5.294425
 20
2.149645833333333
 10
5.298619444444443
 20
2.158020833333333
 10
5.302813888888889
 20
2.166423611111111
 10
5.302813888888889
 20
2.170618055555555
 10
5.307008333333332
 20
2.179006944444445
 10
5.571258333333332
 20
2.627826388888888
 10
5.575452777777777
 20
2.636201388888888
 10
5.579647222222222
 20
2.644604166666667
 10
5.583841666666666
 20
2.648784722222222
 10
5.583841666666666
 20
2.657173611111111
 10
5.588036111111111
 20
2.6655625
 10
5.588036111111111
 20
2.673951388888888
 10
5.588036111111111
 20
2.682340277777778
 10
5.588036111111111
 20
2.690729166666667
 10
5.588036111111111
 20
2.6949375
 10
5.588036111111111
 20
2.715895833333333
 10
5.588036111111111
 20
2.745270833333333
 10
5.588036111111111
 20
2.787201388888889
 10
5.588036111111111
 20
2.8459375
 10
5.588036111111111
 20
2.908840277777778
 10
5.588036111111111
 20
2.984354166666666
 10
5.588036111111111
 20
3.072423611111111
 10
5.588036111111111
 20
3.164715277777777
 10
5.588036111111111
 20
3.265381944444444
 10
5.588036111111111
 20
3.3744375
 10
5.588036111111111
 20
3.4876875
 10
5.588036111111111
 20
3.605131944444444
 10
5.588036111111111
 20
3.726784722222222
 10
5.588036111111111
 20
3.844229166666666
 10
5.588036111111111
 20
3.965868055555555
 10
5.588036111111111
 20
4.087493055555555
 10
5.588036111111111
 20
4.204937499999999
 10
5.588036111111111
 20
4.318201388888889
 10
5.588036111111111
 20
4.4230625
 10
5.588036111111111
 20
4.523729166666666
 10
5.588036111111111
 20
4.620201388888888
 10
5.588036111111111
 20
4.704090277777778
 10
5.588036111111111
 20
4.779590277777778
 10
5.588036111111111
 20
4.846701388888889
 10
5.588036111111111
 20
4.901229166666666
 10
5.588036111111111
 20
4.947368055555555
 10
5.588036111111111
 20
4.976743055555555
 10
5.588036111111111
 20
4.997715277777778
 10
5.588036111111111
 20
5.001895833333333
 10
5.588036111111111
 20
5.010298611111111
 10
5.588036111111111
 20
5.018673611111111
 10
5.588036111111111
 20
5.027076388888889
 10
5.583841666666666
 20
5.035451388888889
 10
5.583841666666666
 20
5.039645833333333
 10
5.579647222222222
 20
5.048048611111111
 10
5.575452777777777
 20
5.056423611111111
 10
5.571258333333332
 20
5.060631944444444
 10
5.307008333333332
 20
5.513631944444444
 10
5.302813888888889
 20
5.517826388888889
 10
5.302813888888889
 20
5.526215277777778
 10
5.298619444444443
 20
5.534604166666666
 10
5.294425
 20
5.542993055555555
 10
5.294425
 20
5.547187499999999
 10
5.294425
 20
5.555576388888889
 10
5.290230555555555
 20
5.563965277777778
 10
5.290230555555555
 20
5.572354166666666
  0
CIRCLE
  5
2C0
330
2
100
AcDbEntity
  8
PDF_Layer 1
 62
     7
420
 16777215
370
    70
100
AcDbCircle
 10
12.97822665096679
 20
3.845372742500708
 30
0.0
 40
0.4141067307534992
  0
CIRCLE
  5
2C1
330
2
100
AcDbEntity
  8
PDF_Layer 1
 62
     7
420
 16777215
370
    70
100
AcDbCircle
 10
12.97733592451048
 20
3.845159835552244
 30
0.0
 40
0.4436687452879337
  0
CIRCLE
  5
2C2
330
2
100
AcDbEntity
  8
PDF_Layer 1
 62
     7
420
 16777215
370
    70
100
AcDbCircle
 10
12.97762238341155
 20
3.846929128402248
 30
0.0
 40
0.4461069702245996
  0
CIRCLE
  5
2C3
330
2
100
AcDbEntity
  8
PDF_Layer 1
 62
     7
420
 16777215
370
    70
100
AcDbCircle
 10
12.98069051640543
 20
3.847291940036705
 30
0.0
 40
0.4750940472524138
  0
LWPOLYLINE
  5
2C6
330
2
100
AcDbEntity
  8
PDF_Layer 1
 62
     7
420
 16777215
370
    70
100
AcDbPolyline
 90
       11
 70
     1
 43
0.0
 10
8.591299999999998
 20
3.802270833333333
 10
8.641633333333333
 20
3.655465277777778
 10
8.666799999999998
 20
3.500270833333333
 10
8.65841111111111
 20
3.332493055555556
 10
8.616466666666665
 20
3.160520833333333
 10
8.591299999999998
 20
3.093395833333333
 10
8.490633333333331
 20
3.093395833333333
 10
8.4403
 20
3.273756944444444
 10
8.423522222222221
 20
3.462520833333333
 10
8.4403
 20
3.630298611111111
 10
8.490633333333331
 20
3.802270833333333
  0
LWPOLYLINE
  5
2CA
330
2
100
AcDbEntity
  8
PDF_Layer 1
 62
     7
420
 16777215
370
    70
100
AcDbPolyline
 90
       26
 70
     0
 43
0.0
 10
8.490633333333331
 20
4.955756944444444
 10
8.490633333333331
 20
4.9515625
 10
8.4403
 20
4.884451388888889
 10
8.423522222222221
 20
4.813145833333333
 10
8.4403
 20
4.733451388888888
 10
8.490633333333331
 20
4.662145833333333
 10
8.490633333333331
 20
4.653756944444444
 10
8.490633333333331
 20
4.645368055555556
 10
8.490633333333331
 20
4.636979166666666
 10
8.490633333333331
 20
4.628590277777777
 10
8.490633333333331
 20
4.620201388888888
 10
8.490633333333331
 20
4.616006944444444
 10
8.490633333333331
 20
4.607618055555556
 10
8.490633333333331
 20
4.599229166666666
 10
8.4403
 20
4.427256944444444
 10
8.423522222222221
 20
4.259479166666666
 10
8.4403
 20
4.066534722222222
 10
8.490633333333331
 20
3.890354166666666
 10
8.490633333333331
 20
3.877784722222222
 10
8.490633333333331
 20
3.869381944444444
 10
8.490633333333331
 20
3.856798611111111
 10
8.490633333333331
 20
3.844229166666666
 10
8.490633333333331
 20
3.835826388888889
 10
8.490633333333331
 20
3.823243055555555
 10
8.490633333333331
 20
3.810673611111111
 10
8.490633333333331
 20
3.802270833333333
  0
LWPOLYLINE
  5
2CF
330
2
100
AcDbEntity
  8
PDF_Layer 1
 62
     7
420
 16777215
370
    70
100
AcDbPolyline
 90
       27
 70
     0
 43
0.0
 10
8.490633333333331
 20
3.093395833333333
 10
8.490633333333331
 20
3.085020833333333
 10
8.490633333333331
 20
3.076618055555555
 10
8.490633333333331
 20
3.068243055555555
 10
8.490633333333331
 20
3.059840277777778
 10
8.490633333333331
 20
3.055645833333334
 10
8.490633333333331
 20
3.047270833333333
 10
8.490633333333331
 20
3.038868055555555
 10
8.490633333333331
 20
3.030493055555555
 10
8.4403
 20
2.959173611111111
 10
8.423522222222221
 20
2.8920625
 10
8.4403
 20
2.812381944444444
 10
8.490633333333331
 20
2.736868055555556
 10
8.591299999999998
 20
2.736868055555556
 10
8.616466666666665
 20
2.766229166666667
 10
8.65841111111111
 20
2.837534722222222
 10
8.666799999999998
 20
2.904645833333333
 10
8.641633333333333
 20
2.971756944444444
 10
8.591299999999998
 20
3.030493055555555
 10
8.591299999999998
 20
3.038868055555555
 10
8.591299999999998
 20
3.047270833333333
 10
8.591299999999998
 20
3.055645833333334
 10
8.591299999999998
 20
3.059840277777778
 10
8.591299999999998
 20
3.068243055555555
 10
8.591299999999998
 20
3.076618055555555
 10
8.591299999999998
 20
3.085020833333333
 10
8.591299999999998
 20
3.093395833333333
  0
LWPOLYLINE
  5
2D1
330
2
100
AcDbEntity
  8
PDF_Layer 1
 62
     7
420
 16777215
370
    70
100
AcDbPolyline
 90
        2
 70
     0
 43
0.0
 10
8.490633333333331
 20
2.736868055555556
 10
8.490633333333331
 20
2.736868055555556
  0
LWPOLYLINE
  5
2D3
330
2
100
AcDbEntity
  8
PDF_Layer 1
 62
     7
420
 16777215
370
    70
100
AcDbPolyline
 90
        8
 70
     0
 43
0.0
 10
8.490633333333331
 20
4.599229166666666
 10
8.591299999999998
 20
4.599229166666666
 10
8.641633333333333
 20
4.452423611111111
 10
8.666799999999998
 20
4.297229166666666
 10
8.65841111111111
 20
4.125243055555555
 10
8.616466666666665
 20
3.957465277777778
 10
8.591299999999998
 20
3.890354166666666
 10
8.490633333333331
 20
3.890354166666666
  0
LWPOLYLINE
  5
2D6
330
2
100
AcDbEntity
  8
PDF_Layer 1
 62
     7
420
 16777215
370
    70
100
AcDbPolyline
 90
        2
 70
     0
 43
0.0
 10
8.591299999999998
 20
2.736868055555556
 10
8.591299999999998
 20
2.736868055555556
  0
LWPOLYLINE
  5
2D9
330
2
100
AcDbEntity
  8
PDF_Layer 1
 62
     7
420
 16777215
370
    70
100
AcDbPolyline
 90
        9
 70
     0
 43
0.0
 10
8.591299999999998
 20
3.890354166666666
 10
8.591299999999998
 20
3.877784722222222
 10
8.591299999999998
 20
3.869381944444444
 10
8.591299999999998
 20
3.856798611111111
 10
8.591299999999998
 20
3.844229166666666
 10
8.591299999999998
 20
3.835826388888889
 10
8.591299999999998
 20
3.823243055555555
 10
8.591299999999998
 20
3.810673611111111
 10
8.591299999999998
 20
3.802270833333333
  0
LWPOLYLINE
  5
2DA
330
2
100
AcDbEntity
  8
PDF_Layer 1
 62
     7
420
 16777215
370
    70
100
AcDbPolyline
 90
       15
 70
     0
 43
0.0
 10
8.591299999999998
 20
4.955756944444444
 10
8.591299999999998
 20
4.9515625
 10
8.641633333333333
 20
4.892854166666666
 10
8.666799999999998
 20
4.829923611111111
 10
8.65841111111111
 20
4.758618055555555
 10
8.616466666666665
 20
4.687312499999999
 10
8.591299999999998
 20
4.662145833333333
 10
8.591299999999998
 20
4.653756944444444
 10
8.591299999999998
 20
4.645368055555556
 10
8.591299999999998
 20
4.636979166666666
 10
8.591299999999998
 20
4.628590277777777
 10
8.591299999999998
 20
4.620201388888888
 10
8.591299999999998
 20
4.616006944444444
 10
8.591299999999998
 20
4.607618055555556
 10
8.591299999999998
 20
4.599229166666666
  0
LWPOLYLINE
  5
2DD
330
2
100
AcDbEntity
  8
PDF_Layer 1
 62
     7
420
 16777215
370
    70
100
AcDbPolyline
 90
       29
 70
     0
 43
0.0
 10
8.738105555555556
 20
4.821534722222222
 10
8.738105555555556
 20
4.817340277777778
 10
8.738105555555556
 20
4.800562499999999
 10
8.738105555555556
 20
4.771201388888888
 10
8.738105555555556
 20
4.733451388888888
 10
8.738105555555556
 20
4.678923611111111
 10
8.738105555555556
 20
4.616006944444444
 10
8.738105555555556
 20
4.544701388888888
 10
8.738105555555556
 20
4.4608125
 10
8.738105555555556
 20
4.372715277777778
 10
8.738105555555556
 20
4.276256944444444
 10
8.738105555555556
 20
4.171381944444444
 10
8.738105555555556
 20
4.066534722222222
 10
8.738105555555556
 20
3.957465277777778
 10
8.738105555555556
 20
3.844229166666666
 10
8.738105555555556
 20
3.735159722222222
 10
8.738105555555556
 20
3.626104166666666
 10
8.738105555555556
 20
3.517048611111111
 10
8.738105555555556
 20
3.416381944444444
 10
8.738105555555556
 20
3.319909722222222
 10
8.738105555555556
 20
3.227631944444445
 10
8.738105555555556
 20
3.1479375
 10
8.738105555555556
 20
3.072423611111111
 10
8.738105555555556
 20
3.009506944444444
 10
8.738105555555556
 20
2.959173611111111
 10
8.738105555555556
 20
2.917243055555555
 10
8.738105555555556
 20
2.8920625
 10
8.738105555555556
 20
2.875284722222222
 10
8.738105555555556
 20
2.871090277777778
  0
LWPOLYLINE
  5
2DF
330
2
100
AcDbEntity
  8
PDF_Layer 1
 62
     7
420
 16777215
370
    70
100
AcDbPolyline
 90
        2
 70
     0
 43
0.0
 10
8.490633333333331
 20
3.030493055555555
 10
8.591299999999998
 20
3.030493055555555
  0
LWPOLYLINE
  5
2E0
330
2
100
AcDbEntity
  8
PDF_Layer 1
 62
     7
420
 16777215
370
    70
100
AcDbPolyline
 90
        2
 70
     0
 43
0.0
 10
8.591299999999998
 20
4.662145833333333
 10
8.490633333333331
 20
4.662145833333333
  0
LWPOLYLINE
  5
2E2
330
2
100
AcDbEntity
  8
PDF_Layer 1
 62
     7
420
 16777215
370
    70
100
AcDbPolyline
 90
        2
 70
     0
 43
0.0
 10
8.490633333333331
 20
4.9515625
 10
8.591299999999998
 20
4.9515625
  0
LWPOLYLINE
  5
2E5
330
2
100
AcDbEntity
  8
PDF_Layer 1
 62
     7
420
 16777215
370
    70
100
AcDbPolyline
 90
        4
 70
     0
 43
0.0
 10
8.415133333333333
 20
3.319909722222222
 10
8.415133333333333
 20
3.286354166666666
 10
8.419327777777777
 20
3.248604166666667
 10
8.419327777777777
 20
3.240201388888888
  0
LWPOLYLINE
  5
2E8
330
2
100
AcDbEntity
  8
PDF_Layer 1
 62
     7
420
 16777215
370
    70
100
AcDbPolyline
 90
       27
 70
     0
 43
0.0
 10
8.293494444444444
 20
2.954979166666666
 10
8.293494444444444
 20
2.963381944444444
 10
8.293494444444444
 20
2.984354166666666
 10
8.293494444444444
 20
3.017909722222222
 10
8.293494444444444
 20
3.064048611111111
 10
8.293494444444444
 20
3.122756944444444
 10
8.293494444444444
 20
3.1856875
 10
8.293494444444444
 20
3.265381944444444
 10
8.293494444444444
 20
3.349270833333333
 10
8.293494444444444
 20
3.437354166666667
 10
8.293494444444444
 20
3.533826388888889
 10
8.293494444444444
 20
3.634493055555555
 10
8.293494444444444
 20
3.739354166666666
 10
8.293494444444444
 20
3.844229166666666
 10
8.293494444444444
 20
3.953270833333333
 10
8.293494444444444
 20
4.053937499999999
 10
8.293494444444444
 20
4.154604166666667
 10
8.293494444444444
 20
4.251090277777778
 10
8.293494444444444
 20
4.343368055555555
 10
8.293494444444444
 20
4.427256944444444
 10
8.293494444444444
 20
4.502756944444445
 10
8.293494444444444
 20
4.569868055555556
 10
8.293494444444444
 20
4.628590277777777
 10
8.293494444444444
 20
4.670534722222222
 10
8.293494444444444
 20
4.704090277777778
 10
8.293494444444444
 20
4.729256944444444
 10
8.293494444444444
 20
4.737645833333333
  0
LWPOLYLINE
  5
2EA
330
2
100
AcDbEntity
  8
PDF_Layer 1
 62
     7
420
 16777215
370
    70
100
AcDbPolyline
 90
       27
 70
     0
 43
0.0
 10
6.452105555555554
 20
4.737645833333333
 10
6.452105555555554
 20
4.729256944444444
 10
6.452105555555554
 20
4.704090277777778
 10
6.452105555555554
 20
4.670534722222222
 10
6.452105555555554
 20
4.628590277777777
 10
6.452105555555554
 20
4.569868055555556
 10
6.452105555555554
 20
4.502756944444445
 10
6.452105555555554
 20
4.427256944444444
 10
6.452105555555554
 20
4.343368055555555
 10
6.452105555555554
 20
4.251090277777778
 10
6.452105555555554
 20
4.154604166666667
 10
6.452105555555554
 20
4.053937499999999
 10
6.452105555555554
 20
3.953270833333333
 10
6.452105555555554
 20
3.844229166666666
 10
6.452105555555554
 20
3.739354166666666
 10
6.452105555555554
 20
3.634493055555555
 10
6.452105555555554
 20
3.533826388888889
 10
6.452105555555554
 20
3.437354166666667
 10
6.452105555555554
 20
3.349270833333333
 10
6.452105555555554
 20
3.265381944444444
 10
6.452105555555554
 20
3.1856875
 10
6.452105555555554
 20
3.122756944444444
 10
6.452105555555554
 20
3.064048611111111
 10
6.452105555555554
 20
3.017909722222222
 10
6.452105555555554
 20
2.984354166666666
 10
6.452105555555554
 20
2.963381944444444
 10
6.452105555555554
 20
2.954979166666666
  0
LWPOLYLINE
  5
2EC
330
2
100
AcDbEntity
  8
PDF_Layer 1
 62
     7
420
 16777215
370
    70
100
AcDbPolyline
 90
       25
 70
     0
 43
0.0
 10
6.393383333333333
 20
4.620201388888888
 10
6.393383333333333
 20
4.607618055555556
 10
6.393383333333333
 20
4.586645833333333
 10
6.393383333333333
 20
4.553090277777777
 10
6.393383333333333
 20
4.506951388888889
 10
6.393383333333333
 20
4.448229166666666
 10
6.393383333333333
 20
4.3853125
 10
6.393383333333333
 20
4.309798611111111
 10
6.393383333333333
 20
4.225909722222222
 10
6.393383333333333
 20
4.137826388888889
 10
6.393383333333333
 20
4.041354166666667
 10
6.393383333333333
 20
3.944895833333333
 10
6.393383333333333
 20
3.844229166666666
 10
6.393383333333333
 20
3.747743055555555
 10
6.393383333333333
 20
3.651270833333333
 10
6.393383333333333
 20
3.554798611111111
 10
6.393383333333333
 20
3.466715277777777
 10
6.393383333333333
 20
3.382826388888889
 10
6.393383333333333
 20
3.3073125
 10
6.393383333333333
 20
3.240201388888888
 10
6.393383333333333
 20
3.1856875
 10
6.393383333333333
 20
3.139534722222222
 10
6.393383333333333
 20
3.105979166666666
 10
6.393383333333333
 20
3.080826388888889
 10
6.393383333333333
 20
3.072423611111111
  0
LWPOLYLINE
  5
2EE
330
2
100
AcDbEntity
  8
PDF_Layer 1
 62
     7
420
 16777215
370
    70
100
AcDbPolyline
 90
       21
 70
     0
 43
0.0
 10
7.962119444444443
 20
1.784729166666667
 10
7.957924999999998
 20
1.784729166666667
 10
7.941147222222221
 20
1.784729166666667
 10
7.907591666666665
 20
1.784729166666667
 10
7.857258333333332
 20
1.784729166666667
 10
7.794341666666666
 20
1.784729166666667
 10
7.718841666666666
 20
1.784729166666667
 10
7.634952777777777
 20
1.784729166666667
 10
7.53428611111111
 20
1.784729166666667
 10
7.425230555555554
 20
1.784729166666667
 10
7.253244444444444
 20
1.784729166666667
 10
7.395869444444444
 20
1.793104166666666
 10
7.513313888888888
 20
1.7973125
 10
7.626563888888887
 20
1.8056875
 10
7.727230555555554
 20
1.814090277777777
 10
7.819508333333333
 20
1.818284722222222
 10
7.899202777777777
 20
1.826659722222222
 10
7.970508333333332
 20
1.8350625
 10
8.012452777777777
 20
1.8434375
 10
8.016647222222221
 20
1.8434375
 10
8.020841666666665
 20
1.8434375
  0
LWPOLYLINE
  5
2EF
330
2
100
AcDbEntity
  8
PDF_Layer 1
 62
     7
420
 16777215
370
    70
100
AcDbPolyline
 90
        2
 70
     0
 43
0.0
 10
7.253244444444444
 20
1.784729166666667
 10
7.253244444444444
 20
1.784729166666667
  0
LWPOLYLINE
  5
2F1
330
2
100
AcDbEntity
  8
PDF_Layer 1
 62
     7
420
 16777215
370
    70
100
AcDbPolyline
 90
       22
 70
     0
 43
0.0
 10
8.012452777777777
 20
1.8434375
 10
7.999869444444444
 20
1.8434375
 10
7.97889722222222
 20
1.8434375
 10
7.94953611111111
 20
1.8434375
 10
7.915980555555554
 20
1.8434375
 10
7.87403611111111
 20
1.8434375
 10
7.823702777777778
 20
1.8434375
 10
7.773369444444443
 20
1.8434375
 10
7.714647222222221
 20
1.8434375
 10
7.593008333333332
 20
1.839243055555556
 10
7.475563888888888
 20
1.839243055555556
 10
7.34553611111111
 20
1.8350625
 10
7.219702777777778
 20
1.8350625
 10
7.08966111111111
 20
1.830868055555555
 10
6.972216666666666
 20
1.830868055555555
 10
6.858966666666665
 20
1.830868055555555
 10
6.758299999999999
 20
1.826659722222222
 10
6.674411111111109
 20
1.826659722222222
 10
6.603105555555554
 20
1.822465277777777
 10
6.552772222222221
 20
1.822465277777777
 10
6.519216666666665
 20
1.818284722222222
 10
6.510827777777777
 20
1.818284722222222
  0
LWPOLYLINE
  5
2F6
330
2
100
AcDbEntity
  8
PDF_Layer 1
 62
     7
420
 16777215
370
    70
100
AcDbPolyline
 90
       23
 70
     0
 43
0.0
 10
6.657633333333332
 20
2.657173611111111
 10
6.661827777777777
 20
2.657173611111111
 10
6.678605555555554
 20
2.657173611111111
 10
6.707966666666666
 20
2.657173611111111
 10
6.745716666666666
 20
2.657173611111111
 10
6.796049999999999
 20
2.657173611111111
 10
6.858966666666665
 20
2.657173611111111
 10
6.926077777777776
 20
2.657173611111111
 10
7.001577777777777
 20
2.657173611111111
 10
7.081272222222221
 20
2.657173611111111
 10
7.16516111111111
 20
2.657173611111111
 10
7.253244444444444
 20
2.657173611111111
 10
7.341341666666665
 20
2.657173611111111
 10
7.425230555555554
 20
2.657173611111111
 10
7.504924999999999
 20
2.657173611111111
 10
7.580424999999999
 20
2.657173611111111
 10
7.651730555555555
 20
2.657173611111111
 10
7.710452777777777
 20
2.657173611111111
 10
7.76078611111111
 20
2.657173611111111
 10
7.802730555555555
 20
2.657173611111111
 10
7.827897222222222
 20
2.657173611111111
 10
7.844674999999999
 20
2.657173611111111
 10
7.848869444444443
 20
2.657173611111111
  0
LWPOLYLINE
  5
2F9
330
2
100
AcDbEntity
  8
PDF_Layer 1
 62
     7
420
 16777215
370
    70
100
AcDbPolyline
 90
       55
 70
     0
 43
0.0
 10
6.489855555555554
 20
1.897979166666667
 10
6.494049999999998
 20
1.902173611111111
 10
6.498244444444443
 20
1.902173611111111
 10
6.502438888888887
 20
1.902173611111111
 10
6.510827777777777
 20
1.902173611111111
 10
6.527605555555555
 20
1.902173611111111
 10
6.544383333333332
 20
1.906354166666666
 10
6.565355555555554
 20
1.906354166666666
 10
6.586327777777777
 20
1.906354166666666
 10
6.653438888888888
 20
1.9105625
 10
6.737327777777776
 20
1.914756944444444
 10
6.762494444444444
 20
1.914756944444444
 10
6.783466666666665
 20
1.914756944444444
 10
6.808633333333332
 20
1.914756944444444
 10
6.833799999999999
 20
1.914756944444444
 10
6.87155
 20
1.914756944444444
 10
6.900911111111109
 20
1.918951388888889
 10
6.93866111111111
 20
1.918951388888889
 10
7.056105555555554
 20
1.923131944444445
 10
7.148383333333332
 20
1.923131944444445
 10
7.215508333333333
 20
1.923131944444445
 10
7.236480555555554
 20
1.923131944444445
 10
7.249063888888888
 20
1.927340277777778
 10
7.274230555555555
 20
1.927340277777778
 10
7.307786111111109
 20
1.927340277777778
 10
7.341341666666665
 20
1.927340277777778
 10
7.374897222222221
 20
1.927340277777778
 10
7.416841666666665
 20
1.927340277777778
 10
7.513313888888888
 20
1.931534722222222
 10
7.584619444444443
 20
1.931534722222222
 10
7.626563888888887
 20
1.935729166666666
 10
7.634952777777777
 20
1.935729166666666
 10
7.639147222222222
 20
1.935729166666666
 10
7.643341666666666
 20
1.935729166666666
 10
7.668508333333332
 20
1.935729166666666
 10
7.693674999999999
 20
1.935729166666666
 10
7.714647222222221
 20
1.935729166666666
 10
7.739813888888888
 20
1.935729166666666
 10
7.756591666666666
 20
1.935729166666666
 10
7.773369444444443
 20
1.939909722222222
 10
7.79853611111111
 20
1.939909722222222
 10
7.827897222222222
 20
1.939909722222222
 10
7.890813888888888
 20
1.944118055555555
 10
7.928563888888888
 20
1.944118055555555
 10
7.94953611111111
 20
1.944118055555555
 10
7.953730555555554
 20
1.944118055555555
 10
7.957924999999998
 20
1.944118055555555
 10
7.970508333333332
 20
1.9483125
 10
7.97889722222222
 20
1.9483125
 10
7.987286111111109
 20
1.9483125
 10
7.995675
 20
1.9483125
 10
8.008258333333333
 20
1.9483125
 10
8.012452777777777
 20
1.9483125
 10
8.016647222222221
 20
1.952506944444444
 10
8.020841666666665
 20
1.952506944444444
  0
LWPOLYLINE
  5
2FA
330
2
100
AcDbEntity
  8
PDF_Layer 1
 62
     7
420
 16777215
370
    70
100
AcDbPolyline
 90
       60
 70
     0
 43
0.0
 10
6.489855555555554
 20
2.007020833333333
 10
6.485661111111109
 20
2.007020833333333
 10
6.494049999999998
 20
2.007020833333333
 10
6.498244444444443
 20
2.011229166666666
 10
6.502438888888887
 20
2.011229166666666
 10
6.506633333333332
 20
2.011229166666666
 10
6.510827777777777
 20
2.011229166666666
 10
6.535994444444443
 20
2.011229166666666
 10
6.565355555555554
 20
2.015423611111111
 10
6.573744444444444
 20
2.015423611111111
 10
6.582133333333333
 20
2.015423611111111
 10
6.590522222222221
 20
2.015423611111111
 10
6.598911111111109
 20
2.015423611111111
 10
6.607299999999999
 20
2.015423611111111
 10
6.657633333333332
 20
2.019618055555555
 10
6.699577777777776
 20
2.019618055555555
 10
6.716355555555554
 20
2.019618055555555
 10
6.733133333333332
 20
2.019618055555555
 10
6.745716666666666
 20
2.019618055555555
 10
6.758299999999999
 20
2.019618055555555
 10
6.766688888888888
 20
2.019618055555555
 10
6.804438888888888
 20
2.023798611111111
 10
6.842188888888887
 20
2.023798611111111
 10
6.875744444444443
 20
2.023798611111111
 10
6.905105555555554
 20
2.023798611111111
 10
6.930272222222221
 20
2.028006944444444
 10
6.955438888888888
 20
2.028006944444444
 10
6.972216666666666
 20
2.028006944444444
 10
7.077091666666665
 20
2.028006944444444
 10
7.16516111111111
 20
2.032201388888889
 10
7.228091666666665
 20
2.032201388888889
 10
7.265841666666665
 20
2.032201388888889
 10
7.320369444444443
 20
2.036395833333334
 10
7.38328611111111
 20
2.036395833333334
 10
7.450397222222222
 20
2.036395833333334
 10
7.530091666666666
 20
2.040576388888889
 10
7.593008333333332
 20
2.040576388888889
 10
7.613980555555555
 20
2.040576388888889
 10
7.630758333333332
 20
2.040576388888889
 10
7.64753611111111
 20
2.044784722222222
 10
7.660119444444443
 20
2.044784722222222
 10
7.672702777777777
 20
2.044784722222222
 10
7.714647222222221
 20
2.044784722222222
 10
7.748202777777776
 20
2.044784722222222
 10
7.781758333333333
 20
2.044784722222222
 10
7.806924999999999
 20
2.048979166666666
 10
7.832091666666666
 20
2.048979166666666
 10
7.848869444444443
 20
2.048979166666666
 10
7.886619444444444
 20
2.048979166666666
 10
7.91178611111111
 20
2.053173611111111
 10
7.932758333333333
 20
2.053173611111111
 10
7.94953611111111
 20
2.053173611111111
 10
7.962119444444443
 20
2.053173611111111
 10
7.970508333333332
 20
2.053173611111111
 10
7.987286111111109
 20
2.057354166666666
 10
7.999869444444444
 20
2.057354166666666
 10
8.008258333333333
 20
2.057354166666666
 10
8.012452777777777
 20
2.057354166666666
 10
8.016647222222221
 20
2.057354166666666
 10
8.020841666666665
 20
2.0615625
  0
LWPOLYLINE
  5
2FD
330
2
100
AcDbEntity
  8
PDF_Layer 1
 62
     7
420
 16777215
370
    70
100
AcDbPolyline
 90
       50
 70
     0
 43
0.0
 10
6.485661111111109
 20
2.220951388888888
 10
6.489855555555554
 20
2.225145833333333
 10
6.494049999999998
 20
2.225145833333333
 10
6.506633333333332
 20
2.225145833333333
 10
6.515022222222221
 20
2.225145833333333
 10
6.531799999999999
 20
2.229340277777777
 10
6.544383333333332
 20
2.229340277777777
 10
6.556966666666665
 20
2.229340277777777
 10
6.582133333333333
 20
2.229340277777777
 10
6.611494444444443
 20
2.233534722222222
 10
6.649244444444444
 20
2.233534722222222
 10
6.678605555555554
 20
2.233534722222222
 10
6.707966666666666
 20
2.237729166666666
 10
6.745716666666666
 20
2.237729166666666
 10
6.783466666666665
 20
2.237729166666666
 10
6.821216666666666
 20
2.237729166666666
 10
6.87155
 20
2.241923611111111
 10
6.942855555555555
 20
2.241923611111111
 10
7.043522222222222
 20
2.246118055555555
 10
7.135799999999998
 20
2.246118055555555
 10
7.211299999999999
 20
2.2503125
 10
7.27003611111111
 20
2.2503125
 10
7.307786111111109
 20
2.2503125
 10
7.349730555555554
 20
2.2503125
 10
7.400063888888888
 20
2.254506944444444
 10
7.45878611111111
 20
2.254506944444444
 10
7.517508333333332
 20
2.254506944444444
 10
7.551063888888887
 20
2.254506944444444
 10
7.584619444444443
 20
2.258701388888888
 10
7.622369444444443
 20
2.258701388888888
 10
7.655924999999999
 20
2.258701388888888
 10
7.693674999999999
 20
2.258701388888888
 10
7.731424999999998
 20
2.258701388888888
 10
7.748202777777776
 20
2.262895833333333
 10
7.773369444444443
 20
2.262895833333333
 10
7.79853611111111
 20
2.262895833333333
 10
7.827897222222222
 20
2.262895833333333
 10
7.861452777777777
 20
2.262895833333333
 10
7.895008333333332
 20
2.267090277777778
 10
7.91178611111111
 20
2.267090277777778
 10
7.928563888888888
 20
2.267090277777778
 10
7.945341666666665
 20
2.267090277777778
 10
7.962119444444443
 20
2.271284722222222
 10
7.97889722222222
 20
2.271284722222222
 10
7.991480555555555
 20
2.271284722222222
 10
7.999869444444444
 20
2.271284722222222
 10
8.004063888888889
 20
2.271284722222222
 10
8.012452777777777
 20
2.275479166666666
 10
8.016647222222221
 20
2.275479166666666
 10
8.020841666666665
 20
2.275479166666666
  0
LWPOLYLINE
  5
2FE
330
2
100
AcDbEntity
  8
PDF_Layer 1
 62
     7
420
 16777215
370
    70
100
AcDbPolyline
 90
       65
 70
     0
 43
0.0
 10
6.489855555555554
 20
2.330006944444444
 10
6.485661111111109
 20
2.330006944444444
 10
6.489855555555554
 20
2.330006944444444
 10
6.494049999999998
 20
2.334201388888889
 10
6.498244444444443
 20
2.334201388888889
 10
6.506633333333332
 20
2.334201388888889
 10
6.519216666666665
 20
2.334201388888889
 10
6.527605555555555
 20
2.334201388888889
 10
6.544383333333332
 20
2.338395833333333
 10
6.548577777777777
 20
2.338395833333333
 10
6.556966666666665
 20
2.338395833333333
 10
6.573744444444444
 20
2.338395833333333
 10
6.590522222222221
 20
2.338395833333333
 10
6.611494444444443
 20
2.338395833333333
 10
6.63666111111111
 20
2.342590277777777
 10
6.670216666666665
 20
2.342590277777777
 10
6.695383333333332
 20
2.342590277777777
 10
6.720549999999998
 20
2.342590277777777
 10
6.745716666666666
 20
2.342590277777777
 10
6.770883333333332
 20
2.346784722222222
 10
6.796049999999999
 20
2.346784722222222
 10
6.825411111111111
 20
2.346784722222222
 10
6.854772222222221
 20
2.346784722222222
 10
6.858966666666665
 20
2.346784722222222
 10
6.879938888888887
 20
2.346784722222222
 10
6.913494444444443
 20
2.350979166666667
 10
6.947049999999999
 20
2.350979166666667
 10
6.984799999999999
 20
2.350979166666667
 10
7.026758333333333
 20
2.350979166666667
 10
7.077091666666665
 20
2.355173611111111
 10
7.144202777777776
 20
2.355173611111111
 10
7.202924999999998
 20
2.355173611111111
 10
7.253244444444444
 20
2.355173611111111
 10
7.286813888888888
 20
2.359368055555556
 10
7.324563888888888
 20
2.359368055555556
 10
7.370702777777776
 20
2.359368055555556
 10
7.425230555555554
 20
2.359368055555556
 10
7.483952777777776
 20
2.3635625
 10
7.555258333333332
 20
2.3635625
 10
7.584619444444443
 20
2.3635625
 10
7.613980555555555
 20
2.3635625
 10
7.64753611111111
 20
2.367756944444444
 10
7.672702777777777
 20
2.367756944444444
 10
7.702063888888888
 20
2.367756944444444
 10
7.731424999999998
 20
2.367756944444444
 10
7.756591666666666
 20
2.367756944444444
 10
7.76078611111111
 20
2.367756944444444
 10
7.773369444444443
 20
2.367756944444444
 10
7.806924999999999
 20
2.371951388888889
 10
7.823702777777778
 20
2.371951388888889
 10
7.844674999999999
 20
2.371951388888889
 10
7.865647222222222
 20
2.371951388888889
 10
7.890813888888888
 20
2.371951388888889
 10
7.91178611111111
 20
2.376145833333333
 10
7.928563888888888
 20
2.376145833333333
 10
7.945341666666665
 20
2.376145833333333
 10
7.957924999999998
 20
2.376145833333333
 10
7.970508333333332
 20
2.376145833333333
 10
7.983091666666665
 20
2.380340277777778
 10
7.991480555555555
 20
2.380340277777778
 10
7.999869444444444
 20
2.380340277777778
 10
8.004063888888889
 20
2.380340277777778
 10
8.012452777777777
 20
2.380340277777778
 10
8.016647222222221
 20
2.380340277777778
 10
8.020841666666665
 20
2.384534722222222
  0
LWPOLYLINE
  5
301
330
2
100
AcDbEntity
  8
PDF_Layer 1
 62
     7
420
 16777215
370
    70
100
AcDbPolyline
 90
        3
 70
     0
 43
0.0
 10
7.714647222222221
 20
1.8434375
 42
0.0370508180654899
 10
8.020841666666665
 20
1.860215277777778
 10
8.016647222222221
 20
1.860215277777778
  0
LWPOLYLINE
  5
303
330
2
100
AcDbEntity
  8
PDF_Layer 1
 62
     7
420
 16777215
370
    70
100
AcDbPolyline
 90
       55
 70
     0
 43
0.0
 10
6.485661111111109
 20
2.019618055555555
 10
6.489855555555554
 20
2.019618055555555
 10
6.494049999999998
 20
2.023798611111111
 10
6.498244444444443
 20
2.023798611111111
 10
6.506633333333332
 20
2.023798611111111
 10
6.515022222222221
 20
2.023798611111111
 10
6.527605555555555
 20
2.023798611111111
 10
6.535994444444443
 20
2.028006944444444
 10
6.548577777777777
 20
2.028006944444444
 10
6.552772222222221
 20
2.028006944444444
 10
6.556966666666665
 20
2.028006944444444
 10
6.577938888888888
 20
2.028006944444444
 10
6.590522222222221
 20
2.028006944444444
 10
6.607299999999999
 20
2.028006944444444
 10
6.628272222222221
 20
2.032201388888889
 10
6.653438888888888
 20
2.032201388888889
 10
6.682799999999999
 20
2.032201388888889
 10
6.707966666666666
 20
2.032201388888889
 10
6.737327777777776
 20
2.036395833333334
 10
6.766688888888888
 20
2.036395833333334
 10
6.800244444444443
 20
2.036395833333334
 10
6.833799999999999
 20
2.036395833333334
 10
6.867355555555555
 20
2.036395833333334
 10
6.875744444444443
 20
2.036395833333334
 10
6.905105555555554
 20
2.040576388888889
 10
6.959633333333332
 20
2.040576388888889
 10
7.035147222222221
 20
2.040576388888889
 10
7.102258333333332
 20
2.044784722222222
 10
7.186147222222221
 20
2.044784722222222
 10
7.253244444444444
 20
2.048979166666666
 10
7.307786111111109
 20
2.048979166666666
 10
7.362313888888888
 20
2.048979166666666
 10
7.429424999999999
 20
2.048979166666666
 10
7.504924999999999
 20
2.053173611111111
 10
7.567841666666665
 20
2.053173611111111
 10
7.605591666666665
 20
2.053173611111111
 10
7.639147222222222
 20
2.057354166666666
 10
7.672702777777777
 20
2.057354166666666
 10
7.706258333333332
 20
2.057354166666666
 10
7.739813888888888
 20
2.057354166666666
 10
7.769174999999998
 20
2.0615625
 10
7.79853611111111
 20
2.0615625
 10
7.823702777777778
 20
2.0615625
 10
7.853063888888887
 20
2.0615625
 10
7.903397222222221
 20
2.065756944444444
 10
7.915980555555554
 20
2.065756944444444
 10
7.928563888888888
 20
2.065756944444444
 10
7.94953611111111
 20
2.065756944444444
 10
7.966313888888887
 20
2.065756944444444
 10
7.983091666666665
 20
2.069951388888889
 10
7.995675
 20
2.069951388888889
 10
8.004063888888889
 20
2.069951388888889
 10
8.008258333333333
 20
2.069951388888889
 10
8.016647222222221
 20
2.069951388888889
 10
8.020841666666665
 20
2.074131944444444
  0
LWPOLYLINE
  5
304
330
2
100
AcDbEntity
  8
PDF_Layer 1
 62
     7
420
 16777215
370
    70
100
AcDbPolyline
 90
       44
 70
     0
 43
0.0
 10
6.489855555555554
 20
2.128673611111111
 10
6.494049999999998
 20
2.128673611111111
 10
6.510827777777777
 20
2.132868055555555
 10
6.535994444444443
 20
2.132868055555555
 10
6.565355555555554
 20
2.1370625
 10
6.594716666666665
 20
2.1370625
 10
6.628272222222221
 20
2.1370625
 10
6.666022222222221
 20
2.141243055555555
 10
6.707966666666666
 20
2.141243055555555
 10
6.728938888888888
 20
2.141243055555555
 10
6.749911111111111
 20
2.141243055555555
 10
6.77927222222222
 20
2.145451388888889
 10
6.812827777777777
 20
2.145451388888889
 10
6.842188888888887
 20
2.145451388888889
 10
6.87155
 20
2.145451388888889
 10
6.900911111111109
 20
2.145451388888889
 10
6.921883333333331
 20
2.145451388888889
 10
6.959633333333332
 20
2.149645833333333
 10
7.018355555555555
 20
2.149645833333333
 10
7.08966111111111
 20
2.149645833333333
 10
7.139994444444442
 20
2.153840277777777
 10
7.253244444444444
 20
2.153840277777777
 10
7.362313888888888
 20
2.158020833333333
 10
7.450397222222222
 20
2.158020833333333
 10
7.555258333333332
 20
2.162229166666666
 10
7.618174999999999
 20
2.162229166666666
 10
7.655924999999999
 20
2.162229166666666
 10
7.706258333333332
 20
2.166423611111111
 10
7.752397222222221
 20
2.166423611111111
 10
7.773369444444443
 20
2.166423611111111
 10
7.785952777777777
 20
2.166423611111111
 10
7.790147222222221
 20
2.166423611111111
 10
7.806924999999999
 20
2.170618055555555
 10
7.832091666666666
 20
2.170618055555555
 10
7.861452777777777
 20
2.170618055555555
 10
7.895008333333332
 20
2.170618055555555
 10
7.920174999999999
 20
2.174798611111111
 10
7.936952777777777
 20
2.174798611111111
 10
7.962119444444443
 20
2.174798611111111
 10
7.983091666666665
 20
2.174798611111111
 10
7.999869444444444
 20
2.179006944444445
 10
8.008258333333333
 20
2.179006944444445
 10
8.020841666666665
 20
2.179006944444445
 10
8.020841666666665
 20
2.183201388888889
  0
LWPOLYLINE
  5
306
330
2
100
AcDbEntity
  8
PDF_Layer 1
 62
     7
420
 16777215
370
    70
100
AcDbPolyline
 90
       43
 70
     0
 43
0.0
 10
6.485661111111109
 20
2.342590277777777
 10
6.489855555555554
 20
2.346784722222222
 10
6.494049999999998
 20
2.346784722222222
 10
6.498244444444443
 20
2.346784722222222
 10
6.506633333333332
 20
2.346784722222222
 10
6.515022222222221
 20
2.346784722222222
 10
6.52341111111111
 20
2.350979166666667
 10
6.535994444444443
 20
2.350979166666667
 10
6.544383333333332
 20
2.350979166666667
 10
6.565355555555554
 20
2.350979166666667
 10
6.577938888888888
 20
2.350979166666667
 10
6.603105555555554
 20
2.350979166666667
 10
6.653438888888888
 20
2.355173611111111
 10
6.699577777777776
 20
2.355173611111111
 10
6.720549999999998
 20
2.359368055555556
 10
6.737327777777776
 20
2.359368055555556
 10
6.749911111111111
 20
2.359368055555556
 10
6.758299999999999
 20
2.359368055555556
 10
6.783466666666665
 20
2.359368055555556
 10
6.808633333333332
 20
2.359368055555556
 10
6.833799999999999
 20
2.359368055555556
 10
6.858966666666665
 20
2.359368055555556
 10
6.896716666666665
 20
2.3635625
 10
6.968022222222221
 20
2.3635625
 10
7.072883333333332
 20
2.367756944444444
 10
7.160980555555554
 20
2.367756944444444
 10
7.223897222222221
 20
2.371951388888889
 10
7.274230555555555
 20
2.371951388888889
 10
7.34553611111111
 20
2.371951388888889
 10
7.433619444444443
 20
2.376145833333333
 10
7.530091666666666
 20
2.376145833333333
 10
7.613980555555555
 20
2.380340277777778
 10
7.672702777777777
 20
2.380340277777778
 10
7.756591666666666
 20
2.384534722222222
 10
7.844674999999999
 20
2.384534722222222
 10
7.903397222222221
 20
2.388729166666667
 10
7.945341666666665
 20
2.388729166666667
 10
7.970508333333332
 20
2.392923611111111
 10
7.991480555555555
 20
2.392923611111111
 10
8.004063888888889
 20
2.392923611111111
 10
8.016647222222221
 20
2.397118055555555
 10
8.020841666666665
 20
2.397118055555555
 10
8.016647222222221
 20
2.397118055555555
  0
LWPOLYLINE
  5
307
330
2
100
AcDbEntity
  8
PDF_Layer 1
 62
     7
420
 16777215
370
    70
100
AcDbPolyline
 90
       41
 70
     0
 43
0.0
 10
6.485661111111109
 20
2.451645833333333
 10
6.489855555555554
 20
2.451645833333333
 10
6.494049999999998
 20
2.451645833333333
 10
6.502438888888887
 20
2.455840277777778
 10
6.515022222222221
 20
2.455840277777778
 10
6.544383333333332
 20
2.460048611111111
 10
6.577938888888888
 20
2.460048611111111
 10
6.619883333333333
 20
2.460048611111111
 10
6.670216666666665
 20
2.464229166666667
 10
6.724744444444443
 20
2.464229166666667
 10
6.78766111111111
 20
2.468423611111111
 10
6.858966666666665
 20
2.468423611111111
 10
6.926077777777776
 20
2.472618055555555
 10
7.001577777777777
 20
2.472618055555555
 10
7.11903611111111
 20
2.476826388888889
 10
7.236480555555554
 20
2.476826388888889
 10
7.311980555555554
 20
2.481006944444444
 10
7.391674999999999
 20
2.481006944444444
 10
7.492341666666666
 20
2.485201388888889
 10
7.56364722222222
 20
2.485201388888889
 10
7.60978611111111
 20
2.485201388888889
 10
7.643341666666666
 20
2.489395833333333
 10
7.697869444444444
 20
2.489395833333333
 10
7.744008333333332
 20
2.489395833333333
 10
7.764980555555554
 20
2.489395833333333
 10
7.777563888888887
 20
2.489395833333333
 10
7.781758333333333
 20
2.489395833333333
 10
7.785952777777777
 20
2.493604166666666
 10
7.790147222222221
 20
2.493604166666666
 10
7.802730555555555
 20
2.493604166666666
 10
7.840480555555554
 20
2.493604166666666
 10
7.895008333333332
 20
2.493604166666666
 10
7.936952777777777
 20
2.497784722222222
 10
7.957924999999998
 20
2.497784722222222
 10
7.97889722222222
 20
2.497784722222222
 10
7.991480555555555
 20
2.501979166666666
 10
7.995675
 20
2.501979166666666
 10
7.999869444444444
 20
2.501979166666666
 10
8.004063888888889
 20
2.501979166666666
 10
8.012452777777777
 20
2.501979166666666
 10
8.020841666666665
 20
2.506173611111111
  0
LWPOLYLINE
  5
30C
330
2
100
AcDbEntity
  8
PDF_Layer 1
 62
     7
420
 16777215
370
    70
100
AcDbPolyline
 90
       17
 70
     0
 43
0.0
 10
6.548577777777777
 20
2.271284722222222
 10
6.56116111111111
 20
2.271284722222222
 10
6.603105555555554
 20
2.275479166666666
 10
6.666022222222221
 20
2.27967361111111
 10
6.749911111111111
 20
2.283868055555555
 10
6.854772222222221
 20
2.2880625
 10
6.968022222222221
 20
2.2880625
 10
7.098049999999998
 20
2.292256944444444
 10
7.23228611111111
 20
2.296451388888889
 10
7.362313888888888
 20
2.300645833333333
 10
7.492341666666666
 20
2.300645833333333
 10
7.613980555555555
 20
2.304840277777778
 10
7.72303611111111
 20
2.309034722222222
 10
7.815313888888888
 20
2.313229166666666
 10
7.886619444444444
 20
2.317423611111111
 10
7.941147222222221
 20
2.317423611111111
 10
7.962119444444443
 20
2.321618055555555
  0
LWPOLYLINE
  5
310
330
2
100
AcDbEntity
  8
PDF_Layer 1
 62
     7
420
 16777215
370
    70
100
AcDbPolyline
 90
       19
 70
     0
 43
0.0
 10
6.548577777777777
 20
1.86442361111111
 10
6.544383333333332
 20
1.86442361111111
 10
6.56116111111111
 20
1.868618055555555
 10
6.603105555555554
 20
1.872798611111111
 10
6.666022222222221
 20
1.876993055555555
 10
6.749911111111111
 20
1.876993055555555
 10
6.854772222222221
 20
1.881201388888889
 10
6.968022222222221
 20
1.885395833333333
 10
7.098049999999998
 20
1.889576388888889
 10
7.23228611111111
 20
1.889576388888889
 10
7.253244444444444
 20
1.893784722222222
 10
7.387480555555555
 20
1.893784722222222
 10
7.517508333333332
 20
1.897979166666667
 10
7.634952777777777
 20
1.902173611111111
 10
7.739813888888888
 20
1.906354166666666
 10
7.827897222222222
 20
1.906354166666666
 10
7.895008333333332
 20
1.9105625
 10
7.941147222222221
 20
1.914756944444444
 10
7.962119444444443
 20
1.918951388888889
  0
LWPOLYLINE
  5
311
330
2
100
AcDbEntity
  8
PDF_Layer 1
 62
     7
420
 16777215
370
    70
100
AcDbPolyline
 90
       20
 70
     0
 43
0.0
 10
6.548577777777777
 20
1.973465277777778
 10
6.544383333333332
 20
1.973465277777778
 10
6.56116111111111
 20
1.977673611111111
 10
6.603105555555554
 20
1.977673611111111
 10
6.666022222222221
 20
1.981868055555555
 10
6.749911111111111
 20
1.9860625
 10
6.854772222222221
 20
1.990243055555556
 10
6.968022222222221
 20
1.994451388888889
 10
7.098049999999998
 20
1.994451388888889
 10
7.23228611111111
 20
1.998645833333333
 10
7.253244444444444
 20
1.998645833333333
 10
7.387480555555555
 20
2.002840277777778
 10
7.517508333333332
 20
2.007020833333333
 10
7.634952777777777
 20
2.011229166666666
 10
7.739813888888888
 20
2.011229166666666
 10
7.827897222222222
 20
2.015423611111111
 10
7.895008333333332
 20
2.019618055555555
 10
7.941147222222221
 20
2.023798611111111
 10
7.962119444444443
 20
2.023798611111111
 10
7.962119444444443
 20
2.028006944444444
  0
LWPOLYLINE
  5
312
330
2
100
AcDbEntity
  8
PDF_Layer 1
 62
     7
420
 16777215
370
    70
100
AcDbPolyline
 90
       19
 70
     0
 43
0.0
 10
6.548577777777777
 20
2.082534722222222
 10
6.544383333333332
 20
2.082534722222222
 10
6.56116111111111
 20
2.082534722222222
 10
6.603105555555554
 20
2.086729166666666
 10
6.666022222222221
 20
2.090909722222222
 10
6.749911111111111
 20
2.095118055555556
 10
6.854772222222221
 20
2.0993125
 10
6.968022222222221
 20
2.0993125
 10
7.098049999999998
 20
2.103506944444444
 10
7.23228611111111
 20
2.1076875
 10
7.253244444444444
 20
2.1076875
 10
7.387480555555555
 20
2.111895833333333
 10
7.517508333333332
 20
2.116090277777778
 10
7.634952777777777
 20
2.116090277777778
 10
7.739813888888888
 20
2.120284722222222
 10
7.827897222222222
 20
2.124465277777778
 10
7.895008333333332
 20
2.128673611111111
 10
7.941147222222221
 20
2.128673611111111
 10
7.962119444444443
 20
2.132868055555555
  0
LWPOLYLINE
  5
313
330
2
100
AcDbEntity
  8
PDF_Layer 1
 62
     7
420
 16777215
370
    70
100
AcDbPolyline
 90
       19
 70
     0
 43
0.0
 10
6.548577777777777
 20
2.187395833333333
 10
6.544383333333332
 20
2.187395833333333
 10
6.56116111111111
 20
2.191576388888889
 10
6.603105555555554
 20
2.195784722222222
 10
6.666022222222221
 20
2.199979166666667
 10
6.749911111111111
 20
2.199979166666667
 10
6.854772222222221
 20
2.204173611111111
 10
6.968022222222221
 20
2.208368055555555
 10
7.098049999999998
 20
2.2125625
 10
7.23228611111111
 20
2.216756944444444
 10
7.253244444444444
 20
2.216756944444444
 10
7.387480555555555
 20
2.216756944444444
 10
7.517508333333332
 20
2.220951388888888
 10
7.634952777777777
 20
2.225145833333333
 10
7.739813888888888
 20
2.229340277777777
 10
7.827897222222222
 20
2.233534722222222
 10
7.895008333333332
 20
2.233534722222222
 10
7.941147222222221
 20
2.237729166666666
 10
7.962119444444443
 20
2.241923611111111
  0
LWPOLYLINE
  5
315
330
2
100
AcDbEntity
  8
PDF_Layer 1
 62
     7
420
 16777215
370
    70
100
AcDbPolyline
 90
       19
 70
     0
 43
0.0
 10
6.548577777777777
 20
2.405506944444444
 10
6.544383333333332
 20
2.405506944444444
 10
6.56116111111111
 20
2.409701388888889
 10
6.603105555555554
 20
2.409701388888889
 10
6.666022222222221
 20
2.413895833333334
 10
6.749911111111111
 20
2.418090277777777
 10
6.854772222222221
 20
2.422284722222222
 10
6.968022222222221
 20
2.422284722222222
 10
7.098049999999998
 20
2.426479166666666
 10
7.23228611111111
 20
2.430673611111111
 10
7.253244444444444
 20
2.430673611111111
 10
7.387480555555555
 20
2.434868055555555
 10
7.517508333333332
 20
2.439062499999999
 10
7.634952777777777
 20
2.439062499999999
 10
7.739813888888888
 20
2.443256944444444
 10
7.827897222222222
 20
2.447451388888889
 10
7.895008333333332
 20
2.451645833333333
 10
7.941147222222221
 20
2.455840277777778
 10
7.962119444444443
 20
2.455840277777778
  0
LWPOLYLINE
  5
316
330
2
100
AcDbEntity
  8
PDF_Layer 1
 62
     7
420
 16777215
370
    70
100
AcDbPolyline
 90
       19
 70
     0
 43
0.0
 10
6.548577777777777
 20
2.510368055555555
 10
6.544383333333332
 20
2.5145625
 10
6.56116111111111
 20
2.5145625
 10
6.603105555555554
 20
2.518756944444445
 10
6.666022222222221
 20
2.522951388888889
 10
6.749911111111111
 20
2.527145833333333
 10
6.854772222222221
 20
2.527145833333333
 10
6.968022222222221
 20
2.531340277777777
 10
7.098049999999998
 20
2.535534722222222
 10
7.23228611111111
 20
2.539729166666667
 10
7.253244444444444
 20
2.539729166666667
 10
7.387480555555555
 20
2.5439375
 10
7.517508333333332
 20
2.5439375
 10
7.634952777777777
 20
2.548118055555556
 10
7.739813888888888
 20
2.5523125
 10
7.827897222222222
 20
2.556506944444444
 10
7.895008333333332
 20
2.560715277777778
 10
7.941147222222221
 20
2.560715277777778
 10
7.962119444444443
 20
2.564895833333333
  0
LWPOLYLINE
  5
31A
330
2
100
AcDbEntity
  8
PDF_Layer 1
 62
     7
420
 16777215
370
    70
100
AcDbPolyline
 90
        8
 70
     0
 43
0.0
 10
12.67673055555555
 20
3.256979166666666
 10
12.67673055555555
 20
3.265381944444444
 10
12.67673055555555
 20
3.282159722222222
 10
12.67673055555555
 20
3.311520833333333
 10
12.67673055555555
 20
3.357659722222222
 10
12.67673055555555
 20
3.407993055555555
 10
12.67673055555555
 20
3.470909722222222
 10
12.67673055555555
 20
3.479298611111111
  0
LWPOLYLINE
  5
31B
330
2
100
AcDbEntity
  8
PDF_Layer 1
 62
     7
420
 16777215
370
    70
100
AcDbPolyline
 90
        7
 70
     0
 43
0.0
 10
12.67673055555555
 20
4.213340277777778
 10
12.67673055555555
 20
4.255270833333333
 10
12.67673055555555
 20
4.309798611111111
 10
12.67673055555555
 20
4.360145833333333
 10
12.67673055555555
 20
4.393701388888889
 10
12.67673055555555
 20
4.418868055555555
 10
12.67673055555555
 20
4.431451388888889
  0
LWPOLYLINE
  5
31C
330
2
100
AcDbEntity
  8
PDF_Layer 1
 62
     7
420
 16777215
370
    70
100
AcDbPolyline
 90
        9
 70
     0
 43
0.0
 10
12.605425
 20
4.427256944444444
 10
12.605425
 20
4.4230625
 10
12.605425
 20
4.402090277777777
 10
12.605425
 20
4.372715277777778
 10
12.605425
 20
4.330784722222222
 10
12.605425
 20
4.280451388888889
 10
12.605425
 20
4.217534722222222
 10
12.605425
 20
4.150423611111111
 10
12.605425
 20
4.142020833333333
  0
LWPOLYLINE
  5
31D
330
2
100
AcDbEntity
  8
PDF_Layer 1
 62
     7
420
 16777215
370
    70
100
AcDbPolyline
 90
        8
 70
     0
 43
0.0
 10
12.605425
 20
3.550604166666667
 10
12.605425
 20
3.508659722222222
 10
12.605425
 20
3.441548611111111
 10
12.605425
 20
3.387020833333333
 10
12.605425
 20
3.3366875
 10
12.605425
 20
3.303131944444444
 10
12.605425
 20
3.277965277777778
 10
12.605425
 20
3.265381944444444
  0
LWPOLYLINE
  5
31E
330
2
100
AcDbEntity
  8
PDF_Layer 1
 62
     7
420
 16777215
370
    70
100
AcDbPolyline
 90
        8
 70
     0
 43
0.0
 10
13.27655
 20
4.431451388888889
 10
13.27655
 20
4.427256944444444
 10
13.27655
 20
4.406284722222222
 10
13.27655
 20
4.376923611111111
 10
13.27655
 20
4.334979166666666
 10
13.27655
 20
4.284645833333333
 10
13.27655
 20
4.221715277777778
 10
13.27655
 20
4.217534722222222
  0
LWPOLYLINE
  5
31F
330
2
100
AcDbEntity
  8
PDF_Layer 1
 62
     7
420
 16777215
370
    70
100
AcDbPolyline
 90
        8
 70
     0
 43
0.0
 10
13.27655
 20
3.475104166666667
 10
13.27655
 20
3.437354166666667
 10
13.27655
 20
3.382826388888889
 10
13.27655
 20
3.332493055555556
 10
13.27655
 20
3.2989375
 10
13.27655
 20
3.273756944444444
 10
13.27655
 20
3.2611875
 10
13.27655
 20
3.256979166666666
  0
LWPOLYLINE
  5
320
330
2
100
AcDbEntity
  8
PDF_Layer 1
 62
     7
420
 16777215
370
    70
100
AcDbPolyline
 90
        7
 70
     0
 43
0.0
 10
12.70189722222222
 20
4.414673611111111
 10
12.70189722222222
 20
4.410479166666666
 10
12.70189722222222
 20
4.389493055555555
 10
12.70189722222222
 20
4.360145833333333
 10
12.70189722222222
 20
4.318201388888889
 10
12.70189722222222
 20
4.263673611111111
 10
12.70189722222222
 20
4.2343125
  0
LWPOLYLINE
  5
321
330
2
100
AcDbEntity
  8
PDF_Layer 1
 62
     7
420
 16777215
370
    70
100
AcDbPolyline
 90
        7
 70
     0
 43
0.0
 10
12.70189722222222
 20
3.458326388888889
 10
12.70189722222222
 20
3.428965277777778
 10
12.70189722222222
 20
3.3744375
 10
12.70189722222222
 20
3.332493055555556
 10
12.70189722222222
 20
3.2989375
 10
12.70189722222222
 20
3.282159722222222
 10
12.70189722222222
 20
3.273756944444444
  0
LWPOLYLINE
  5
323
330
2
100
AcDbEntity
  8
PDF_Layer 1
 62
     7
420
 16777215
370
    70
100
AcDbPolyline
 90
        7
 70
     0
 43
0.0
 10
13.24718888888889
 20
4.238493055555555
 10
13.24718888888889
 20
4.263673611111111
 10
13.24718888888889
 20
4.318201388888889
 10
13.24718888888889
 20
4.360145833333333
 10
13.24718888888889
 20
4.389493055555555
 10
13.24718888888889
 20
4.410479166666666
 10
13.24718888888889
 20
4.414673611111111
  0
LWPOLYLINE
  5
324
330
2
100
AcDbEntity
  8
PDF_Layer 1
 62
     7
420
 16777215
370
    70
100
AcDbPolyline
 90
        9
 70
     0
 43
0.0
 10
12.59284166666666
 20
3.282159722222222
 10
12.59284166666666
 20
3.286354166666666
 10
12.59284166666666
 20
3.3073125
 10
12.59284166666666
 20
3.3366875
 10
12.59284166666666
 20
3.378631944444444
 10
12.59284166666666
 20
3.433159722222222
 10
12.59284166666666
 20
3.496076388888889
 10
12.59284166666666
 20
3.5631875
 10
12.59284166666666
 20
3.571576388888889
  0
LWPOLYLINE
  5
325
330
2
100
AcDbEntity
  8
PDF_Layer 1
 62
     7
420
 16777215
370
    70
100
AcDbPolyline
 90
        9
 70
     0
 43
0.0
 10
12.59284166666666
 20
4.121048611111111
 10
12.59284166666666
 20
4.129451388888889
 10
12.59284166666666
 20
4.1965625
 10
12.59284166666666
 20
4.259479166666666
 10
12.59284166666666
 20
4.309798611111111
 10
12.59284166666666
 20
4.351756944444444
 10
12.59284166666666
 20
4.3853125
 10
12.59284166666666
 20
4.402090277777777
 10
12.59284166666666
 20
4.410479166666666
  0
LWPOLYLINE
  5
326
330
2
100
AcDbEntity
  8
PDF_Layer 1
 62
     7
420
 16777215
370
    70
100
AcDbPolyline
 90
       25
 70
     0
 43
0.0
 10
10.78082777777777
 20
4.590840277777777
 10
10.78082777777777
 20
4.582451388888888
 10
10.78082777777777
 20
4.565673611111111
 10
10.78082777777777
 20
4.532118055555555
 10
10.78082777777777
 20
4.490173611111111
 10
10.78082777777777
 20
4.435645833333333
 10
10.78082777777777
 20
4.372715277777778
 10
10.78082777777777
 20
4.297229166666666
 10
10.78082777777777
 20
4.217534722222222
 10
10.78082777777777
 20
4.129451388888889
 10
10.78082777777777
 20
4.037159722222222
 10
10.78082777777777
 20
3.9406875
 10
10.78082777777777
 20
3.844229166666666
 10
10.78082777777777
 20
3.747743055555555
 10
10.78082777777777
 20
3.651270833333333
 10
10.78082777777777
 20
3.5631875
 10
10.78082777777777
 20
3.475104166666667
 10
10.78082777777777
 20
3.391215277777777
 10
10.78082777777777
 20
3.319909722222222
 10
10.78082777777777
 20
3.256979166666666
 10
10.78082777777777
 20
3.202465277777777
 10
10.78082777777777
 20
3.160520833333333
 10
10.78082777777777
 20
3.126965277777777
 10
10.78082777777777
 20
3.1101875
 10
10.78082777777777
 20
3.101798611111111
  0
LWPOLYLINE
  5
328
330
2
100
AcDbEntity
  8
PDF_Layer 1
 62
     7
420
 16777215
370
    70
100
AcDbPolyline
 90
       13
 70
     0
 43
0.0
 10
6.540188888888888
 20
2.954979166666666
 42
-0.1174497726619874
 10
7.253244444444444
 20
3.215048611111111
 10
7.291008333333333
 20
3.215048611111111
 10
7.379091666666666
 20
3.206645833333333
 10
7.462980555555555
 20
3.189868055555555
 10
7.567841666666665
 20
3.1563125
 10
7.664313888888887
 20
3.118576388888889
 10
7.752397222222221
 20
3.076618055555555
 10
7.827897222222222
 20
3.0346875
 10
7.886619444444444
 20
3.0053125
 10
7.928563888888888
 20
2.975951388888889
 10
7.953730555555554
 20
2.963381944444444
 10
7.966313888888887
 20
2.954979166666666
  0
LWPOLYLINE
  5
32A
330
2
100
AcDbEntity
  8
PDF_Layer 1
 62
     7
420
 16777215
370
    70
100
AcDbPolyline
 90
       23
 70
     0
 43
0.0
 10
7.848869444444443
 20
2.833354166666667
 10
7.840480555555554
 20
2.841729166666667
 10
7.819508333333333
 20
2.858506944444444
 10
7.819508333333333
 20
2.862715277777778
 10
7.781758333333333
 20
2.8920625
 10
7.731424999999998
 20
2.929826388888889
 10
7.668508333333332
 20
2.971756944444444
 10
7.597202777777777
 20
3.022090277777778
 10
7.517508333333332
 20
3.064048611111111
 10
7.425230555555554
 20
3.101798611111111
 10
7.358119444444443
 20
3.118576388888889
 10
7.286813888888888
 20
3.126965277777777
 10
7.253244444444444
 20
3.131159722222222
 10
7.139994444444442
 20
3.118576388888889
 10
7.043522222222222
 20
3.089201388888889
 10
6.959633333333332
 20
3.047270833333333
 10
6.888327777777777
 20
3.0053125
 10
6.825411111111111
 20
2.963381944444444
 10
6.770883333333332
 20
2.925618055555555
 10
6.724744444444443
 20
2.8920625
 10
6.695383333333332
 20
2.862715277777778
 10
6.670216666666665
 20
2.8459375
 10
6.661827777777777
 20
2.837534722222222
  0
LWPOLYLINE
  5
32C
330
2
100
AcDbEntity
  8
PDF_Layer 1
 62
     7
420
 16777215
370
    70
100
AcDbPolyline
 90
       39
 70
     0
 43
0.0
 10
5.239897222222222
 20
5.693993055555555
 10
5.239897222222222
 20
5.689798611111111
 10
5.239897222222222
 20
5.677215277777778
 10
5.239897222222222
 20
5.647854166666666
 10
5.239897222222222
 20
5.610104166666666
 10
5.239897222222222
 20
5.555576388888889
 10
5.239897222222222
 20
5.492659722222223
 10
5.239897222222222
 20
5.421340277777777
 10
5.239897222222222
 20
5.337451388888888
 10
5.239897222222222
 20
5.240979166666666
 10
5.239897222222222
 20
5.1403125
 10
5.239897222222222
 20
5.027076388888889
 10
5.239897222222222
 20
4.909631944444444
 10
5.239897222222222
 20
4.779590277777778
 10
5.239897222222222
 20
4.6495625
 10
5.239897222222222
 20
4.511145833333333
 10
5.239897222222222
 20
4.368534722222222
 10
5.239897222222222
 20
4.221715277777778
 10
5.239897222222222
 20
4.070715277777778
 10
5.239897222222222
 20
3.919715277777778
 10
5.239897222222222
 20
3.768715277777777
 10
5.239897222222222
 20
3.621909722222222
 10
5.239897222222222
 20
3.470909722222222
 10
5.239897222222222
 20
3.324104166666666
 10
5.239897222222222
 20
3.181493055555555
 10
5.239897222222222
 20
3.043076388888889
 10
5.239897222222222
 20
2.908840277777778
 10
5.239897222222222
 20
2.783006944444444
 10
5.239897222222222
 20
2.6655625
 10
5.239897222222222
 20
2.5523125
 10
5.239897222222222
 20
2.447451388888889
 10
5.239897222222222
 20
2.355173611111111
 10
5.239897222222222
 20
2.271284722222222
 10
5.239897222222222
 20
2.195784722222222
 10
5.239897222222222
 20
2.132868055555555
 10
5.239897222222222
 20
2.082534722222222
 10
5.239897222222222
 20
2.044784722222222
 10
5.239897222222222
 20
2.015423611111111
 10
5.239897222222222
 20
1.998645833333333
  0
LWPOLYLINE
  5
32D
330
2
100
AcDbEntity
  8
PDF_Layer 1
 62
     7
420
 16777215
370
    70
100
AcDbPolyline
 90
       38
 70
     0
 43
0.0
 10
5.307008333333332
 20
5.513631944444444
 10
5.307008333333332
 20
5.5094375
 10
5.307008333333332
 20
5.492659722222223
 10
5.307008333333332
 20
5.467493055555555
 10
5.307008333333332
 20
5.425534722222222
 10
5.307008333333332
 20
5.375215277777778
 10
5.307008333333332
 20
5.312298611111111
 10
5.307008333333332
 20
5.236784722222222
 10
5.307008333333332
 20
5.152895833333333
 10
5.307008333333332
 20
5.060631944444444
 10
5.307008333333332
 20
4.959965277777778
 10
5.307008333333332
 20
4.846701388888889
 10
5.307008333333332
 20
4.729256944444444
 10
5.307008333333332
 20
4.603423611111111
 10
5.307008333333332
 20
4.473395833333333
 10
5.307008333333332
 20
4.339159722222222
 10
5.307008333333332
 20
4.200756944444444
 10
5.307008333333332
 20
4.062340277777778
 10
5.307008333333332
 20
3.915534722222222
 10
5.307008333333332
 20
3.772909722222222
 10
5.307008333333332
 20
3.630298611111111
 10
5.307008333333332
 20
3.491881944444444
 10
5.307008333333332
 20
3.349270833333333
 10
5.307008333333332
 20
3.215048611111111
 10
5.307008333333332
 20
3.085020833333333
 10
5.307008333333332
 20
2.963381944444444
 10
5.307008333333332
 20
2.841729166666667
 10
5.307008333333332
 20
2.732673611111111
 10
5.307008333333332
 20
2.632006944444444
 10
5.307008333333332
 20
2.535534722222222
 10
5.307008333333332
 20
2.451645833333333
 10
5.307008333333332
 20
2.380340277777778
 10
5.307008333333332
 20
2.317423611111111
 10
5.307008333333332
 20
2.267090277777778
 10
5.307008333333332
 20
2.225145833333333
 10
5.307008333333332
 20
2.199979166666667
 10
5.307008333333332
 20
2.183201388888889
 10
5.307008333333332
 20
2.179006944444445
  0
LWPOLYLINE
  5
32E
330
2
100
AcDbEntity
  8
PDF_Layer 1
 62
     7
420
 16777215
370
    70
100
AcDbPolyline
 90
       32
 70
     0
 43
0.0
 10
5.571258333333332
 20
5.060631944444444
 10
5.571258333333332
 20
5.048048611111111
 10
5.571258333333332
 20
5.022868055555555
 10
5.571258333333332
 20
4.985118055555555
 10
5.571258333333332
 20
4.938979166666666
 10
5.571258333333332
 20
4.880256944444444
 10
5.571258333333332
 20
4.808965277777778
 10
5.571258333333332
 20
4.729256944444444
 10
5.571258333333332
 20
4.636979166666666
 10
5.571258333333332
 20
4.540506944444445
 10
5.571258333333332
 20
4.435645833333333
 10
5.571258333333332
 20
4.326590277777778
 10
5.571258333333332
 20
4.209131944444444
 10
5.571258333333332
 20
4.091687499999999
 10
5.571258333333332
 20
3.970048611111111
 10
5.571258333333332
 20
3.844229166666666
 10
5.571258333333332
 20
3.722576388888889
 10
5.571258333333332
 20
3.6009375
 10
5.571258333333332
 20
3.483493055555555
 10
5.571258333333332
 20
3.366048611111111
 10
5.571258333333332
 20
3.256979166666666
 10
5.571258333333332
 20
3.152131944444444
 10
5.571258333333332
 20
3.051465277777777
 10
5.571258333333332
 20
2.963381944444444
 10
5.571258333333332
 20
2.8836875
 10
5.571258333333332
 20
2.812381944444444
 10
5.571258333333332
 20
2.753645833333333
 10
5.571258333333332
 20
2.7033125
 10
5.571258333333332
 20
2.669756944444444
 10
5.571258333333332
 20
2.644604166666667
 10
5.571258333333332
 20
2.632006944444444
 10
5.571258333333332
 20
2.627826388888888
  0
LWPOLYLINE
  5
32F
330
2
100
AcDbEntity
  8
PDF_Layer 1
 62
     7
420
 16777215
370
    25
100
AcDbPolyline
 90
        2
 70
     0
 43
0.0
 10
11.46662083333333
 20
10.36179583333333
 10
11.46662083333333
 20
6.830031944444444
  0
LWPOLYLINE
  5
330
330
2
100
AcDbEntity
  8
PDF_Layer 1
 62
     7
420
 16777215
370
    25
100
AcDbPolyline
 90
        2
 70
     0
 43
0.0
 10
14.73832222222222
 20
10.40793194444444
 10
14.73832222222222
 20
6.830029166666665
  0
LWPOLYLINE
  5
331
330
2
100
AcDbEntity
  8
PDF_Layer 1
 62
     7
420
 16777215
370
    25
100
AcDbPolyline
 90
        2
 70
     0
 43
0.0
 10
5.02597361111111
 20
5.719156944444443
 10
4.119959722222221
 20
5.719156944444443
  0
LWPOLYLINE
  5
332
330
2
100
AcDbEntity
  8
PDF_Layer 1
 62
     7
420
 16777215
370
    25
100
AcDbPolyline
 90
        2
 70
     0
 43
0.0
 10
4.169962499999998
 20
5.655476388888888
 10
4.169962499999998
 20
2.037143055555555
  0
LWPOLYLINE
  5
333
330
2
100
AcDbEntity
  8
PDF_Layer 1
 62
     7
420
 16777215
370
    25
100
AcDbPolyline
 90
        2
 70
     0
 43
0.0
 10
6.485656944444443
 20
1.898477777777777
 10
6.485656944444443
 20
0.254380555555556
  0
LWPOLYLINE
  5
334
330
2
100
AcDbEntity
  8
PDF_Layer 1
 62
     7
420
 16777215
370
    25
100
AcDbPolyline
 90
        2
 70
     0
 43
0.0
 10
8.02084722222222
 20
1.849120833333333
 10
8.02084722222222
 20
0.2543847222222222
  0
LWPOLYLINE
  5
335
330
2
100
AcDbEntity
  8
PDF_Layer 1
 62
     7
420
 16777215
370
    25
100
AcDbPolyline
 90
        2
 70
     0
 43
0.0
 10
8.02084722222222
 20
0.31665
 10
9.912013888888887
 20
0.31665
  0
MTEXT
  5
336
330
2
100
AcDbEntity
  8
PDF_Text
 62
     7
420
 16777215
100
AcDbMText
 10
12.85668888888889
 20
6.945166312499999
 30
0.0
 40
0.3665049709743923
 41
0.0
 46
0.0
 71
     7
 72
     5
  1
55
  7
PDF Arial
 73
     1
 44
1.0
  0
MTEXT
  5
337
330
2
100
AcDbEntity
  8
PDF_Text
 62
     7
420
 16777215
100
AcDbMText
 10
8.163302777777776
 20
0.4128788124999999
 30
0.0
 40
0.3665049709743923
 41
0.0
 46
0.0
 71
     7
 72
     5
  1
ØG3/4”
  7
PDF Arial
 73
     1
 44
1.0
  0
MTEXT
  5
338
330
2
100
AcDbEntity
  8
PDF_Text
 62
     7
420
 16777215
100
AcDbMText
 10
4.10273229861111
 20
3.324815277777777
 30
0.0
 40
0.3665049709743923
 41
0.0
 46
0.0
 71
     7
 72
     5
  1
Ø63
  7
PDF Arial
 11
0.0000000000000001
 21
1.0
 31
0.0
 73
     1
 44
1.0
  0
LWPOLYLINE
  5
339
330
2
100
AcDbEntity
  8
PDF_Layer 1
 62
     7
420
 16777215
370
    70
100
AcDbPolyline
 90
        3
 70
     0
 43
0.0
 10
12.59494027777777
 20
10.61765138888889
 42
0.3516503854132202
 10
11.46662083333333
 20
11.51947083333333
 42
0.7602775963946895
 10
10.87099583333333
 20
9.371901388888897
  0
LWPOLYLINE
  5
33A
330
2
100
AcDbEntity
  8
PDF_Layer 1
 62
     7
420
 16777215
370
    70
100
AcDbPolyline
 90
        3
 70
     0
 43
0.0
 10
13.23250972222222
 20
10.65959583333333
 42
0.3647154675693553
 10
11.46662083333333
 20
12.15284583333333
 42
0.8141175584364205
 10
10.75774583333332
 20
8.721748611111106
  0
LWPOLYLINE
  5
33B
330
2
100
AcDbEntity
  8
PDF_Layer 1
 62
     7
420
 16777215
370
    70
100
AcDbPolyline
 90
        3
 70
     0
 43
0.0
 10
5.791468055555553
 20
9.371901388888886
 42
0.2692668861959655
 10
6.353537499999998
 20
10.36179027777778
 42
0.897952785101304
 10
4.071731944444447
 20
10.61765138888888
  0
LWPOLYLINE
  5
33C
330
2
100
AcDbEntity
  8
PDF_Layer 1
 62
     7
420
 16777215
370
    70
100
AcDbPolyline
 90
        3
 70
     0
 43
0.0
 10
5.946662499999997
 20
8.738526388888887
 42
0.2945827091008208
 10
6.986898611111108
 20
10.36179027777777
 42
0.9205016859734666
 10
3.434162500000002
 20
10.65959583333333
  0
VIEWPORT
  5
4A
330
C
100
AcDbEntity
 67
     1
  8
0
100
AcDbViewport
 10
17.24759499286355
 20
11.49745669559334
 30
0.0
 40
36.33732196730226
 41
27.12504315869042
 68
     1
 69
     1
 12
17.24759499286355
 22
11.49745669559334
 13
0.0
 23
0.0
 14
0.5
 24
0.5
 15
0.5
 25
0.5
 16
0.0
 26
0.0
 36
1.0
 17
0.0
 27
0.0
 37
0.0
 42
50.0
 43
0.0
 44
0.0
 45
27.12504315869042
 50
0.0
 51
0.0
 72
  1000
 90
    32864
  1

281
     0
 71
     1
 74
     0
110
0.0
120
0.0
130
0.0
111
1.0
121
0.0
131
0.0
112
0.0
122
1.0
132
0.0
 79
     0
146
0.0
170
     0
 61
     5
348
88
292
     1
282
     1
141
0.0
142
0.0
 63
   250
421
  3355443
  0
ENDSEC
  0
SECTION
  2
OBJECTS
  0
DICTIONARY
  5
7
330
0
100
AcDbDictionary
281
     1
  3
ACAD_CIP_PREVIOUS_PRODUCT_INFO
350
CD
  3
ACAD_COLOR
350
55
  3
ACAD_DETAILVIEWSTYLE
350
C5
  3
ACAD_GROUP
350
1F
  3
ACAD_LAYOUT
350
B
  3
ACAD_MATERIAL
350
54
  3
ACAD_MLEADERSTYLE
350
C1
  3
ACAD_MLINESTYLE
350
20
  3
ACAD_PLOTSETTINGS
350
21
  3
ACAD_PLOTSTYLENAME
350
6
  3
ACAD_SCALELIST
350
AF
  3
ACAD_SECTIONVIEWSTYLE
350
C3
  3
ACAD_TABLESTYLE
350
93
  3
ACAD_VISUALSTYLE
350
82
  3
ACDB_RECOMPOSE_DATA
350
362
  3
AcDbVariableDictionary
350
9B
  0
DICTIONARY
  5
33E
330
4
100
AcDbDictionary
280
     1
281
     1
  3
ADSK_XREC_LAYER_RECONCILED
360
33F
  0
DICTIONARY
  5
340
330
25
100
AcDbDictionary
280
     1
281
     1
  3
ADSK_XREC_LAYER_RECONCILED
360
341
  0
DICTIONARY
  5
342
330
CE
100
AcDbDictionary
280
     1
281
     1
  3
ADSK_XREC_LAYER_RECONCILED
360
343
  0
DICTIONARY
  5
344
330
D7
100
AcDbDictionary
280
     1
281
     1
  3
ADSK_XREC_LAYER_RECONCILED
360
345
  0
XRECORD
  5
CD
102
{ACAD_REACTORS
330
7
102
}
330
7
100
AcDbXrecord
280
     1
300
ACD
300
2017
300
ACD_F_S
  0
DICTIONARY
  5
55
102
{ACAD_REACTORS
330
7
102
}
330
7
100
AcDbDictionary
281
     1
  0
DICTIONARY
  5
C5
102
{ACAD_REACTORS
330
7
102
}
330
7
100
AcDbDictionary
281
     1
  3
Imperial24
350
C6
  0
DICTIONARY
  5
1F
102
{ACAD_REACTORS
330
7
102
}
330
7
100
AcDbDictionary
281
     1
  0
DICTIONARY
  5
B
102
{ACAD_REACTORS
330
7
102
}
330
7
100
AcDbDictionary
281
     1
  3
Generic 24in x 36in Title Block
350
F
  3
Model
350
A
  0
DICTIONARY
  5
54
102
{ACAD_REACTORS
330
7
102
}
330
7
100
AcDbDictionary
281
     1
  3
ByBlock
350
80
  3
ByLayer
350
7F
  3
Global
350
81
  0
DICTIONARY
  5
C1
102
{ACAD_REACTORS
330
7
102
}
330
7
100
AcDbDictionary
281
     1
  3
Standard
350
C2
  0
DICTIONARY
  5
20
102
{ACAD_REACTORS
330
7
102
}
330
7
100
AcDbDictionary
281
     1
  3
Standard
350
22
  0
DICTIONARY
  5
21
102
{ACAD_REACTORS
330
7
102
}
330
7
100
AcDbDictionary
281
     1
  0
ACDBDICTIONARYWDFLT
  5
6
102
{ACAD_REACTORS
330
7
102
}
330
7
100
AcDbDictionary
281
     1
  3
Normal
350
5
100
AcDbDictionaryWithDefault
340
5
  0
DICTIONARY
  5
AF
102
{ACAD_REACTORS
330
7
102
}
330
7
100
AcDbDictionary
281
     1
  3
A0
350
B0
  3
A1
350
B1
  3
A2
350
B2
  3
A3
350
B3
  3
A4
350
B4
  3
A5
350
B5
  3
A6
350
B6
  3
A7
350
B7
  3
A8
350
B8
  3
A9
350
B9
  3
B0
350
BA
  3
B1
350
BB
  3
B2
350
BC
  3
B3
350
BD
  3
B4
350
BE
  3
B5
350
BF
  3
B6
350
C0
  0
DICTIONARY
  5
C3
102
{ACAD_REACTORS
330
7
102
}
330
7
100
AcDbDictionary
281
     1
  3
Imperial24
350
C4
  0
DICTIONARY
  5
93
102
{ACAD_REACTORS
330
7
102
}
330
7
100
AcDbDictionary
281
     1
  3
Standard
350
94
  0
DICTIONARY
  5
82
102
{ACAD_REACTORS
330
7
102
}
330
7
100
AcDbDictionary
281
     1
  3
2dWireframe
350
88
  3
3D Hidden
350
8A
  3
3dWireframe
350
89
  3
Basic
350
87
  3
Brighten
350
8E
  3
ColorChange
350
92
  3
Conceptual
350
8B
  3
Dim
350
8D
  3
EdgeColorOff
350
AE
  3
Facepattern
350
91
  3
Flat
350
83
  3
FlatWithEdges
350
84
  3
Gouraud
350
85
  3
GouraudWithEdges
350
86
  3
Hidden
350
A6
  3
JitterOff
350
AC
  3
Linepattern
350
90
  3
OverhangOff
350
AD
  3
Realistic
350
8C
  3
Shaded
350
AB
  3
Shaded with edges
350
AA
  3
Shades of Gray
350
A7
  3
Sketchy
350
A8
  3
Thicken
350
8F
  3
Wireframe
350
A5
  3
X-Ray
350
A9
  0
XRECORD
  5
362
102
{ACAD_REACTORS
330
7
102
}
330
7
100
AcDbXrecord
280
     1
 90
        1
330
94
330
C4
330
C6
  0
DICTIONARY
  5
9B
102
{ACAD_REACTORS
330
7
102
}
330
7
100
AcDbDictionary
281
     1
  3
CANNOSCALE
350
358
  3
CMLEADERSTYLE
350
354
  3
CTABLESTYLE
350
9C
  3
CVIEWDETAILSTYLE
350
355
  3
CVIEWSECTIONSTYLE
350
356
  3
LAYEREVAL
350
35A
  3
LAYERNOTIFY
350
35B
  3
LIGHTINGUNITS
350
359
  3
MSLTSCALE
350
357
  0
XRECORD
  5
33F
102
{ACAD_REACTORS
330
33E
102
}
330
33E
100
AcDbXrecord
280
     1
290
     1
  0
XRECORD
  5
341
102
{ACAD_REACTORS
330
340
102
}
330
340
100
AcDbXrecord
280
     1
290
     1
  0
XRECORD
  5
343
102
{ACAD_REACTORS
330
342
102
}
330
342
100
AcDbXrecord
280
     1
290
     1
  0
XRECORD
  5
345
102
{ACAD_REACTORS
330
344
102
}
330
344
100
AcDbXrecord
280
     1
290
     1
  0
ACDBDETAILVIEWSTYLE
  5
C6
102
{ACAD_XDICTIONARY
360
360
102
}
102
{ACAD_REACTORS
330
C5
102
}
330
C5
100
AcDbModelDocViewStyle
 70
     0
  3
Imperial24
290
     0
100
AcDbDetailViewStyle
 70
     0
 71
     0
 90
        3
 71
     1
340
12
 62
   256
 40
0.24
340
0
 62
   256
 40
0.24
300

 40
0.36
280
     3
 71
     2
340
8
 90
       25
 62
   256
 71
     3
340
12
 62
   256
 40
0.24
 90
        1
 40
0.75
 90
        1
300
%<\AcVar ViewType \f "%tc1">% %<\AcVar ViewDetailId>%\PSCALE %<\AcVar ViewScale \f "%sn">%
 71
     4
340
8
 90
       25
 62
   256
340
8
 90
       25
 62
   256
280
     0
  0
LAYOUT
  5
F
102
{ACAD_REACTORS
330
B
102
}
330
B
100
AcDbPlotSettings
  1

  2
none_device
  4
ARCH_D_(24.00_x_36.00_Inches)
  6

 40
6.4
 41
19.1
 42
6.4
 43
19.1
 44
609.5999755859375
 45
914.4000244140626
 46
6.095999999999999
 47
-0.254
 48
0.0
 49
0.0
140
0.0
141
0.0
142
1.0
143
1.0
 70
   692
 72
     0
 73
     1
 74
     1
  7

 75
    16
147
1.0
 76
     0
 77
     2
 78
   300
148
0.2650993882970653
149
0.268587724897764
100
AcDbLayout
  1
Generic 24in x 36in Title Block
 70
     1
 71
     1
 10
-0.7524054877282309
 20
-0.5025428238148726
 11
35.24759547345533
 21
23.49745621500156
 12
0.0
 22
0.0
 32
0.0
 14
1.000000000000000E+20
 24
1.000000000000000E+20
 34
1.000000000000000E+20
 15
-1.000000000000000E+20
 25
-1.000000000000000E+20
 35
-1.000000000000000E+20
146
0.0
 13
0.0
 23
0.0
 33
0.0
 16
1.0
 26
0.0
 36
0.0
 17
0.0
 27
1.0
 37
0.0
 76
     0
330
C
331
4A
  0
LAYOUT
  5
A
102
{ACAD_REACTORS
330
B
102
}
330
B
100
AcDbPlotSettings
  1

  2
none_device
  4
Letter_(8.50_x_11.00_Inches)
  6

 40
6.349999904632568
 41
6.349999904632568
 42
6.350006103515625
 43
6.350006103515625
 44
215.8999938964844
 45
279.3999938964844
 46
20.37045378159827
 47
10.87052656611426
 48
0.0
 49
0.0
140
0.0
141
0.0
142
1.0
143
3.59932905303845
 70
 11956
 72
     0
 73
     1
 74
     1
  7

 75
     0
147
0.2778295580271631
 76
     0
 77
     2
 78
   300
148
5.106903281790129
149
0.2718425107115592
100
AcDbLayout
  1
Model
 70
     1
 71
     0
 10
0.0
 20
0.0
 11
12.0
 21
9.0
 12
0.0
 22
0.0
 32
0.0
 14
0.0
 24
0.0
 34
0.0
 15
0.0
 25
0.0
 35
0.0
146
0.0
 13
0.0
 23
0.0
 33
0.0
 16
1.0
 26
0.0
 36
0.0
 17
0.0
 27
1.0
 37
0.0
 76
     0
330
2
331
7D
  0
MATERIAL
  5
80
102
{ACAD_REACTORS
330
54
102
}
330
54
100
AcDbMaterial
  1
ByBlock
 73
     1
 78
     1
172
     1
176
     1
270
     1
274
     1
 94
       63
  0
MATERIAL
  5
7F
102
{ACAD_REACTORS
330
54
102
}
330
54
100
AcDbMaterial
  1
ByLayer
 73
     1
 78
     1
172
     1
176
     1
270
     1
274
     1
 94
       63
  0
MATERIAL
  5
81
102
{ACAD_REACTORS
330
54
102
}
330
54
100
AcDbMaterial
  1
Global
 73
     1
 78
     1
172
     1
176
     1
270
     1
274
     1
 94
       63
  0
MLEADERSTYLE
  5
C2
102
{ACAD_REACTORS
330
C1
102
}
330
C1
100
AcDbMLeaderStyle
179
     2
170
     2
171
     1
172
     0
 90
        2
 40
0.0
 41
0.0
173
     1
 91
-1056964608
340
15
 92
       -2
290
     1
 42
0.09
291
     1
 43
0.36
  3
Standard
 44
0.18
300

342
12
174
     1
178
     6
175
     1
176
     0
 93
-1056964608
 45
0.18
292
     0
297
     0
 46
0.18
 94
-1056964608
 47
1.0
 49
1.0
140
1.0
293
     1
141
0.0
294
     1
177
     0
142
1.0
295
     1
296
     0
143
0.125
271
     0
272
     9
273
     9
298
     1
  0
MLINESTYLE
  5
22
102
{ACAD_REACTORS
330
20
102
}
330
20
100
AcDbMlineStyle
  2
STANDARD
 70
     0
  3

 62
   256
 51
90.0
 52
90.0
 71
     2
 49
0.5
 62
   256
  6
BYLAYER
 49
-0.5
 62
   256
  6
BYLAYER
  0
ACDBPLACEHOLDER
  5
5
102
{ACAD_REACTORS
330
6
102
}
330
6
  0
SCALE
  5
B0
102
{ACAD_REACTORS
330
AF
102
}
330
AF
100
AcDbScale
 70
     0
300
1:1
140
1.0
141
1.0
290
     1
  0
SCALE
  5
B1
102
{ACAD_REACTORS
330
AF
102
}
330
AF
100
AcDbScale
 70
     0
300
1/128" = 1'-0"
140
0.0078125
141
12.0
290
     0
  0
SCALE
  5
B2
102
{ACAD_REACTORS
330
AF
102
}
330
AF
100
AcDbScale
 70
     0
300
1/64" = 1'-0"
140
0.015625
141
12.0
290
     0
  0
SCALE
  5
B3
102
{ACAD_REACTORS
330
AF
102
}
330
AF
100
AcDbScale
 70
     0
300
1/32" = 1'-0"
140
0.03125
141
12.0
290
     0
  0
SCALE
  5
B4
102
{ACAD_REACTORS
330
AF
102
}
330
AF
100
AcDbScale
 70
     0
300
1/16" = 1'-0"
140
0.0625
141
12.0
290
     0
  0
SCALE
  5
B5
102
{ACAD_REACTORS
330
AF
102
}
330
AF
100
AcDbScale
 70
     0
300
3/32" = 1'-0"
140
0.09375
141
12.0
290
     0
  0
SCALE
  5
B6
102
{ACAD_REACTORS
330
AF
102
}
330
AF
100
AcDbScale
 70
     0
300
1/8" = 1'-0"
140
0.125
141
12.0
290
     0
  0
SCALE
  5
B7
102
{ACAD_REACTORS
330
AF
102
}
330
AF
100
AcDbScale
 70
     0
300
3/16" = 1'-0"
140
0.1875
141
12.0
290
     0
  0
SCALE
  5
B8
102
{ACAD_REACTORS
330
AF
102
}
330
AF
100
AcDbScale
 70
     0
300
1/4" = 1'-0"
140
0.25
141
12.0
290
     0
  0
SCALE
  5
B9
102
{ACAD_REACTORS
330
AF
102
}
330
AF
100
AcDbScale
 70
     0
300
3/8" = 1'-0"
140
0.375
141
12.0
290
     0
  0
SCALE
  5
BA
102
{ACAD_REACTORS
330
AF
102
}
330
AF
100
AcDbScale
 70
     0
300
1/2" = 1'-0"
140
0.5
141
12.0
290
     0
  0
SCALE
  5
BB
102
{ACAD_REACTORS
330
AF
102
}
330
AF
100
AcDbScale
 70
     0
300
3/4" = 1'-0"
140
0.75
141
12.0
290
     0
  0
SCALE
  5
BC
102
{ACAD_REACTORS
330
AF
102
}
330
AF
100
AcDbScale
 70
     0
300
1" = 1'-0"
140
1.0
141
12.0
290
     0
  0
SCALE
  5
BD
102
{ACAD_REACTORS
330
AF
102
}
330
AF
100
AcDbScale
 70
     0
300
1-1/2" = 1'-0"
140
1.5
141
12.0
290
     0
  0
SCALE
  5
BE
102
{ACAD_REACTORS
330
AF
102
}
330
AF
100
AcDbScale
 70
     0
300
3" = 1'-0"
140
3.0
141
12.0
290
     0
  0
SCALE
  5
BF
102
{ACAD_REACTORS
330
AF
102
}
330
AF
100
AcDbScale
 70
     0
300
6" = 1'-0"
140
6.0
141
12.0
290
     0
  0
SCALE
  5
C0
102
{ACAD_REACTORS
330
AF
102
}
330
AF
100
AcDbScale
 70
     0
300
1'-0" = 1'-0"
140
12.0
141
12.0
290
     0
  0
ACDBSECTIONVIEWSTYLE
  5
C4
102
{ACAD_XDICTIONARY
360
35E
102
}
102
{ACAD_REACTORS
330
C3
102
}
330
C3
100
AcDbModelDocViewStyle
 70
     0
  3
Imperial24
290
     0
100
AcDbSectionViewStyle
 70
     0
 71
     0
 90
       78
 71
     1
340
12
 62
   256
 40
0.24
340
0
340
0
 62
   256
 40
0.24
300
I, O, Q, S, X, Z
 40
0.48
 90
        3
 40
0.18
 90
        1
 71
     2
340
8
 90
       25
 62
   256
340
8
 90
       50
 62
   256
 40
0.24
 40
0.0
 40
0.24
 71
     3
340
12
 62
   256
 40
0.24
 90
        1
 40
0.75
 90
        1
300
%<\AcVar ViewType \f "%tc1">% %<\AcVar ViewSectionStartId>%-%<\AcVar ViewSectionEndId>%\PSCALE %<\AcVar ViewScale \f "%sn">%
 71
     4
 62
   256
 62
   257
300
ANSI31
 40
1.0
 90
        0
290
     0
290
     0
 90
        6
 40
0.0
 40
1.570796326794896
 40
0.2617993877991494
 40
1.308996938995747
 40
-0.2617993877991494
 40
1.832595714594046
  0
TABLESTYLE
  5
94
102
{ACAD_XDICTIONARY
360
35C
102
}
102
{ACAD_REACTORS
330
93
102
}
330
93
100
AcDbTableStyle
280
     0
  3
Standard
 70
     0
 71
     0
 40
0.06
 41
0.06
280
     0
281
     0
  7
Standard
140
0.18
170
     2
 62
     0
 63
     7
283
     0
 90
      512
 91
        0
  1

274
    -2
284
     1
 64
     0
275
    -2
285
     1
 65
     0
276
    -2
286
     1
 66
     0
277
    -2
287
     1
 67
     0
278
    -2
288
     1
 68
     0
279
    -2
289
     1
 69
     0
  7
Standard
140
0.25
170
     5
 62
     0
 63
     7
283
     0
 90
      512
 91
        0
  1

274
    -2
284
     1
 64
     0
275
    -2
285
     1
 65
     0
276
    -2
286
     1
 66
     0
277
    -2
287
     1
 67
     0
278
    -2
288
     1
 68
     0
279
    -2
289
     1
 69
     0
  7
Standard
140
0.18
170
     5
 62
     0
 63
     7
283
     0
 90
      512
 91
        0
  1

274
    -2
284
     1
 64
     0
275
    -2
285
     1
 65
     0
276
    -2
286
     1
 66
     0
277
    -2
287
     1
 67
     0
278
    -2
288
     1
 68
     0
279
    -2
289
     1
 69
     0
  0
VISUALSTYLE
  5
88
102
{ACAD_REACTORS
330
82
102
}
330
82
100
AcDbVisualStyle
  2
2dWireframe
 70
     4
177
     3
291
     0
 70
    58
 90
        0
176
     1
 90
        2
176
     1
 90
        1
176
     1
 90
        0
176
     1
 40
0.6
176
     1
 40
30.0
176
     1
 62
     7
420
 16777215
176
     1
 90
        1
176
     1
 90
        4
176
     1
 62
     7
176
     1
 62
   257
176
     1
 90
        1
176
     1
 90
        1
176
     1
 40
1.0
176
     1
 90
        0
176
     1
 62
   257
176
     1
 40
1.0
176
     1
 90
        1
176
     1
 90
        6
176
     1
 90
        2
176
     1
 62
     7
176
     1
 90
        5
176
     1
 90
        0
176
     1
 90
        0
176
     1
290
     0
176
     1
 90
        1
176
     1
 40
0.0
176
     1
 90
        0
176
     1
290
     1
176
     1
290
     1
176
     1
290
     0
176
     1
290
     0
176
     1
290
     0
176
     1
290
     0
176
     1
290
     0
176
     1
290
     0
176
     1
290
     0
176
     1
 90
       50
176
     1
 40
0.0
176
     1
 40
1.0
176
     1
 90
        0
176
     1
 62
    18
420
        0
176
     1
 90
       50
176
     1
 90
        3
176
     1
 62
     5
420
      255
176
     1
290
     0
176
     1
 90
       50
176
     1
 90
       50
176
     1
 90
       50
176
     1
290
     0
176
     1
 90
       50
176
     1
 62
   256
176
     0
 40
1.0
176
     0
 90
        2
176
     1
  1
strokes_ogs.tif
176
     1
290
     0
176
     1
 40
1.0
176
     1
 40
1.0
176
     1
  0
VISUALSTYLE
  5
8A
102
{ACAD_REACTORS
330
82
102
}
330
82
100
AcDbVisualStyle
  2
3D Hidden
 70
     6
177
     3
291
     0
 70
    58
 90
        1
176
     1
 90
        2
176
     1
 90
        2
176
     1
 90
        0
176
     1
 40
0.6
176
     1
 40
30.0
176
     1
 62
     7
420
 16777215
176
     1
 90
        2
176
     1
 90
       10
176
     1
 62
     7
176
     1
 62
   257
176
     1
 90
        2
176
     1
 90
        2
176
     1
 40
40.0
176
     1
 90
        0
176
     1
 62
   257
176
     1
 40
1.0
176
     1
 90
        1
176
     1
 90
        6
176
     1
 90
        2
176
     1
 62
     7
176
     1
 90
        3
176
     1
 90
        0
176
     1
 90
        0
176
     1
290
     0
176
     1
 90
        1
176
     1
 40
0.0
176
     1
 90
        0
176
     1
290
     0
176
     1
290
     1
176
     1
290
     1
176
     1
290
     0
176
     1
290
     0
176
     1
290
     0
176
     1
290
     0
176
     1
290
     0
176
     1
290
     0
176
     1
 90
       50
176
     1
 40
0.0
176
     1
 40
1.0
176
     1
 90
        0
176
     1
 62
    18
420
        0
176
     1
 90
       50
176
     1
 90
        3
176
     1
 62
     5
420
      255
176
     1
290
     0
176
     1
 90
       50
176
     1
 90
       50
176
     1
 90
       50
176
     1
290
     0
176
     1
 90
       50
176
     1
 62
   256
176
     0
 40
1.0
176
     0
 90
        2
176
     1
  1
strokes_ogs.tif
176
     1
290
     0
176
     1
 40
1.0
176
     1
 40
1.0
176
     1
  0
VISUALSTYLE
  5
89
102
{ACAD_REACTORS
330
82
102
}
330
82
100
AcDbVisualStyle
  2
3dWireframe
 70
     5
177
     3
291
     0
 70
    58
 90
        0
176
     1
 90
        2
176
     1
 90
        1
176
     1
 90
        0
176
     1
 40
0.6
176
     1
 40
30.0
176
     1
 62
     7
420
 16777215
176
     1
 90
        1
176
     1
 90
        4
176
     1
 62
     7
176
     1
 62
   257
176
     1
 90
        1
176
     1
 90
        1
176
     1
 40
1.0
176
     1
 90
        0
176
     1
 62
   257
176
     1
 40
1.0
176
     1
 90
        1
176
     1
 90
        6
176
     1
 90
        2
176
     1
 62
     7
176
     1
 90
        5
176
     1
 90
        0
176
     1
 90
        0
176
     1
290
     0
176
     1
 90
        1
176
     1
 40
0.0
176
     1
 90
        0
176
     1
290
     0
176
     1
290
     1
176
     1
290
     1
176
     1
290
     0
176
     1
290
     0
176
     1
290
     0
176
     1
290
     0
176
     1
290
     0
176
     1
290
     0
176
     1
 90
       50
176
     1
 40
0.0
176
     1
 40
1.0
176
     1
 90
        0
176
     1
 62
    18
420
        0
176
     1
 90
       50
176
     1
 90
        3
176
     1
 62
     5
420
      255
176
     1
290
     0
176
     1
 90
       50
176
     1
 90
       50
176
     1
 90
       50
176
     1
290
     0
176
     1
 90
       50
176
     1
 62
   256
176
     0
 40
1.0
176
     0
 90
        2
176
     1
  1
strokes_ogs.tif
176
     1
290
     0
176
     1
 40
1.0
176
     1
 40
1.0
176
     1
  0
VISUALSTYLE
  5
87
102
{ACAD_REACTORS
330
82
102
}
330
82
100
AcDbVisualStyle
  2
Basic
 70
     7
177
     3
291
     1
 70
    58
 90
        1
176
     1
 90
        0
176
     1
 90
        1
176
     1
 90
        0
176
     1
 40
0.6
176
     1
 40
30.0
176
     1
 62
     7
420
 16777215
176
     1
 90
        0
176
     1
 90
        4
176
     1
 62
     7
176
     1
 62
   257
176
     1
 90
        1
176
     1
 90
        1
176
     1
 40
1.0
176
     1
 90
        8
176
     1
 62
     7
176
     1
 40
1.0
176
     1
 90
        1
176
     1
 90
        6
176
     1
 90
        2
176
     1
 62
     7
176
     1
 90
        5
176
     1
 90
        0
176
     1
 90
        0
176
     1
290
     0
176
     1
 90
        1
176
     1
 40
0.0
176
     1
 90
        0
176
     1
290
     0
176
     1
290
     1
176
     1
290
     1
176
     1
290
     0
176
     1
290
     0
176
     1
290
     0
176
     1
290
     0
176
     1
290
     0
176
     1
290
     0
176
     1
 90
       50
176
     1
 40
0.0
176
     1
 40
1.0
176
     1
 90
        0
176
     1
 62
    18
420
        0
176
     1
 90
       50
176
     1
 90
        3
176
     1
 62
     5
420
      255
176
     1
290
     0
176
     1
 90
       50
176
     1
 90
       50
176
     1
 90
       50
176
     1
290
     0
176
     1
 90
       50
176
     1
 62
   256
176
     0
 40
1.0
176
     0
 90
        2
176
     1
  1
strokes_ogs.tif
176
     1
290
     0
176
     1
 40
1.0
176
     1
 40
1.0
176
     1
  0
VISUALSTYLE
  5
8E
102
{ACAD_REACTORS
330
82
102
}
330
82
100
AcDbVisualStyle
  2
Brighten
 70
    12
177
     3
291
     1
 70
    58
 90
        2
176
     1
 90
        2
176
     1
 90
        1
176
     1
 90
        0
176
     1
 40
0.6
176
     1
 40
30.0
176
     1
 62
     7
420
 16777215
176
     1
 90
        1
176
     1
 90
        4
176
     1
 62
     7
176
     1
 62
   257
176
     1
 90
        1
176
     1
 90
        1
176
     1
 40
1.0
176
     1
 90
        8
176
     1
 62
     7
176
     1
 40
1.0
176
     1
 90
        1
176
     1
 90
        6
176
     1
 90
        2
176
     1
 62
     7
176
     1
 90
        5
176
     1
 90
        0
176
     1
 90
        0
176
     1
290
     0
176
     1
 90
        1
176
     1
 40
50.0
176
     1
 90
        0
176
     1
290
     0
176
     1
290
     1
176
     1
290
     1
176
     1
290
     0
176
     1
290
     0
176
     1
290
     0
176
     1
290
     0
176
     1
290
     0
176
     1
290
     0
176
     1
 90
       50
176
     1
 40
0.0
176
     1
 40
1.0
176
     1
 90
        0
176
     1
 62
    18
420
        0
176
     1
 90
       50
176
     1
 90
        3
176
     1
 62
     5
420
      255
176
     1
290
     0
176
     1
 90
       50
176
     1
 90
       50
176
     1
 90
       50
176
     1
290
     0
176
     1
 90
       50
176
     1
 62
   256
176
     0
 40
1.0
176
     0
 90
        2
176
     1
  1
strokes_ogs.tif
176
     1
290
     0
176
     1
 40
1.0
176
     1
 40
1.0
176
     1
  0
VISUALSTYLE
  5
92
102
{ACAD_REACTORS
330
82
102
}
330
82
100
AcDbVisualStyle
  2
ColorChange
 70
    16
177
     3
291
     1
 70
    58
 90
        2
176
     1
 90
        2
176
     1
 90
        3
176
     1
 90
        0
176
     1
 40
0.6
176
     1
 40
30.0
176
     1
 62
     8
420
  8421504
176
     1
 90
        1
176
     1
 90
        4
176
     1
 62
     7
176
     1
 62
   257
176
     1
 90
        1
176
     1
 90
        1
176
     1
 40
1.0
176
     1
 90
        8
176
     1
 62
     8
420
  8421504
176
     1
 40
1.0
176
     1
 90
        1
176
     1
 90
        6
176
     1
 90
        2
176
     1
 62
     7
176
     1
 90
        5
176
     1
 90
        0
176
     1
 90
        0
176
     1
290
     0
176
     1
 90
        1
176
     1
 40
0.0
176
     1
 90
        0
176
     1
290
     0
176
     1
290
     1
176
     1
290
     1
176
     1
290
     0
176
     1
290
     0
176
     1
290
     0
176
     1
290
     0
176
     1
290
     0
176
     1
290
     0
176
     1
 90
       50
176
     1
 40
0.0
176
     1
 40
1.0
176
     1
 90
        0
176
     1
 62
    18
420
        0
176
     1
 90
       50
176
     1
 90
        3
176
     1
 62
     5
420
      255
176
     1
290
     0
176
     1
 90
       50
176
     1
 90
       50
176
     1
 90
       50
176
     1
290
     0
176
     1
 90
       50
176
     1
 62
   256
176
     0
 40
1.0
176
     0
 90
        2
176
     1
  1
strokes_ogs.tif
176
     1
290
     0
176
     1
 40
1.0
176
     1
 40
1.0
176
     1
  0
VISUALSTYLE
  5
8B
102
{ACAD_REACTORS
330
82
102
}
330
82
100
AcDbVisualStyle
  2
Conceptual
 70
     9
177
     3
291
     0
 70
    58
 90
        3
176
     1
 90
        2
176
     1
 90
        1
176
     1
 90
        0
176
     1
 40
0.6
176
     1
 40
30.0
176
     1
 62
     7
420
 16777215
176
     1
 90
        2
176
     1
 90
        2
176
     1
 62
     7
176
     1
 62
   257
176
     1
 90
        1
176
     1
 90
        1
176
     1
 40
40.0
176
     1
 90
        8
176
     1
 62
     7
176
     1
 40
1.0
176
     1
 90
        1
176
     1
 90
        6
176
     1
 90
        2
176
     1
 62
     7
176
     1
 90
        5
176
     1
 90
        0
176
     1
 90
        0
176
     1
290
     0
176
     1
 90
        1
176
     1
 40
0.0
176
     1
 90
        0
176
     1
290
     0
176
     1
290
     1
176
     1
290
     1
176
     1
290
     0
176
     1
290
     0
176
     1
290
     0
176
     1
290
     0
176
     1
290
     0
176
     1
290
     0
176
     1
 90
       50
176
     1
 40
0.0
176
     1
 40
1.0
176
     1
 90
        0
176
     1
 62
    18
420
        0
176
     1
 90
       50
176
     1
 90
        3
176
     1
 62
     5
420
      255
176
     1
290
     0
176
     1
 90
       50
176
     1
 90
       50
176
     1
 90
       50
176
     1
290
     0
176
     1
 90
       50
176
     1
 62
   256
176
     0
 40
1.0
176
     0
 90
        2
176
     1
  1
strokes_ogs.tif
176
     1
290
     0
176
     1
 40
1.0
176
     1
 40
1.0
176
     1
  0
VISUALSTYLE
  5
8D
102
{ACAD_REACTORS
330
82
102
}
330
82
100
AcDbVisualStyle
  2
Dim
 70
    11
177
     3
291
     1
 70
    58
 90
        2
176
     1
 90
        2
176
     1
 90
        1
176
     1
 90
        0
176
     1
 40
0.6
176
     1
 40
30.0
176
     1
 62
     7
420
 16777215
176
     1
 90
        1
176
     1
 90
        4
176
     1
 62
     7
176
     1
 62
   257
176
     1
 90
        1
176
     1
 90
        1
176
     1
 40
1.0
176
     1
 90
        8
176
     1
 62
     7
176
     1
 40
1.0
176
     1
 90
        1
176
     1
 90
        6
176
     1
 90
        2
176
     1
 62
     7
176
     1
 90
        5
176
     1
 90
        0
176
     1
 90
        0
176
     1
290
     0
176
     1
 90
        1
176
     1
 40
-50.0
176
     1
 90
        0
176
     1
290
     0
176
     1
290
     1
176
     1
290
     1
176
     1
290
     0
176
     1
290
     0
176
     1
290
     0
176
     1
290
     0
176
     1
290
     0
176
     1
290
     0
176
     1
 90
       50
176
     1
 40
0.0
176
     1
 40
1.0
176
     1
 90
        0
176
     1
 62
    18
420
        0
176
     1
 90
       50
176
     1
 90
        3
176
     1
 62
     5
420
      255
176
     1
290
     0
176
     1
 90
       50
176
     1
 90
       50
176
     1
 90
       50
176
     1
290
     0
176
     1
 90
       50
176
     1
 62
   256
176
     0
 40
1.0
176
     0
 90
        2
176
     1
  1
strokes_ogs.tif
176
     1
290
     0
176
     1
 40
1.0
176
     1
 40
1.0
176
     1
  0
VISUALSTYLE
  5
AE
102
{ACAD_REACTORS
330
82
102
}
330
82
100
AcDbVisualStyle
  2
EdgeColorOff
 70
    22
177
     3
291
     1
 70
    58
 90
        2
176
     0
 90
        2
176
     0
 90
        0
176
     0
 90
        0
176
     0
 40
0.6
176
     0
 40
30.0
176
     0
 62
     7
420
 16777215
176
     0
 90
        1
176
     0
 90
        4
176
     0
 62
     7
176
     0
 62
   257
176
     0
 90
        1
176
     0
 90
        1
176
     0
 40
1.0
176
     0
 90
        8
176
     2
 62
     7
176
     0
 40
1.0
176
     0
 90
        1
176
     0
 90
        6
176
     0
 90
        2
176
     0
 62
     7
176
     0
 90
        5
176
     0
 90
        0
176
     0
 90
        0
176
     0
290
     0
176
     0
 90
        1
176
     0
 40
0.0
176
     0
 90
        0
176
     0
290
     0
176
     0
290
     1
176
     0
290
     1
176
     0
290
     0
176
     0
290
     0
176
     0
290
     0
176
     0
290
     0
176
     0
290
     0
176
     0
290
     0
176
     0
 90
       50
176
     0
 40
0.0
176
     0
 40
1.0
176
     0
 90
        0
176
     0
 62
    18
420
        0
176
     0
 90
       50
176
     0
 90
        3
176
     0
 62
     5
420
      255
176
     0
290
     0
176
     0
 90
       50
176
     0
 90
       50
176
     0
 90
       50
176
     0
290
     0
176
     0
 90
       50
176
     0
 62
   256
176
     0
 40
1.0
176
     0
 90
        2
176
     0
  1
strokes_ogs.tif
176
     0
290
     0
176
     0
 40
1.0
176
     0
 40
1.0
176
     0
  0
VISUALSTYLE
  5
91
102
{ACAD_REACTORS
330
82
102
}
330
82
100
AcDbVisualStyle
  2
Facepattern
 70
    15
177
     3
291
     1
 70
    58
 90
        2
176
     1
 90
        2
176
     1
 90
        1
176
     1
 90
        0
176
     1
 40
0.6
176
     1
 40
30.0
176
     1
 62
     7
420
 16777215
176
     1
 90
        1
176
     1
 90
        4
176
     1
 62
     7
176
     1
 62
   257
176
     1
 90
        1
176
     1
 90
        1
176
     1
 40
1.0
176
     1
 90
        8
176
     1
 62
     7
176
     1
 40
1.0
176
     1
 90
        1
176
     1
 90
        6
176
     1
 90
        2
176
     1
 62
     7
176
     1
 90
        5
176
     1
 90
        0
176
     1
 90
        0
176
     1
290
     0
176
     1
 90
        1
176
     1
 40
0.0
176
     1
 90
        0
176
     1
290
     0
176
     1
290
     1
176
     1
290
     1
176
     1
290
     0
176
     1
290
     0
176
     1
290
     0
176
     1
290
     0
176
     1
290
     0
176
     1
290
     0
176
     1
 90
       50
176
     1
 40
0.0
176
     1
 40
1.0
176
     1
 90
        0
176
     1
 62
    18
420
        0
176
     1
 90
       50
176
     1
 90
        3
176
     1
 62
     5
420
      255
176
     1
290
     0
176
     1
 90
       50
176
     1
 90
       50
176
     1
 90
       50
176
     1
290
     0
176
     1
 90
       50
176
     1
 62
   256
176
     0
 40
1.0
176
     0
 90
        2
176
     1
  1
strokes_ogs.tif
176
     1
290
     0
176
     1
 40
1.0
176
     1
 40
1.0
176
     1
  0
VISUALSTYLE
  5
83
102
{ACAD_REACTORS
330
82
102
}
330
82
100
AcDbVisualStyle
  2
Flat
 70
     0
177
     3
291
     1
 70
    58
 90
        2
176
     1
 90
        1
176
     1
 90
        1
176
     1
 90
        2
176
     1
 40
0.6
176
     1
 40
30.0
176
     1
 62
     7
420
 16777215
176
     1
 90
        0
176
     1
 90
        4
176
     1
 62
     7
176
     1
 62
   257
176
     1
 90
        1
176
     1
 90
        1
176
     1
 40
1.0
176
     1
 90
        8
176
     1
 62
     7
176
     1
 40
1.0
176
     1
 90
        1
176
     1
 90
        6
176
     1
 90
        2
176
     1
 62
     7
176
     1
 90
        5
176
     1
 90
        0
176
     1
 90
        0
176
     1
290
     0
176
     1
 90
        1
176
     1
 40
0.0
176
     1
 90
        0
176
     1
290
     0
176
     1
290
     1
176
     1
290
     1
176
     1
290
     0
176
     1
290
     0
176
     1
290
     0
176
     1
290
     0
176
     1
290
     0
176
     1
290
     0
176
     1
 90
       50
176
     1
 40
0.0
176
     1
 40
1.0
176
     1
 90
        0
176
     1
 62
    18
420
        0
176
     1
 90
       50
176
     1
 90
        3
176
     1
 62
     5
420
      255
176
     1
290
     0
176
     1
 90
       50
176
     1
 90
       50
176
     1
 90
       50
176
     1
290
     0
176
     1
 90
       50
176
     1
 62
   256
176
     0
 40
1.0
176
     0
 90
        2
176
     1
  1
strokes_ogs.tif
176
     1
290
     0
176
     1
 40
1.0
176
     1
 40
1.0
176
     1
  0
VISUALSTYLE
  5
84
102
{ACAD_REACTORS
330
82
102
}
330
82
100
AcDbVisualStyle
  2
FlatWithEdges
 70
     1
177
     3
291
     1
 70
    58
 90
        2
176
     1
 90
        1
176
     1
 90
        1
176
     1
 90
        2
176
     1
 40
0.6
176
     1
 40
30.0
176
     1
 62
     7
420
 16777215
176
     1
 90
        1
176
     1
 90
        4
176
     1
 62
     7
176
     1
 62
   257
176
     1
 90
        1
176
     1
 90
        1
176
     1
 40
1.0
176
     1
 90
        0
176
     1
 62
   257
176
     1
 40
1.0
176
     1
 90
        1
176
     1
 90
        6
176
     1
 90
        2
176
     1
 62
     7
176
     1
 90
        5
176
     1
 90
        0
176
     1
 90
        0
176
     1
290
     0
176
     1
 90
        1
176
     1
 40
0.0
176
     1
 90
        0
176
     1
290
     0
176
     1
290
     1
176
     1
290
     1
176
     1
290
     0
176
     1
290
     0
176
     1
290
     0
176
     1
290
     0
176
     1
290
     0
176
     1
290
     0
176
     1
 90
       50
176
     1
 40
0.0
176
     1
 40
1.0
176
     1
 90
        0
176
     1
 62
    18
420
        0
176
     1
 90
       50
176
     1
 90
        3
176
     1
 62
     5
420
      255
176
     1
290
     0
176
     1
 90
       50
176
     1
 90
       50
176
     1
 90
       50
176
     1
290
     0
176
     1
 90
       50
176
     1
 62
   256
176
     0
 40
1.0
176
     0
 90
        2
176
     1
  1
strokes_ogs.tif
176
     1
290
     0
176
     1
 40
1.0
176
     1
 40
1.0
176
     1
  0
VISUALSTYLE
  5
85
102
{ACAD_REACTORS
330
82
102
}
330
82
100
AcDbVisualStyle
  2
Gouraud
 70
     2
177
     3
291
     1
 70
    58
 90
        2
176
     1
 90
        2
176
     1
 90
        1
176
     1
 90
        2
176
     1
 40
0.6
176
     1
 40
30.0
176
     1
 62
     7
420
 16777215
176
     1
 90
        0
176
     1
 90
        4
176
     1
 62
     7
176
     1
 62
   257
176
     1
 90
        1
176
     1
 90
        1
176
     1
 40
1.0
176
     1
 90
        0
176
     1
 62
     7
176
     1
 40
1.0
176
     1
 90
        1
176
     1
 90
        6
176
     1
 90
        2
176
     1
 62
     7
176
     1
 90
        5
176
     1
 90
        0
176
     1
 90
        0
176
     1
290
     0
176
     1
 90
        1
176
     1
 40
0.0
176
     1
 90
        0
176
     1
290
     0
176
     1
290
     1
176
     1
290
     1
176
     1
290
     0
176
     1
290
     0
176
     1
290
     0
176
     1
290
     0
176
     1
290
     0
176
     1
290
     0
176
     1
 90
       50
176
     1
 40
0.0
176
     1
 40
1.0
176
     1
 90
        0
176
     1
 62
    18
420
        0
176
     1
 90
       50
176
     1
 90
        3
176
     1
 62
     5
420
      255
176
     1
290
     0
176
     1
 90
       50
176
     1
 90
       50
176
     1
 90
       50
176
     1
290
     0
176
     1
 90
       50
176
     1
 62
   256
176
     0
 40
1.0
176
     0
 90
        2
176
     1
  1
strokes_ogs.tif
176
     1
290
     0
176
     1
 40
1.0
176
     1
 40
1.0
176
     1
  0
VISUALSTYLE
  5
86
102
{ACAD_REACTORS
330
82
102
}
330
82
100
AcDbVisualStyle
  2
GouraudWithEdges
 70
     3
177
     3
291
     1
 70
    58
 90
        2
176
     1
 90
        2
176
     1
 90
        1
176
     1
 90
        2
176
     1
 40
0.6
176
     1
 40
30.0
176
     1
 62
     7
420
 16777215
176
     1
 90
        1
176
     1
 90
        4
176
     1
 62
     7
176
     1
 62
   257
176
     1
 90
        1
176
     1
 90
        1
176
     1
 40
1.0
176
     1
 90
        0
176
     1
 62
   257
176
     1
 40
1.0
176
     1
 90
        1
176
     1
 90
        6
176
     1
 90
        2
176
     1
 62
     7
176
     1
 90
        5
176
     1
 90
        0
176
     1
 90
        0
176
     1
290
     0
176
     1
 90
        1
176
     1
 40
0.0
176
     1
 90
        0
176
     1
290
     0
176
     1
290
     1
176
     1
290
     1
176
     1
290
     0
176
     1
290
     0
176
     1
290
     0
176
     1
290
     0
176
     1
290
     0
176
     1
290
     0
176
     1
 90
       50
176
     1
 40
0.0
176
     1
 40
1.0
176
     1
 90
        0
176
     1
 62
    18
420
        0
176
     1
 90
       50
176
     1
 90
        3
176
     1
 62
     5
420
      255
176
     1
290
     0
176
     1
 90
       50
176
     1
 90
       50
176
     1
 90
       50
176
     1
290
     0
176
     1
 90
       50
176
     1
 62
   256
176
     0
 40
1.0
176
     0
 90
        2
176
     1
  1
strokes_ogs.tif
176
     1
290
     0
176
     1
 40
1.0
176
     1
 40
1.0
176
     1
  0
VISUALSTYLE
  5
A6
102
{ACAD_REACTORS
330
82
102
}
330
82
100
AcDbVisualStyle
  2
Hidden
 70
     6
177
     3
291
     0
 70
    58
 90
        1
176
     1
 90
        2
176
     1
 90
        2
176
     1
 90
        0
176
     1
 40
0.6
176
     1
 40
30.0
176
     1
 62
     7
420
 16777215
176
     1
 90
        2
176
     1
 90
        2
176
     1
 62
     7
176
     1
 62
   257
176
     1
 90
        2
176
     1
 90
        1
176
     1
 40
40.0
176
     1
 90
        0
176
     1
 62
   257
176
     1
 40
1.0
176
     1
 90
        1
176
     1
 90
        6
176
     1
 90
        2
176
     1
 62
     7
176
     1
 90
        3
176
     1
 90
        0
176
     1
 90
        0
176
     1
290
     0
176
     1
 90
        1
176
     1
 40
0.0
176
     1
 90
        0
176
     1
290
     0
176
     1
290
     1
176
     1
290
     1
176
     1
290
     0
176
     1
290
     0
176
     1
290
     0
176
     1
290
     0
176
     1
290
     0
176
     1
290
     0
176
     1
 90
       50
176
     1
 40
0.0
176
     1
 40
1.0
176
     1
 90
        0
176
     1
 62
    18
420
        0
176
     1
 90
       50
176
     1
 90
        3
176
     1
 62
     5
420
      255
176
     1
290
     0
176
     1
 90
       50
176
     1
 90
       50
176
     1
 90
       50
176
     1
290
     0
176
     1
 90
       50
176
     1
 62
   256
176
     0
 40
1.0
176
     0
 90
        2
176
     1
  1
strokes_ogs.tif
176
     1
290
     0
176
     1
 40
1.0
176
     1
 40
1.0
176
     1
  0
VISUALSTYLE
  5
AC
102
{ACAD_REACTORS
330
82
102
}
330
82
100
AcDbVisualStyle
  2
JitterOff
 70
    20
177
     3
291
     1
 70
    58
 90
        2
176
     0
 90
        2
176
     0
 90
        0
176
     0
 90
        0
176
     0
 40
0.6
176
     0
 40
30.0
176
     0
 62
     7
420
 16777215
176
     0
 90
        1
176
     0
 90
        4
176
     0
 62
     7
176
     0
 62
   257
176
     0
 90
        1
176
     0
 90
        1
176
     0
 40
1.0
176
     0
 90
       10
176
     2
 62
     7
176
     0
 40
1.0
176
     0
 90
        1
176
     0
 90
        6
176
     0
 90
        2
176
     0
 62
     7
176
     0
 90
        5
176
     0
 90
        0
176
     0
 90
        0
176
     0
290
     0
176
     0
 90
        1
176
     0
 40
0.0
176
     0
 90
        0
176
     0
290
     0
176
     0
290
     1
176
     0
290
     1
176
     0
290
     0
176
     0
290
     0
176
     0
290
     0
176
     0
290
     0
176
     0
290
     0
176
     0
290
     0
176
     0
 90
       50
176
     0
 40
0.0
176
     0
 40
1.0
176
     0
 90
        0
176
     0
 62
    18
420
        0
176
     0
 90
       50
176
     0
 90
        3
176
     0
 62
     5
420
      255
176
     0
290
     0
176
     0
 90
       50
176
     0
 90
       50
176
     0
 90
       50
176
     0
290
     0
176
     0
 90
       50
176
     0
 62
   256
176
     0
 40
1.0
176
     0
 90
        2
176
     0
  1
strokes_ogs.tif
176
     0
290
     0
176
     0
 40
1.0
176
     0
 40
1.0
176
     0
  0
VISUALSTYLE
  5
90
102
{ACAD_REACTORS
330
82
102
}
330
82
100
AcDbVisualStyle
  2
Linepattern
 70
    14
177
     3
291
     1
 70
    58
 90
        2
176
     1
 90
        2
176
     1
 90
        1
176
     1
 90
        0
176
     1
 40
0.6
176
     1
 40
30.0
176
     1
 62
     7
420
 16777215
176
     1
 90
        1
176
     1
 90
        4
176
     1
 62
     7
176
     1
 62
   257
176
     1
 90
        7
176
     1
 90
        7
176
     1
 40
1.0
176
     1
 90
        8
176
     1
 62
     7
176
     1
 40
1.0
176
     1
 90
        1
176
     1
 90
        6
176
     1
 90
        2
176
     1
 62
     7
176
     1
 90
        5
176
     1
 90
        0
176
     1
 90
        0
176
     1
290
     0
176
     1
 90
        1
176
     1
 40
0.0
176
     1
 90
        0
176
     1
290
     0
176
     1
290
     1
176
     1
290
     1
176
     1
290
     0
176
     1
290
     0
176
     1
290
     0
176
     1
290
     0
176
     1
290
     0
176
     1
290
     0
176
     1
 90
       50
176
     1
 40
0.0
176
     1
 40
1.0
176
     1
 90
        0
176
     1
 62
    18
420
        0
176
     1
 90
       50
176
     1
 90
        3
176
     1
 62
     5
420
      255
176
     1
290
     0
176
     1
 90
       50
176
     1
 90
       50
176
     1
 90
       50
176
     1
290
     0
176
     1
 90
       50
176
     1
 62
   256
176
     0
 40
1.0
176
     0
 90
        2
176
     1
  1
strokes_ogs.tif
176
     1
290
     0
176
     1
 40
1.0
176
     1
 40
1.0
176
     1
  0
VISUALSTYLE
  5
AD
102
{ACAD_REACTORS
330
82
102
}
330
82
100
AcDbVisualStyle
  2
OverhangOff
 70
    21
177
     3
291
     1
 70
    58
 90
        2
176
     0
 90
        2
176
     0
 90
        0
176
     0
 90
        0
176
     0
 40
0.6
176
     0
 40
30.0
176
     0
 62
     7
420
 16777215
176
     0
 90
        1
176
     0
 90
        4
176
     0
 62
     7
176
     0
 62
   257
176
     0
 90
        1
176
     0
 90
        1
176
     0
 40
1.0
176
     0
 90
        9
176
     2
 62
     7
176
     0
 40
1.0
176
     0
 90
        1
176
     0
 90
        6
176
     0
 90
        2
176
     0
 62
     7
176
     0
 90
        5
176
     0
 90
        0
176
     0
 90
        0
176
     0
290
     0
176
     0
 90
        1
176
     0
 40
0.0
176
     0
 90
        0
176
     0
290
     0
176
     0
290
     1
176
     0
290
     1
176
     0
290
     0
176
     0
290
     0
176
     0
290
     0
176
     0
290
     0
176
     0
290
     0
176
     0
290
     0
176
     0
 90
       50
176
     0
 40
0.0
176
     0
 40
1.0
176
     0
 90
        0
176
     0
 62
    18
420
        0
176
     0
 90
       50
176
     0
 90
        3
176
     0
 62
     5
420
      255
176
     0
290
     0
176
     0
 90
       50
176
     0
 90
       50
176
     0
 90
       50
176
     0
290
     0
176
     0
 90
       50
176
     0
 62
   256
176
     0
 40
1.0
176
     0
 90
        2
176
     0
  1
strokes_ogs.tif
176
     0
290
     0
176
     0
 40
1.0
176
     0
 40
1.0
176
     0
  0
VISUALSTYLE
  5
8C
102
{ACAD_REACTORS
330
82
102
}
330
82
100
AcDbVisualStyle
  2
Realistic
 70
     8
177
     3
291
     0
 70
    58
 90
        2
176
     1
 90
        2
176
     1
 90
        1
176
     1
 90
        0
176
     1
 40
0.6
176
     1
 40
30.0
176
     1
 62
     7
420
 16777215
176
     1
 90
        1
176
     1
 90
        0
176
     1
 62
     7
176
     1
 62
   257
176
     1
 90
        1
176
     1
 90
        1
176
     1
 40
1.0
176
     1
 90
        8
176
     1
 62
     7
176
     1
 40
1.0
176
     1
 90
        1
176
     1
 90
        6
176
     1
 90
        2
176
     1
 62
     7
176
     1
 90
        5
176
     1
 90
        0
176
     1
 90
        0
176
     1
290
     0
176
     1
 90
       13
176
     1
 40
0.0
176
     1
 90
        0
176
     1
290
     0
176
     1
290
     1
176
     1
290
     1
176
     1
290
     0
176
     1
290
     0
176
     1
290
     0
176
     1
290
     0
176
     1
290
     0
176
     1
290
     0
176
     1
 90
       50
176
     1
 40
0.0
176
     1
 40
1.0
176
     1
 90
        0
176
     1
 62
    18
420
        0
176
     1
 90
       50
176
     1
 90
        3
176
     1
 62
     5
420
      255
176
     1
290
     0
176
     1
 90
       50
176
     1
 90
       50
176
     1
 90
       50
176
     1
290
     0
176
     1
 90
       50
176
     1
 62
   256
176
     0
 40
1.0
176
     0
 90
        2
176
     1
  1
strokes_ogs.tif
176
     1
290
     0
176
     1
 40
1.0
176
     1
 40
1.0
176
     1
  0
VISUALSTYLE
  5
AB
102
{ACAD_REACTORS
330
82
102
}
330
82
100
AcDbVisualStyle
  2
Shaded
 70
    27
177
     3
291
     0
 70
    58
 90
        2
176
     1
 90
        2
176
     1
 90
        1
176
     1
 90
        2
176
     1
 40
0.6
176
     1
 40
30.0
176
     1
 62
     7
420
 16777215
176
     1
 90
        0
176
     1
 90
        4
176
     1
 62
     7
176
     1
 62
   257
176
     1
 90
        1
176
     1
 90
        1
176
     1
 40
1.0
176
     1
 90
        8
176
     1
 62
   257
176
     1
 40
1.0
176
     1
 90
        1
176
     1
 90
        6
176
     1
 90
        2
176
     1
 62
     8
420
  7895160
176
     1
 90
        3
176
     1
 90
        0
176
     1
 90
        0
176
     1
290
     0
176
     1
 90
        5
176
     1
 40
0.0
176
     1
 90
        0
176
     1
290
     0
176
     1
290
     1
176
     1
290
     1
176
     1
290
     0
176
     1
290
     0
176
     1
290
     0
176
     1
290
     0
176
     1
290
     0
176
     1
290
     0
176
     1
 90
       50
176
     1
 40
0.0
176
     1
 40
1.0
176
     1
 90
        0
176
     1
 62
    18
420
        0
176
     1
 90
       50
176
     1
 90
        3
176
     1
 62
     5
420
      255
176
     1
290
     0
176
     1
 90
       50
176
     1
 90
       50
176
     1
 90
       50
176
     1
290
     0
176
     1
 90
       50
176
     1
 62
   256
176
     0
 40
1.0
176
     0
 90
        2
176
     1
  1
strokes_ogs.tif
176
     1
290
     0
176
     1
 40
1.0
176
     1
 40
1.0
176
     1
  0
VISUALSTYLE
  5
AA
102
{ACAD_REACTORS
330
82
102
}
330
82
100
AcDbVisualStyle
  2
Shaded with edges
 70
    26
177
     3
291
     0
 70
    58
 90
        2
176
     1
 90
        2
176
     1
 90
        1
176
     1
 90
        2
176
     1
 40
0.6
176
     1
 40
30.0
176
     1
 62
     7
420
 16777215
176
     1
 90
        1
176
     1
 90
        2
176
     1
 62
     7
176
     1
 62
   257
176
     1
 90
        2
176
     1
 90
        1
176
     1
 40
1.0
176
     1
 90
        8
176
     1
 62
   257
176
     1
 40
1.0
176
     1
 90
        1
176
     1
 90
        6
176
     1
 90
        2
176
     1
 62
     7
176
     1
 90
        3
176
     1
 90
        0
176
     1
 90
        0
176
     1
290
     0
176
     1
 90
        5
176
     1
 40
0.0
176
     1
 90
        0
176
     1
290
     0
176
     1
290
     1
176
     1
290
     1
176
     1
290
     0
176
     1
290
     0
176
     1
290
     0
176
     1
290
     0
176
     1
290
     0
176
     1
290
     0
176
     1
 90
       50
176
     1
 40
0.0
176
     1
 40
1.0
176
     1
 90
        0
176
     1
 62
    18
420
        0
176
     1
 90
       50
176
     1
 90
        3
176
     1
 62
     5
420
      255
176
     1
290
     0
176
     1
 90
       50
176
     1
 90
       50
176
     1
 90
       50
176
     1
290
     0
176
     1
 90
       50
176
     1
 62
   256
176
     0
 40
1.0
176
     0
 90
        2
176
     1
  1
strokes_ogs.tif
176
     1
290
     0
176
     1
 40
1.0
176
     1
 40
1.0
176
     1
  0
VISUALSTYLE
  5
A7
102
{ACAD_REACTORS
330
82
102
}
330
82
100
AcDbVisualStyle
  2
Shades of Gray
 70
    23
177
     3
291
     0
 70
    58
 90
        2
176
     1
 90
        2
176
     1
 90
        3
176
     1
 90
        0
176
     1
 40
0.6
176
     1
 40
30.0
176
     1
 62
     7
420
 16777215
176
     1
 90
        2
176
     1
 90
        2
176
     1
 62
     7
176
     1
 62
     7
176
     1
 90
        1
176
     1
 90
        1
176
     1
 40
40.0
176
     1
 90
        8
176
     1
 62
     7
176
     1
 40
1.0
176
     1
 90
        1
176
     1
 90
        6
176
     1
 90
        2
176
     1
 62
     7
176
     1
 90
        3
176
     1
 90
        0
176
     1
 90
        0
176
     1
290
     0
176
     1
 90
        1
176
     1
 40
0.0
176
     1
 90
        0
176
     1
290
     0
176
     1
290
     1
176
     1
290
     1
176
     1
290
     0
176
     1
290
     0
176
     1
290
     0
176
     1
290
     0
176
     1
290
     0
176
     1
290
     0
176
     1
 90
       50
176
     1
 40
0.0
176
     1
 40
1.0
176
     1
 90
        0
176
     1
 62
    18
420
        0
176
     1
 90
       50
176
     1
 90
        3
176
     1
 62
     5
420
      255
176
     1
290
     0
176
     1
 90
       50
176
     1
 90
       50
176
     1
 90
       50
176
     1
290
     0
176
     1
 90
       50
176
     1
 62
   256
176
     0
 40
1.0
176
     0
 90
        2
176
     1
  1
strokes_ogs.tif
176
     1
290
     0
176
     1
 40
1.0
176
     1
 40
1.0
176
     1
  0
VISUALSTYLE
  5
A8
102
{ACAD_REACTORS
330
82
102
}
330
82
100
AcDbVisualStyle
  2
Sketchy
 70
    24
177
     3
291
     0
 70
    58
 90
        1
176
     1
 90
        2
176
     1
 90
        2
176
     1
 90
        0
176
     1
 40
0.6
176
     1
 40
30.0
176
     1
 62
     7
420
 16777215
176
     1
 90
        2
176
     1
 90
        2
176
     1
 62
     7
176
     1
 62
     7
176
     1
 90
        1
176
     1
 90
        1
176
     1
 40
40.0
176
     1
 90
       11
176
     1
 62
     7
176
     1
 40
1.0
176
     1
 90
        1
176
     1
 90
        6
176
     1
 90
        2
176
     1
 62
     7
176
     1
 90
        6
176
     1
 90
        0
176
     1
 90
        0
176
     1
290
     0
176
     1
 90
        1
176
     1
 40
0.0
176
     1
 90
        0
176
     1
290
     0
176
     1
290
     1
176
     1
290
     1
176
     1
290
     0
176
     1
290
     0
176
     1
290
     0
176
     1
290
     0
176
     1
290
     0
176
     1
290
     0
176
     1
 90
       50
176
     1
 40
0.0
176
     1
 40
1.0
176
     1
 90
        0
176
     1
 62
    18
420
        0
176
     1
 90
       50
176
     1
 90
        3
176
     1
 62
     5
420
      255
176
     1
290
     0
176
     1
 90
       50
176
     1
 90
       50
176
     1
 90
       50
176
     1
290
     0
176
     1
 90
       50
176
     1
 62
   256
176
     0
 40
1.0
176
     0
 90
        2
176
     1
  1
strokes_ogs.tif
176
     1
290
     0
176
     1
 40
1.0
176
     1
 40
1.0
176
     1
  0
VISUALSTYLE
  5
8F
102
{ACAD_REACTORS
330
82
102
}
330
82
100
AcDbVisualStyle
  2
Thicken
 70
    13
177
     3
291
     1
 70
    58
 90
        2
176
     1
 90
        2
176
     1
 90
        1
176
     1
 90
        0
176
     1
 40
0.6
176
     1
 40
30.0
176
     1
 62
     7
420
 16777215
176
     1
 90
        1
176
     1
 90
        4
176
     1
 62
     7
176
     1
 62
   257
176
     1
 90
        1
176
     1
 90
        1
176
     1
 40
1.0
176
     1
 90
       12
176
     1
 62
     7
176
     1
 40
1.0
176
     1
 90
        1
176
     1
 90
        6
176
     1
 90
        2
176
     1
 62
     7
176
     1
 90
        5
176
     1
 90
        0
176
     1
 90
        0
176
     1
290
     0
176
     1
 90
        1
176
     1
 40
0.0
176
     1
 90
        0
176
     1
290
     0
176
     1
290
     1
176
     1
290
     1
176
     1
290
     0
176
     1
290
     0
176
     1
290
     0
176
     1
290
     0
176
     1
290
     0
176
     1
290
     0
176
     1
 90
       50
176
     1
 40
0.0
176
     1
 40
1.0
176
     1
 90
        0
176
     1
 62
    18
420
        0
176
     1
 90
       50
176
     1
 90
        3
176
     1
 62
     5
420
      255
176
     1
290
     0
176
     1
 90
       50
176
     1
 90
       50
176
     1
 90
       50
176
     1
290
     0
176
     1
 90
       50
176
     1
 62
   256
176
     0
 40
1.0
176
     0
 90
        2
176
     1
  1
strokes_ogs.tif
176
     1
290
     0
176
     1
 40
1.0
176
     1
 40
1.0
176
     1
  0
VISUALSTYLE
  5
A5
102
{ACAD_REACTORS
330
82
102
}
330
82
100
AcDbVisualStyle
  2
Wireframe
 70
     5
177
     3
291
     0
 70
    58
 90
        0
176
     1
 90
        2
176
     1
 90
        0
176
     1
 90
        0
176
     1
 40
0.6
176
     1
 40
30.0
176
     1
 62
     7
420
 16777215
176
     1
 90
        1
176
     1
 90
        4
176
     1
 62
     7
176
     1
 62
   257
176
     1
 90
        1
176
     1
 90
        1
176
     1
 40
1.0
176
     1
 90
        0
176
     1
 62
   257
176
     1
 40
1.0
176
     1
 90
        1
176
     1
 90
        6
176
     1
 90
        2
176
     1
 62
     7
176
     1
 90
        3
176
     1
 90
        0
176
     1
 90
        0
176
     1
290
     0
176
     1
 90
        1
176
     1
 40
0.0
176
     1
 90
        0
176
     1
290
     0
176
     1
290
     1
176
     1
290
     1
176
     1
290
     0
176
     1
290
     0
176
     1
290
     0
176
     1
290
     0
176
     1
290
     0
176
     1
290
     0
176
     1
 90
       50
176
     1
 40
0.0
176
     1
 40
1.0
176
     1
 90
        0
176
     1
 62
    18
420
        0
176
     1
 90
       50
176
     1
 90
        3
176
     1
 62
     5
420
      255
176
     1
290
     0
176
     1
 90
       50
176
     1
 90
       50
176
     1
 90
       50
176
     1
290
     0
176
     1
 90
       50
176
     1
 62
   256
176
     0
 40
1.0
176
     0
 90
        2
176
     1
  1
strokes_ogs.tif
176
     1
290
     0
176
     1
 40
1.0
176
     1
 40
1.0
176
     1
  0
VISUALSTYLE
  5
A9
102
{ACAD_REACTORS
330
82
102
}
330
82
100
AcDbVisualStyle
  2
X-Ray
 70
    25
177
     3
291
     0
 70
    58
 90
        2
176
     1
 90
        2
176
     1
 90
        1
176
     1
 90
        1
176
     1
 40
0.5
176
     1
 40
30.0
176
     1
 62
     7
420
 16777215
176
     1
 90
        1
176
     1
 90
        0
176
     1
 62
     7
176
     1
 62
   257
176
     1
 90
        1
176
     1
 90
        1
176
     1
 40
1.0
176
     1
 90
        8
176
     1
 62
     7
176
     1
 40
1.0
176
     1
 90
        1
176
     1
 90
        6
176
     1
 90
        2
176
     1
 62
     7
176
     1
 90
        3
176
     1
 90
        0
176
     1
 90
        0
176
     1
290
     0
176
     1
 90
       13
176
     1
 40
0.0
176
     1
 90
        0
176
     1
290
     0
176
     1
290
     1
176
     1
290
     1
176
     1
290
     0
176
     1
290
     0
176
     1
290
     0
176
     1
290
     0
176
     1
290
     0
176
     1
290
     0
176
     1
 90
       50
176
     1
 40
0.0
176
     1
 40
1.0
176
     1
 90
        0
176
     1
 62
    18
420
        0
176
     1
 90
       50
176
     1
 90
        3
176
     1
 62
     5
420
      255
176
     1
290
     0
176
     1
 90
       50
176
     1
 90
       50
176
     1
 90
       50
176
     1
290
     0
176
     1
 90
       50
176
     1
 62
   256
176
     0
 40
1.0
176
     0
 90
        2
176
     1
  1
strokes_ogs.tif
176
     1
290
     0
176
     1
 40
1.0
176
     1
 40
1.0
176
     1
  0
DICTIONARYVAR
  5
358
102
{ACAD_REACTORS
330
9B
102
}
330
9B
100
DictionaryVariables
280
     0
  1
1:1
  0
DICTIONARYVAR
  5
354
102
{ACAD_REACTORS
330
9B
102
}
330
9B
100
DictionaryVariables
280
     0
  1
STANDARD
  0
DICTIONARYVAR
  5
9C
102
{ACAD_REACTORS
330
9B
102
}
330
9B
100
DictionaryVariables
280
     0
  1
STANDARD
  0
DICTIONARYVAR
  5
355
102
{ACAD_REACTORS
330
9B
102
}
330
9B
100
DictionaryVariables
280
     0
  1
Imperial24
  0
DICTIONARYVAR
  5
356
102
{ACAD_REACTORS
330
9B
102
}
330
9B
100
DictionaryVariables
280
     0
  1
Imperial24
  0
DICTIONARYVAR
  5
35A
102
{ACAD_REACTORS
330
9B
102
}
330
9B
100
DictionaryVariables
280
     0
  1
1
  0
DICTIONARYVAR
  5
35B
102
{ACAD_REACTORS
330
9B
102
}
330
9B
100
DictionaryVariables
280
     0
  1
15
  0
DICTIONARYVAR
  5
359
102
{ACAD_REACTORS
330
9B
102
}
330
9B
100
DictionaryVariables
280
     0
  1
0
  0
DICTIONARYVAR
  5
357
102
{ACAD_REACTORS
330
9B
102
}
330
9B
100
DictionaryVariables
280
     0
  1
0
  0
DICTIONARY
  5
360
330
C6
100
AcDbDictionary
280
     1
281
     1
  3
ACAD_XREC_ROUNDTRIP
360
361
  0
DICTIONARY
  5
35E
330
C4
100
AcDbDictionary
280
     1
281
     1
  3
ACAD_XREC_ROUNDTRIP
360
35F
  0
DICTIONARY
  5
35C
330
94
100
AcDbDictionary
280
     1
281
     1
  3
ACAD_ROUNDTRIP_2008_TABLESTYLE_CELLSTYLEMAP
360
35D
  0
XRECORD
  5
361
102
{ACAD_REACTORS
330
360
102
}
330
360
100
AcDbXrecord
280
     1
102
DISPLAYNAME
  1
Imperial24
102
FLAGS
 90
        0
  0
XRECORD
  5
35F
102
{ACAD_REACTORS
330
35E
102
}
330
35E
100
AcDbXrecord
280
     1
102
DISPLAYNAME
  1
Imperial24
102
FLAGS
 90
        0
  0
CELLSTYLEMAP
  5
35D
102
{ACAD_REACTORS
330
35C
102
}
330
35C
100
AcDbCellStyleMap
 90
        3
300
CELLSTYLE
  1
TABLEFORMAT_BEGIN
 90
        5
170
     1
 91
        0
 92
    32768
 62
   257
 93
        1
300
CONTENTFORMAT
  1
CONTENTFORMAT_BEGIN
 90
        0
 91
        0
 92
      512
 93
        0
300

 40
0.0
140
1.0
 94
        5
 62
     0
340
12
144
0.25
309
CONTENTFORMAT_END
171
     0
 94
        6
 95
        1
302
GRIDFORMAT
  1
GRIDFORMAT_BEGIN
 90
        0
 91
        1
 62
     0
 92
       -2
340
0
 93
        0
 40
0.045
309
GRIDFORMAT_END
 95
        2
302
GRIDFORMAT
  1
GRIDFORMAT_BEGIN
 90
        0
 91
        1
 62
     0
 92
       -2
340
0
 93
        0
 40
0.045
309
GRIDFORMAT_END
 95
        4
302
GRIDFORMAT
  1
GRIDFORMAT_BEGIN
 90
        0
 91
        1
 62
     0
 92
       -2
340
0
 93
        0
 40
0.045
309
GRIDFORMAT_END
 95
        8
302
GRIDFORMAT
  1
GRIDFORMAT_BEGIN
 90
        0
 91
        1
 62
     0
 92
       -2
340
0
 93
        0
 40
0.045
309
GRIDFORMAT_END
 95
       16
302
GRIDFORMAT
  1
GRIDFORMAT_BEGIN
 90
        0
 91
        1
 62
     0
 92
       -2
340
0
 93
        0
 40
0.045
309
GRIDFORMAT_END
 95
       32
302
GRIDFORMAT
  1
GRIDFORMAT_BEGIN
 90
        0
 91
        1
 62
     0
 92
       -2
340
0
 93
        0
 40
0.045
309
GRIDFORMAT_END
309
TABLEFORMAT_END
  1
CELLSTYLE_BEGIN
 90
        1
 91
        1
300
_TITLE
309
CELLSTYLE_END
300
CELLSTYLE
  1
TABLEFORMAT_BEGIN
 90
        5
170
     1
 91
        0
 92
        0
 62
   257
 93
        1
300
CONTENTFORMAT
  1
CONTENTFORMAT_BEGIN
 90
        0
 91
        0
 92
      512
 93
        0
300

 40
0.0
140
1.0
 94
        5
 62
     0
340
12
144
0.18
309
CONTENTFORMAT_END
171
     0
 94
        6
 95
        1
302
GRIDFORMAT
  1
GRIDFORMAT_BEGIN
 90
        0
 91
        1
 62
     0
 92
       -2
340
0
 93
        0
 40
0.045
309
GRIDFORMAT_END
 95
        2
302
GRIDFORMAT
  1
GRIDFORMAT_BEGIN
 90
        0
 91
        1
 62
     0
 92
       -2
340
0
 93
        0
 40
0.045
309
GRIDFORMAT_END
 95
        4
302
GRIDFORMAT
  1
GRIDFORMAT_BEGIN
 90
        0
 91
        1
 62
     0
 92
       -2
340
0
 93
        0
 40
0.045
309
GRIDFORMAT_END
 95
        8
302
GRIDFORMAT
  1
GRIDFORMAT_BEGIN
 90
        0
 91
        1
 62
     0
 92
       -2
340
0
 93
        0
 40
0.045
309
GRIDFORMAT_END
 95
       16
302
GRIDFORMAT
  1
GRIDFORMAT_BEGIN
 90
        0
 91
        1
 62
     0
 92
       -2
340
0
 93
        0
 40
0.045
309
GRIDFORMAT_END
 95
       32
302
GRIDFORMAT
  1
GRIDFORMAT_BEGIN
 90
        0
 91
        1
 62
     0
 92
       -2
340
0
 93
        0
 40
0.045
309
GRIDFORMAT_END
309
TABLEFORMAT_END
  1
CELLSTYLE_BEGIN
 90
        2
 91
        1
300
_HEADER
309
CELLSTYLE_END
300
CELLSTYLE
  1
TABLEFORMAT_BEGIN
 90
        5
170
     1
 91
        0
 92
        0
 62
   257
 93
        1
300
CONTENTFORMAT
  1
CONTENTFORMAT_BEGIN
 90
        0
 91
        0
 92
      512
 93
        0
300

 40
0.0
140
1.0
 94
        2
 62
     0
340
12
144
0.18
309
CONTENTFORMAT_END
171
     0
 94
        6
 95
        1
302
GRIDFORMAT
  1
GRIDFORMAT_BEGIN
 90
        0
 91
        1
 62
     0
 92
       -2
340
0
 93
        0
 40
0.045
309
GRIDFORMAT_END
 95
        2
302
GRIDFORMAT
  1
GRIDFORMAT_BEGIN
 90
        0
 91
        1
 62
     0
 92
       -2
340
0
 93
        0
 40
0.045
309
GRIDFORMAT_END
 95
        4
302
GRIDFORMAT
  1
GRIDFORMAT_BEGIN
 90
        0
 91
        1
 62
     0
 92
       -2
340
0
 93
        0
 40
0.045
309
GRIDFORMAT_END
 95
        8
302
GRIDFORMAT
  1
GRIDFORMAT_BEGIN
 90
        0
 91
        1
 62
     0
 92
       -2
340
0
 93
        0
 40
0.045
309
GRIDFORMAT_END
 95
       16
302
GRIDFORMAT
  1
GRIDFORMAT_BEGIN
 90
        0
 91
        1
 62
     0
 92
       -2
340
0
 93
        0
 40
0.045
309
GRIDFORMAT_END
 95
       32
302
GRIDFORMAT
  1
GRIDFORMAT_BEGIN
 90
        0
 91
        1
 62
     0
 92
       -2
340
0
 93
        0
 40
0.045
309
GRIDFORMAT_END
309
TABLEFORMAT_END
  1
CELLSTYLE_BEGIN
 90
        3
 91
        2
300
_DATA
309
CELLSTYLE_END
  0
ENDSEC
  0
EOF
