  0
SECTION
  2
HEADER
  9
$ACADVER
  1
AC1012
  9
$DWGCODEPAGE
  3
ANSI_1252
  9
$INSBASE
 10
0.0
 20
0.0
 30
0.0
  9
$EXTMIN
 10
-630.0454516516197
 20
-695.0455675731679
 30
-0.00000001
  9
$EXTMAX
 10
724.6052713366871
 20
946.3774514553142
 30
0.00000001
  9
$LIMMIN
 10
0.0
 20
0.0
  9
$LIMMAX
 10
420.0
 20
297.0
  9
$ORTHOMODE
 70
     0
  9
$REGENMODE
 70
     1
  9
$FILLMODE
 70
     1
  9
$QTEXTMODE
 70
     0
  9
$MIRRTEXT
 70
     1
  9
$DRAGMODE
 70
     2
  9
$LTSCALE
 40
1.0
  9
$OSMODE
 70
   547
  9
$ATTMODE
 70
     1
  9
$TEXTSIZE
 40
2.5
  9
$TRACEWID
 40
1.0
  9
$TEXTSTYLE
  7
STANDARD
  9
$CLAYER
  8
0
  9
$CELTYPE
  6
BYLAYER
  9
$CECOLOR
 62
   256
  9
$CELTSCALE
 40
1.0
  9
$DELOBJ
 70
     1
  9
$DISPSILH
 70
     0
  9
$DIMSCALE
 40
1.0
  9
$DIMASZ
 40
2.5
  9
$DIMEXO
 40
0.625
  9
$DIMDLI
 40
3.75
  9
$DIMRND
 40
0.0
  9
$DIMDLE
 40
0.0
  9
$DIMEXE
 40
1.25
  9
$DIMTP
 40
0.0
  9
$DIMTM
 40
0.0
  9
$DIMTXT
 40
2.5
  9
$DIMCEN
 40
2.5
  9
$DIMTSZ
 40
0.0
  9
$DIMTOL
 70
     0
  9
$DIMLIM
 70
     0
  9
$DIMTIH
 70
     0
  9
$DIMTOH
 70
     0
  9
$DIMSE1
 70
     0
  9
$DIMSE2
 70
     0
  9
$DIMTAD
 70
     1
  9
$DIMZIN
 70
     8
  9
$DIMBLK
  1

  9
$DIMASO
 70
     1
  9
$DIMSHO
 70
     1
  9
$DIMPOST
  1

  9
$DIMAPOST
  1

  9
$DIMALT
 70
     0
  9
$DIMALTD
 70
     3
  9
$DIMALTF
 40
0.03937007874016
  9
$DIMLFAC
 40
1.0
  9
$DIMTOFL
 70
     1
  9
$DIMTVP
 40
0.0
  9
$DIMTIX
 70
     0
  9
$DIMSOXD
 70
     0
  9
$DIMSAH
 70
     0
  9
$DIMBLK1
  1

  9
$DIMBLK2
  1

  9
$DIMSTYLE
  2
ISO-25
  9
$DIMCLRD
 70
     0
  9
$DIMCLRE
 70
     0
  9
$DIMCLRT
 70
     0
  9
$DIMTFAC
 40
1.0
  9
$DIMGAP
 40
0.625
  9
$DIMJUST
 70
     0
  9
$DIMSD1
 70
     0
  9
$DIMSD2
 70
     0
  9
$DIMTOLJ
 70
     0
  9
$DIMTZIN
 70
     8
  9
$DIMALTZ
 70
     0
  9
$DIMALTTZ
 70
     0
  9
$DIMFIT
 70
     3
  9
$DIMUPT
 70
     0
  9
$DIMUNIT
 70
     2
  9
$DIMDEC
 70
     2
  9
$DIMTDEC
 70
     2
  9
$DIMALTU
 70
     2
  9
$DIMALTTD
 70
     3
  9
$DIMTXSTY
  7
STANDARD
  9
$DIMAUNIT
 70
     0
  9
$LUNITS
 70
     2
  9
$LUPREC
 70
     4
  9
$SKETCHINC
 40
1.0
  9
$FILLETRAD
 40
10.0
  9
$AUNITS
 70
     0
  9
$AUPREC
 70
     0
  9
$MENU
  1
.
  9
$ELEVATION
 40
0.0
  9
$PELEVATION
 40
0.0
  9
$THICKNESS
 40
0.0
  9
$LIMCHECK
 70
     0
  9
$BLIPMODE
 70
     0
  9
$CHAMFERA
 40
10.0
  9
$CHAMFERB
 40
10.0
  9
$CHAMFERC
 40
20.0
  9
$CHAMFERD
 40
0.0
  9
$SKPOLY
 70
     0
  9
$TDCREATE
 40
2456367.398034213
  9
$TDUPDATE
 40
2456367.411434097
  9
$TDINDWG
 40
0.0134040394
  9
$TDUSRTIMER
 40
0.0134000579
  9
$USRTIMER
 70
     1
  9
$ANGBASE
 50
0.0
  9
$ANGDIR
 70
     0
  9
$PDMODE
 70
     0
  9
$PDSIZE
 40
0.0
  9
$PLINEWID
 40
0.0
  9
$COORDS
 70
     1
  9
$SPLFRAME
 70
     0
  9
$SPLINETYPE
 70
     6
  9
$SPLINESEGS
 70
     8
  9
$ATTDIA
 70
     0
  9
$ATTREQ
 70
     1
  9
$HANDLING
 70
 10241
  9
$HANDSEED
  5
5A5
  9
$SURFTAB1
 70
     6
  9
$SURFTAB2
 70
     6
  9
$SURFTYPE
 70
     6
  9
$SURFU
 70
     6
  9
$SURFV
 70
     6
  9
$UCSNAME
  2

  9
$UCSORG
 10
0.0
 20
0.0
 30
0.0
  9
$UCSXDIR
 10
1.0
 20
0.0
 30
0.0
  9
$UCSYDIR
 10
0.0
 20
1.0
 30
0.0
  9
$PUCSNAME
  2

  9
$PUCSORG
 10
0.0
 20
0.0
 30
0.0
  9
$PUCSXDIR
 10
1.0
 20
0.0
 30
0.0
  9
$PUCSYDIR
 10
0.0
 20
1.0
 30
0.0
  9
$USERI1
 70
     0
  9
$USERI2
 70
     0
  9
$USERI3
 70
     0
  9
$USERI4
 70
     0
  9
$USERI5
 70
     0
  9
$USERR1
 40
0.0
  9
$USERR2
 40
0.0
  9
$USERR3
 40
0.0
  9
$USERR4
 40
0.0
  9
$USERR5
 40
0.0
  9
$WORLDVIEW
 70
     1
  9
$SHADEDGE
 70
     3
  9
$SHADEDIF
 70
    70
  9
$TILEMODE
 70
     1
  9
$MAXACTVP
 70
    64
  9
$PINSBASE
 10
0.0
 20
0.0
 30
0.0
  9
$PLIMCHECK
 70
     0
  9
$PEXTMIN
 10
1.000000000000000E+20
 20
1.000000000000000E+20
 30
1.000000000000000E+20
  9
$PEXTMAX
 10
-1.000000000000000E+20
 20
-1.000000000000000E+20
 30
-1.000000000000000E+20
  9
$PLIMMIN
 10
0.0
 20
0.0
  9
$PLIMMAX
 10
420.0
 20
297.0
  9
$UNITMODE
 70
     0
  9
$VISRETAIN
 70
     1
  9
$PLINEGEN
 70
     0
  9
$PSLTSCALE
 70
     1
  9
$TREEDEPTH
 70
  3020
  9
$PICKSTYLE
 70
     1
  9
$CMLSTYLE
  2
STANDARD
  9
$CMLJUST
 70
     0
  9
$CMLSCALE
 40
20.0
  9
$SAVEIMAGES
 70
     1
  0
ENDSEC
  0
SECTION
  2
CLASSES
  0
CLASS
  1
ACDBDICTIONARYWDFLT
  2
AcDbDictionaryWithDefault
  3
AutoCAD 2000
 90
    32768
280
     0
281
     0
  0
CLASS
  1
ACDBPLACEHOLDER
  2
AcDbPlaceHolder
  3
AutoCAD 2000
 90
    32768
280
     0
281
     0
  0
CLASS
  1
LAYOUT
  2
AcDbLayout
  3
AutoCAD 2000
 90
    32768
280
     0
281
     0
  0
CLASS
  1
LONG_TRANSACTION
  2
AcDbLongTransaction
  3
AutoCAD 2000
 90
    32768
280
     0
281
     0
  0
CLASS
  1
LWPOLYLINE
  2
AcDbPolyline
  3
AutoCAD 2000
 90
    32768
280
     0
281
     1
  0
CLASS
  1
HATCH
  2
AcDbHatch
  3
AutoCAD 2000
 90
    32768
280
     0
281
     1
  0
CLASS
  1
XRECORD
  2
AcDbXrecord
  3
AutoCAD 2000
 90
    32768
280
     0
281
     0
  0
ENDSEC
  0
SECTION
  2
TABLES
  0
TABLE
  2
VPORT
  5
8
330
0
100
AcDbSymbolTable
 70
    27
  0
VPORT
  5
59E
330
8
100
AcDbSymbolTableRecord
100
AcDbViewportTableRecord
  2
*ACTIVE
 70
     0
 10
0.0
 20
0.0
 11
1.0
 21
1.0
 12
-76.52397775024212
 22
-231.1157705580989
 13
0.0
 23
0.0
 14
10.0
 24
10.0
 15
10.0
 25
10.0
 16
0.0
 26
0.0
 36
1.0
 17
0.0
 27
0.0
 37
0.0
 40
6529.914647946838
 41
1.589677419354838
 42
50.0
 43
0.0
 44
0.0
 50
0.0
 51
0.0
 71
     0
 72
   100
 73
     1
 74
     3
 75
     0
 76
     0
 77
     0
 78
     0
  0
ENDTAB
  0
TABLE
  2
LTYPE
  5
5
330
0
100
AcDbSymbolTable
 70
     1
  0
LTYPE
  5
14
330
5
100
AcDbSymbolTableRecord
100
AcDbLinetypeTableRecord
  2
BYBLOCK
 70
     0
  3

 72
    65
 73
     0
 40
0.0
  0
LTYPE
  5
15
330
5
100
AcDbSymbolTableRecord
100
AcDbLinetypeTableRecord
  2
BYLAYER
 70
     0
  3

 72
    65
 73
     0
 40
0.0
  0
LTYPE
  5
16
330
5
100
AcDbSymbolTableRecord
100
AcDbLinetypeTableRecord
  2
CONTINUOUS
 70
     0
  3
Solid line
 72
    65
 73
     0
 40
0.0
  0
ENDTAB
  0
TABLE
  2
LAYER
  5
2
330
0
100
AcDbSymbolTable
 70
     1
  0
LAYER
  5
10
330
2
100
AcDbSymbolTableRecord
100
AcDbLayerTableRecord
  2
0
 70
     0
 62
     7
  6
CONTINUOUS
  0
ENDTAB
  0
TABLE
  2
STYLE
  5
3
330
0
100
AcDbSymbolTable
 70
     1
  0
STYLE
  5
11
330
3
100
AcDbSymbolTableRecord
100
AcDbTextStyleTableRecord
  2
STANDARD
 70
     0
 40
0.0
 41
1.0
 50
0.0
 71
     0
 42
2.5
  3
txt
  4

  0
ENDTAB
  0
TABLE
  2
VIEW
  5
6
330
0
100
AcDbSymbolTable
 70
     0
  0
ENDTAB
  0
TABLE
  2
UCS
  5
7
330
0
100
AcDbSymbolTable
 70
     0
  0
ENDTAB
  0
TABLE
  2
APPID
  5
9
330
0
100
AcDbSymbolTable
 70
     1
  0
APPID
  5
12
330
9
100
AcDbSymbolTableRecord
100
AcDbRegAppTableRecord
  2
ACAD
 70
     0
  0
ENDTAB
  0
TABLE
  2
DIMSTYLE
  5
A
330
0
100
AcDbSymbolTable
 70
     2
  0
DIMSTYLE
105
27
330
A
100
AcDbSymbolTableRecord
100
AcDbDimStyleTableRecord
  2
ISO-25
 70
     0
  3

  4

  5

  6

  7

 40
1.0
 41
2.5
 42
0.625
 43
3.75
 44
1.25
 45
0.0
 46
0.0
 47
0.0
 48
0.0
140
2.5
141
2.5
142
0.0
143
0.03937007874016
144
1.0
145
0.0
146
1.0
147
0.625
 71
     0
 72
     0
 73
     0
 74
     0
 75
     0
 76
     0
 77
     1
 78
     8
170
     0
171
     3
172
     1
173
     0
174
     0
175
     0
176
     0
177
     0
178
     0
270
     2
271
     2
272
     2
273
     2
274
     3
340
11
275
     0
280
     0
281
     0
282
     0
283
     0
284
     8
285
     0
286
     0
287
     3
288
     0
  0
DIMSTYLE
105
2B
330
A
100
AcDbSymbolTableRecord
100
AcDbDimStyleTableRecord
  2
STANDARD
 70
     0
  3

  4

  5

  6

  7

 40
1.0
 41
0.18
 42
0.0625
 43
0.38
 44
0.18
 45
0.0
 46
0.0
 47
0.0
 48
0.0
140
0.18
141
0.09
142
0.0
143
25.4
144
1.0
145
0.0
146
1.0
147
0.09
 71
     0
 72
     0
 73
     1
 74
     1
 75
     0
 76
     0
 77
     0
 78
     0
170
     0
171
     2
172
     0
173
     0
174
     0
175
     0
176
     0
177
     0
178
     0
270
     2
271
     4
272
     4
273
     2
274
     2
340
11
275
     0
280
     0
281
     0
282
     0
283
     1
284
     0
285
     0
286
     0
287
     3
288
     0
  0
ENDTAB
  0
TABLE
  2
BLOCK_RECORD
  5
1
330
0
100
AcDbSymbolTable
 70
    28
  0
BLOCK_RECORD
  5
1F
102
{ACAD_XDICTIONARY
360
5A1
102
}
330
1
100
AcDbSymbolTableRecord
100
AcDbBlockTableRecord
  2
*MODEL_SPACE
  0
BLOCK_RECORD
  5
1B
102
{ACAD_XDICTIONARY
360
59F
102
}
330
1
100
AcDbSymbolTableRecord
100
AcDbBlockTableRecord
  2
*PAPER_SPACE
  0
BLOCK_RECORD
  5
529
330
1
100
AcDbSymbolTableRecord
100
AcDbBlockTableRecord
  2
823331V
  0
ENDTAB
  0
ENDSEC
  0
SECTION
  2
BLOCKS
  0
BLOCK
  5
20
330
1F
100
AcDbEntity
  8
0
100
AcDbBlockBegin
  2
*MODEL_SPACE
 70
     0
 10
0.0
 20
0.0
 30
0.0
  3
*MODEL_SPACE
  1

  0
ENDBLK
  5
21
330
1F
100
AcDbEntity
  8
0
100
AcDbBlockEnd
  0
BLOCK
  5
1C
330
1B
100
AcDbEntity
 67
     1
  8
0
100
AcDbBlockBegin
  2
*PAPER_SPACE
 70
     0
 10
0.0
 20
0.0
 30
0.0
  3
*PAPER_SPACE
  1

  0
ENDBLK
  5
1D
330
1B
100
AcDbEntity
 67
     1
  8
0
100
AcDbBlockEnd
  0
BLOCK
  5
59B
330
529
100
AcDbEntity
  8
0
100
AcDbBlockBegin
  2
823331V
 70
     0
 10
0.0
 20
0.0
 30
0.0
  3
823331V
  1

  0
POLYLINE
  5
52A
330
529
100
AcDbEntity
  8
0
 62
     7
100
AcDb2dPolyline
 66
     1
 10
0.0
 20
0.0
 30
0.0
  0
VERTEX
  5
52B
330
52A
100
AcDbEntity
  8
0
 62
     7
100
AcDbVertex
100
AcDb2dVertex
 10
-59.81788192948997
 20
184.8114582871304
 30
0.0
  0
VERTEX
  5
52C
330
52A
100
AcDbEntity
  8
0
 62
     7
100
AcDbVertex
100
AcDb2dVertex
 10
59.81236977671358
 20
184.8114582871304
 30
0.0
  0
SEQEND
  5
52D
330
52A
100
AcDbEntity
  8
0
  0
POLYLINE
  5
52E
330
529
100
AcDbEntity
  8
0
 62
     7
100
AcDb2dPolyline
 66
     1
 10
0.0
 20
0.0
 30
0.0
  0
VERTEX
  5
52F
330
52E
100
AcDbEntity
  8
0
 62
     7
100
AcDbVertex
100
AcDb2dVertex
 10
0.0
 20
246.1341579245775
 30
0.0
  0
VERTEX
  5
530
330
52E
100
AcDbEntity
  8
0
 62
     7
100
AcDbVertex
100
AcDb2dVertex
 10
0.0
 20
119.9940537894459
 30
0.0
  0
SEQEND
  5
531
330
52E
100
AcDbEntity
  8
0
  0
POLYLINE
  5
532
330
529
100
AcDbEntity
  8
0
 62
     7
100
AcDb2dPolyline
 66
     1
 10
0.0
 20
0.0
 30
0.0
  0
VERTEX
  5
533
330
532
100
AcDbEntity
  8
0
 62
     7
100
AcDbVertex
100
AcDb2dVertex
 10
37.99526908772341
 20
379.6109374050972
 30
0.0
  0
VERTEX
  5
534
330
532
100
AcDbEntity
  8
0
 62
     7
100
AcDbVertex
100
AcDb2dVertex
 10
-38.0007812404998
 20
379.6109374050972
 30
0.0
  0
SEQEND
  5
535
330
532
100
AcDbEntity
  8
0
  0
POLYLINE
  5
536
330
529
100
AcDbEntity
  8
0
 62
     7
100
AcDb2dPolyline
 66
     1
 10
0.0
 20
0.0
 30
0.0
  0
VERTEX
  5
537
330
536
100
AcDbEntity
  8
0
 62
     7
100
AcDbVertex
100
AcDb2dVertex
 10
0.0
 20
417.6337672567027
 30
0.0
  0
VERTEX
  5
538
330
536
100
AcDbEntity
  8
0
 62
     7
100
AcDbVertex
100
AcDb2dVertex
 10
0.0
 20
341.6101561645974
 30
0.0
  0
SEQEND
  5
539
330
536
100
AcDbEntity
  8
0
  0
SPLINE
  5
53A
330
529
100
AcDbEntity
  8
0
 62
     7
100
AcDbSpline
210
0.0
220
0.0
230
1.0
 70
    11
 71
     3
 72
    17
 73
    13
 74
     0
 42
0.0000000001
 43
0.0000000001
 40
0.0
 40
0.0
 40
0.0
 40
0.0
 40
1.0
 40
1.0
 40
1.0
 40
2.0
 40
2.0
 40
2.0
 40
3.0
 40
3.0
 40
3.0
 40
4.0
 40
4.0
 40
4.0
 40
4.0
 10
51.00394964002679
 20
185.3351128008884
 30
0.0
 10
51.00394964002679
 20
213.4085068910923
 30
0.0
 10
28.22773436794307
 20
236.1792100103996
 30
0.0
 10
0.1653645832919892
 20
236.1792100103996
 30
0.0
 10
-27.90251735413548
 20
236.1792100103996
 30
0.0
 10
-50.67322047344281
 20
213.4085068910923
 30
0.0
 10
-50.67322047344281
 20
185.3351128008884
 30
0.0
 10
-50.67322047344281
 20
157.2672308634609
 30
0.0
 10
-27.90251735413548
 20
134.4799912858244
 30
0.0
 10
0.1653645832919892
 20
134.4799912858244
 30
0.0
 10
28.22773436794307
 20
134.4799912858244
 30
0.0
 10
51.00394964002679
 20
157.2672308634609
 30
0.0
 10
51.00394964002679
 20
185.3351128008884
 30
0.0
  0
SPLINE
  5
53B
330
529
100
AcDbEntity
  8
0
 62
     7
100
AcDbSpline
210
0.0
220
0.0
230
1.0
 70
    11
 71
     3
 72
    17
 73
    13
 74
     0
 42
0.0000000001
 43
0.0000000001
 40
0.0
 40
0.0
 40
0.0
 40
0.0
 40
1.0
 40
1.0
 40
1.0
 40
2.0
 40
2.0
 40
2.0
 40
3.0
 40
3.0
 40
3.0
 40
4.0
 40
4.0
 40
4.0
 40
4.0
 10
27.65998263197388
 20
379.6109374050972
 30
0.0
 10
27.65998263197388
 20
394.7969183040786
 30
0.0
 10
15.34032117672047
 20
407.1110676065556
 30
0.0
 10
0.1653645832919892
 20
407.1110676065556
 30
0.0
 10
-15.01510416291289
 20
407.1110676065556
 30
0.0
 10
-27.33476561816631
 20
394.7969183040786
 30
0.0
 10
-27.33476561816631
 20
379.6109374050972
 30
0.0
 10
-27.33476561816631
 20
364.4304686588923
 30
0.0
 10
-15.01510416291289
 20
352.1052950508626
 30
0.0
 10
0.1653645832919892
 20
352.1052950508626
 30
0.0
 10
15.34032117672047
 20
352.1052950508626
 30
0.0
 10
27.65998263197388
 20
364.4304686588923
 30
0.0
 10
27.65998263197388
 20
379.6109374050972
 30
0.0
  0
POLYLINE
  5
53C
330
529
100
AcDbEntity
  8
0
 62
     7
100
AcDb2dPolyline
 66
     1
 10
0.0
 20
0.0
 30
0.0
  0
VERTEX
  5
53D
330
53C
100
AcDbEntity
  8
0
 62
     7
100
AcDbVertex
100
AcDb2dVertex
 10
115.4685763600217
 20
2.93246527704467
 30
0.0
  0
VERTEX
  5
53E
330
53C
100
AcDbEntity
  8
0
 62
     7
100
AcDbVertex
100
AcDb2dVertex
 10
-115.4796006655745
 20
2.93246527704467
 30
0.0
  0
SEQEND
  5
53F
330
53C
100
AcDbEntity
  8
0
  0
POLYLINE
  5
540
330
529
100
AcDbEntity
  8
0
 62
     7
100
AcDb2dPolyline
 66
     1
 10
0.0
 20
0.0
 30
0.0
  0
VERTEX
  5
541
330
540
100
AcDbEntity
  8
0
 62
     7
100
AcDbVertex
100
AcDb2dVertex
 10
60.36358505435356
 20
11.06840277501068
 30
0.0
  0
VERTEX
  5
542
330
540
100
AcDbEntity
  8
0
 62
     7
100
AcDbVertex
100
AcDb2dVertex
 10
64.81189234490813
 20
-33.96037325539879
 30
0.0
  0
VERTEX
  5
543
330
540
100
AcDbEntity
  8
0
 62
     7
100
AcDbVertex
100
AcDb2dVertex
 10
69.24917532990995
 20
11.06840277501068
 30
0.0
  0
SEQEND
  5
544
330
540
100
AcDbEntity
  8
0
  0
POLYLINE
  5
545
330
529
100
AcDbEntity
  8
0
 62
     7
100
AcDb2dPolyline
 66
     1
 10
0.0
 20
0.0
 30
0.0
  0
VERTEX
  5
546
330
545
100
AcDbEntity
  8
0
 62
     7
100
AcDbVertex
100
AcDb2dVertex
 10
55.93732637490456
 20
9.734461803121945
 30
0.0
  0
VERTEX
  5
547
330
545
100
AcDbEntity
  8
0
 62
     7
100
AcDbVertex
100
AcDb2dVertex
 10
73.68094616213531
 20
9.734461803121945
 30
0.0
  0
VERTEX
  5
548
330
545
100
AcDbEntity
  8
0
 62
     7
100
AcDbVertex
100
AcDb2dVertex
 10
73.68094616213531
 20
15.45056423224847
 30
0.0
  0
VERTEX
  5
549
330
545
100
AcDbEntity
  8
0
 62
     7
100
AcDbVertex
100
AcDb2dVertex
 10
55.93732637490456
 20
15.45056423224847
 30
0.0
  0
VERTEX
  5
54A
330
545
100
AcDbEntity
  8
0
 62
     7
100
AcDbVertex
100
AcDb2dVertex
 10
55.93732637490456
 20
9.734461803121945
 30
0.0
  0
SEQEND
  5
54B
330
545
100
AcDbEntity
  8
0
  0
POLYLINE
  5
54C
330
529
100
AcDbEntity
  8
0
 62
     7
100
AcDb2dPolyline
 66
     1
 10
0.0
 20
0.0
 30
0.0
  0
VERTEX
  5
54D
330
54C
100
AcDbEntity
  8
0
 62
     7
100
AcDbVertex
100
AcDb2dVertex
 10
55.93732637490456
 20
9.734461803121945
 30
0.0
  0
VERTEX
  5
54E
330
54C
100
AcDbEntity
  8
0
 62
     7
100
AcDbVertex
100
AcDb2dVertex
 10
73.68094616213531
 20
9.734461803121945
 30
0.0
  0
VERTEX
  5
54F
330
54C
100
AcDbEntity
  8
0
 62
     7
100
AcDbVertex
100
AcDb2dVertex
 10
73.68094616213531
 20
15.45056423224847
 30
0.0
  0
VERTEX
  5
550
330
54C
100
AcDbEntity
  8
0
 62
     7
100
AcDbVertex
100
AcDb2dVertex
 10
55.93732637490456
 20
15.45056423224847
 30
0.0
  0
VERTEX
  5
551
330
54C
100
AcDbEntity
  8
0
 62
     7
100
AcDbVertex
100
AcDb2dVertex
 10
55.93732637490456
 20
9.734461803121945
 30
0.0
  0
SEQEND
  5
552
330
54C
100
AcDbEntity
  8
0
  0
POLYLINE
  5
553
330
529
100
AcDbEntity
  8
0
 62
     7
100
AcDb2dPolyline
 66
     1
 10
0.0
 20
0.0
 30
0.0
  0
VERTEX
  5
554
330
553
100
AcDbEntity
  8
0
 62
     7
100
AcDbVertex
100
AcDb2dVertex
 10
92.80260414346603
 20
0.0000000000000071
 30
0.0
  0
VERTEX
  5
555
330
553
100
AcDbEntity
  8
0
 62
     7
100
AcDbVertex
100
AcDb2dVertex
 10
47.43758679369617
 20
0.0000000000000071
 30
0.0
  0
VERTEX
  5
556
330
553
100
AcDbEntity
  8
0
 62
     7
100
AcDbVertex
100
AcDb2dVertex
 10
47.43758679369617
 20
8.576909720077999
 30
0.0
  0
VERTEX
  5
557
330
553
100
AcDbEntity
  8
0
 62
     7
100
AcDbVertex
100
AcDb2dVertex
 10
87.92434893635226
 20
8.576909720077999
 30
0.0
  0
VERTEX
  5
558
330
553
100
AcDbEntity
  8
0
 62
     7
100
AcDbVertex
100
AcDb2dVertex
 10
83.38784720137528
 20
53.31905380611469
 30
0.0
  0
VERTEX
  5
559
330
553
100
AcDbEntity
  8
0
 62
     7
100
AcDbVertex
100
AcDb2dVertex
 10
91.21510414386291
 20
53.31905380611469
 30
0.0
  0
VERTEX
  5
55A
330
553
100
AcDbEntity
  8
0
 62
     7
100
AcDbVertex
100
AcDb2dVertex
 10
96.14848087874065
 20
0.8598958331183652
 30
0.0
  0
VERTEX
  5
55B
330
553
100
AcDbEntity
  8
0
 62
     7
100
AcDbVertex
100
AcDb2dVertex
 10
92.80260414346603
 20
0.0000000000000071
 30
0.0
  0
SEQEND
  5
55C
330
553
100
AcDbEntity
  8
0
  0
POLYLINE
  5
55D
330
529
100
AcDbEntity
  8
0
 62
     7
100
AcDb2dPolyline
 66
     1
 10
0.0
 20
0.0
 30
0.0
  0
VERTEX
  5
55E
330
55D
100
AcDbEntity
  8
0
 62
     7
100
AcDbVertex
100
AcDb2dVertex
 10
92.80260414346603
 20
0.0000000000000071
 30
0.0
  0
VERTEX
  5
55F
330
55D
100
AcDbEntity
  8
0
 62
     7
100
AcDbVertex
100
AcDb2dVertex
 10
47.43758679369617
 20
0.0000000000000071
 30
0.0
  0
VERTEX
  5
560
330
55D
100
AcDbEntity
  8
0
 62
     7
100
AcDbVertex
100
AcDb2dVertex
 10
47.43758679369617
 20
8.576909720077999
 30
0.0
  0
VERTEX
  5
561
330
55D
100
AcDbEntity
  8
0
 62
     7
100
AcDbVertex
100
AcDb2dVertex
 10
87.92434893635226
 20
8.576909720077999
 30
0.0
  0
VERTEX
  5
562
330
55D
100
AcDbEntity
  8
0
 62
     7
100
AcDbVertex
100
AcDb2dVertex
 10
83.38784720137528
 20
53.31905380611469
 30
0.0
  0
VERTEX
  5
563
330
55D
100
AcDbEntity
  8
0
 62
     7
100
AcDbVertex
100
AcDb2dVertex
 10
91.21510414386291
 20
53.31905380611469
 30
0.0
  0
VERTEX
  5
564
330
55D
100
AcDbEntity
  8
0
 62
     7
100
AcDbVertex
100
AcDb2dVertex
 10
96.14848087874065
 20
0.8598958331183652
 30
0.0
  0
VERTEX
  5
565
330
55D
100
AcDbEntity
  8
0
 62
     7
100
AcDbVertex
100
AcDb2dVertex
 10
92.80260414346603
 20
0.0000000000000071
 30
0.0
  0
SEQEND
  5
566
330
55D
100
AcDbEntity
  8
0
  0
POLYLINE
  5
567
330
529
100
AcDbEntity
  8
0
 62
     7
100
AcDb2dPolyline
 66
     1
 10
0.0
 20
0.0
 30
0.0
  0
VERTEX
  5
568
330
567
100
AcDbEntity
  8
0
 62
     7
100
AcDbVertex
100
AcDb2dVertex
 10
69.18302949659315
 20
33.17213540837364
 30
0.0
  0
VERTEX
  5
569
330
567
100
AcDbEntity
  8
0
 62
     7
100
AcDbVertex
100
AcDb2dVertex
 10
148.1005207963082
 20
33.17213540837364
 30
0.0
  0
SEQEND
  5
56A
330
567
100
AcDbEntity
  8
0
  0
POLYLINE
  5
56B
330
529
100
AcDbEntity
  8
0
 62
     7
100
AcDb2dPolyline
 66
     1
 10
0.0
 20
0.0
 30
0.0
  0
VERTEX
  5
56C
330
56B
100
AcDbEntity
  8
0
 62
     7
100
AcDbVertex
100
AcDb2dVertex
 10
-60.36358505435355
 20
11.06840277501068
 30
0.0
  0
VERTEX
  5
56D
330
56B
100
AcDbEntity
  8
0
 62
     7
100
AcDbVertex
100
AcDb2dVertex
 10
-64.80638019213174
 20
-33.96037325539879
 30
0.0
  0
VERTEX
  5
56E
330
56B
100
AcDbEntity
  8
0
 62
     7
100
AcDbVertex
100
AcDb2dVertex
 10
-69.24917532990993
 20
11.06840277501068
 30
0.0
  0
SEQEND
  5
56F
330
56B
100
AcDbEntity
  8
0
  0
POLYLINE
  5
570
330
529
100
AcDbEntity
  8
0
 62
     7
100
AcDb2dPolyline
 66
     1
 10
0.0
 20
0.0
 30
0.0
  0
VERTEX
  5
571
330
570
100
AcDbEntity
  8
0
 62
     7
100
AcDbVertex
100
AcDb2dVertex
 10
-55.93181422212816
 20
9.734461803121945
 30
0.0
  0
VERTEX
  5
572
330
570
100
AcDbEntity
  8
0
 62
     7
100
AcDbVertex
100
AcDb2dVertex
 10
-73.68094616213531
 20
9.734461803121945
 30
0.0
  0
VERTEX
  5
573
330
570
100
AcDbEntity
  8
0
 62
     7
100
AcDbVertex
100
AcDb2dVertex
 10
-73.68094616213531
 20
15.45056423224847
 30
0.0
  0
VERTEX
  5
574
330
570
100
AcDbEntity
  8
0
 62
     7
100
AcDbVertex
100
AcDb2dVertex
 10
-55.93181422212816
 20
15.45056423224847
 30
0.0
  0
VERTEX
  5
575
330
570
100
AcDbEntity
  8
0
 62
     7
100
AcDbVertex
100
AcDb2dVertex
 10
-55.93181422212816
 20
9.734461803121945
 30
0.0
  0
SEQEND
  5
576
330
570
100
AcDbEntity
  8
0
  0
POLYLINE
  5
577
330
529
100
AcDbEntity
  8
0
 62
     7
100
AcDb2dPolyline
 66
     1
 10
0.0
 20
0.0
 30
0.0
  0
VERTEX
  5
578
330
577
100
AcDbEntity
  8
0
 62
     7
100
AcDbVertex
100
AcDb2dVertex
 10
-55.93181422212816
 20
9.734461803121945
 30
0.0
  0
VERTEX
  5
579
330
577
100
AcDbEntity
  8
0
 62
     7
100
AcDbVertex
100
AcDb2dVertex
 10
-73.68094616213531
 20
9.734461803121945
 30
0.0
  0
VERTEX
  5
57A
330
577
100
AcDbEntity
  8
0
 62
     7
100
AcDbVertex
100
AcDb2dVertex
 10
-73.68094616213531
 20
15.45056423224847
 30
0.0
  0
VERTEX
  5
57B
330
577
100
AcDbEntity
  8
0
 62
     7
100
AcDbVertex
100
AcDb2dVertex
 10
-55.93181422212816
 20
15.45056423224847
 30
0.0
  0
VERTEX
  5
57C
330
577
100
AcDbEntity
  8
0
 62
     7
100
AcDbVertex
100
AcDb2dVertex
 10
-55.93181422212816
 20
9.734461803121945
 30
0.0
  0
SEQEND
  5
57D
330
577
100
AcDbEntity
  8
0
  0
POLYLINE
  5
57E
330
529
100
AcDbEntity
  8
0
 62
     7
100
AcDb2dPolyline
 66
     1
 10
0.0
 20
0.0
 30
0.0
  0
VERTEX
  5
57F
330
57E
100
AcDbEntity
  8
0
 62
     7
100
AcDbVertex
100
AcDb2dVertex
 10
-92.80260414346601
 20
0.0000000000000071
 30
0.0
  0
VERTEX
  5
580
330
57E
100
AcDbEntity
  8
0
 62
     7
100
AcDbVertex
100
AcDb2dVertex
 10
-47.43207464091976
 20
0.0000000000000071
 30
0.0
  0
VERTEX
  5
581
330
57E
100
AcDbEntity
  8
0
 62
     7
100
AcDbVertex
100
AcDb2dVertex
 10
-47.43207464091976
 20
8.576909720077999
 30
0.0
  0
VERTEX
  5
582
330
57E
100
AcDbEntity
  8
0
 62
     7
100
AcDbVertex
100
AcDb2dVertex
 10
-87.91883678357583
 20
8.576909720077999
 30
0.0
  0
VERTEX
  5
583
330
57E
100
AcDbEntity
  8
0
 62
     7
100
AcDbVertex
100
AcDb2dVertex
 10
-83.38233504859886
 20
53.31905380611469
 30
0.0
  0
VERTEX
  5
584
330
57E
100
AcDbEntity
  8
0
 62
     7
100
AcDbVertex
100
AcDb2dVertex
 10
-91.2095919910865
 20
53.31905380611469
 30
0.0
  0
VERTEX
  5
585
330
57E
100
AcDbEntity
  8
0
 62
     7
100
AcDbVertex
100
AcDb2dVertex
 10
-96.15399303151706
 20
0.8598958331183652
 30
0.0
  0
VERTEX
  5
586
330
57E
100
AcDbEntity
  8
0
 62
     7
100
AcDbVertex
100
AcDb2dVertex
 10
-92.80260414346601
 20
0.0000000000000071
 30
0.0
  0
SEQEND
  5
587
330
57E
100
AcDbEntity
  8
0
  0
POLYLINE
  5
588
330
529
100
AcDbEntity
  8
0
 62
     7
100
AcDb2dPolyline
 66
     1
 10
0.0
 20
0.0
 30
0.0
  0
VERTEX
  5
589
330
588
100
AcDbEntity
  8
0
 62
     7
100
AcDbVertex
100
AcDb2dVertex
 10
-92.80260414346601
 20
0.0000000000000071
 30
0.0
  0
VERTEX
  5
58A
330
588
100
AcDbEntity
  8
0
 62
     7
100
AcDbVertex
100
AcDb2dVertex
 10
-47.43207464091976
 20
0.0000000000000071
 30
0.0
  0
VERTEX
  5
58B
330
588
100
AcDbEntity
  8
0
 62
     7
100
AcDbVertex
100
AcDb2dVertex
 10
-47.43207464091976
 20
8.576909720077999
 30
0.0
  0
VERTEX
  5
58C
330
588
100
AcDbEntity
  8
0
 62
     7
100
AcDbVertex
100
AcDb2dVertex
 10
-87.91883678357583
 20
8.576909720077999
 30
0.0
  0
VERTEX
  5
58D
330
588
100
AcDbEntity
  8
0
 62
     7
100
AcDbVertex
100
AcDb2dVertex
 10
-83.38233504859886
 20
53.31905380611469
 30
0.0
  0
VERTEX
  5
58E
330
588
100
AcDbEntity
  8
0
 62
     7
100
AcDbVertex
100
AcDb2dVertex
 10
-91.2095919910865
 20
53.31905380611469
 30
0.0
  0
VERTEX
  5
58F
330
588
100
AcDbEntity
  8
0
 62
     7
100
AcDbVertex
100
AcDb2dVertex
 10
-96.15399303151706
 20
0.8598958331183652
 30
0.0
  0
VERTEX
  5
590
330
588
100
AcDbEntity
  8
0
 62
     7
100
AcDbVertex
100
AcDb2dVertex
 10
-92.80260414346601
 20
0.0000000000000071
 30
0.0
  0
SEQEND
  5
591
330
588
100
AcDbEntity
  8
0
  0
POLYLINE
  5
592
330
529
100
AcDbEntity
  8
0
 62
     7
100
AcDb2dPolyline
 66
     1
 10
0.0
 20
0.0
 30
0.0
  0
VERTEX
  5
593
330
592
100
AcDbEntity
  8
0
 62
     7
100
AcDbVertex
100
AcDb2dVertex
 10
-69.17751734381673
 20
33.17213540837364
 30
0.0
  0
VERTEX
  5
594
330
592
100
AcDbEntity
  8
0
 62
     7
100
AcDbVertex
100
AcDb2dVertex
 10
-148.0950086435318
 20
33.17213540837364
 30
0.0
  0
SEQEND
  5
595
330
592
100
AcDbEntity
  8
0
  0
POLYLINE
  5
596
330
529
100
AcDbEntity
  8
0
 62
     7
100
AcDb2dPolyline
 66
     1
 10
0.0
 20
0.0
 30
0.0
  0
VERTEX
  5
597
330
596
100
AcDbEntity
  8
0
 62
     7
100
AcDbVertex
100
AcDb2dVertex
 10
-180.0654947466503
 20
429.5675780176081
 30
0.0
  0
VERTEX
  5
598
330
596
100
AcDbEntity
  8
0
 62
     7
100
AcDbVertex
100
AcDb2dVertex
 10
180.0710068994266
 20
429.5620658648316
 30
0.0
  0
SEQEND
  5
599
330
596
100
AcDbEntity
  8
0
  0
SPLINE
  5
59A
330
529
100
AcDbEntity
  8
0
 62
     7
100
AcDbSpline
210
0.0
220
0.0
230
1.0
 70
    11
 71
     3
 72
    47
 73
    43
 74
     0
 42
0.0000000001
 43
0.0000000001
 40
0.0
 40
0.0
 40
0.0
 40
0.0
 40
1.0
 40
1.0
 40
1.0
 40
2.0
 40
2.0
 40
2.0
 40
3.0
 40
3.0
 40
3.0
 40
4.0
 40
4.0
 40
4.0
 40
5.0
 40
5.0
 40
5.0
 40
6.0
 40
6.0
 40
6.0
 40
7.0
 40
7.0
 40
7.0
 40
8.0
 40
8.0
 40
8.0
 40
9.0
 40
9.0
 40
9.0
 40
10.0
 40
10.0
 40
10.0
 40
11.0
 40
11.0
 40
11.0
 40
12.0
 40
12.0
 40
12.0
 40
13.0
 40
13.0
 40
13.0
 40
14.0
 40
14.0
 40
14.0
 40
14.0
 10
-111.8911892081383
 20
0.0000000000000071
 30
0.0
 10
-111.8911892081383
 20
0.0000000000000071
 30
0.0
 10
-115.4796006655745
 20
2.93246527704467
 30
0.0
 10
-115.4796006655745
 20
2.93246527704467
 30
0.0
 10
-143.2443142003
 20
140.6425780898393
 30
0.0
 10
-166.1858940556757
 20
279.2787325690692
 30
0.0
 10
-184.2657551622668
 20
418.5873696870198
 30
0.0
 10
-184.2657551622668
 20
418.5873696870198
 30
0.0
 10
-184.9602864120932
 20
423.9892794078916
 30
0.0
 10
-184.9602864120932
 20
423.9892794078916
 30
0.0
 10
-185.246918356466
 20
426.2161891295571
 30
0.0
 10
-183.9791232178941
 20
428.4155380873405
 30
0.0
 10
-181.923090232297
 20
429.3140189898937
 30
0.0
 10
-181.923090232297
 20
429.3140189898937
 30
0.0
 10
-180.0654947466503
 20
429.7329426009
 30
0.0
 10
-180.0654947466503
 20
429.7329426009
 30
0.0
 10
-120.0657117755391
 20
431.5960502393232
 30
0.0
 10
-60.03836804054596
 20
432.5386283640876
 30
0.0
 10
0.0
 20
432.5606769751932
 30
0.0
 10
60.03285588776956
 20
432.5386283640876
 30
0.0
 10
120.0601996227627
 20
431.5960502393232
 30
0.0
 10
180.0710068994266
 20
429.7329426009
 30
0.0
 10
180.0710068994266
 20
429.7329426009
 30
0.0
 10
181.9175780795205
 20
429.3140189898937
 30
0.0
 10
181.9175780795205
 20
429.3140189898937
 30
0.0
 10
183.9736110651177
 20
428.421050240117
 30
0.0
 10
185.2414062036896
 20
426.2161891295571
 30
0.0
 10
184.9602864120932
 20
423.9892794078916
 30
0.0
 10
184.9602864120932
 20
423.9892794078916
 30
0.0
 10
184.2602430094904
 20
418.5873696870198
 30
0.0
 10
184.2602430094904
 20
418.5873696870198
 30
0.0
 10
166.1858940556757
 20
279.2787325690692
 30
0.0
 10
143.2388020475236
 20
140.6425780898393
 30
0.0
 10
115.4685763600217
 20
2.93246527704467
 30
0.0
 10
115.4685763600217
 20
2.93246527704467
 30
0.0
 10
111.8856770553619
 20
0.0000000000000071
 30
0.0
 10
111.8856770553619
 20
0.0000000000000071
 30
0.0
 10
111.8856770553619
 20
0.0000000000000071
 30
0.0
 10
0.0
 20
0.0000000000000071
 30
0.0
 10
0.0
 20
0.0000000000000071
 30
0.0
 10
0.0
 20
0.0000000000000071
 30
0.0
 10
-111.8911892081383
 20
0.0000000000000071
 30
0.0
 10
-111.8911892081383
 20
0.0000000000000071
 30
0.0
  0
ENDBLK
  5
59C
330
529
100
AcDbEntity
  8
0
100
AcDbBlockEnd
  0
ENDSEC
  0
SECTION
  2
ENTITIES
  0
INSERT
  5
59D
330
1F
100
AcDbEntity
  8
0
100
AcDbBlockReference
  2
823331V
 10
0.0
 20
0.0
 30
0.0
  0
ENDSEC
  0
SECTION
  2
OBJECTS
  0
DICTIONARY
  5
C
330
0
100
AcDbDictionary
  3
ACAD_GROUP
350
D
  3
ACAD_MLINESTYLE
350
17
  3
ACAD_PLOTSETTINGS
350
19
  3
ACAD_LAYOUT
350
1A
1001
ACAD
1000
TREAT_AS_HARD
1070
     0
  0
DICTIONARY
  5
5A1
330
1F
100
AcDbDictionary
  3
ACAD_LAYOUTSELFREF
350
5A2
  0
DICTIONARY
  5
59F
330
1B
100
AcDbDictionary
  3
ACAD_LAYOUTSELFREF
350
5A0
  0
DICTIONARY
  5
D
102
{ACAD_REACTORS
330
C
102
}
330
C
100
AcDbDictionary
1001
ACAD
1000
TREAT_AS_HARD
1070
     0
  0
DICTIONARY
  5
17
102
{ACAD_REACTORS
330
C
102
}
330
C
100
AcDbDictionary
  3
STANDARD
350
18
1001
ACAD
1000
TREAT_AS_HARD
1070
     0
  0
DICTIONARY
  5
19
102
{ACAD_REACTORS
330
C
102
}
330
C
100
AcDbDictionary
1001
ACAD
1000
TREAT_AS_HARD
1070
     0
  0
DICTIONARY
  5
1A
102
{ACAD_REACTORS
330
C
102
}
330
C
100
AcDbDictionary
1001
ACAD
1000
TREAT_AS_HARD
1070
     0
  0
XRECORD
  5
5A2
102
{ACAD_REACTORS
330
5A1
102
}
330
5A1
100
AcDbXrecord
340
1F
  0
XRECORD
  5
5A0
102
{ACAD_REACTORS
330
59F
102
}
330
59F
100
AcDbXrecord
340
1B
  0
MLINESTYLE
  5
18
102
{ACAD_REACTORS
330
17
102
}
330
17
100
AcDbMlineStyle
  2
STANDARD
 70
     0
  3

 62
   256
 51
90.0
 52
90.0
 71
     2
 49
0.5
 62
   256
  6
BYLAYER
 49
-0.5
 62
   256
  6
BYLAYER
  0
ENDSEC
  0
EOF
