  0
SECTION
  2
HEADER
  9
$ACADVER
  1
AC1027
  9
$ACADMAINTVER
 70
   125
  9
$DWGCODEPAGE
  3
ANSI_1252
  9
$LASTSAVEDBY
  1
fleminab
  9
$REQUIREDVERSIONS
160
                 0
  9
$INSBASE
 10
0.0
 20
0.0
 30
0.0
  9
$EXTMIN
 10
93.48321613236704
 20
7.011108895543884
 30
-0.0015258207003583
  9
$EXTMAX
 10
207.0516363289808
 20
199.7685246469552
 30
0.0000000349246037
  9
$LIMMIN
 10
0.0
 20
0.0
  9
$LIMMAX
 10
297.0
 20
210.0
  9
$ORTHOMODE
 70
     0
  9
$REGENMODE
 70
     1
  9
$FILLMODE
 70
     1
  9
$QTEXTMODE
 70
     0
  9
$MIRRTEXT
 70
     1
  9
$LTSCALE
 40
1.0
  9
$ATTMODE
 70
     1
  9
$TEXTSIZE
 40
3.5
  9
$TRACEWID
 40
1.0
  9
$TEXTSTYLE
  7
Standard
  9
$CLAYER
  8
0
  9
$CELTYPE
  6
ByLayer
  9
$CECOLOR
 62
   256
  9
$CELTSCALE
 40
1.0
  9
$DISPSILH
 70
     0
  9
$DIMSCALE
 40
1.0
  9
$DIMASZ
 40
1.5
  9
$DIMEXO
 40
1.0
  9
$DIMDLI
 40
3.75
  9
$DIMRND
 40
0.0
  9
$DIMDLE
 40
0.0
  9
$DIMEXE
 40
1.0
  9
$DIMTP
 40
0.0
  9
$DIMTM
 40
0.0
  9
$DIMTXT
 40
2.0
  9
$DIMCEN
 40
2.5
  9
$DIMTSZ
 40
0.0
  9
$DIMTOL
 70
     0
  9
$DIMLIM
 70
     0
  9
$DIMTIH
 70
     1
  9
$DIMTOH
 70
     1
  9
$DIMSE1
 70
     0
  9
$DIMSE2
 70
     0
  9
$DIMTAD
 70
     1
  9
$DIMZIN
 70
     1
  9
$DIMBLK
  1

  9
$DIMASO
 70
     1
  9
$DIMSHO
 70
     1
  9
$DIMPOST
  1

  9
$DIMAPOST
  1

  9
$DIMALT
 70
     0
  9
$DIMALTD
 70
     3
  9
$DIMALTF
 40
0.0393700787
  9
$DIMLFAC
 40
5.0
  9
$DIMTOFL
 70
     1
  9
$DIMTVP
 40
0.0
  9
$DIMTIX
 70
     0
  9
$DIMSOXD
 70
     0
  9
$DIMSAH
 70
     0
  9
$DIMBLK1
  1

  9
$DIMBLK2
  1

  9
$DIMSTYLE
  2
ISO-25
  9
$DIMCLRD
 70
     0
  9
$DIMCLRE
 70
     0
  9
$DIMCLRT
 70
     0
  9
$DIMTFAC
 40
1.0
  9
$DIMGAP
 40
1.524
  9
$DIMJUST
 70
     0
  9
$DIMSD1
 70
     0
  9
$DIMSD2
 70
     0
  9
$DIMTOLJ
 70
     0
  9
$DIMTZIN
 70
     1
  9
$DIMALTZ
 70
     0
  9
$DIMALTTZ
 70
     0
  9
$DIMUPT
 70
     0
  9
$DIMDEC
 70
     1
  9
$DIMTDEC
 70
     1
  9
$DIMALTU
 70
     2
  9
$DIMALTTD
 70
     3
  9
$DIMTXSTY
  7
Standard
  9
$DIMAUNIT
 70
     0
  9
$DIMADEC
 70
     2
  9
$DIMALTRND
 40
0.0
  9
$DIMAZIN
 70
     0
  9
$DIMDSEP
 70
    44
  9
$DIMATFIT
 70
     3
  9
$DIMFRAC
 70
     0
  9
$DIMLDRBLK
  1

  9
$DIMLUNIT
 70
     2
  9
$DIMLWD
 70
    -2
  9
$DIMLWE
 70
    -2
  9
$DIMTMOVE
 70
     0
  9
$DIMFXL
 40
1.0
  9
$DIMFXLON
 70
     0
  9
$DIMJOGANG
 40
0.7853981633974483
  9
$DIMTFILL
 70
     0
  9
$DIMTFILLCLR
 70
     0
  9
$DIMARCSYM
 70
     0
  9
$DIMLTYPE
  6

  9
$DIMLTEX1
  6

  9
$DIMLTEX2
  6

  9
$DIMTXTDIRECTION
 70
     0
  9
$LUNITS
 70
     2
  9
$LUPREC
 70
     2
  9
$SKETCHINC
 40
1.0
  9
$FILLETRAD
 40
10.0
  9
$AUNITS
 70
     0
  9
$AUPREC
 70
     2
  9
$MENU
  1
.
  9
$ELEVATION
 40
0.0
  9
$PELEVATION
 40
0.0
  9
$THICKNESS
 40
0.0
  9
$LIMCHECK
 70
     0
  9
$CHAMFERA
 40
0.0
  9
$CHAMFERB
 40
0.0
  9
$CHAMFERC
 40
0.0
  9
$CHAMFERD
 40
0.0
  9
$SKPOLY
 70
     0
  9
$TDCREATE
 40
2457469.309386574
  9
$TDUCREATE
 40
2457468.851057118
  9
$TDUPDATE
 40
2458053.646875000
  9
$TDUUPDATE
 40
2458053.188541667
  9
$TDINDWG
 40
0.0001967708
  9
$TDUSRTIMER
 40
0.0001967708
  9
$USRTIMER
 70
     1
  9
$ANGBASE
 50
0.0
  9
$ANGDIR
 70
     0
  9
$PDMODE
 70
     0
  9
$PDSIZE
 40
-1.0
  9
$PLINEWID
 40
0.0
  9
$SPLFRAME
 70
     0
  9
$SPLINETYPE
 70
     6
  9
$SPLINESEGS
 70
     8
  9
$HANDSEED
  5
4E5
  9
$SURFTAB1
 70
     6
  9
$SURFTAB2
 70
     6
  9
$SURFTYPE
 70
     6
  9
$SURFU
 70
     6
  9
$SURFV
 70
     6
  9
$UCSBASE
  2

  9
$UCSNAME
  2

  9
$UCSORG
 10
0.0
 20
0.0
 30
0.0
  9
$UCSXDIR
 10
1.0
 20
0.0
 30
0.0
  9
$UCSYDIR
 10
0.0
 20
1.0
 30
0.0
  9
$UCSORTHOREF
  2

  9
$UCSORTHOVIEW
 70
     0
  9
$UCSORGTOP
 10
0.0
 20
0.0
 30
0.0
  9
$UCSORGBOTTOM
 10
0.0
 20
0.0
 30
0.0
  9
$UCSORGLEFT
 10
0.0
 20
0.0
 30
0.0
  9
$UCSORGRIGHT
 10
0.0
 20
0.0
 30
0.0
  9
$UCSORGFRONT
 10
0.0
 20
0.0
 30
0.0
  9
$UCSORGBACK
 10
0.0
 20
0.0
 30
0.0
  9
$PUCSBASE
  2

  9
$PUCSNAME
  2

  9
$PUCSORG
 10
0.0
 20
0.0
 30
0.0
  9
$PUCSXDIR
 10
1.0
 20
0.0
 30
0.0
  9
$PUCSYDIR
 10
0.0
 20
1.0
 30
0.0
  9
$PUCSORTHOREF
  2

  9
$PUCSORTHOVIEW
 70
     0
  9
$PUCSORGTOP
 10
0.0
 20
0.0
 30
0.0
  9
$PUCSORGBOTTOM
 10
0.0
 20
0.0
 30
0.0
  9
$PUCSORGLEFT
 10
0.0
 20
0.0
 30
0.0
  9
$PUCSORGRIGHT
 10
0.0
 20
0.0
 30
0.0
  9
$PUCSORGFRONT
 10
0.0
 20
0.0
 30
0.0
  9
$PUCSORGBACK
 10
0.0
 20
0.0
 30
0.0
  9
$USERI1
 70
     0
  9
$USERI2
 70
     0
  9
$USERI3
 70
     0
  9
$USERI4
 70
     0
  9
$USERI5
 70
     0
  9
$USERR1
 40
0.0
  9
$USERR2
 40
0.0
  9
$USERR3
 40
0.0
  9
$USERR4
 40
0.0
  9
$USERR5
 40
0.0
  9
$WORLDVIEW
 70
     1
  9
$SHADEDGE
 70
     3
  9
$SHADEDIF
 70
    70
  9
$TILEMODE
 70
     1
  9
$MAXACTVP
 70
    64
  9
$PINSBASE
 10
0.0
 20
0.0
 30
0.0
  9
$PLIMCHECK
 70
     0
  9
$PEXTMIN
 10
1.000000000000000E+20
 20
1.000000000000000E+20
 30
1.000000000000000E+20
  9
$PEXTMAX
 10
-1.000000000000000E+20
 20
-1.000000000000000E+20
 30
-1.000000000000000E+20
  9
$PLIMMIN
 10
0.0
 20
0.0
  9
$PLIMMAX
 10
420.0
 20
297.0
  9
$UNITMODE
 70
     0
  9
$VISRETAIN
 70
     1
  9
$PLINEGEN
 70
     0
  9
$PSLTSCALE
 70
     1
  9
$TREEDEPTH
 70
  3020
  9
$CMLSTYLE
  2
Standard
  9
$CMLJUST
 70
     0
  9
$CMLSCALE
 40
20.0
  9
$PROXYGRAPHICS
 70
     1
  9
$MEASUREMENT
 70
     1
  9
$CELWEIGHT
370
    -1
  9
$ENDCAPS
280
     0
  9
$JOINSTYLE
280
     0
  9
$LWDISPLAY
290
     1
  9
$INSUNITS
 70
     4
  9
$HYPERLINKBASE
  1

  9
$STYLESHEET
  1

  9
$XEDIT
290
     1
  9
$CEPSNTYPE
380
     0
  9
$PSTYLEMODE
290
     1
  9
$FINGERPRINTGUID
  2
{6CFA23E6-B309-48CC-9CBE-CFF2C48D5DB2}
  9
$VERSIONGUID
  2
{A7FD85BD-FA29-F447-8260-687826B094CB}
  9
$EXTNAMES
290
     1
  9
$PSVPSCALE
 40
0.0
  9
$OLESTARTUP
290
     0
  9
$SORTENTS
280
   127
  9
$INDEXCTL
280
     0
  9
$HIDETEXT
280
     0
  9
$XCLIPFRAME
280
     2
  9
$HALOGAP
280
     0
  9
$OBSCOLOR
 70
   257
  9
$OBSLTYPE
280
     0
  9
$INTERSECTIONDISPLAY
280
     0
  9
$INTERSECTIONCOLOR
 70
   257
  9
$DIMASSOC
280
     1
  9
$PROJECTNAME
  1

  9
$CAMERADISPLAY
290
     0
  9
$LENSLENGTH
 40
50.0
  9
$CAMERAHEIGHT
 40
0.0
  9
$STEPSPERSEC
 40
2.0
  9
$STEPSIZE
 40
6.0
  9
$3DDWFPREC
 40
2.0
  9
$PSOLWIDTH
 40
0.25
  9
$PSOLHEIGHT
 40
4.0
  9
$LOFTANG1
 40
1.570796326794896
  9
$LOFTANG2
 40
1.570796326794896
  9
$LOFTMAG1
 40
0.0
  9
$LOFTMAG2
 40
0.0
  9
$LOFTPARAM
 70
     7
  9
$LOFTNORMALS
280
     1
  9
$LATITUDE
 40
37.795
  9
$LONGITUDE
 40
-122.394
  9
$NORTHDIRECTION
 40
0.0
  9
$TIMEZONE
 70
 -8000
  9
$LIGHTGLYPHDISPLAY
280
     1
  9
$TILEMODELIGHTSYNCH
280
     1
  9
$CMATERIAL
347
47F
  9
$SOLIDHIST
280
     0
  9
$SHOWHIST
280
     1
  9
$DWFFRAME
280
     2
  9
$DGNFRAME
280
     0
  9
$REALWORLDSCALE
290
     1
  9
$INTERFERECOLOR
 62
     1
  9
$INTERFEREOBJVS
345
4A1
  9
$INTERFEREVPVS
346
49E
  9
$CSHADOW
280
     0
  9
$SHADOWPLANELOCATION
 40
0.0
  0
ENDSEC
  0
SECTION
  2
CLASSES
  0
CLASS
  1
ACDBDICTIONARYWDFLT
  2
AcDbDictionaryWithDefault
  3
ObjectDBX Classes
 90
        0
 91
        1
280
     0
281
     0
  0
CLASS
  1
VISUALSTYLE
  2
AcDbVisualStyle
  3
ObjectDBX Classes
 90
     4095
 91
       24
280
     0
281
     0
  0
CLASS
  1
MATERIAL
  2
AcDbMaterial
  3
ObjectDBX Classes
 90
     1153
 91
        3
280
     0
281
     0
  0
CLASS
  1
SCALE
  2
AcDbScale
  3
ObjectDBX Classes
 90
     1153
 91
       33
280
     0
281
     0
  0
CLASS
  1
TABLESTYLE
  2
AcDbTableStyle
  3
ObjectDBX Classes
 90
     4095
 91
        1
280
     0
281
     0
  0
CLASS
  1
MLEADERSTYLE
  2
AcDbMLeaderStyle
  3
ACDB_MLEADERSTYLE_CLASS
 90
     4095
 91
        1
280
     0
281
     0
  0
CLASS
  1
SUN
  2
AcDbSun
  3
SCENEOE
 90
     1153
 91
        0
280
     0
281
     0
  0
CLASS
  1
ACDBSECTIONVIEWSTYLE
  2
AcDbSectionViewStyle
  3
ObjectDBX Classes
 90
     1025
 91
        1
280
     0
281
     0
  0
CLASS
  1
ACDBDETAILVIEWSTYLE
  2
AcDbDetailViewStyle
  3
ObjectDBX Classes
 90
     1025
 91
        1
280
     0
281
     0
  0
CLASS
  1
DICTIONARYVAR
  2
AcDbDictionaryVar
  3
ObjectDBX Classes
 90
        0
 91
       18
280
     0
281
     0
  0
CLASS
  1
CELLSTYLEMAP
  2
AcDbCellStyleMap
  3
ObjectDBX Classes
 90
     1152
 91
        1
280
     0
281
     0
  0
ENDSEC
  0
SECTION
  2
TABLES
  0
TABLE
  2
VPORT
  5
8
330
0
100
AcDbSymbolTable
 70
     1
1001
ACAD
1000
DbSaveVer
1071
        5
  0
VPORT
  5
29
330
8
100
AcDbSymbolTableRecord
100
AcDbViewportTableRecord
  2
*Active
 70
     0
 10
0.0
 20
0.0
 11
1.0
 21
1.0
 12
150.2674262306739
 22
103.3898167712495
 13
0.0
 23
0.0
 14
10.0
 24
10.0
 15
10.0
 25
10.0
 16
0.0
 26
0.0
 36
1.0
 17
0.0
 27
0.0
 37
0.0
 40
194.1375404465289
 41
2.292712066905615
 42
50.0
 43
0.0
 44
0.0
 50
0.0
 51
0.0
 71
     0
 72
  2000
 73
     1
 74
     3
 75
     0
 76
     0
 77
     0
 78
     0
281
     0
 65
     1
110
0.0
120
0.0
130
0.0
111
1.0
121
0.0
131
0.0
112
0.0
122
1.0
132
0.0
 79
     0
146
0.0
348
49D
 60
     3
 61
     5
292
     1
282
     1
141
0.0
142
0.0
 63
   250
421
  3355443
1001
ACAD_NAV_VCDISPLAY
1070
     3
  0
ENDTAB
  0
TABLE
  2
LTYPE
  5
5
330
0
100
AcDbSymbolTable
 70
     6
  0
LTYPE
  5
14
330
5
100
AcDbSymbolTableRecord
100
AcDbLinetypeTableRecord
  2
ByBlock
 70
     0
  3

 72
    65
 73
     0
 40
0.0
  0
LTYPE
  5
15
330
5
100
AcDbSymbolTableRecord
100
AcDbLinetypeTableRecord
  2
ByLayer
 70
     0
  3

 72
    65
 73
     0
 40
0.0
  0
LTYPE
  5
16
330
5
100
AcDbSymbolTableRecord
100
AcDbLinetypeTableRecord
  2
Continuous
 70
     0
  3
Solid line
 72
    65
 73
     0
 40
0.0
  0
LTYPE
  5
6E
330
5
100
AcDbSymbolTableRecord
100
AcDbLinetypeTableRecord
  2
HIDDEN
 70
     0
  3
Hidden __ __ __ __ __ __ __ __ __ __ __ __ __ __
 72
    65
 73
     2
 40
1.905
 49
1.27
 74
     0
 49
-0.635
 74
     0
  0
LTYPE
  5
6F
330
5
100
AcDbSymbolTableRecord
100
AcDbLinetypeTableRecord
  2
PHANTOM
 70
     0
  3
Phantom ______  __  __  ______  __  __  ______
 72
    65
 73
     6
 40
12.7
 49
6.349999999999999
 74
     0
 49
-1.27
 74
     0
 49
1.27
 74
     0
 49
-1.27
 74
     0
 49
1.27
 74
     0
 49
-1.27
 74
     0
  0
LTYPE
  5
70
330
5
100
AcDbSymbolTableRecord
100
AcDbLinetypeTableRecord
  2
CENTER
 70
     0
  3
Center ____ _ ____ _ ____ _ ____ _ ____ _ ____
 72
    65
 73
     4
 40
10.16
 49
6.349999999999999
 74
     0
 49
-1.27
 74
     0
 49
1.27
 74
     0
 49
-1.27
 74
     0
  0
LTYPE
  5
71
330
5
100
AcDbSymbolTableRecord
100
AcDbLinetypeTableRecord
  2
CENTERX2
 70
     0
  3
Center (2x) ________  __  ________  __  _____
 72
    65
 73
     4
 40
20.32
 49
12.7
 74
     0
 49
-2.54
 74
     0
 49
2.54
 74
     0
 49
-2.54
 74
     0
  0
LTYPE
  5
72
330
5
100
AcDbSymbolTableRecord
100
AcDbLinetypeTableRecord
  2
DOT2
 70
     0
  3
Dot (.5x) ........................................
 72
    65
 73
     2
 40
0.635
 49
0.0
 74
     0
 49
-0.635
 74
     0
  0
ENDTAB
  0
TABLE
  2
LAYER
  5
2
330
0
100
AcDbSymbolTable
 70
     4
  0
LAYER
  5
10
102
{ACAD_XDICTIONARY
360
4CC
102
}
330
2
100
AcDbSymbolTableRecord
100
AcDbLayerTableRecord
  2
0
 70
     0
 62
     7
  6
Continuous
370
    -3
390
F
347
48F
348
0
  0
LAYER
  5
73
102
{ACAD_XDICTIONARY
360
4CE
102
}
330
2
100
AcDbSymbolTableRecord
100
AcDbLayerTableRecord
  2
FORMAT
 70
     0
 62
     7
  6
Continuous
370
    -3
390
F
347
48F
348
0
  0
LAYER
  5
74
102
{ACAD_XDICTIONARY
360
4D0
102
}
330
2
100
AcDbSymbolTableRecord
100
AcDbLayerTableRecord
  2
BORDER
 70
     0
 62
     7
  6
Continuous
370
    40
390
F
347
48F
348
0
  0
LAYER
  5
75
102
{ACAD_XDICTIONARY
360
4D2
102
}
330
2
100
AcDbSymbolTableRecord
100
AcDbLayerTableRecord
  2
REVISION_TABLE
 70
     0
 62
    -7
  6
Continuous
290
     0
370
    -3
390
F
347
48F
348
0
  0
ENDTAB
  0
TABLE
  2
STYLE
  5
3
330
0
100
AcDbSymbolTable
 70
     1
  0
STYLE
  5
11
330
3
100
AcDbSymbolTableRecord
100
AcDbTextStyleTableRecord
  2
Standard
 70
     0
 40
0.0
 41
1.0
 50
0.0
 71
     0
 42
3.5
  3
txt
  4

  0
ENDTAB
  0
TABLE
  2
VIEW
  5
6
330
0
100
AcDbSymbolTable
 70
     0
  0
ENDTAB
  0
TABLE
  2
UCS
  5
7
330
0
100
AcDbSymbolTable
 70
     0
  0
ENDTAB
  0
TABLE
  2
APPID
  5
9
330
0
100
AcDbSymbolTable
 70
     2
  0
APPID
  5
12
330
9
100
AcDbSymbolTableRecord
100
AcDbRegAppTableRecord
  2
ACAD
 70
     0
  0
APPID
  5
4BC
330
9
100
AcDbSymbolTableRecord
100
AcDbRegAppTableRecord
  2
ACAD_NAV_VCDISPLAY
 70
     0
  0
ENDTAB
  0
TABLE
  2
DIMSTYLE
  5
A
330
0
100
AcDbSymbolTable
 70
     1
100
AcDbDimStyleTable
 71
     0
  0
DIMSTYLE
105
27
330
A
100
AcDbSymbolTableRecord
100
AcDbDimStyleTableRecord
  2
ISO-25
 70
     0
 41
2.5
 42
0.625
 43
3.75
 44
1.25
 73
     0
 74
     0
 77
     1
 78
     8
140
2.5
141
2.5
143
0.0393700787
147
0.625
171
     3
172
     1
271
     2
272
     2
274
     3
278
    44
283
     0
284
     8
340
11
  0
ENDTAB
  0
TABLE
  2
BLOCK_RECORD
  5
1
330
0
100
AcDbSymbolTable
 70
     1
  0
BLOCK_RECORD
  5
1F
330
1
100
AcDbSymbolTableRecord
100
AcDbBlockTableRecord
  2
*Model_Space
340
22
 70
     0
280
     1
281
     0
  0
BLOCK_RECORD
  5
1B
330
1
100
AcDbSymbolTableRecord
100
AcDbBlockTableRecord
  2
*Paper_Space
340
1E
 70
     0
280
     1
281
     0
  0
BLOCK_RECORD
  5
23
330
1
100
AcDbSymbolTableRecord
100
AcDbBlockTableRecord
  2
*Paper_Space0
340
26
 70
     0
280
     1
281
     0
  0
ENDTAB
  0
ENDSEC
  0
SECTION
  2
BLOCKS
  0
BLOCK
  5
20
330
1F
100
AcDbEntity
  8
0
100
AcDbBlockBegin
  2
*Model_Space
 70
     0
 10
0.0
 20
0.0
 30
0.0
  3
*Model_Space
  1

  0
ENDBLK
  5
21
330
1F
100
AcDbEntity
  8
0
100
AcDbBlockEnd
  0
BLOCK
  5
1C
330
1B
100
AcDbEntity
 67
     1
  8
0
100
AcDbBlockBegin
  2
*Paper_Space
 70
     0
 10
0.0
 20
0.0
 30
0.0
  3
*Paper_Space
  1

  0
ENDBLK
  5
1D
330
1B
100
AcDbEntity
 67
     1
  8
0
100
AcDbBlockEnd
  0
BLOCK
  5
24
330
23
100
AcDbEntity
 67
     1
  8
0
100
AcDbBlockBegin
  2
*Paper_Space0
 70
     0
 10
0.0
 20
0.0
 30
0.0
  3
*Paper_Space0
  1

  0
ENDBLK
  5
25
330
23
100
AcDbEntity
 67
     1
  8
0
100
AcDbBlockEnd
  0
ENDSEC
  0
SECTION
  2
ENTITIES
  0
LINE
  5
76
330
1F
100
AcDbEntity
  8
0
  6
Continuous
 62
     7
370
    15
100
AcDbLine
 10
106.8516202748
 20
69.44757572100001
 30
0.0
 11
107.375079161
 21
69.84608421299999
 31
0.0
  0
LINE
  5
77
330
1F
100
AcDbEntity
  8
0
  6
Continuous
 62
     7
370
    15
100
AcDbLine
 10
95.86604806
 20
84.9636967316
 30
0.0
 11
95.3425827745
 21
84.565180216
 31
0.0
  0
LINE
  5
78
330
1F
100
AcDbEntity
  8
0
  6
Continuous
 62
     7
370
    15
100
AcDbLine
 10
97.06755988620001
 20
82.57829327880001
 30
0.0
 11
97.058604829
 21
82.45392799340001
 31
0.0
  0
LINE
  5
79
330
1F
100
AcDbEntity
  8
0
  6
Continuous
 62
     7
370
    15
100
AcDbLine
 10
105.2732563411
 20
71.66362697869999
 30
0.0
 11
105.3955225438
 21
71.6391563712
 31
0.0
  0
LINE
  5
7A
330
1F
100
AcDbEntity
  8
0
  6
Continuous
 62
     7
370
    15
100
AcDbLine
 10
106.3743575627
 20
71.786380467
 30
0.0
 11
107.0494161504
 21
72.3003040701
 31
0.0
  0
LINE
  5
7B
330
1F
100
AcDbEntity
  8
0
  6
Continuous
 62
     7
370
    15
100
AcDbLine
 10
97.9050727391
 20
83.81385732970001
 30
0.0
 11
97.47000024690001
 21
83.48263761650001
 31
0.0
  0
LINE
  5
7C
330
1F
100
AcDbEntity
  8
0
  6
Continuous
 62
     7
370
    15
100
AcDbLine
 10
161.6587542239
 20
137.0625508398999
 30
0.0
 11
94.11737200030001
 21
85.64332569980001
 31
0.0
  0
LINE
  5
7D
330
1F
100
AcDbEntity
  8
0
  6
Continuous
 62
     7
370
    15
100
AcDbLine
 10
107.5647681927
 20
67.9795930602
 30
0.0
 11
166.2671895177
 21
112.6697233229
 31
0.0
  0
LINE
  5
7E
330
1F
100
AcDbEntity
  8
0
  6
Continuous
 62
     7
370
    15
100
AcDbLine
 10
207.0516182553
 20
11.1544813738
 30
0.0
 11
206.9835850255
 21
15.1061937853
 31
0.0
  0
LINE
  5
7F
330
1F
100
AcDbEntity
  8
0
  6
Continuous
 62
     7
370
    15
100
AcDbLine
 10
158.9906965439
 20
14.2799415775
 30
0.0
 11
159.0587297737
 21
10.328229166
 31
0.0
  0
LINE
  5
80
330
1F
100
AcDbEntity
  8
0
  6
Continuous
 62
     7
370
    15
100
AcDbLine
 10
200.0823104818
 20
157.9661917569
 30
0.0
 11
199.710614422
 21
196.9451082454
 31
0.0
  0
LINE
  5
81
330
1F
100
AcDbEntity
  8
0
  6
Continuous
 62
     7
370
    15
100
AcDbLine
 10
159.7124337755
 20
196.5636945965
 30
0.0
 11
160.1649721465
 21
149.1068848541
 31
0.0
  0
SPLINE
  5
82
330
1F
100
AcDbEntity
  8
0
  6
Continuous
 62
     7
370
    15
100
AcDbSpline
210
0.0
220
0.0
230
1.0
 70
     8
 71
     3
 72
    10
 73
     6
 74
     0
 42
0.000000001
 43
0.0000000001
 40
0.0
 40
0.0
 40
0.0
 40
0.0
 40
0.3321697289483806
 40
0.7156352752255785
 40
1.0
 40
1.0
 40
1.0
 40
1.0
 10
198.6527335614658
 20
148.5125397204919
 30
0.0
 10
198.4997831125921
 20
148.9751557202888
 30
0.0
 10
198.1702626083543
 20
149.9718279016659
 30
0.0
 10
197.5614766841949
 20
151.3110250936201
 30
0.0
 10
197.0633165311504
 20
152.154482895775
 30
0.0
 10
196.8511980020052
 20
152.5136305058271
 30
0.0
  0
LINE
  5
83
330
1F
100
AcDbEntity
  8
0
  6
Continuous
 62
     7
370
    15
100
AcDbLine
 10
202.9841773801
 20
15.037339407
 30
0.0
 11
200.6880558929
 21
148.4076322586
 31
0.0
  0
LINE
  5
84
330
1F
100
AcDbEntity
  8
0
  6
Continuous
 62
     7
370
    15
100
AcDbLine
 10
160.6939827020999
 20
147.7190888073
 30
0.0
 11
160.8875548783
 21
136.4754425225
 31
0.0
  0
LINE
  5
85
330
1F
100
AcDbEntity
  8
0
  6
Continuous
 62
     7
370
    15
100
AcDbLine
 10
161.3616919445
 20
108.9351752861
 30
0.0
 11
162.9901041893
 21
14.3487959557
 31
0.0
  0
LINE
  5
86
330
1F
100
AcDbEntity
  8
0
  6
Continuous
 62
     7
370
    15
100
AcDbLine
 10
100.365656073
 20
73.93753059239999
 30
0.0
 11
99.8421907874
 21
73.5390140768
 31
0.0
  0
ARC
  5
87
330
1F
100
AcDbEntity
  8
0
  6
Continuous
 62
     7
370
    15
100
AcDbCircle
 10
117.5483050253
 20
88.8963779989
 30
0.0
 40
22.49762774468478
100
AcDbArc
 50
221.089703199
 51
229.1426032381
  0
ARC
  5
88
330
1F
100
AcDbEntity
  8
0
  6
Continuous
 62
     7
370
    15
100
AcDbCircle
 10
109.1662564817
 20
78.89072699569999
 30
0.0
 40
10.35520397803901
100
AcDbArc
 50
231.3508506441
 51
243.6059256661
  0
LINE
  5
89
330
1F
100
AcDbEntity
  8
0
  6
Continuous
 62
     7
370
    15
100
AcDbLine
 10
105.0863932136
 20
70.013482031
 30
0.0
 11
104.5629278014
 21
69.6149728761
 31
0.0
  0
ARC
  5
8A
330
1F
100
AcDbEntity
  8
0
  6
Continuous
 62
     7
370
    15
100
AcDbCircle
 10
106.1562874820999
 20
70.367363564
 30
0.0
 40
1.150607885870785
100
AcDbArc
 50
288.7242719628
 51
342.465618552
  0
LINE
  5
8B
330
1F
100
AcDbEntity
  8
0
  6
Continuous
 62
     7
370
    15
100
AcDbLine
 10
107.5205354078
 20
70.22405731810001
 30
0.0
 11
107.2534339082
 21
70.02071067340001
 31
0.0
  0
LWPOLYLINE
  5
8C
330
1F
100
AcDbEntity
  8
0
  6
Continuous
 62
     7
370
    15
100
AcDbPolyline
 90
        3
 70
   128
 43
0.0
 10
97.94581494290001
 20
84.23849342089999
 10
97.84798978059999
 20
84.29011360149999
 10
97.6312752479
 20
84.397783061
  0
LINE
  5
8D
330
1F
100
AcDbEntity
  8
0
  6
Continuous
 62
     7
370
    15
100
AcDbLine
 10
97.6504470755
 20
84.4123762723
 30
0.0
 11
97.6312752479
 21
84.397783061
 31
0.0
  0
LINE
  5
8E
330
1F
100
AcDbEntity
  8
0
  6
Continuous
 62
     7
370
    15
100
AcDbLine
 10
96.07921506910001
 20
85.04773227619999
 30
0.0
 11
95.6685540692
 21
84.735103615
 31
0.0
  0
ARC
  5
8F
330
1F
100
AcDbEntity
  8
0
  6
Continuous
 62
     7
370
    15
100
AcDbCircle
 10
96.03790798540002
 20
83.64540341989998
 30
0.0
 40
1.150594989773408
100
AcDbArc
 50
108.7240909826
 51
162.4663769454
  0
LINE
  5
90
330
1F
100
AcDbEntity
  8
0
  6
Continuous
 62
     7
370
    15
100
AcDbLine
 10
95.54525119459999
 20
82.13203991410001
 30
0.0
 11
95.02179230850002
 21
81.7335314221
 31
0.0
  0
ARC
  5
91
330
1F
100
AcDbEntity
  8
0
  6
Continuous
 62
     7
370
    15
100
AcDbCircle
 10
107.6491998734
 20
85.165490588
 30
0.0
 40
13.08547918606038
100
AcDbArc
 50
195.2049372205
 51
205.6837502088
  0
ARC
  5
92
330
1F
100
AcDbEntity
  8
0
  6
Continuous
 62
     7
370
    15
100
AcDbCircle
 10
119.1229460832
 20
90.97385194440001
 30
0.0
 40
25.02530741049631
100
AcDbArc
 50
207.431562319
 51
215.240839625
  0
LINE
  5
93
330
1F
100
AcDbEntity
  8
0
  6
Continuous
 62
     7
370
    15
100
AcDbLine
 10
98.6839312164
 20
76.53388372180001
 30
0.0
 11
97.9338632325
 21
75.9628563837
 31
0.0
  0
ARC
  5
94
330
1F
100
AcDbEntity
  8
0
  6
Continuous
 62
     7
370
    15
100
AcDbCircle
 10
121.0022691912
 20
92.16181117359999
 30
0.0
 40
28.18789615707638
100
AcDbArc
 50
215.0770631091
 51
221.3507193648
  0
LINE
  5
95
330
1F
100
AcDbEntity
  8
0
  6
Continuous
 62
     7
370
    15
100
AcDbLine
 10
103.2382198064
 20
72.19066217159999
 30
0.0
 11
102.4881518224
 21
71.6196348335
 31
0.0
  0
ARC
  5
96
330
1F
100
AcDbEntity
  8
0
  6
Continuous
 62
     7
370
    15
100
AcDbCircle
 10
114.8646569382
 20
86.8152468567
 30
0.0
 40
18.68294724047355
100
AcDbArc
 50
220.9669141119
 51
231.5155590751
  0
LINE
  5
97
330
1F
100
AcDbEntity
  8
0
  6
Continuous
 62
     7
370
    15
100
AcDbLine
 10
100.7573820544
 20
74.566274943
 30
0.0
 11
100.0073140704
 21
73.9952476048
 31
0.0
  0
ARC
  5
98
330
1F
100
AcDbEntity
  8
0
  6
Continuous
 62
     7
370
    15
100
AcDbCircle
 10
118.3844744068
 20
90.1687774474
 30
0.0
 40
24.48066767052226
100
AcDbArc
 50
215.0774190298
 51
221.3506389395
  0
LINE
  5
99
330
1F
100
AcDbEntity
  8
0
  6
Continuous
 62
     7
370
    15
100
AcDbLine
 10
99.10014488290002
 20
76.67118701060001
 30
0.0
 11
98.35007689900001
 21
76.10015967249999
 31
0.0
  0
ARC
  5
9A
330
1F
100
AcDbEntity
  8
0
  6
Continuous
 62
     7
370
    15
100
AcDbCircle
 10
116.0383884962
 20
88.69898212509999
 30
0.0
 40
20.77430990469941
100
AcDbArc
 50
205.5535860801
 51
215.3784447667
  0
LINE
  5
9B
330
1F
100
AcDbEntity
  8
0
  6
Continuous
 62
     7
370
    15
100
AcDbLine
 10
97.2961747893
 20
79.73787854439999
 30
0.0
 11
96.54610680540002
 21
79.16685120629999
 31
0.0
  0
ARC
  5
9C
330
1F
100
AcDbEntity
  8
0
  6
Continuous
 62
     7
370
    15
100
AcDbCircle
 10
106.7872962152
 20
84.0919804161
 30
0.0
 40
11.36392794153929
100
AcDbArc
 50
195.20494191
 51
205.6835429054
  0
LINE
  5
9D
330
1F
100
AcDbEntity
  8
0
  6
Continuous
 62
     7
370
    15
100
AcDbLine
 10
96.57124332389999
 20
81.6825629536
 30
0.0
 11
95.82117533989999
 21
81.11153561550001
 31
0.0
  0
ARC
  5
9E
330
1F
100
AcDbEntity
  8
0
  6
Continuous
 62
     7
370
    15
100
AcDbCircle
 10
99.89858800790001
 20
82.7838579964
 30
0.0
 40
3.50486425092756
100
AcDbArc
 50
165.7953176241
 51
198.3136737526
  0
LINE
  5
9F
330
1F
100
AcDbEntity
  8
0
  6
Continuous
 62
     7
370
    15
100
AcDbLine
 10
96.50088393190001
 20
83.64390475669999
 30
0.0
 11
95.750815948
 21
83.0728774185
 31
0.0
  0
ARC
  5
A0
330
1F
100
AcDbEntity
  8
0
  6
Continuous
 62
     7
370
    15
100
AcDbCircle
 10
96.70354883299999
 20
82.77188386069999
 30
0.0
 40
0.9991481732607439
100
AcDbArc
 50
108.7226147794
 51
162.4672932436
  0
LINE
  5
A1
330
1F
100
AcDbEntity
  8
0
  6
Continuous
 62
     7
370
    15
100
AcDbLine
 10
97.1329034104
 20
84.28918810489999
 30
0.0
 11
96.3828354265
 21
83.71816076669999
 31
0.0
  0
ARC
  5
A2
330
1F
100
AcDbEntity
  8
0
  6
Continuous
 62
     7
370
    15
100
AcDbCircle
 10
97.5426017734
 20
82.96282511439999
 30
0.0
 40
1.388197223440876
100
AcDbArc
 50
85.341312381
 51
107.1653206507
  0
ARC
  5
A3
330
1F
100
AcDbEntity
  8
0
  6
Continuous
 62
     7
370
    15
100
AcDbCircle
 10
94.089806058
 20
75.3701009155
 30
0.0
 40
8.99249811555855
100
AcDbArc
 50
51.35099305739999
 51
63.60630621169999
  0
LINE
  5
A4
330
1F
100
AcDbEntity
  8
0
  6
Continuous
 62
     7
370
    15
100
AcDbLine
 10
100.0443807646
 20
82.6506877201
 30
0.0
 11
99.70605122690001
 21
82.3931211036
 31
0.0
  0
ARC
  5
A5
330
1F
100
AcDbEntity
  8
0
  6
Continuous
 62
     7
370
    15
100
AcDbCircle
 10
83.80972864250001
 20
63.84397848969999
 30
0.0
 40
24.48066767051682
100
AcDbArc
 50
35.0774190298
 51
41.35063893949999
  0
LINE
  5
A6
330
1F
100
AcDbEntity
  8
0
  6
Continuous
 62
     7
370
    15
100
AcDbLine
 10
105.9558772491
 20
75.08022353130001
 30
0.0
 11
105.6480962439
 21
74.8459047308
 31
0.0
  0
ARC
  5
A7
330
1F
100
AcDbEntity
  8
0
  6
Continuous
 62
     7
370
    15
100
AcDbCircle
 10
95.4069068341
 20
69.92077552100001
 30
0.0
 40
11.36392794154476
100
AcDbArc
 50
15.20494191
 51
25.6835429054
  0
LWPOLYLINE
  5
A8
330
1F
100
AcDbEntity
  8
0
  6
Continuous
 62
     7
370
    15
100
AcDbPolyline
 90
        3
 70
   128
 43
0.0
 10
107.279061864
 20
71.8657125148
 10
107.2471377525
 20
71.69350474239999
 10
107.1934550853
 20
71.51090585670001
  0
LINE
  5
A9
330
1F
100
AcDbEntity
  8
0
  6
Continuous
 62
     7
370
    15
100
AcDbLine
 10
107.1934550853
 20
71.51090585670001
 30
0.0
 11
106.4433871013
 21
70.93987851850001
 31
0.0
  0
ARC
  5
AA
330
1F
100
AcDbEntity
  8
0
  6
Continuous
 62
     7
370
    15
100
AcDbCircle
 10
105.4906631846
 20
71.24086329249999
 30
0.0
 40
0.9991369754358988
100
AcDbArc
 50
288.7222893913
 51
342.4676186318
  0
LINE
  5
AB
330
1F
100
AcDbEntity
  8
0
  6
Continuous
 62
     7
370
    15
100
AcDbLine
 10
106.3120281765
 20
70.67574564819999
 30
0.0
 11
105.8113676228
 21
70.2945951703
 31
0.0
  0
ARC
  5
AC
330
1F
100
AcDbEntity
  8
0
  6
Continuous
 62
     7
370
    15
100
AcDbCircle
 10
106.1991944009
 20
73.6311849321
 30
0.0
 40
2.813442501829819
100
AcDbArc
 50
241.505442229
 51
274.0044977851
  0
LINE
  5
AD
330
1F
100
AcDbEntity
  8
0
  6
Continuous
 62
     7
370
    15
100
AcDbLine
 10
104.8569705208
 20
71.15855601399999
 30
0.0
 11
104.1069025368
 21
70.5875286758
 31
0.0
  0
ARC
  5
AE
330
1F
100
AcDbEntity
  8
0
  6
Continuous
 62
     7
370
    15
100
AcDbCircle
 10
108.1045902883
 20
78.6429581877
 30
0.0
 40
8.992855607557238
100
AcDbArc
 50
231.3512375824
 51
243.6060616867
  0
ARC
  5
AF
330
1F
100
AcDbEntity
  8
0
  6
Continuous
 62
     7
370
    15
100
AcDbCircle
 10
99.35020791820001
 20
83.4756562851
 30
0.0
 40
2.222395323071538
100
AcDbArc
 50
157.3865936382
 51
190.771364439
  0
ARC
  5
B0
330
1F
100
AcDbEntity
  8
0
  6
Continuous
 62
     7
370
    15
100
AcDbCircle
 10
106.9411709756
 20
73.93552346379999
 30
0.0
 40
2.556477248831181
100
AcDbArc
 50
245.6377112029
 51
271.8102517066
  0
LINE
  5
B1
330
1F
100
AcDbEntity
  8
0
  6
Continuous
 62
     7
370
    15
100
AcDbLine
 10
107.0494161504
 20
72.3003040701
 30
0.0
 11
107.0960791903
 21
72.3386184717
 31
0.0
  0
LINE
  5
B2
330
1F
100
AcDbEntity
  8
0
  6
Continuous
 62
     7
370
    15
100
AcDbLine
 10
104.1409038896
 20
78.01049973720001
 30
0.0
 11
103.8441261503
 21
77.9125962646
 31
0.0
  0
LINE
  5
B3
330
1F
100
AcDbEntity
  8
0
  6
Continuous
 62
     7
370
    15
100
AcDbLine
 10
102.1868889789
 20
80.0175083322
 30
0.0
 11
102.3064555594
 21
80.34786706910001
 31
0.0
  0
ARC
  5
B4
330
1F
100
AcDbEntity
  8
0
  6
Continuous
 62
     7
370
    15
100
AcDbCircle
 10
105.7124806086
 20
72.6470540608
 30
0.0
 40
1.056560536570372
100
AcDbArc
 50
252.5429708129
 51
357.1282536439
  0
ARC
  5
B5
330
1F
100
AcDbEntity
  8
0
  6
Continuous
 62
     7
370
    15
100
AcDbCircle
 10
98.08935481589999
 20
82.64620403890001
 30
0.0
 40
1.024049193043961
100
AcDbArc
 50
96.3894220949
 51
183.8024126182
  0
LWPOLYLINE
  5
B6
330
1F
100
AcDbEntity
  8
0
  6
Continuous
 62
     7
370
    15
100
AcDbPolyline
 90
       24
 70
   128
 43
0.0
 10
98.03867778950001
 20
83.52892738840001
 10
97.62341946780001
 20
83.4446162493
 10
97.30747797239999
 20
83.2000610134
 10
97.1153612734
 20
82.8021330444
 10
97.0523242379
 20
82.26169073520001
 10
97.1200767891
 20
81.59347408409999
 10
97.31676707510001
 20
80.8157032821
 10
97.6370395634
 20
79.9496061139
 10
98.07215332780002
 20
79.0188049632
 10
98.61023658889999
 20
78.0486795028
 10
99.23661673600001
 20
77.0656972557
 10
99.9342045008
 20
76.096678814
 10
100.6839776674
 20
75.16804877529999
 10
101.465476724
 20
74.30514272409999
 10
102.257383983
 20
73.53149207279999
 10
103.038108201
 20
72.8681983296
 10
103.7863428141
 20
72.33336635419999
 10
104.4816794467
 20
71.9415791264
 10
105.1051552362
 20
71.70351543079999
 10
105.6397628683
 20
71.62568049939999
 10
106.0709195494
 20
71.7101943641
 10
106.3868610448
 20
71.9547496
 10
106.5789777438
 20
72.3526775689
 10
106.6354514061
 20
72.69703245859999
  0
LINE
  5
B7
330
1F
100
AcDbEntity
  8
0
  6
Continuous
 62
     7
370
    15
100
AcDbLine
 10
99.97486755530001
 20
82.6406099647
 30
0.0
 11
100.3260927837
 21
82.4023197712
 31
0.0
  0
LWPOLYLINE
  5
B8
330
1F
100
AcDbEntity
  8
0
  6
Continuous
 62
     7
370
    15
100
AcDbPolyline
 90
       24
 70
   128
 43
0.0
 10
106.4706085789
 20
72.86903737199999
 10
106.3646497453
 20
72.3815450826
 10
106.1285773218
 20
72.0414392992
 10
105.7693422546
 20
71.86058490100001
 10
105.2972667911
 20
71.84420228819999
 10
104.7259390252
 20
71.99274800149999
 10
104.0717999652
 20
72.30195443239999
 10
103.353657253
 20
72.76292364799999
 10
102.5921762641
 20
73.36240083079999
 10
101.8092656975
 20
74.0831328419
 10
101.0274398828
 20
74.9043897283
 10
100.2692004704
 20
75.8025448874
 10
99.5563585714
 20
76.75175500859999
 10
98.90941370749999
 20
77.7247252771
 10
98.34698637549999
 20
78.6934533381
 10
97.8852504105
 20
79.63007903229999
 10
97.53749469669999
 20
80.5076434961
 10
97.31371568110001
 20
81.30091875859999
 10
97.22035895879999
 20
81.98707538109999
 10
97.2601115938
 20
82.5463662503
 10
97.43182045030001
 20
82.96271566580001
 10
97.7305489905
 20
83.2241393622
 10
98.1477063718
 20
83.3231160166
 10
98.29730813299999
 20
83.32037179470001
  0
LWPOLYLINE
  5
B9
330
1F
100
AcDbEntity
  8
0
  6
Continuous
 62
     7
370
    15
100
AcDbPolyline
 90
       24
 70
   128
 43
0.0
 10
98.33811283000001
 20
83.2988480731
 10
98.275565463
 20
83.29813287669999
 10
97.86436164100001
 20
83.2005713803
 10
97.56990070180002
 20
82.94288368969999
 10
97.40064721999999
 20
82.53248674019999
 10
97.36146440559998
 20
81.9811777832
 10
97.45348458110001
 20
81.3048265561
 10
97.6740694951
 20
80.5228895731
 10
98.01685792589999
 20
79.6578523579
 10
98.4719931455
 20
78.7346135298
 10
99.0263865742
 20
77.7797205322
 10
99.66409038430001
 20
76.8206545487
 10
100.366750782
 20
75.88499894669999
 10
101.1141581525
 20
74.9996773105
 10
101.8848143871
 20
74.1901508868
 10
102.6565420148
 20
73.4797127556
 10
103.4071447448
 20
72.8888076839
 10
104.1150215819
 20
72.43441642729999
 10
104.7598224532
 20
72.12962695219999
 10
105.3229859357
 20
71.98320392060001
 10
105.7883127444
 20
71.99936107390001
 10
106.1424261781
 20
72.17762310010001
 10
106.3751183543
 20
72.51287730609999
 10
106.4555656999
 20
72.7968283683
  0
LWPOLYLINE
  5
BA
330
1F
100
AcDbEntity
  8
0
  6
Continuous
 62
     7
370
    15
100
AcDbPolyline
 90
       20
 70
   128
 43
0.0
 10
97.78096284780001
 20
83.1519873472
 10
97.644910098
 20
82.99998742479999
 10
97.47565009
 20
82.5895898123
 10
97.4364738018
 20
82.0382815183
 10
97.52849397730001
 20
81.3619302911
 10
97.7490723652
 20
80.57999264520001
 10
98.09186079600001
 20
79.71495543
 10
98.54700254169999
 20
78.7917172649
 10
99.1013959704
 20
77.8368242672
 10
99.73909325440001
 20
76.8777576208
 10
100.441753652
 20
75.9421020188
 10
101.1891675487
 20
75.0567810455
 10
101.9598172571
 20
74.2472539589
 10
102.7315448849
 20
73.53681582770001
 10
103.4821477416
 20
72.9459033953
 10
104.1900309781
 20
72.4915201624
 10
104.8348318494
 20
72.1867306872
 10
105.3979953319
 20
72.0403076556
 10
105.8633221406
 20
72.05646480899999
 10
106.1383967975
 20
72.174125621
  0
LINE
  5
BB
330
1F
100
AcDbEntity
  8
0
  6
Continuous
 62
     7
370
    15
100
AcDbLine
 10
100.0530853145
 20
82.4983940993
 30
0.0
 11
100.0075828753
 21
82.2205698307
 31
0.0
  0
LINE
  5
BC
330
1F
100
AcDbEntity
  8
0
  6
Continuous
 62
     7
370
    15
100
AcDbLine
 10
99.98392042709999
 20
82.60466264520001
 30
0.0
 11
100.0530853145
 21
82.4983940993
 31
0.0
  0
LINE
  5
BD
330
1F
100
AcDbEntity
  8
0
  6
Continuous
 62
     7
370
    15
100
AcDbLine
 10
100.0075828753
 20
82.2205698307
 30
0.0
 11
99.72102105350002
 21
82.4045121814
 31
0.0
  0
LINE
  5
BE
330
1F
100
AcDbEntity
  8
0
  6
Continuous
 62
     7
370
    15
100
AcDbLine
 10
99.5600768235
 20
82.17844899100001
 30
0.0
 11
99.17133265129999
 21
82.42798055680001
 31
0.0
  0
LINE
  5
BF
330
1F
100
AcDbEntity
  8
0
  6
Continuous
 62
     7
370
    15
100
AcDbLine
 10
99.60557270149999
 20
82.45627260579999
 30
0.0
 11
99.5600768235
 21
82.17844899100001
 31
0.0
  0
LINE
  5
C0
330
1F
100
AcDbEntity
  8
0
  6
Continuous
 62
     7
370
    15
100
AcDbLine
 10
99.58720701250001
 20
82.4844880859
 30
0.0
 11
99.60557270149999
 21
82.45627260579999
 31
0.0
  0
LINE
  5
C1
330
1F
100
AcDbEntity
  8
0
  6
Continuous
 62
     7
370
    15
100
AcDbLine
 10
98.82809089730001
 20
82.9553363968
 30
0.0
 11
98.83670582950001
 21
83.00796796330001
 31
0.0
  0
LINE
  5
C2
330
1F
100
AcDbEntity
  8
0
  6
Continuous
 62
     7
370
    15
100
AcDbLine
 10
99.17133265129999
 20
82.42798055680001
 30
0.0
 11
98.82809089730001
 21
82.9553363968
 31
0.0
  0
LINE
  5
C3
330
1F
100
AcDbEntity
  8
0
  6
Continuous
 62
     7
370
    15
100
AcDbLine
 10
98.65571186790001
 20
82.1194651763
 30
0.0
 11
98.26697420089999
 21
82.36899741070001
 31
0.0
  0
LINE
  5
C4
330
1F
100
AcDbEntity
  8
0
  6
Continuous
 62
     7
370
    15
100
AcDbLine
 10
98.70121425100002
 20
82.3972894597
 30
0.0
 11
98.65571186790001
 21
82.1194651763
 31
0.0
  0
LINE
  5
C5
330
1F
100
AcDbEntity
  8
0
  6
Continuous
 62
     7
370
    15
100
AcDbLine
 10
98.35797249709999
 20
82.9246452998
 30
0.0
 11
98.70121425100002
 21
82.3972894597
 31
0.0
  0
LINE
  5
C6
330
1F
100
AcDbEntity
  8
0
  6
Continuous
 62
     7
370
    15
100
AcDbLine
 10
98.1167485503
 20
83.07947869299999
 30
0.0
 11
98.35797249709999
 21
82.9246452998
 31
0.0
  0
ARC
  5
C7
330
1F
100
AcDbEntity
  8
0
  6
Continuous
 62
     7
370
    15
100
AcDbCircle
 10
98.42048268879999
 20
82.3892652574
 30
0.0
 40
0.7540882002006938
100
AcDbArc
 50
113.7522921016
 51
130.0548522974
  0
LINE
  5
C8
330
1F
100
AcDbEntity
  8
0
  6
Continuous
 62
     7
370
    15
100
AcDbLine
 10
97.92373239079999
 20
82.8963532655
 30
0.0
 11
97.9352113298
 21
82.9664660212
 31
0.0
  0
LINE
  5
C9
330
1F
100
AcDbEntity
  8
0
  6
Continuous
 62
     7
370
    15
100
AcDbLine
 10
98.26697420089999
 20
82.36899741070001
 30
0.0
 11
97.92373239079999
 21
82.8963532655
 31
0.0
  0
LINE
  5
CA
330
1F
100
AcDbEntity
  8
0
  6
Continuous
 62
     7
370
    15
100
AcDbLine
 10
99.10322445290001
 20
82.1615866772
 30
0.0
 11
98.71448031580001
 21
82.4111182338
 31
0.0
  0
LINE
  5
CB
330
1F
100
AcDbEntity
  8
0
  6
Continuous
 62
     7
370
    15
100
AcDbLine
 10
99.1487203379
 20
82.4394102902
 30
0.0
 11
99.10322445290001
 21
82.1615866772
 31
0.0
  0
LINE
  5
CC
330
1F
100
AcDbEntity
  8
0
  6
Continuous
 62
     7
370
    15
100
AcDbLine
 10
98.8054785839
 20
82.96676613029999
 30
0.0
 11
99.1487203379
 21
82.4394102902
 31
0.0
  0
LINE
  5
CD
330
1F
100
AcDbEntity
  8
0
  6
Continuous
 62
     7
370
    15
100
AcDbLine
 10
98.508135611
 20
83.15762825890001
 30
0.0
 11
98.8054785839
 21
82.96676613029999
 31
0.0
  0
ARC
  5
CE
330
1F
100
AcDbEntity
  8
0
  6
Continuous
 62
     7
370
    15
100
AcDbCircle
 10
98.52054284940001
 20
81.9430088948
 30
0.0
 40
1.214682731915305
100
AcDbArc
 50
90.5852513904
 51
95.3987323265
  0
LINE
  5
CF
330
1F
100
AcDbEntity
  8
0
  6
Continuous
 62
     7
370
    15
100
AcDbLine
 10
98.3712385057
 20
82.93847408860001
 30
0.0
 11
98.406257862
 21
83.1523033506
 31
0.0
  0
LINE
  5
D0
330
1F
100
AcDbEntity
  8
0
  6
Continuous
 62
     7
370
    15
100
AcDbLine
 10
98.71448031580001
 20
82.4111182338
 30
0.0
 11
98.3712385057
 21
82.93847408860001
 31
0.0
  0
LINE
  5
D1
330
1F
100
AcDbEntity
  8
0
  6
Continuous
 62
     7
370
    15
100
AcDbLine
 10
99.9203075081
 20
81.60515282270001
 30
0.0
 11
99.8748051039
 21
81.3273285448
 31
0.0
  0
LINE
  5
D2
330
1F
100
AcDbEntity
  8
0
  6
Continuous
 62
     7
370
    15
100
AcDbLine
 10
99.57706573999999
 20
82.13250866640001
 30
0.0
 11
99.9203075081
 21
81.60515282270001
 31
0.0
  0
LINE
  5
D3
330
1F
100
AcDbEntity
  8
0
  6
Continuous
 62
     7
370
    15
100
AcDbLine
 10
99.18832156090001
 20
82.3820402341
 30
0.0
 11
99.57706573999999
 21
82.13250866640001
 31
0.0
  0
LINE
  5
D4
330
1F
100
AcDbEntity
  8
0
  6
Continuous
 62
     7
370
    15
100
AcDbLine
 10
99.1428257039
 20
82.1042166137
 30
0.0
 11
99.18832156090001
 21
82.3820402341
 31
0.0
  0
LINE
  5
D5
330
1F
100
AcDbEntity
  8
0
  6
Continuous
 62
     7
370
    15
100
AcDbLine
 10
99.48606745790002
 20
81.5768607737
 30
0.0
 11
99.1428257039
 21
82.1042166137
 31
0.0
  0
LINE
  5
D6
330
1F
100
AcDbEntity
  8
0
  6
Continuous
 62
     7
370
    15
100
AcDbLine
 10
99.8748051039
 20
81.3273285448
 30
0.0
 11
99.48606745790002
 21
81.5768607737
 31
0.0
  0
LINE
  5
D7
330
1F
100
AcDbEntity
  8
0
  6
Continuous
 62
     7
370
    15
100
AcDbLine
 10
100.3678135949
 20
81.6472736532
 30
0.0
 11
100.3223177099
 21
81.36945004020001
 31
0.0
  0
LINE
  5
D8
330
1F
100
AcDbEntity
  8
0
  6
Continuous
 62
     7
370
    15
100
AcDbLine
 10
100.024571841
 20
82.17462949319999
 30
0.0
 11
100.3678135949
 21
81.6472736532
 31
0.0
  0
LINE
  5
D9
330
1F
100
AcDbEntity
  8
0
  6
Continuous
 62
     7
370
    15
100
AcDbLine
 10
99.63583417389999
 20
82.4241617276
 30
0.0
 11
100.024571841
 21
82.17462949319999
 31
0.0
  0
LINE
  5
DA
330
1F
100
AcDbEntity
  8
0
  6
Continuous
 62
     7
370
    15
100
AcDbLine
 10
99.59033176969999
 20
82.14633744969999
 30
0.0
 11
99.63583417389999
 21
82.4241617276
 31
0.0
  0
LINE
  5
DB
330
1F
100
AcDbEntity
  8
0
  6
Continuous
 62
     7
370
    15
100
AcDbLine
 10
99.93357353070001
 20
81.6189816079
 30
0.0
 11
99.59033176969999
 21
82.14633744969999
 31
0.0
  0
LINE
  5
DC
330
1F
100
AcDbEntity
  8
0
  6
Continuous
 62
     7
370
    15
100
AcDbLine
 10
100.3223177099
 20
81.36945004020001
 30
0.0
 11
99.93357353070001
 21
81.6189816079
 31
0.0
  0
LINE
  5
DD
330
1F
100
AcDbEntity
  8
0
  6
Continuous
 62
     7
370
    15
100
AcDbLine
 10
100.6825485282
 20
80.79614650939999
 30
0.0
 11
100.6370526432
 21
80.51832289640001
 31
0.0
  0
LINE
  5
DE
330
1F
100
AcDbEntity
  8
0
  6
Continuous
 62
     7
370
    15
100
AcDbLine
 10
100.3393067462
 20
81.3235023568
 30
0.0
 11
100.6825485282
 21
80.79614650939999
 31
0.0
  0
LINE
  5
DF
330
1F
100
AcDbEntity
  8
0
  6
Continuous
 62
     7
370
    15
100
AcDbLine
 10
99.95056258099999
 20
81.5730339209
 30
0.0
 11
100.3393067462
 21
81.3235023568
 31
0.0
  0
LINE
  5
E0
330
1F
100
AcDbEntity
  8
0
  6
Continuous
 62
     7
370
    15
100
AcDbLine
 10
99.90506669600001
 20
81.29521030779999
 30
0.0
 11
99.95056258099999
 21
81.5730339209
 31
0.0
  0
LINE
  5
E1
330
1F
100
AcDbEntity
  8
0
  6
Continuous
 62
     7
370
    15
100
AcDbLine
 10
100.2483084675
 20
80.7678544632
 30
0.0
 11
99.90506669600001
 21
81.29521030779999
 31
0.0
  0
LINE
  5
E2
330
1F
100
AcDbEntity
  8
0
  6
Continuous
 62
     7
370
    15
100
AcDbLine
 10
100.6370526432
 20
80.51832289640001
 30
0.0
 11
100.2483084675
 21
80.7678544632
 31
0.0
  0
LINE
  5
E3
330
1F
100
AcDbEntity
  8
0
  6
Continuous
 62
     7
370
    15
100
AcDbLine
 10
100.2350424413
 20
80.7540256789
 30
0.0
 11
100.1895400302
 21
80.4762014029
 31
0.0
  0
LINE
  5
E4
330
1F
100
AcDbEntity
  8
0
  6
Continuous
 62
     7
370
    15
100
AcDbLine
 10
99.89179402049998
 20
81.28138822030001
 30
0.0
 11
100.2350424413
 21
80.7540256789
 31
0.0
  0
LINE
  5
E5
330
1F
100
AcDbEntity
  8
0
  6
Continuous
 62
     7
370
    15
100
AcDbLine
 10
99.50305649409999
 20
81.53091309030001
 30
0.0
 11
99.89179402049998
 21
81.28138822030001
 31
0.0
  0
LINE
  5
E6
330
1F
100
AcDbEntity
  8
0
  6
Continuous
 62
     7
370
    15
100
AcDbLine
 10
99.457554083
 20
81.25308881429999
 30
0.0
 11
99.50305649409999
 21
81.53091309030001
 31
0.0
  0
LINE
  5
E7
330
1F
100
AcDbEntity
  8
0
  6
Continuous
 62
     7
370
    15
100
AcDbLine
 10
99.8008023631
 20
80.72573363729999
 30
0.0
 11
99.457554083
 21
81.25308881429999
 31
0.0
  0
LINE
  5
E8
330
1F
100
AcDbEntity
  8
0
  6
Continuous
 62
     7
370
    15
100
AcDbLine
 10
100.1895400302
 20
80.4762014029
 30
0.0
 11
99.8008023631
 21
80.72573363729999
 31
0.0
  0
LINE
  5
E9
330
1F
100
AcDbEntity
  8
0
  6
Continuous
 62
     7
370
    15
100
AcDbLine
 10
98.2368290922
 20
82.37565028829999
 30
0.0
 11
98.1913331229
 21
82.09782669739999
 31
0.0
  0
LINE
  5
EA
330
1F
100
AcDbEntity
  8
0
  6
Continuous
 62
     7
370
    15
100
AcDbLine
 10
97.89358728209998
 20
82.9030061431
 30
0.0
 11
98.2368290922
 21
82.37565028829999
 31
0.0
  0
LINE
  5
EB
330
1F
100
AcDbEntity
  8
0
  6
Continuous
 62
     7
370
    15
100
AcDbLine
 10
97.8780754173
 20
82.91296162229999
 30
0.0
 11
97.89358728209998
 21
82.9030061431
 31
0.0
  0
ARC
  5
EC
330
1F
100
AcDbEntity
  8
0
  6
Continuous
 62
     7
370
    15
100
AcDbCircle
 10
98.55828505379999
 20
82.2803515878
 30
0.0
 40
0.9289136695083371
100
AcDbArc
 50
137.0764939844
 51
163.0359092535
  0
LINE
  5
ED
330
1F
100
AcDbEntity
  8
0
  6
Continuous
 62
     7
370
    15
100
AcDbLine
 10
97.80258904200001
 20
82.3473582393
 30
0.0
 11
97.66979045459999
 21
82.5513828637
 31
0.0
  0
LINE
  5
EE
330
1F
100
AcDbEntity
  8
0
  6
Continuous
 62
     7
370
    15
100
AcDbLine
 10
98.1913331229
 20
82.09782669739999
 30
0.0
 11
97.80258904200001
 21
82.3473582393
 31
0.0
  0
LINE
  5
EF
330
1F
100
AcDbEntity
  8
0
  6
Continuous
 62
     7
370
    15
100
AcDbLine
 10
99.46345527120001
 20
81.5882831465
 30
0.0
 11
99.41795938620002
 21
81.31045953340001
 31
0.0
  0
LINE
  5
F0
330
1F
100
AcDbEntity
  8
0
  6
Continuous
 62
     7
370
    15
100
AcDbLine
 10
99.12021348919999
 20
82.1156389939
 30
0.0
 11
99.46345527120001
 21
81.5882831465
 31
0.0
  0
LINE
  5
F1
330
1F
100
AcDbEntity
  8
0
  6
Continuous
 62
     7
370
    15
100
AcDbLine
 10
98.7314693521
 20
82.36517055049999
 30
0.0
 11
99.12021348919999
 21
82.1156389939
 31
0.0
  0
LINE
  5
F2
330
1F
100
AcDbEntity
  8
0
  6
Continuous
 62
     7
370
    15
100
AcDbLine
 10
98.6859734951
 20
82.08734693009999
 30
0.0
 11
98.7314693521
 21
82.36517055049999
 31
0.0
  0
LINE
  5
F3
330
1F
100
AcDbEntity
  8
0
  6
Continuous
 62
     7
370
    15
100
AcDbLine
 10
99.02921519300001
 20
81.55999110479999
 30
0.0
 11
98.6859734951
 21
82.08734693009999
 31
0.0
  0
LINE
  5
F4
330
1F
100
AcDbEntity
  8
0
  6
Continuous
 62
     7
370
    15
100
AcDbLine
 10
99.41795938620002
 20
81.31045953340001
 30
0.0
 11
99.02921519300001
 21
81.55999110479999
 31
0.0
  0
LINE
  5
F5
330
1F
100
AcDbEntity
  8
0
  6
Continuous
 62
     7
370
    15
100
AcDbLine
 10
98.99907648370001
 20
81.56665200609999
 30
0.0
 11
98.9535741006
 21
81.28882772270001
 31
0.0
  0
LINE
  5
F6
330
1F
100
AcDbEntity
  8
0
  6
Continuous
 62
     7
370
    15
100
AcDbLine
 10
98.65582814740001
 20
82.0940071979
 30
0.0
 11
98.99907648370001
 21
81.56665200609999
 31
0.0
  0
LINE
  5
F7
330
1F
100
AcDbEntity
  8
0
  6
Continuous
 62
     7
370
    15
100
AcDbLine
 10
98.26709048040001
 20
82.3435394322
 30
0.0
 11
98.65582814740001
 21
82.0940071979
 31
0.0
  0
LINE
  5
F8
330
1F
100
AcDbEntity
  8
0
  6
Continuous
 62
     7
370
    15
100
AcDbLine
 10
98.2215880973
 20
82.0657151488
 30
0.0
 11
98.26709048040001
 21
82.3435394322
 31
0.0
  0
LINE
  5
F9
330
1F
100
AcDbEntity
  8
0
  6
Continuous
 62
     7
370
    15
100
AcDbLine
 10
98.56483656020001
 20
81.5383525964
 30
0.0
 11
98.2215880973
 21
82.0657151488
 31
0.0
  0
LINE
  5
FA
330
1F
100
AcDbEntity
  8
0
  6
Continuous
 62
     7
370
    15
100
AcDbLine
 10
98.9535741006
 20
81.28882772270001
 30
0.0
 11
98.56483656020001
 21
81.5383525964
 31
0.0
  0
LINE
  5
FB
330
1F
100
AcDbEntity
  8
0
  6
Continuous
 62
     7
370
    15
100
AcDbLine
 10
98.57002489270001
 20
81.49974765599999
 30
0.0
 11
98.52452250959998
 21
81.22192337260001
 31
0.0
  0
LINE
  5
FC
330
1F
100
AcDbEntity
  8
0
  6
Continuous
 62
     7
370
    15
100
AcDbLine
 10
98.22678319479999
 20
82.0271034813
 30
0.0
 11
98.57002489270001
 21
81.49974765599999
 31
0.0
  0
LINE
  5
FD
330
1F
100
AcDbEntity
  8
0
  6
Continuous
 62
     7
370
    15
100
AcDbLine
 10
97.8380390016
 20
82.27663505269999
 30
0.0
 11
98.22678319479999
 21
82.0271034813
 31
0.0
  0
LINE
  5
FE
330
1F
100
AcDbEntity
  8
0
  6
Continuous
 62
     7
370
    15
100
AcDbLine
 10
97.79254314459999
 20
81.9988114322
 30
0.0
 11
97.8380390016
 21
82.27663505269999
 31
0.0
  0
LINE
  5
FF
330
1F
100
AcDbEntity
  8
0
  6
Continuous
 62
     7
370
    15
100
AcDbLine
 10
98.13578495480001
 20
81.4714555774
 30
0.0
 11
97.79254314459999
 21
81.9988114322
 31
0.0
  0
LINE
  5
100
330
1F
100
AcDbEntity
  8
0
  6
Continuous
 62
     7
370
    15
100
AcDbLine
 10
98.52452250959998
 20
81.22192337260001
 30
0.0
 11
98.13578495480001
 21
81.4714555774
 31
0.0
  0
LINE
  5
101
330
1F
100
AcDbEntity
  8
0
  6
Continuous
 62
     7
370
    15
100
AcDbLine
 10
99.3322657581
 20
80.69074871069998
 30
0.0
 11
99.2867699011
 21
80.41292509029998
 31
0.0
  0
LINE
  5
102
330
1F
100
AcDbEntity
  8
0
  6
Continuous
 62
     7
370
    15
100
AcDbLine
 10
98.98902406020001
 20
81.218104536
 30
0.0
 11
99.3322657581
 21
80.69074871069998
 31
0.0
  0
LINE
  5
103
330
1F
100
AcDbEntity
  8
0
  6
Continuous
 62
     7
370
    15
100
AcDbLine
 10
98.6002863931
 20
81.4676367704
 30
0.0
 11
98.98902406020001
 21
81.218104536
 31
0.0
  0
LINE
  5
104
330
1F
100
AcDbEntity
  8
0
  6
Continuous
 62
     7
370
    15
100
AcDbLine
 10
98.55478401
 20
81.189812487
 30
0.0
 11
98.6002863931
 21
81.4676367704
 31
0.0
  0
LINE
  5
105
330
1F
100
AcDbEntity
  8
0
  6
Continuous
 62
     7
370
    15
100
AcDbLine
 10
98.89802570790001
 20
80.66245666170001
 30
0.0
 11
98.55478401
 21
81.189812487
 31
0.0
  0
LINE
  5
106
330
1F
100
AcDbEntity
  8
0
  6
Continuous
 62
     7
370
    15
100
AcDbLine
 10
99.2867699011
 20
80.41292509029998
 30
0.0
 11
98.89802570790001
 21
80.66245666170001
 31
0.0
  0
LINE
  5
107
330
1F
100
AcDbEntity
  8
0
  6
Continuous
 62
     7
370
    15
100
AcDbLine
 10
99.02933158469998
 20
81.53453309680001
 30
0.0
 11
99.41807572180001
 21
81.28500154020001
 31
0.0
  0
LINE
  5
108
330
1F
100
AcDbEntity
  8
0
  6
Continuous
 62
     7
370
    15
100
AcDbLine
 10
98.9838356155
 20
81.2567095059
 30
0.0
 11
99.02933158469998
 21
81.53453309680001
 31
0.0
  0
LINE
  5
109
330
1F
100
AcDbEntity
  8
0
  6
Continuous
 62
     7
370
    15
100
AcDbLine
 10
99.32707742559999
 20
80.72935365120001
 30
0.0
 11
98.9838356155
 21
81.2567095059
 31
0.0
  0
LINE
  5
10A
330
1F
100
AcDbEntity
  8
0
  6
Continuous
 62
     7
370
    15
100
AcDbLine
 10
99.7158216188
 20
80.4798220798
 30
0.0
 11
99.32707742559999
 21
80.72935365120001
 31
0.0
  0
LINE
  5
10B
330
1F
100
AcDbEntity
  8
0
  6
Continuous
 62
     7
370
    15
100
AcDbLine
 10
99.7613174758
 20
80.7576457002
 30
0.0
 11
99.7158216188
 21
80.4798220798
 31
0.0
  0
LINE
  5
10C
330
1F
100
AcDbEntity
  8
0
  6
Continuous
 62
     7
370
    15
100
AcDbLine
 10
99.41807572180001
 20
81.28500154020001
 30
0.0
 11
99.7613174758
 21
80.7576457002
 31
0.0
  0
LINE
  5
10D
330
1F
100
AcDbEntity
  8
0
  6
Continuous
 62
     7
370
    15
100
AcDbLine
 10
100.2065289397
 20
80.43026108019999
 30
0.0
 11
100.5497707218
 21
79.90290523279999
 31
0.0
  0
LINE
  5
10E
330
1F
100
AcDbEntity
  8
0
  6
Continuous
 62
     7
370
    15
100
AcDbLine
 10
99.81779132879999
 20
80.6797932998
 30
0.0
 11
100.2065289397
 21
80.43026108019999
 31
0.0
  0
LINE
  5
10F
330
1F
100
AcDbEntity
  8
0
  6
Continuous
 62
     7
370
    15
100
AcDbLine
 10
99.77228888950001
 20
80.4019690312
 30
0.0
 11
99.81779132879999
 21
80.6797932998
 31
0.0
  0
LINE
  5
110
330
1F
100
AcDbEntity
  8
0
  6
Continuous
 62
     7
370
    15
100
AcDbLine
 10
100.1155306435
 20
79.8746131912
 30
0.0
 11
99.77228888950001
 21
80.4019690312
 31
0.0
  0
LINE
  5
111
330
1F
100
AcDbEntity
  8
0
  6
Continuous
 62
     7
370
    15
100
AcDbLine
 10
100.5042748367
 20
79.6250816198
 30
0.0
 11
100.1155306435
 21
79.8746131912
 31
0.0
  0
LINE
  5
112
330
1F
100
AcDbEntity
  8
0
  6
Continuous
 62
     7
370
    15
100
AcDbLine
 10
100.5497707218
 20
79.90290523279999
 30
0.0
 11
100.5042748367
 21
79.6250816198
 31
0.0
  0
LINE
  5
113
330
1F
100
AcDbEntity
  8
0
  6
Continuous
 62
     7
370
    15
100
AcDbLine
 10
100.2652973806
 20
80.7219141396
 30
0.0
 11
100.6540415527
 21
80.4723825737
 31
0.0
  0
LINE
  5
114
330
1F
100
AcDbEntity
  8
0
  6
Continuous
 62
     7
370
    15
100
AcDbLine
 10
100.2198015026
 20
80.44409052469999
 30
0.0
 11
100.2652973806
 21
80.7219141396
 31
0.0
  0
LINE
  5
115
330
1F
100
AcDbEntity
  8
0
  6
Continuous
 62
     7
370
    15
100
AcDbLine
 10
100.5630432706
 20
79.91673468100001
 30
0.0
 11
100.2198015026
 21
80.44409052469999
 31
0.0
  0
LINE
  5
116
330
1F
100
AcDbEntity
  8
0
  6
Continuous
 62
     7
370
    15
100
AcDbLine
 10
100.9517874427
 20
79.66720311510001
 30
0.0
 11
100.5630432706
 21
79.91673468100001
 31
0.0
  0
LINE
  5
117
330
1F
100
AcDbEntity
  8
0
  6
Continuous
 62
     7
370
    15
100
AcDbLine
 10
100.9972833348
 20
79.9450267263
 30
0.0
 11
100.9517874427
 21
79.66720311510001
 31
0.0
  0
LINE
  5
118
330
1F
100
AcDbEntity
  8
0
  6
Continuous
 62
     7
370
    15
100
AcDbLine
 10
100.6540415527
 20
80.4723825737
 30
0.0
 11
100.9972833348
 21
79.9450267263
 31
0.0
  0
LINE
  5
119
330
1F
100
AcDbEntity
  8
0
  6
Continuous
 62
     7
370
    15
100
AcDbLine
 10
98.1225121249
 20
81.4576335305
 30
0.0
 11
98.07701650690001
 21
81.17980251989999
 31
0.0
  0
LINE
  5
11A
330
1F
100
AcDbEntity
  8
0
  6
Continuous
 62
     7
370
    15
100
AcDbLine
 10
97.77927031469999
 20
81.98498938529999
 30
0.0
 11
98.1225121249
 21
81.4576335305
 31
0.0
  0
LINE
  5
11B
330
1F
100
AcDbEntity
  8
0
  6
Continuous
 62
     7
370
    15
100
AcDbLine
 10
97.59556226149999
 20
82.1029079664
 30
0.0
 11
97.77927031469999
 21
81.98498938529999
 31
0.0
  0
ARC
  5
11C
330
1F
100
AcDbEntity
  8
0
  6
Continuous
 62
     7
370
    15
100
AcDbCircle
 10
100.710348978
 20
82.00725606869999
 30
0.0
 40
3.116255056131688
100
AcDbArc
 50
178.2410582962
 51
189.1154685964
  0
LINE
  5
11D
330
1F
100
AcDbEntity
  8
0
  6
Continuous
 62
     7
370
    15
100
AcDbLine
 10
97.6882722014
 20
81.4293341209
 30
0.0
 11
97.63344888389999
 21
81.51356447880001
 31
0.0
  0
LINE
  5
11E
330
1F
100
AcDbEntity
  8
0
  6
Continuous
 62
     7
370
    15
100
AcDbLine
 10
98.07701650690001
 20
81.17980251989999
 30
0.0
 11
97.6882722014
 21
81.4293341209
 31
0.0
  0
LINE
  5
11F
330
1F
100
AcDbEntity
  8
0
  6
Continuous
 62
     7
370
    15
100
AcDbLine
 10
98.4325672225
 20
80.61916195610001
 30
0.0
 11
98.3870712533
 21
80.3413383652
 31
0.0
  0
LINE
  5
120
330
1F
100
AcDbEntity
  8
0
  6
Continuous
 62
     7
370
    15
100
AcDbLine
 10
98.0893254124
 20
81.14651781090001
 30
0.0
 11
98.4325672225
 21
80.61916195610001
 31
0.0
  0
LINE
  5
121
330
1F
100
AcDbEntity
  8
0
  6
Continuous
 62
     7
370
    15
100
AcDbLine
 10
97.70058110690001
 20
81.39604941180001
 30
0.0
 11
98.0893254124
 21
81.14651781090001
 31
0.0
  0
LINE
  5
122
330
1F
100
AcDbEntity
  8
0
  6
Continuous
 62
     7
370
    15
100
AcDbLine
 10
97.67875142940001
 20
81.2627571594
 30
0.0
 11
97.70058110690001
 21
81.39604941180001
 31
0.0
  0
ARC
  5
123
330
1F
100
AcDbEntity
  8
0
  6
Continuous
 62
     7
370
    15
100
AcDbCircle
 10
103.2004853691
 20
82.41786765
 30
0.0
 40
5.641261024501292
100
AcDbArc
 50
191.815511088
 51
194.780002711
  0
LINE
  5
124
330
1F
100
AcDbEntity
  8
0
  6
Continuous
 62
     7
370
    15
100
AcDbLine
 10
97.9983271723
 20
80.5908699071
 30
0.0
 11
97.7458796532
 21
80.9787351227
 31
0.0
  0
LINE
  5
125
330
1F
100
AcDbEntity
  8
0
  6
Continuous
 62
     7
370
    15
100
AcDbLine
 10
98.3870712533
 20
80.3413383652
 30
0.0
 11
97.9983271723
 21
80.5908699071
 31
0.0
  0
LINE
  5
126
330
1F
100
AcDbEntity
  8
0
  6
Continuous
 62
     7
370
    15
100
AcDbLine
 10
98.88475975540002
 20
80.64862785809999
 30
0.0
 11
98.83925726000001
 21
80.3708036042
 31
0.0
  0
LINE
  5
127
330
1F
100
AcDbEntity
  8
0
  6
Continuous
 62
     7
370
    15
100
AcDbLine
 10
98.54151141910001
 20
81.1759830499
 30
0.0
 11
98.88475975540002
 21
80.64862785809999
 31
0.0
  0
LINE
  5
128
330
1F
100
AcDbEntity
  8
0
  6
Continuous
 62
     7
370
    15
100
AcDbLine
 10
98.1527738643
 20
81.4255152548
 30
0.0
 11
98.54151141910001
 21
81.1759830499
 31
0.0
  0
LINE
  5
129
330
1F
100
AcDbEntity
  8
0
  6
Continuous
 62
     7
370
    15
100
AcDbLine
 10
98.10727136889999
 20
81.14769100089999
 30
0.0
 11
98.1527738643
 21
81.4255152548
 31
0.0
  0
LINE
  5
12A
330
1F
100
AcDbEntity
  8
0
  6
Continuous
 62
     7
370
    15
100
AcDbLine
 10
98.45051970520001
 20
80.6203358091
 30
0.0
 11
98.10727136889999
 21
81.14769100089999
 31
0.0
  0
LINE
  5
12B
330
1F
100
AcDbEntity
  8
0
  6
Continuous
 62
     7
370
    15
100
AcDbLine
 10
98.83925726000001
 20
80.3708036042
 30
0.0
 11
98.45051970520001
 21
80.6203358091
 31
0.0
  0
LINE
  5
12C
330
1F
100
AcDbEntity
  8
0
  6
Continuous
 62
     7
370
    15
100
AcDbLine
 10
99.6470007475
 20
79.8396215522
 30
0.0
 11
99.6015048905
 21
79.5617979318
 31
0.0
  0
LINE
  5
12D
330
1F
100
AcDbEntity
  8
0
  6
Continuous
 62
     7
370
    15
100
AcDbLine
 10
99.30375893739999
 20
80.36697740699999
 30
0.0
 11
99.6470007475
 21
79.8396215522
 31
0.0
  0
LINE
  5
12E
330
1F
100
AcDbEntity
  8
0
  6
Continuous
 62
     7
370
    15
100
AcDbLine
 10
98.91501474409999
 20
80.61650897840001
 30
0.0
 11
99.30375893739999
 21
80.36697740699999
 31
0.0
  0
LINE
  5
12F
330
1F
100
AcDbEntity
  8
0
  6
Continuous
 62
     7
370
    15
100
AcDbLine
 10
98.86951899940001
 20
80.3386853285
 30
0.0
 11
98.91501474409999
 21
80.61650897840001
 31
0.0
  0
LINE
  5
130
330
1F
100
AcDbEntity
  8
0
  6
Continuous
 62
     7
370
    15
100
AcDbLine
 10
99.2127606973
 20
79.8113295032
 30
0.0
 11
98.86951899940001
 21
80.3386853285
 31
0.0
  0
LINE
  5
131
330
1F
100
AcDbEntity
  8
0
  6
Continuous
 62
     7
370
    15
100
AcDbLine
 10
99.6015048905
 20
79.5617979318
 30
0.0
 11
99.2127606973
 21
79.8113295032
 31
0.0
  0
LINE
  5
132
330
1F
100
AcDbEntity
  8
0
  6
Continuous
 62
     7
370
    15
100
AcDbLine
 10
99.36252738520002
 20
80.65863046449999
 30
0.0
 11
99.75127157840001
 21
80.4090988931
 31
0.0
  0
LINE
  5
133
330
1F
100
AcDbEntity
  8
0
  6
Continuous
 62
     7
370
    15
100
AcDbLine
 10
99.31703152829999
 20
80.38080684409999
 30
0.0
 11
99.36252738520002
 21
80.65863046449999
 31
0.0
  0
LINE
  5
134
330
1F
100
AcDbEntity
  8
0
  6
Continuous
 62
     7
370
    15
100
AcDbLine
 10
99.66027322610001
 20
79.8534510188
 30
0.0
 11
99.31703152829999
 21
80.38080684409999
 31
0.0
  0
LINE
  5
135
330
1F
100
AcDbEntity
  8
0
  6
Continuous
 62
     7
370
    15
100
AcDbLine
 10
100.0490108932
 20
79.60391878439999
 30
0.0
 11
99.66027322610001
 21
79.8534510188
 31
0.0
  0
LINE
  5
136
330
1F
100
AcDbEntity
  8
0
  6
Continuous
 62
     7
370
    15
100
AcDbLine
 10
100.0945133324
 20
79.88174305310001
 30
0.0
 11
100.0490108932
 21
79.60391878439999
 31
0.0
  0
LINE
  5
137
330
1F
100
AcDbEntity
  8
0
  6
Continuous
 62
     7
370
    15
100
AcDbLine
 10
99.75127157840001
 20
80.4090988931
 30
0.0
 11
100.0945133324
 21
79.88174305310001
 31
0.0
  0
LINE
  5
138
330
1F
100
AcDbEntity
  8
0
  6
Continuous
 62
     7
370
    15
100
AcDbLine
 10
100.8614343286
 20
79.06008113359999
 30
0.0
 11
100.8159384716
 21
78.78225751310001
 31
0.0
  0
LINE
  5
139
330
1F
100
AcDbEntity
  8
0
  6
Continuous
 62
     7
370
    15
100
AcDbLine
 10
100.5181925746
 20
79.58743697359999
 30
0.0
 11
100.8614343286
 21
79.06008113359999
 31
0.0
  0
LINE
  5
13A
330
1F
100
AcDbEntity
  8
0
  6
Continuous
 62
     7
370
    15
100
AcDbLine
 10
100.1294549075
 20
79.83696920799999
 30
0.0
 11
100.5181925746
 21
79.58743697359999
 31
0.0
  0
LINE
  5
13B
330
1F
100
AcDbEntity
  8
0
  6
Continuous
 62
     7
370
    15
100
AcDbLine
 10
100.0839525244
 20
79.5591449246
 30
0.0
 11
100.1294549075
 21
79.83696920799999
 31
0.0
  0
LINE
  5
13C
330
1F
100
AcDbEntity
  8
0
  6
Continuous
 62
     7
370
    15
100
AcDbLine
 10
100.4271943345
 20
79.0317890698
 30
0.0
 11
100.0839525244
 21
79.5591449246
 31
0.0
  0
LINE
  5
13D
330
1F
100
AcDbEntity
  8
0
  6
Continuous
 62
     7
370
    15
100
AcDbLine
 10
100.8159384716
 20
78.78225751310001
 30
0.0
 11
100.4271943345
 21
79.0317890698
 31
0.0
  0
LINE
  5
13E
330
1F
100
AcDbEntity
  8
0
  6
Continuous
 62
     7
370
    15
100
AcDbLine
 10
100.9657051666
 20
79.62955847259999
 30
0.0
 11
101.3089469346
 21
79.1022026289
 31
0.0
  0
LINE
  5
13F
330
1F
100
AcDbEntity
  8
0
  6
Continuous
 62
     7
370
    15
100
AcDbLine
 10
100.5769609944
 20
79.87909003850001
 30
0.0
 11
100.9657051666
 21
79.62955847259999
 31
0.0
  0
LINE
  5
140
330
1F
100
AcDbEntity
  8
0
  6
Continuous
 62
     7
370
    15
100
AcDbLine
 10
100.5314651094
 20
79.6012664254
 30
0.0
 11
100.5769609944
 21
79.87909003850001
 31
0.0
  0
LINE
  5
141
330
1F
100
AcDbEntity
  8
0
  6
Continuous
 62
     7
370
    15
100
AcDbLine
 10
100.8747068914
 20
79.07391057799999
 30
0.0
 11
100.5314651094
 21
79.6012664254
 31
0.0
  0
LINE
  5
142
330
1F
100
AcDbEntity
  8
0
  6
Continuous
 62
     7
370
    15
100
AcDbLine
 10
101.2634510566
 20
78.824379014
 30
0.0
 11
100.8747068914
 21
79.07391057799999
 31
0.0
  0
LINE
  5
143
330
1F
100
AcDbEntity
  8
0
  6
Continuous
 62
     7
370
    15
100
AcDbLine
 10
101.3089469346
 20
79.1022026289
 30
0.0
 11
101.2634510566
 21
78.824379014
 31
0.0
  0
LINE
  5
144
330
1F
100
AcDbEntity
  8
0
  6
Continuous
 62
     7
370
    15
100
AcDbLine
 10
98.30370191470001
 20
79.765061366
 30
0.0
 11
98.6924394695
 21
79.51552916109999
 31
0.0
  0
LINE
  5
145
330
1F
100
AcDbEntity
  8
0
  6
Continuous
 62
     7
370
    15
100
AcDbLine
 10
98.6924394695
 20
79.51552916109999
 30
0.0
 11
98.7365079455
 21
79.7846207725
 31
0.0
  0
LINE
  5
146
330
1F
100
AcDbEntity
  8
0
  6
Continuous
 62
     7
370
    15
100
AcDbLine
 10
98.40406016280001
 20
80.29539804249999
 30
0.0
 11
98.7365079455
 21
79.7846207725
 31
0.0
  0
LINE
  5
147
330
1F
100
AcDbEntity
  8
0
  6
Continuous
 62
     7
370
    15
100
AcDbLine
 10
98.01531608190002
 20
80.54492958439999
 30
0.0
 11
98.40406016280001
 21
80.29539804249999
 31
0.0
  0
LINE
  5
148
330
1F
100
AcDbEntity
  8
0
  6
Continuous
 62
     7
370
    15
100
AcDbLine
 10
97.97124760590001
 20
80.27583797300001
 30
0.0
 11
98.01531608190002
 21
80.54492958439999
 31
0.0
  0
LINE
  5
149
330
1F
100
AcDbEntity
  8
0
  6
Continuous
 62
     7
370
    15
100
AcDbLine
 10
97.97124760590001
 20
80.27583797300001
 30
0.0
 11
98.30370191470001
 21
79.765061366
 31
0.0
  0
LINE
  5
14A
330
1F
100
AcDbEntity
  8
0
  6
Continuous
 62
     7
370
    15
100
AcDbLine
 10
98.46282861070001
 20
80.5870511
 30
0.0
 11
98.85156616549998
 21
80.33751889520001
 31
0.0
  0
LINE
  5
14B
330
1F
100
AcDbEntity
  8
0
  6
Continuous
 62
     7
370
    15
100
AcDbLine
 10
98.4173261153
 20
80.30922684610001
 30
0.0
 11
98.46282861070001
 21
80.5870511
 31
0.0
  0
LINE
  5
14C
330
1F
100
AcDbEntity
  8
0
  6
Continuous
 62
     7
370
    15
100
AcDbLine
 10
98.76056805220001
 20
79.7818636307
 30
0.0
 11
98.4173261153
 21
80.30922684610001
 31
0.0
  0
LINE
  5
14D
330
1F
100
AcDbEntity
  8
0
  6
Continuous
 62
     7
370
    15
100
AcDbLine
 10
99.1493122309
 20
79.5323393904
 30
0.0
 11
98.76056805220001
 21
79.7818636307
 31
0.0
  0
LINE
  5
14E
330
1F
100
AcDbEntity
  8
0
  6
Continuous
 62
     7
370
    15
100
AcDbLine
 10
99.1948079756
 20
79.8101630404
 30
0.0
 11
99.1493122309
 21
79.5323393904
 31
0.0
  0
LINE
  5
14F
330
1F
100
AcDbEntity
  8
0
  6
Continuous
 62
     7
370
    15
100
AcDbLine
 10
98.85156616549998
 20
80.33751889520001
 30
0.0
 11
99.1948079756
 21
79.8101630404
 31
0.0
  0
LINE
  5
150
330
1F
100
AcDbEntity
  8
0
  6
Continuous
 62
     7
370
    15
100
AcDbLine
 10
99.5181355519
 20
78.9855209326
 30
0.0
 11
99.90687310670001
 21
78.7359887277
 31
0.0
  0
LINE
  5
151
330
1F
100
AcDbEntity
  8
0
  6
Continuous
 62
     7
370
    15
100
AcDbLine
 10
99.90687310670001
 20
78.7359887277
 30
0.0
 11
99.95094158270001
 21
79.0050803391
 31
0.0
  0
LINE
  5
152
330
1F
100
AcDbEntity
  8
0
  6
Continuous
 62
     7
370
    15
100
AcDbLine
 10
99.6184938
 20
79.51585760909999
 30
0.0
 11
99.95094158270001
 21
79.0050803391
 31
0.0
  0
LINE
  5
153
330
1F
100
AcDbEntity
  8
0
  6
Continuous
 62
     7
370
    15
100
AcDbLine
 10
99.22974949459998
 20
79.76538920999999
 30
0.0
 11
99.6184938
 21
79.51585760909999
 31
0.0
  0
LINE
  5
154
330
1F
100
AcDbEntity
  8
0
  6
Continuous
 62
     7
370
    15
100
AcDbLine
 10
99.18568124309999
 20
79.4962975396
 30
0.0
 11
99.22974949459998
 21
79.76538920999999
 31
0.0
  0
LINE
  5
155
330
1F
100
AcDbEntity
  8
0
  6
Continuous
 62
     7
370
    15
100
AcDbLine
 10
99.18568124309999
 20
79.4962975396
 30
0.0
 11
99.5181355519
 21
78.9855209326
 31
0.0
  0
LINE
  5
156
330
1F
100
AcDbEntity
  8
0
  6
Continuous
 62
     7
370
    15
100
AcDbLine
 10
99.67726213569999
 20
79.8075106961
 30
0.0
 11
100.0659998027
 21
79.55797846180001
 31
0.0
  0
LINE
  5
157
330
1F
100
AcDbEntity
  8
0
  6
Continuous
 62
     7
370
    15
100
AcDbLine
 10
99.6317597526
 20
79.5296864127
 30
0.0
 11
99.67726213569999
 21
79.8075106961
 31
0.0
  0
LINE
  5
158
330
1F
100
AcDbEntity
  8
0
  6
Continuous
 62
     7
370
    15
100
AcDbLine
 10
99.97500808879999
 20
79.0023312209
 30
0.0
 11
99.6317597526
 21
79.5296864127
 31
0.0
  0
LINE
  5
159
330
1F
100
AcDbEntity
  8
0
  6
Continuous
 62
     7
370
    15
100
AcDbLine
 10
100.3637457559
 20
78.75279898649999
 30
0.0
 11
99.97500808879999
 21
79.0023312209
 31
0.0
  0
LINE
  5
15A
330
1F
100
AcDbEntity
  8
0
  6
Continuous
 62
     7
370
    15
100
AcDbLine
 10
100.409248139
 20
79.03062326989999
 30
0.0
 11
100.3637457559
 21
78.75279898649999
 31
0.0
  0
LINE
  5
15B
330
1F
100
AcDbEntity
  8
0
  6
Continuous
 62
     7
370
    15
100
AcDbLine
 10
100.0659998027
 20
79.55797846180001
 30
0.0
 11
100.409248139
 21
79.03062326989999
 31
0.0
  0
LINE
  5
15C
330
1F
100
AcDbEntity
  8
0
  6
Continuous
 62
     7
370
    15
100
AcDbLine
 10
100.7325690769
 20
78.2059805287
 30
0.0
 11
101.1213132701
 21
77.95644895729999
 31
0.0
  0
LINE
  5
15D
330
1F
100
AcDbEntity
  8
0
  6
Continuous
 62
     7
370
    15
100
AcDbLine
 10
101.1213132701
 20
77.95644895729999
 30
0.0
 11
101.16538169
 21
78.2255405834
 31
0.0
  0
LINE
  5
15E
330
1F
100
AcDbEntity
  8
0
  6
Continuous
 62
     7
370
    15
100
AcDbLine
 10
100.8329273811
 20
78.7363171904
 30
0.0
 11
101.16538169
 21
78.2255405834
 31
0.0
  0
LINE
  5
15F
330
1F
100
AcDbEntity
  8
0
  6
Continuous
 62
     7
370
    15
100
AcDbLine
 10
100.4441832441
 20
78.9858487471
 30
0.0
 11
100.8329273811
 21
78.7363171904
 31
0.0
  0
LINE
  5
160
330
1F
100
AcDbEntity
  8
0
  6
Continuous
 62
     7
370
    15
100
AcDbLine
 10
100.4001147681
 20
78.71675713569999
 30
0.0
 11
100.4441832441
 21
78.9858487471
 31
0.0
  0
LINE
  5
161
330
1F
100
AcDbEntity
  8
0
  6
Continuous
 62
     7
370
    15
100
AcDbLine
 10
100.4001147681
 20
78.71675713569999
 30
0.0
 11
100.7325690769
 21
78.2059805287
 31
0.0
  0
LINE
  5
162
330
1F
100
AcDbEntity
  8
0
  6
Continuous
 62
     7
370
    15
100
AcDbLine
 10
101.2804399661
 20
78.7784386913
 30
0.0
 11
101.6236817411
 21
78.2510828458
 31
0.0
  0
LINE
  5
163
330
1F
100
AcDbEntity
  8
0
  6
Continuous
 62
     7
370
    15
100
AcDbLine
 10
100.891695801
 20
79.02797025529999
 30
0.0
 11
101.2804399661
 21
78.7784386913
 31
0.0
  0
LINE
  5
164
330
1F
100
AcDbEntity
  8
0
  6
Continuous
 62
     7
370
    15
100
AcDbLine
 10
100.8461999159
 20
78.7501466423
 30
0.0
 11
100.891695801
 21
79.02797025529999
 31
0.0
  0
LINE
  5
165
330
1F
100
AcDbEntity
  8
0
  6
Continuous
 62
     7
370
    15
100
AcDbLine
 10
101.1894416699
 20
78.2227908023
 30
0.0
 11
100.8461999159
 21
78.7501466423
 31
0.0
  0
LINE
  5
166
330
1F
100
AcDbEntity
  8
0
  6
Continuous
 62
     7
370
    15
100
AcDbLine
 10
101.578179337
 20
77.9732585679
 30
0.0
 11
101.1894416699
 21
78.2227908023
 31
0.0
  0
LINE
  5
167
330
1F
100
AcDbEntity
  8
0
  6
Continuous
 62
     7
370
    15
100
AcDbLine
 10
101.6236817411
 20
78.2510828458
 30
0.0
 11
101.578179337
 21
77.9732585679
 31
0.0
  0
LINE
  5
168
330
1F
100
AcDbEntity
  8
0
  6
Continuous
 62
     7
370
    15
100
AcDbLine
 10
103.9264035209
 20
72.87535391600001
 30
0.0
 11
103.5376593276
 21
73.12488548739999
 31
0.0
  0
LINE
  5
169
330
1F
100
AcDbEntity
  8
0
  6
Continuous
 62
     7
370
    15
100
AcDbLine
 10
103.5376593276
 20
73.12488548739999
 30
0.0
 11
103.5246233726
 21
73.04527873800001
 31
0.0
  0
ARC
  5
16A
330
1F
100
AcDbEntity
  8
0
  6
Continuous
 62
     7
370
    15
100
AcDbCircle
 10
107.7693569822
 20
79.10806053109999
 30
0.0
 40
7.401019287043798
100
AcDbArc
 50
235.0029926069
 51
239.6049815565
  0
LINE
  5
16B
330
1F
100
AcDbEntity
  8
0
  6
Continuous
 62
     7
370
    15
100
AcDbLine
 10
103.9264035209
 20
72.87535391600001
 30
0.0
 11
104.0247463571
 21
72.72425463229999
 31
0.0
  0
LINE
  5
16C
330
1F
100
AcDbEntity
  8
0
  6
Continuous
 62
     7
370
    15
100
AcDbLine
 10
103.941284888
 20
72.8848234307
 30
0.0
 11
103.9867808011
 21
73.1626470364
 31
0.0
  0
LINE
  5
16D
330
1F
100
AcDbEntity
  8
0
  6
Continuous
 62
     7
370
    15
100
AcDbLine
 10
104.0585359013
 20
72.70467544129999
 30
0.0
 11
103.941284888
 21
72.8848234307
 31
0.0
  0
ARC
  5
16E
330
1F
100
AcDbEntity
  8
0
  6
Continuous
 62
     7
370
    15
100
AcDbCircle
 10
106.4030357416
 20
76.7154676311
 30
0.0
 40
4.645765113680103
100
AcDbArc
 50
239.6916718689
 51
248.7438198765
  0
LINE
  5
16F
330
1F
100
AcDbEntity
  8
0
  6
Continuous
 62
     7
370
    15
100
AcDbLine
 10
104.3755249382
 20
72.9131154797
 30
0.0
 11
104.7187667202
 21
72.38575963229999
 31
0.0
  0
LINE
  5
170
330
1F
100
AcDbEntity
  8
0
  6
Continuous
 62
     7
370
    15
100
AcDbLine
 10
103.9867808011
 20
73.1626470364
 30
0.0
 11
104.3755249382
 21
72.9131154797
 31
0.0
  0
LINE
  5
171
330
1F
100
AcDbEntity
  8
0
  6
Continuous
 62
     7
370
    15
100
AcDbLine
 10
104.434293379
 20
73.2047685391
 30
0.0
 11
104.8230310251
 21
72.9552363102
 31
0.0
  0
LINE
  5
172
330
1F
100
AcDbEntity
  8
0
  6
Continuous
 62
     7
370
    15
100
AcDbLine
 10
104.3887909749
 20
72.92694426119999
 30
0.0
 11
104.434293379
 21
73.2047685391
 31
0.0
  0
LINE
  5
173
330
1F
100
AcDbEntity
  8
0
  6
Continuous
 62
     7
370
    15
100
AcDbLine
 10
104.732039255
 20
72.3995890842
 30
0.0
 11
104.3887909749
 21
72.92694426119999
 31
0.0
  0
LINE
  5
174
330
1F
100
AcDbEntity
  8
0
  6
Continuous
 62
     7
370
    15
100
AcDbLine
 10
104.7994298569
 20
72.3563296492
 30
0.0
 11
104.732039255
 21
72.3995890842
 31
0.0
  0
ARC
  5
175
330
1F
100
AcDbEntity
  8
0
  6
Continuous
 62
     7
370
    15
100
AcDbCircle
 10
105.6639804657
 20
74.79222216310001
 30
0.0
 40
2.584766932327198
100
AcDbArc
 50
250.4591324413
 51
258.2814731215
  0
LINE
  5
176
330
1F
100
AcDbEntity
  8
0
  6
Continuous
 62
     7
370
    15
100
AcDbLine
 10
105.1662793052
 20
72.4278811332
 30
0.0
 11
105.1390041659
 21
72.2613290442
 31
0.0
  0
LINE
  5
177
330
1F
100
AcDbEntity
  8
0
  6
Continuous
 62
     7
370
    15
100
AcDbLine
 10
104.8230310251
 20
72.9552363102
 30
0.0
 11
105.1662793052
 21
72.4278811332
 31
0.0
  0
LINE
  5
178
330
1F
100
AcDbEntity
  8
0
  6
Continuous
 62
     7
370
    15
100
AcDbLine
 10
105.3386518084
 20
73.26375169069999
 30
0.0
 11
105.7273958749
 21
73.01422748
 31
0.0
  0
LINE
  5
179
330
1F
100
AcDbEntity
  8
0
  6
Continuous
 62
     7
370
    15
100
AcDbLine
 10
105.2931559515
 20
72.98592807029999
 30
0.0
 11
105.3386518084
 21
73.26375169069999
 31
0.0
  0
LINE
  5
17A
330
1F
100
AcDbEntity
  8
0
  6
Continuous
 62
     7
370
    15
100
AcDbLine
 10
105.6363977055
 20
72.45857223029999
 30
0.0
 11
105.2931559515
 21
72.98592807029999
 31
0.0
  0
LINE
  5
17B
330
1F
100
AcDbEntity
  8
0
  6
Continuous
 62
     7
370
    15
100
AcDbLine
 10
105.8776151261
 20
72.303738174
 30
0.0
 11
105.6363977055
 21
72.45857223029999
 31
0.0
  0
ARC
  5
17C
330
1F
100
AcDbEntity
  8
0
  6
Continuous
 62
     7
370
    15
100
AcDbCircle
 10
105.5739312928
 20
72.9938708021
 30
0.0
 40
0.75399397539235
100
AcDbArc
 50
293.751266526
 51
310.055877873
  0
LINE
  5
17D
330
1F
100
AcDbEntity
  8
0
  6
Continuous
 62
     7
370
    15
100
AcDbLine
 10
106.0706378118
 20
72.48686426449999
 30
0.0
 11
106.0591523465
 21
72.41675084579999
 31
0.0
  0
LINE
  5
17E
330
1F
100
AcDbEntity
  8
0
  6
Continuous
 62
     7
370
    15
100
AcDbLine
 10
105.7273958749
 20
73.01422748
 30
0.0
 11
106.0706378118
 21
72.48686426449999
 31
0.0
  0
LINE
  5
17F
330
1F
100
AcDbEntity
  8
0
  6
Continuous
 62
     7
370
    15
100
AcDbLine
 10
104.8911390967
 20
73.2216375505
 30
0.0
 11
105.2798832338
 21
72.9721059939
 31
0.0
  0
LINE
  5
180
330
1F
100
AcDbEntity
  8
0
  6
Continuous
 62
     7
370
    15
100
AcDbLine
 10
104.8456433384
 20
72.9438065768
 30
0.0
 11
104.8911390967
 21
73.2216375505
 31
0.0
  0
LINE
  5
181
330
1F
100
AcDbEntity
  8
0
  6
Continuous
 62
     7
370
    15
100
AcDbLine
 10
105.1888850924
 20
72.4164507368
 30
0.0
 11
104.8456433384
 21
72.9438065768
 31
0.0
  0
LINE
  5
182
330
1F
100
AcDbEntity
  8
0
  6
Continuous
 62
     7
370
    15
100
AcDbLine
 10
105.4862345915
 20
72.22558927109999
 30
0.0
 11
105.1888850924
 21
72.4164507368
 31
0.0
  0
ARC
  5
183
330
1F
100
AcDbEntity
  8
0
  6
Continuous
 62
     7
370
    15
100
AcDbCircle
 10
105.4734957083
 20
73.4448836447
 30
0.0
 40
1.21936091812709
100
AcDbArc
 50
270.5985902227
 51
275.3932970041
  0
LINE
  5
184
330
1F
100
AcDbEntity
  8
0
  6
Continuous
 62
     7
370
    15
100
AcDbLine
 10
105.6231250439
 20
72.44475013909999
 30
0.0
 11
105.5881056877
 21
72.2309208771
 31
0.0
  0
LINE
  5
185
330
1F
100
AcDbEntity
  8
0
  6
Continuous
 62
     7
370
    15
100
AcDbLine
 10
105.2798832338
 20
72.9721059939
 30
0.0
 11
105.6231250439
 21
72.44475013909999
 31
0.0
  0
LINE
  5
186
330
1F
100
AcDbEntity
  8
0
  6
Continuous
 62
     7
370
    15
100
AcDbLine
 10
104.0740626945
 20
73.77806470729999
 30
0.0
 11
104.1195585725
 21
74.05588832220001
 31
0.0
  0
LINE
  5
187
330
1F
100
AcDbEntity
  8
0
  6
Continuous
 62
     7
370
    15
100
AcDbLine
 10
104.4173044625
 20
73.25070886359999
 30
0.0
 11
104.0740626945
 21
73.77806470729999
 31
0.0
  0
LINE
  5
188
330
1F
100
AcDbEntity
  8
0
  6
Continuous
 62
     7
370
    15
100
AcDbLine
 10
104.8060421155
 20
73.0011766329
 30
0.0
 11
104.4173044625
 21
73.25070886359999
 31
0.0
  0
LINE
  5
189
330
1F
100
AcDbEntity
  8
0
  6
Continuous
 62
     7
370
    15
100
AcDbLine
 10
104.8515444986
 20
73.27900091630001
 30
0.0
 11
104.8060421155
 21
73.0011766329
 31
0.0
  0
LINE
  5
18A
330
1F
100
AcDbEntity
  8
0
  6
Continuous
 62
     7
370
    15
100
AcDbLine
 10
104.5083027446
 20
73.8063567564
 30
0.0
 11
104.8515444986
 21
73.27900091630001
 31
0.0
  0
LINE
  5
18B
330
1F
100
AcDbEntity
  8
0
  6
Continuous
 62
     7
370
    15
100
AcDbLine
 10
104.1195585725
 20
74.05588832220001
 30
0.0
 11
104.5083027446
 21
73.8063567564
 31
0.0
  0
LINE
  5
18C
330
1F
100
AcDbEntity
  8
0
  6
Continuous
 62
     7
370
    15
100
AcDbLine
 10
103.6265500814
 20
73.7359432138
 30
0.0
 11
103.6720458397
 21
74.0137741875
 31
0.0
  0
LINE
  5
18D
330
1F
100
AcDbEntity
  8
0
  6
Continuous
 62
     7
370
    15
100
AcDbLine
 10
103.9697918354
 20
73.2085873738
 30
0.0
 11
103.6265500814
 21
73.7359432138
 31
0.0
  0
LINE
  5
18E
330
1F
100
AcDbEntity
  8
0
  6
Continuous
 62
     7
370
    15
100
AcDbLine
 10
104.3585360286
 20
72.9590558024
 30
0.0
 11
103.9697918354
 21
73.2085873738
 31
0.0
  0
LINE
  5
18F
330
1F
100
AcDbEntity
  8
0
  6
Continuous
 62
     7
370
    15
100
AcDbLine
 10
104.4040317799
 20
73.23688677789999
 30
0.0
 11
104.3585360286
 21
72.9590558024
 31
0.0
  0
LINE
  5
190
330
1F
100
AcDbEntity
  8
0
  6
Continuous
 62
     7
370
    15
100
AcDbLine
 10
104.0607900189
 20
73.7642426198
 30
0.0
 11
104.4040317799
 21
73.23688677789999
 31
0.0
  0
LINE
  5
191
330
1F
100
AcDbEntity
  8
0
  6
Continuous
 62
     7
370
    15
100
AcDbLine
 10
103.6720458397
 20
74.0137741875
 30
0.0
 11
104.0607900189
 21
73.7642426198
 31
0.0
  0
LINE
  5
192
330
1F
100
AcDbEntity
  8
0
  6
Continuous
 62
     7
370
    15
100
AcDbLine
 10
103.3118151481
 20
74.58707035759999
 30
0.0
 11
103.3573175593
 21
74.8648946336
 31
0.0
  0
LINE
  5
193
330
1F
100
AcDbEntity
  8
0
  6
Continuous
 62
     7
370
    15
100
AcDbLine
 10
103.6550569302
 20
74.0597145102
 30
0.0
 11
103.3118151481
 21
74.58707035759999
 31
0.0
  0
LINE
  5
194
330
1F
100
AcDbEntity
  8
0
  6
Continuous
 62
     7
370
    15
100
AcDbLine
 10
104.0438010953
 20
73.8101829462
 30
0.0
 11
103.6550569302
 21
74.0597145102
 31
0.0
  0
LINE
  5
195
330
1F
100
AcDbEntity
  8
0
  6
Continuous
 62
     7
370
    15
100
AcDbLine
 10
104.0892969804
 20
74.0880065592
 30
0.0
 11
104.0438010953
 21
73.8101829462
 31
0.0
  0
LINE
  5
196
330
1F
100
AcDbEntity
  8
0
  6
Continuous
 62
     7
370
    15
100
AcDbLine
 10
103.7460552088
 20
74.6153624039
 30
0.0
 11
104.0892969804
 21
74.0880065592
 31
0.0
  0
LINE
  5
197
330
1F
100
AcDbEntity
  8
0
  6
Continuous
 62
     7
370
    15
100
AcDbLine
 10
103.3573175593
 20
74.8648946336
 30
0.0
 11
103.7460552088
 21
74.6153624039
 31
0.0
  0
LINE
  5
198
330
1F
100
AcDbEntity
  8
0
  6
Continuous
 62
     7
370
    15
100
AcDbLine
 10
103.7593277612
 20
74.6291918511
 30
0.0
 11
103.8048236462
 21
74.9070154642
 31
0.0
  0
LINE
  5
199
330
1F
100
AcDbEntity
  8
0
  6
Continuous
 62
     7
370
    15
100
AcDbLine
 10
104.1025695292
 20
74.10183600739999
 30
0.0
 11
103.7593277612
 21
74.6291918511
 31
0.0
  0
LINE
  5
19A
330
1F
100
AcDbEntity
  8
0
  6
Continuous
 62
     7
370
    15
100
AcDbLine
 10
104.4913137084
 20
73.85230443970001
 30
0.0
 11
104.1025695292
 21
74.10183600739999
 31
0.0
  0
LINE
  5
19B
330
1F
100
AcDbEntity
  8
0
  6
Continuous
 62
     7
370
    15
100
AcDbLine
 10
104.5368095934
 20
74.1301280527
 30
0.0
 11
104.4913137084
 21
73.85230443970001
 31
0.0
  0
LINE
  5
19C
330
1F
100
AcDbEntity
  8
0
  6
Continuous
 62
     7
370
    15
100
AcDbLine
 10
104.1935678394
 20
74.6574838928
 30
0.0
 11
104.5368095934
 21
74.1301280527
 31
0.0
  0
LINE
  5
19D
330
1F
100
AcDbEntity
  8
0
  6
Continuous
 62
     7
370
    15
100
AcDbLine
 10
103.8048236462
 20
74.9070154642
 30
0.0
 11
104.1935678394
 21
74.6574838928
 31
0.0
  0
LINE
  5
19E
330
1F
100
AcDbEntity
  8
0
  6
Continuous
 62
     7
370
    15
100
AcDbLine
 10
105.7575345842
 20
73.0075665787
 30
0.0
 11
105.8030370796
 21
73.2853908326
 31
0.0
  0
LINE
  5
19F
330
1F
100
AcDbEntity
  8
0
  6
Continuous
 62
     7
370
    15
100
AcDbLine
 10
106.1007829205
 20
72.48021138689999
 30
0.0
 11
105.7575345842
 21
73.0075665787
 31
0.0
  0
LINE
  5
1A0
330
1F
100
AcDbEntity
  8
0
  6
Continuous
 62
     7
370
    15
100
AcDbLine
 10
106.116288259
 20
72.4702552448
 30
0.0
 11
106.1007829205
 21
72.48021138689999
 31
0.0
  0
ARC
  5
1A1
330
1F
100
AcDbEntity
  8
0
  6
Continuous
 62
     7
370
    15
100
AcDbCircle
 10
105.4360824918
 20
73.1028630504
 30
0.0
 40
0.9289093182574758
100
AcDbArc
 50
317.0764321222
 51
343.0359711157
  0
LINE
  5
1A2
330
1F
100
AcDbEntity
  8
0
  6
Continuous
 62
     7
370
    15
100
AcDbLine
 10
106.1917746344
 20
73.0358586278
 30
0.0
 11
106.3245732217
 21
72.8318340033
 31
0.0
  0
LINE
  5
1A3
330
1F
100
AcDbEntity
  8
0
  6
Continuous
 62
     7
370
    15
100
AcDbLine
 10
105.8030370796
 20
73.2853908326
 30
0.0
 11
106.1917746344
 21
73.0358586278
 31
0.0
  0
LINE
  5
1A4
330
1F
100
AcDbEntity
  8
0
  6
Continuous
 62
     7
370
    15
100
AcDbLine
 10
104.5309084052
 20
73.7949337206
 30
0.0
 11
104.5764108163
 21
74.0727579966
 31
0.0
  0
LINE
  5
1A5
330
1F
100
AcDbEntity
  8
0
  6
Continuous
 62
     7
370
    15
100
AcDbLine
 10
104.8741501872
 20
73.2675778732
 30
0.0
 11
104.5309084052
 21
73.7949337206
 31
0.0
  0
LINE
  5
1A6
330
1F
100
AcDbEntity
  8
0
  6
Continuous
 62
     7
370
    15
100
AcDbLine
 10
105.2628943243
 20
73.01804631649999
 30
0.0
 11
104.8741501872
 21
73.2675778732
 31
0.0
  0
LINE
  5
1A7
330
1F
100
AcDbEntity
  8
0
  6
Continuous
 62
     7
370
    15
100
AcDbLine
 10
105.3083901812
 20
73.29586993699999
 30
0.0
 11
105.2628943243
 21
73.01804631649999
 31
0.0
  0
LINE
  5
1A8
330
1F
100
AcDbEntity
  8
0
  6
Continuous
 62
     7
370
    15
100
AcDbLine
 10
104.9651484834
 20
73.82322576219999
 30
0.0
 11
105.3083901812
 21
73.29586993699999
 31
0.0
  0
LINE
  5
1A9
330
1F
100
AcDbEntity
  8
0
  6
Continuous
 62
     7
370
    15
100
AcDbLine
 10
104.5764108163
 20
74.0727579966
 30
0.0
 11
104.9651484834
 21
73.82322576219999
 31
0.0
  0
LINE
  5
1AA
330
1F
100
AcDbEntity
  8
0
  6
Continuous
 62
     7
370
    15
100
AcDbLine
 10
104.9952935921
 20
73.81657288460001
 30
0.0
 11
105.0407894491
 21
74.09439650500001
 31
0.0
  0
LINE
  5
1AB
330
1F
100
AcDbEntity
  8
0
  6
Continuous
 62
     7
370
    15
100
AcDbLine
 10
105.3385354022
 20
73.2892170298
 30
0.0
 11
104.9952935921
 21
73.81657288460001
 31
0.0
  0
LINE
  5
1AC
330
1F
100
AcDbEntity
  8
0
  6
Continuous
 62
     7
370
    15
100
AcDbLine
 10
105.7272795954
 20
73.0396854584
 30
0.0
 11
105.3385354022
 21
73.2892170298
 31
0.0
  0
LINE
  5
1AD
330
1F
100
AcDbEntity
  8
0
  6
Continuous
 62
     7
370
    15
100
AcDbLine
 10
105.7727754524
 20
73.3175090789
 30
0.0
 11
105.7272795954
 21
73.0396854584
 31
0.0
  0
LINE
  5
1AE
330
1F
100
AcDbEntity
  8
0
  6
Continuous
 62
     7
370
    15
100
AcDbLine
 10
105.4295336423
 20
73.84486493359999
 30
0.0
 11
105.7727754524
 21
73.3175090789
 31
0.0
  0
LINE
  5
1AF
330
1F
100
AcDbEntity
  8
0
  6
Continuous
 62
     7
370
    15
100
AcDbLine
 10
105.0407894491
 20
74.09439650500001
 30
0.0
 11
105.4295336423
 21
73.84486493359999
 31
0.0
  0
LINE
  5
1B0
330
1F
100
AcDbEntity
  8
0
  6
Continuous
 62
     7
370
    15
100
AcDbLine
 10
105.4243453098
 20
73.883469874
 30
0.0
 11
105.4698411668
 21
74.1612934945
 31
0.0
  0
LINE
  5
1B1
330
1F
100
AcDbEntity
  8
0
  6
Continuous
 62
     7
370
    15
100
AcDbLine
 10
105.7675870077
 20
73.35611404879999
 30
0.0
 11
105.4243453098
 21
73.883469874
 31
0.0
  0
LINE
  5
1B2
330
1F
100
AcDbEntity
  8
0
  6
Continuous
 62
     7
370
    15
100
AcDbLine
 10
106.1563246748
 20
73.1065818144
 30
0.0
 11
105.7675870077
 21
73.35611404879999
 31
0.0
  0
LINE
  5
1B3
330
1F
100
AcDbEntity
  8
0
  6
Continuous
 62
     7
370
    15
100
AcDbLine
 10
106.2018270579
 20
73.3844060978
 30
0.0
 11
106.1563246748
 21
73.1065818144
 31
0.0
  0
LINE
  5
1B4
330
1F
100
AcDbEntity
  8
0
  6
Continuous
 62
     7
370
    15
100
AcDbLine
 10
105.8585852478
 20
73.9117619526
 30
0.0
 11
106.2018270579
 21
73.3844060978
 31
0.0
  0
LINE
  5
1B5
330
1F
100
AcDbEntity
  8
0
  6
Continuous
 62
     7
370
    15
100
AcDbLine
 10
105.4698411668
 20
74.1612934945
 30
0.0
 11
105.8585852478
 21
73.9117619526
 31
0.0
  0
LINE
  5
1B6
330
1F
100
AcDbEntity
  8
0
  6
Continuous
 62
     7
370
    15
100
AcDbLine
 10
104.6620979183
 20
74.6924681563
 30
0.0
 11
104.7075936486
 21
74.97029913739999
 31
0.0
  0
LINE
  5
1B7
330
1F
100
AcDbEntity
  8
0
  6
Continuous
 62
     7
370
    15
100
AcDbLine
 10
105.0053396162
 20
74.165112331
 30
0.0
 11
104.6620979183
 21
74.6924681563
 31
0.0
  0
LINE
  5
1B8
330
1F
100
AcDbEntity
  8
0
  6
Continuous
 62
     7
370
    15
100
AcDbLine
 10
105.3940838094
 20
73.9155807596
 30
0.0
 11
105.0053396162
 21
74.165112331
 31
0.0
  0
LINE
  5
1B9
330
1F
100
AcDbEntity
  8
0
  6
Continuous
 62
     7
370
    15
100
AcDbLine
 10
105.4395795396
 20
74.1934117407
 30
0.0
 11
105.3940838094
 21
73.9155807596
 31
0.0
  0
LINE
  5
1BA
330
1F
100
AcDbEntity
  8
0
  6
Continuous
 62
     7
370
    15
100
AcDbLine
 10
105.0963378418
 20
74.720767566
 30
0.0
 11
105.4395795396
 21
74.1934117407
 31
0.0
  0
LINE
  5
1BB
330
1F
100
AcDbEntity
  8
0
  6
Continuous
 62
     7
370
    15
100
AcDbLine
 10
104.7075936486
 20
74.97029913739999
 30
0.0
 11
105.0963378418
 21
74.720767566
 31
0.0
  0
LINE
  5
1BC
330
1F
100
AcDbEntity
  8
0
  6
Continuous
 62
     7
370
    15
100
AcDbLine
 10
104.9650320916
 20
73.84868377020001
 30
0.0
 11
104.5762944807
 21
74.09821598979999
 31
0.0
  0
LINE
  5
1BD
330
1F
100
AcDbEntity
  8
0
  6
Continuous
 62
     7
370
    15
100
AcDbLine
 10
105.010534587
 20
74.1265080241
 30
0.0
 11
104.9650320916
 21
73.84868377020001
 31
0.0
  0
LINE
  5
1BE
330
1F
100
AcDbEntity
  8
0
  6
Continuous
 62
     7
370
    15
100
AcDbLine
 10
104.6672862507
 20
74.6538632159
 30
0.0
 11
105.010534587
 21
74.1265080241
 31
0.0
  0
LINE
  5
1BF
330
1F
100
AcDbEntity
  8
0
  6
Continuous
 62
     7
370
    15
100
AcDbLine
 10
104.2785485837
 20
74.9033954503
 30
0.0
 11
104.6672862507
 21
74.6538632159
 31
0.0
  0
LINE
  5
1C0
330
1F
100
AcDbEntity
  8
0
  6
Continuous
 62
     7
370
    15
100
AcDbLine
 10
104.2330462006
 20
74.6255711669
 30
0.0
 11
104.2785485837
 21
74.9033954503
 31
0.0
  0
LINE
  5
1C1
330
1F
100
AcDbEntity
  8
0
  6
Continuous
 62
     7
370
    15
100
AcDbLine
 10
104.5762944807
 20
74.09821598979999
 30
0.0
 11
104.2330462006
 21
74.6255711669
 31
0.0
  0
LINE
  5
1C2
330
1F
100
AcDbEntity
  8
0
  6
Continuous
 62
     7
370
    15
100
AcDbLine
 10
103.7878347367
 20
74.95295578689999
 30
0.0
 11
103.4445929546
 21
75.48031163430001
 31
0.0
  0
LINE
  5
1C3
330
1F
100
AcDbEntity
  8
0
  6
Continuous
 62
     7
370
    15
100
AcDbLine
 10
104.1765788737
 20
74.70342423019999
 30
0.0
 11
103.7878347367
 21
74.95295578689999
 31
0.0
  0
LINE
  5
1C4
330
1F
100
AcDbEntity
  8
0
  6
Continuous
 62
     7
370
    15
100
AcDbLine
 10
104.2220747868
 20
74.9812478359
 30
0.0
 11
104.1765788737
 21
74.70342423019999
 31
0.0
  0
LINE
  5
1C5
330
1F
100
AcDbEntity
  8
0
  6
Continuous
 62
     7
370
    15
100
AcDbLine
 10
103.8788330328
 20
75.50860367590001
 30
0.0
 11
104.2220747868
 21
74.9812478359
 31
0.0
  0
LINE
  5
1C6
330
1F
100
AcDbEntity
  8
0
  6
Continuous
 62
     7
370
    15
100
AcDbLine
 10
103.4900888396
 20
75.75813524729999
 30
0.0
 11
103.8788330328
 21
75.50860367590001
 31
0.0
  0
LINE
  5
1C7
330
1F
100
AcDbEntity
  8
0
  6
Continuous
 62
     7
370
    15
100
AcDbLine
 10
103.4445929546
 20
75.48031163430001
 30
0.0
 11
103.4900888396
 21
75.75813524729999
 31
0.0
  0
LINE
  5
1C8
330
1F
100
AcDbEntity
  8
0
  6
Continuous
 62
     7
370
    15
100
AcDbLine
 10
103.7290662958
 20
74.6613027275
 30
0.0
 11
103.3403286498
 21
74.9108349563
 31
0.0
  0
LINE
  5
1C9
330
1F
100
AcDbEntity
  8
0
  6
Continuous
 62
     7
370
    15
100
AcDbLine
 10
103.7745686999
 20
74.9391270054
 30
0.0
 11
103.7290662958
 21
74.6613027275
 31
0.0
  0
LINE
  5
1CA
330
1F
100
AcDbEntity
  8
0
  6
Continuous
 62
     7
370
    15
100
AcDbLine
 10
103.4313202791
 20
75.46648954670001
 30
0.0
 11
103.7745686999
 21
74.9391270054
 31
0.0
  0
LINE
  5
1CB
330
1F
100
AcDbEntity
  8
0
  6
Continuous
 62
     7
370
    15
100
AcDbLine
 10
103.0425827598
 20
75.7160144149
 30
0.0
 11
103.4313202791
 21
75.46648954670001
 31
0.0
  0
LINE
  5
1CC
330
1F
100
AcDbEntity
  8
0
  6
Continuous
 62
     7
370
    15
100
AcDbLine
 10
102.9970803416
 20
75.4381901408
 30
0.0
 11
103.0425827598
 21
75.7160144149
 31
0.0
  0
LINE
  5
1CD
330
1F
100
AcDbEntity
  8
0
  6
Continuous
 62
     7
370
    15
100
AcDbLine
 10
103.3403286498
 20
74.9108349563
 30
0.0
 11
102.9970803416
 21
75.4381901408
 31
0.0
  0
LINE
  5
1CE
330
1F
100
AcDbEntity
  8
0
  6
Continuous
 62
     7
370
    15
100
AcDbLine
 10
105.8718514248
 20
73.9255906972
 30
0.0
 11
105.9173536956
 21
74.2034150101
 31
0.0
  0
LINE
  5
1CF
330
1F
100
AcDbEntity
  8
0
  6
Continuous
 62
     7
370
    15
100
AcDbLine
 10
106.2150932349
 20
73.3982348424
 30
0.0
 11
105.8718514248
 21
73.9255906972
 31
0.0
  0
LINE
  5
1D0
330
1F
100
AcDbEntity
  8
0
  6
Continuous
 62
     7
370
    15
100
AcDbLine
 10
106.2312071447
 20
73.38788760469999
 30
0.0
 11
106.2150932349
 21
73.3982348424
 31
0.0
  0
LINE
  5
1D1
330
1F
100
AcDbEntity
  8
0
  6
Continuous
 62
     7
370
    15
100
AcDbLine
 10
105.9173536956
 20
74.2034150101
 30
0.0
 11
105.935821335
 21
74.19155426399999
 31
0.0
  0
LINE
  5
1D2
330
1F
100
AcDbEntity
  8
0
  6
Continuous
 62
     7
370
    15
100
AcDbLine
 10
105.5617964539
 20
74.764054911
 30
0.0
 11
105.6072989492
 21
75.04187916479999
 31
0.0
  0
LINE
  5
1D3
330
1F
100
AcDbEntity
  8
0
  6
Continuous
 62
     7
370
    15
100
AcDbLine
 10
105.9050447901
 20
74.2366997191
 30
0.0
 11
105.5617964539
 21
74.764054911
 31
0.0
  0
LINE
  5
1D4
330
1F
100
AcDbEntity
  8
0
  6
Continuous
 62
     7
370
    15
100
AcDbLine
 10
105.9216527998
 20
74.2260382138
 30
0.0
 11
105.9050447901
 21
74.2366997191
 31
0.0
  0
LINE
  5
1D5
330
1F
100
AcDbEntity
  8
0
  6
Continuous
 62
     7
370
    15
100
AcDbLine
 10
105.6072989492
 20
75.04187916479999
 30
0.0
 11
105.7690964624
 21
74.93802199619999
 31
0.0
  0
LINE
  5
1D6
330
1F
100
AcDbEntity
  8
0
  6
Continuous
 62
     7
370
    15
100
AcDbLine
 10
105.1096104471
 20
74.7345896719
 30
0.0
 11
105.1551064164
 21
75.01241326279999
 31
0.0
  0
LINE
  5
1D7
330
1F
100
AcDbEntity
  8
0
  6
Continuous
 62
     7
370
    15
100
AcDbLine
 10
105.4528522573
 20
74.20723381720001
 30
0.0
 11
105.1096104471
 21
74.7345896719
 31
0.0
  0
LINE
  5
1D8
330
1F
100
AcDbEntity
  8
0
  6
Continuous
 62
     7
370
    15
100
AcDbLine
 10
105.8415963382
 20
73.95770227529999
 30
0.0
 11
105.4528522573
 21
74.20723381720001
 31
0.0
  0
LINE
  5
1D9
330
1F
100
AcDbEntity
  8
0
  6
Continuous
 62
     7
370
    15
100
AcDbLine
 10
105.8870923074
 20
74.23552586619999
 30
0.0
 11
105.8415963382
 21
73.95770227529999
 31
0.0
  0
LINE
  5
1DA
330
1F
100
AcDbEntity
  8
0
  6
Continuous
 62
     7
370
    15
100
AcDbLine
 10
105.5438503706
 20
74.76288908159999
 30
0.0
 11
105.8870923074
 21
74.23552586619999
 31
0.0
  0
LINE
  5
1DB
330
1F
100
AcDbEntity
  8
0
  6
Continuous
 62
     7
370
    15
100
AcDbLine
 10
105.1551064164
 20
75.01241326279999
 30
0.0
 11
105.5438503706
 21
74.76288908159999
 31
0.0
  0
LINE
  5
1DC
330
1F
100
AcDbEntity
  8
0
  6
Continuous
 62
     7
370
    15
100
AcDbLine
 10
104.3473629289
 20
75.5435953148
 30
0.0
 11
104.392865312
 21
75.82141959819999
 31
0.0
  0
LINE
  5
1DD
330
1F
100
AcDbEntity
  8
0
  6
Continuous
 62
     7
370
    15
100
AcDbLine
 10
104.690604739
 20
75.01623946009999
 30
0.0
 11
104.3473629289
 21
75.5435953148
 31
0.0
  0
LINE
  5
1DE
330
1F
100
AcDbEntity
  8
0
  6
Continuous
 62
     7
370
    15
100
AcDbLine
 10
105.0793489322
 20
74.76670788869999
 30
0.0
 11
104.690604739
 21
75.01623946009999
 31
0.0
  0
LINE
  5
1DF
330
1F
100
AcDbEntity
  8
0
  6
Continuous
 62
     7
370
    15
100
AcDbLine
 10
105.1248446769
 20
75.0445315386
 30
0.0
 11
105.0793489322
 21
74.76670788869999
 31
0.0
  0
LINE
  5
1E0
330
1F
100
AcDbEntity
  8
0
  6
Continuous
 62
     7
370
    15
100
AcDbLine
 10
104.7816029791
 20
75.5718873639
 30
0.0
 11
105.1248446769
 21
75.0445315386
 31
0.0
  0
LINE
  5
1E1
330
1F
100
AcDbEntity
  8
0
  6
Continuous
 62
     7
370
    15
100
AcDbLine
 10
104.392865312
 20
75.82141959819999
 30
0.0
 11
104.7816029791
 21
75.5718873639
 31
0.0
  0
LINE
  5
1E2
330
1F
100
AcDbEntity
  8
0
  6
Continuous
 62
     7
370
    15
100
AcDbLine
 10
103.1329293478
 20
76.32313573350001
 30
0.0
 11
103.1784252048
 21
76.60095935390001
 31
0.0
  0
LINE
  5
1E3
330
1F
100
AcDbEntity
  8
0
  6
Continuous
 62
     7
370
    15
100
AcDbLine
 10
103.4761711018
 20
75.79577989349999
 30
0.0
 11
103.1329293478
 21
76.32313573350001
 31
0.0
  0
LINE
  5
1E4
330
1F
100
AcDbEntity
  8
0
  6
Continuous
 62
     7
370
    15
100
AcDbLine
 10
103.864915295
 20
75.5462483221
 30
0.0
 11
103.4761711018
 21
75.79577989349999
 31
0.0
  0
LINE
  5
1E5
330
1F
100
AcDbEntity
  8
0
  6
Continuous
 62
     7
370
    15
100
AcDbLine
 10
103.910411152
 20
75.82407194249999
 30
0.0
 11
103.864915295
 21
75.5462483221
 31
0.0
  0
LINE
  5
1E6
330
1F
100
AcDbEntity
  8
0
  6
Continuous
 62
     7
370
    15
100
AcDbLine
 10
103.5671693418
 20
76.35142779729999
 30
0.0
 11
103.910411152
 21
75.82407194249999
 31
0.0
  0
LINE
  5
1E7
330
1F
100
AcDbEntity
  8
0
  6
Continuous
 62
     7
370
    15
100
AcDbLine
 10
103.1784252048
 20
76.60095935390001
 30
0.0
 11
103.5671693418
 21
76.35142779729999
 31
0.0
  0
LINE
  5
1E8
330
1F
100
AcDbEntity
  8
0
  6
Continuous
 62
     7
370
    15
100
AcDbLine
 10
103.0286650359
 20
75.7536590574
 30
0.0
 11
102.6854167418
 21
76.2810142382
 31
0.0
  0
LINE
  5
1E9
330
1F
100
AcDbEntity
  8
0
  6
Continuous
 62
     7
370
    15
100
AcDbLine
 10
103.417402682
 20
75.50412682859999
 30
0.0
 11
103.0286650359
 21
75.7536590574
 31
0.0
  0
LINE
  5
1EA
330
1F
100
AcDbEntity
  8
0
  6
Continuous
 62
     7
370
    15
100
AcDbLine
 10
103.4629050931
 20
75.7819511046
 30
0.0
 11
103.417402682
 21
75.50412682859999
 31
0.0
  0
LINE
  5
1EB
330
1F
100
AcDbEntity
  8
0
  6
Continuous
 62
     7
370
    15
100
AcDbLine
 10
103.1196567849
 20
76.30930628899999
 30
0.0
 11
103.4629050931
 21
75.7819511046
 31
0.0
  0
LINE
  5
1EC
330
1F
100
AcDbEntity
  8
0
  6
Continuous
 62
     7
370
    15
100
AcDbLine
 10
102.7309191459
 20
76.55883851600001
 30
0.0
 11
103.1196567849
 21
76.30930628899999
 31
0.0
  0
LINE
  5
1ED
330
1F
100
AcDbEntity
  8
0
  6
Continuous
 62
     7
370
    15
100
AcDbLine
 10
102.6854167418
 20
76.2810142382
 30
0.0
 11
102.7309191459
 21
76.55883851600001
 31
0.0
  0
LINE
  5
1EE
330
1F
100
AcDbEntity
  8
0
  6
Continuous
 62
     7
370
    15
100
AcDbLine
 10
103.6116687143
 20
73.7264736991
 30
0.0
 11
103.9549105244
 21
73.19911784430001
 31
0.0
  0
LINE
  5
1EF
330
1F
100
AcDbEntity
  8
0
  6
Continuous
 62
     7
370
    15
100
AcDbLine
 10
103.6116687143
 20
73.7264736991
 30
0.0
 11
103.2229245772
 21
73.9760052558
 31
0.0
  0
LINE
  5
1F0
330
1F
100
AcDbEntity
  8
0
  6
Continuous
 62
     7
370
    15
100
AcDbLine
 10
103.2229245772
 20
73.9760052558
 30
0.0
 11
103.1774287203
 21
73.6981816353
 31
0.0
  0
LINE
  5
1F1
330
1F
100
AcDbEntity
  8
0
  6
Continuous
 62
     7
370
    15
100
AcDbLine
 10
103.1774287203
 20
73.6981816353
 30
0.0
 11
103.5206704181
 21
73.1708258101
 31
0.0
  0
LINE
  5
1F2
330
1F
100
AcDbEntity
  8
0
  6
Continuous
 62
     7
370
    15
100
AcDbLine
 10
103.5206704181
 20
73.1708258101
 30
0.0
 11
103.9094146113
 21
72.9212942387
 31
0.0
  0
LINE
  5
1F3
330
1F
100
AcDbEntity
  8
0
  6
Continuous
 62
     7
370
    15
100
AcDbLine
 10
103.9549105244
 20
73.19911784430001
 30
0.0
 11
103.9094146113
 21
72.9212942387
 31
0.0
  0
LINE
  5
1F4
330
1F
100
AcDbEntity
  8
0
  6
Continuous
 62
     7
370
    15
100
AcDbLine
 10
103.296933781
 20
74.5776008429
 30
0.0
 11
103.6401756898
 21
74.0502376349
 31
0.0
  0
LINE
  5
1F5
330
1F
100
AcDbEntity
  8
0
  6
Continuous
 62
     7
370
    15
100
AcDbLine
 10
103.296933781
 20
74.5776008429
 30
0.0
 11
102.9081962968
 21
74.8271257019
 31
0.0
  0
LINE
  5
1F6
330
1F
100
AcDbEntity
  8
0
  6
Continuous
 62
     7
370
    15
100
AcDbLine
 10
102.9081962968
 20
74.8271257019
 30
0.0
 11
102.8626938576
 21
74.5493014332
 31
0.0
  0
LINE
  5
1F7
330
1F
100
AcDbEntity
  8
0
  6
Continuous
 62
     7
370
    15
100
AcDbLine
 10
102.8626938576
 20
74.5493014332
 30
0.0
 11
103.2059356677
 21
74.02194557850001
 31
0.0
  0
LINE
  5
1F8
330
1F
100
AcDbEntity
  8
0
  6
Continuous
 62
     7
370
    15
100
AcDbLine
 10
103.2059356677
 20
74.02194557850001
 30
0.0
 11
103.5946798048
 21
73.77241402180001
 31
0.0
  0
LINE
  5
1F9
330
1F
100
AcDbEntity
  8
0
  6
Continuous
 62
     7
370
    15
100
AcDbLine
 10
103.6401756898
 20
74.0502376349
 30
0.0
 11
103.5946798048
 21
73.77241402180001
 31
0.0
  0
LINE
  5
1FA
330
1F
100
AcDbEntity
  8
0
  6
Continuous
 62
     7
370
    15
100
AcDbLine
 10
102.9821990025
 20
75.42872061869999
 30
0.0
 11
103.3254472826
 21
74.90136544159999
 31
0.0
  0
LINE
  5
1FB
330
1F
100
AcDbEntity
  8
0
  6
Continuous
 62
     7
370
    15
100
AcDbLine
 10
102.9821990025
 20
75.42872061869999
 30
0.0
 11
102.5934613635
 21
75.6782528457
 31
0.0
  0
LINE
  5
1FC
330
1F
100
AcDbEntity
  8
0
  6
Continuous
 62
     7
370
    15
100
AcDbLine
 10
102.5934613635
 20
75.6782528457
 30
0.0
 11
102.5479589243
 21
75.400428577
 31
0.0
  0
LINE
  5
1FD
330
1F
100
AcDbEntity
  8
0
  6
Continuous
 62
     7
370
    15
100
AcDbLine
 10
102.5479589243
 20
75.400428577
 30
0.0
 11
102.8912072605
 21
74.8730733852
 31
0.0
  0
LINE
  5
1FE
330
1F
100
AcDbEntity
  8
0
  6
Continuous
 62
     7
370
    15
100
AcDbLine
 10
102.8912072605
 20
74.8730733852
 30
0.0
 11
103.2799448715
 21
74.6235411656
 31
0.0
  0
LINE
  5
1FF
330
1F
100
AcDbEntity
  8
0
  6
Continuous
 62
     7
370
    15
100
AcDbLine
 10
103.3254472826
 20
74.90136544159999
 30
0.0
 11
103.2799448715
 21
74.6235411656
 31
0.0
  0
LINE
  5
200
330
1F
100
AcDbEntity
  8
0
  6
Continuous
 62
     7
370
    15
100
AcDbLine
 10
102.2787265569
 20
76.5293726288
 30
0.0
 11
102.2332306439
 21
76.2515490231
 31
0.0
  0
LINE
  5
201
330
1F
100
AcDbEntity
  8
0
  6
Continuous
 62
     7
370
    15
100
AcDbLine
 10
102.2332306439
 20
76.2515490231
 30
0.0
 11
102.576472454
 21
75.72419316840001
 31
0.0
  0
LINE
  5
202
330
1F
100
AcDbEntity
  8
0
  6
Continuous
 62
     7
370
    15
100
AcDbLine
 10
102.576472454
 20
75.72419316840001
 30
0.0
 11
102.965210093
 21
75.4746609414
 31
0.0
  0
LINE
  5
203
330
1F
100
AcDbEntity
  8
0
  6
Continuous
 62
     7
370
    15
100
AcDbLine
 10
103.0107124901
 20
75.7524852211
 30
0.0
 11
102.965210093
 21
75.4746609414
 31
0.0
  0
LINE
  5
204
330
1F
100
AcDbEntity
  8
0
  6
Continuous
 62
     7
370
    15
100
AcDbLine
 10
102.6674705954
 20
76.2798484254
 30
0.0
 11
103.0107124901
 21
75.7524852211
 31
0.0
  0
LINE
  5
205
330
1F
100
AcDbEntity
  8
0
  6
Continuous
 62
     7
370
    15
100
AcDbLine
 10
102.6674705954
 20
76.2798484254
 30
0.0
 11
102.2787265569
 21
76.5293726288
 31
0.0
  0
LINE
  5
206
330
1F
100
AcDbEntity
  8
0
  6
Continuous
 62
     7
370
    15
100
AcDbLine
 10
105.5315414651
 20
74.79617379069999
 30
0.0
 11
105.1427973841
 21
75.0457053325
 31
0.0
  0
LINE
  5
207
330
1F
100
AcDbEntity
  8
0
  6
Continuous
 62
     7
370
    15
100
AcDbLine
 10
105.5770374343
 20
75.07399738149999
 30
0.0
 11
105.5315414651
 21
74.79617379069999
 31
0.0
  0
LINE
  5
208
330
1F
100
AcDbEntity
  8
0
  6
Continuous
 62
     7
370
    15
100
AcDbLine
 10
105.2337956242
 20
75.60135323629999
 30
0.0
 11
105.5770374343
 21
75.07399738149999
 31
0.0
  0
LINE
  5
209
330
1F
100
AcDbEntity
  8
0
  6
Continuous
 62
     7
370
    15
100
AcDbLine
 10
104.8450513187
 20
75.8508848373
 30
0.0
 11
105.2337956242
 21
75.60135323629999
 31
0.0
  0
LINE
  5
20A
330
1F
100
AcDbEntity
  8
0
  6
Continuous
 62
     7
370
    15
100
AcDbLine
 10
104.799555574
 20
75.5730611873
 30
0.0
 11
104.8450513187
 21
75.8508848373
 31
0.0
  0
LINE
  5
20B
330
1F
100
AcDbEntity
  8
0
  6
Continuous
 62
     7
370
    15
100
AcDbLine
 10
105.1427973841
 20
75.0457053325
 30
0.0
 11
104.799555574
 21
75.5730611873
 31
0.0
  0
LINE
  5
20C
330
1F
100
AcDbEntity
  8
0
  6
Continuous
 62
     7
370
    15
100
AcDbLine
 10
104.3171079401
 20
75.57571419449999
 30
0.0
 11
103.9283638736
 21
75.8252384053
 31
0.0
  0
LINE
  5
20D
330
1F
100
AcDbEntity
  8
0
  6
Continuous
 62
     7
370
    15
100
AcDbLine
 10
104.3626037971
 20
75.853537815
 30
0.0
 11
104.3171079401
 21
75.57571419449999
 31
0.0
  0
LINE
  5
20E
330
1F
100
AcDbEntity
  8
0
  6
Continuous
 62
     7
370
    15
100
AcDbLine
 10
104.019361987
 20
76.3808936698
 30
0.0
 11
104.3626037971
 21
75.853537815
 31
0.0
  0
LINE
  5
20F
330
1F
100
AcDbEntity
  8
0
  6
Continuous
 62
     7
370
    15
100
AcDbLine
 10
103.6306177938
 20
76.6304252411
 30
0.0
 11
104.019361987
 21
76.3808936698
 31
0.0
  0
LINE
  5
210
330
1F
100
AcDbEntity
  8
0
  6
Continuous
 62
     7
370
    15
100
AcDbLine
 10
103.5851219368
 20
76.3526016207
 30
0.0
 11
103.6306177938
 21
76.6304252411
 31
0.0
  0
LINE
  5
211
330
1F
100
AcDbEntity
  8
0
  6
Continuous
 62
     7
370
    15
100
AcDbLine
 10
103.9283638736
 20
75.8252384053
 30
0.0
 11
103.5851219368
 21
76.3526016207
 31
0.0
  0
LINE
  5
212
330
1F
100
AcDbEntity
  8
0
  6
Continuous
 62
     7
370
    15
100
AcDbLine
 10
102.7139302364
 20
76.6047788387
 30
0.0
 11
102.3706884614
 21
77.1321346843
 31
0.0
  0
LINE
  5
213
330
1F
100
AcDbEntity
  8
0
  6
Continuous
 62
     7
370
    15
100
AcDbLine
 10
103.1026678754
 20
76.35524661169999
 30
0.0
 11
102.7139302364
 21
76.6047788387
 31
0.0
  0
LINE
  5
214
330
1F
100
AcDbEntity
  8
0
  6
Continuous
 62
     7
370
    15
100
AcDbLine
 10
103.1481701598
 20
76.6330782484
 30
0.0
 11
103.1026678754
 21
76.35524661169999
 31
0.0
  0
LINE
  5
215
330
1F
100
AcDbEntity
  8
0
  6
Continuous
 62
     7
370
    15
100
AcDbLine
 10
102.8049284059
 20
77.1604340884
 30
0.0
 11
103.1481701598
 21
76.6330782484
 31
0.0
  0
LINE
  5
216
330
1F
100
AcDbEntity
  8
0
  6
Continuous
 62
     7
370
    15
100
AcDbLine
 10
102.4161842127
 20
77.40996565979999
 30
0.0
 11
102.8049284059
 21
77.1604340884
 31
0.0
  0
LINE
  5
217
330
1F
100
AcDbEntity
  8
0
  6
Continuous
 62
     7
370
    15
100
AcDbLine
 10
102.3706884614
 20
77.1321346843
 30
0.0
 11
102.4161842127
 21
77.40996565979999
 31
0.0
  0
LINE
  5
218
330
1F
100
AcDbEntity
  8
0
  6
Continuous
 62
     7
370
    15
100
AcDbLine
 10
102.3527357888
 20
77.13096820859999
 30
0.0
 11
102.6959775568
 21
76.6036123648
 31
0.0
  0
LINE
  5
219
330
1F
100
AcDbEntity
  8
0
  6
Continuous
 62
     7
370
    15
100
AcDbLine
 10
102.3527357888
 20
77.13096820859999
 30
0.0
 11
101.9639916237
 21
77.38049977260001
 31
0.0
  0
LINE
  5
21A
330
1F
100
AcDbEntity
  8
0
  6
Continuous
 62
     7
370
    15
100
AcDbLine
 10
101.9639916237
 20
77.38049977260001
 30
0.0
 11
101.9184957667
 21
77.10267615220001
 31
0.0
  0
LINE
  5
21B
330
1F
100
AcDbEntity
  8
0
  6
Continuous
 62
     7
370
    15
100
AcDbLine
 10
101.9184957667
 20
77.10267615220001
 30
0.0
 11
102.2617375207
 21
76.5753203121
 31
0.0
  0
LINE
  5
21C
330
1F
100
AcDbEntity
  8
0
  6
Continuous
 62
     7
370
    15
100
AcDbLine
 10
102.2617375207
 20
76.5753203121
 30
0.0
 11
102.6504816858
 21
76.3257887481
 31
0.0
  0
LINE
  5
21D
330
1F
100
AcDbEntity
  8
0
  6
Continuous
 62
     7
370
    15
100
AcDbLine
 10
102.6959775568
 20
76.6036123648
 30
0.0
 11
102.6504816858
 21
76.3257887481
 31
0.0
  0
LINE
  5
21E
330
1F
100
AcDbEntity
  8
0
  6
Continuous
 62
     7
370
    15
100
AcDbLine
 10
98.29042943600001
 20
79.75123189939999
 30
0.0
 11
97.94718762590001
 21
80.2785877542
 31
0.0
  0
LINE
  5
21F
330
1F
100
AcDbEntity
  8
0
  6
Continuous
 62
     7
370
    15
100
AcDbLine
 10
97.94718762590001
 20
80.2785877542
 30
0.0
 11
97.90636209040002
 21
80.30479961140001
 31
0.0
  0
ARC
  5
220
330
1F
100
AcDbEntity
  8
0
  6
Continuous
 62
     7
370
    15
100
AcDbCircle
 10
100.9211600898
 20
81.28655967410001
 30
0.0
 40
3.170624512318046
100
AcDbArc
 50
198.0376864898
 51
212.8106009029
  0
LINE
  5
221
330
1F
100
AcDbEntity
  8
0
  6
Continuous
 62
     7
370
    15
100
AcDbLine
 10
98.25635684099999
 20
79.568513271
 30
0.0
 11
98.29042943600001
 21
79.75123189939999
 31
0.0
  0
LINE
  5
222
330
1F
100
AcDbEntity
  8
0
  6
Continuous
 62
     7
370
    15
100
AcDbLine
 10
99.6715357086
 20
77.2435195987
 30
0.0
 11
99.32829389840001
 21
77.77087545349999
 31
0.0
  0
LINE
  5
223
330
1F
100
AcDbEntity
  8
0
  6
Continuous
 62
     7
370
    15
100
AcDbLine
 10
99.32829389840001
 20
77.77087545349999
 30
0.0
 11
99.17212698790002
 21
77.87111378270001
 31
0.0
  0
ARC
  5
224
330
1F
100
AcDbEntity
  8
0
  6
Continuous
 62
     7
370
    15
100
AcDbCircle
 10
108.4767343525
 20
83.49851835169999
 30
0.0
 40
10.87397813097962
100
AcDbArc
 50
211.1654497371
 51
215.7776737772
  0
LINE
  5
225
330
1F
100
AcDbEntity
  8
0
  6
Continuous
 62
     7
370
    15
100
AcDbLine
 10
99.65476619690001
 20
77.14113852549999
 30
0.0
 11
99.6715357086
 21
77.2435195987
 31
0.0
  0
LINE
  5
226
330
1F
100
AcDbEntity
  8
0
  6
Continuous
 62
     7
370
    15
100
AcDbLine
 10
101.2017506316
 20
78.1895060785
 30
0.0
 11
101.156248319
 21
77.91167444920001
 31
0.0
  0
LINE
  5
227
330
1F
100
AcDbEntity
  8
0
  6
Continuous
 62
     7
370
    15
100
AcDbLine
 10
101.156248319
 20
77.91167444920001
 30
0.0
 11
101.4994965992
 21
77.3843192721
 31
0.0
  0
LINE
  5
228
330
1F
100
AcDbEntity
  8
0
  6
Continuous
 62
     7
370
    15
100
AcDbLine
 10
101.4994965992
 20
77.3843192721
 30
0.0
 11
101.8882342662
 21
77.13478703779999
 31
0.0
  0
LINE
  5
229
330
1F
100
AcDbEntity
  8
0
  6
Continuous
 62
     7
370
    15
100
AcDbLine
 10
101.8882342662
 20
77.13478703779999
 30
0.0
 11
101.9337365507
 21
77.41261867439999
 31
0.0
  0
LINE
  5
22A
330
1F
100
AcDbEntity
  8
0
  6
Continuous
 62
     7
370
    15
100
AcDbLine
 10
101.9337365507
 20
77.41261867439999
 30
0.0
 11
101.5904882425
 21
77.9399738588
 31
0.0
  0
LINE
  5
22B
330
1F
100
AcDbEntity
  8
0
  6
Continuous
 62
     7
370
    15
100
AcDbLine
 10
101.5904882425
 20
77.9399738588
 30
0.0
 11
101.2017506316
 21
78.1895060785
 31
0.0
  0
LINE
  5
22C
330
1F
100
AcDbEntity
  8
0
  6
Continuous
 62
     7
370
    15
100
AcDbLine
 10
100.3760546614
 20
78.7195142775
 30
0.0
 11
99.98731712100001
 21
78.96903915119999
 31
0.0
  0
LINE
  5
22D
330
1F
100
AcDbEntity
  8
0
  6
Continuous
 62
     7
370
    15
100
AcDbLine
 10
99.98731712100001
 20
78.96903915119999
 30
0.0
 11
99.9418147379
 21
78.6912148678
 31
0.0
  0
LINE
  5
22E
330
1F
100
AcDbEntity
  8
0
  6
Continuous
 62
     7
370
    15
100
AcDbLine
 10
99.9418147379
 20
78.6912148678
 30
0.0
 11
100.2850565481
 21
78.16385901310001
 31
0.0
  0
LINE
  5
22F
330
1F
100
AcDbEntity
  8
0
  6
Continuous
 62
     7
370
    15
100
AcDbLine
 10
100.2850565481
 20
78.16385901310001
 30
0.0
 11
100.673800629
 21
77.9143274712
 31
0.0
  0
LINE
  5
230
330
1F
100
AcDbEntity
  8
0
  6
Continuous
 62
     7
370
    15
100
AcDbLine
 10
100.673800629
 20
77.9143274712
 30
0.0
 11
100.7192965982
 21
78.19215106209999
 31
0.0
  0
LINE
  5
231
330
1F
100
AcDbEntity
  8
0
  6
Continuous
 62
     7
370
    15
100
AcDbLine
 10
100.7192965982
 20
78.19215106209999
 30
0.0
 11
100.3760546614
 21
78.7195142775
 31
0.0
  0
LINE
  5
232
330
1F
100
AcDbEntity
  8
0
  6
Continuous
 62
     7
370
    15
100
AcDbLine
 10
99.16162126309998
 20
79.4990473208
 30
0.0
 11
98.7728769577
 21
79.7485789217
 31
0.0
  0
LINE
  5
233
330
1F
100
AcDbEntity
  8
0
  6
Continuous
 62
     7
370
    15
100
AcDbLine
 10
98.7728769577
 20
79.7485789217
 30
0.0
 11
98.72738121299999
 21
79.47075527169999
 31
0.0
  0
LINE
  5
234
330
1F
100
AcDbEntity
  8
0
  6
Continuous
 62
     7
370
    15
100
AcDbLine
 10
98.72738121299999
 20
79.47075527169999
 30
0.0
 11
99.07062279860001
 21
78.94339947600001
 31
0.0
  0
LINE
  5
235
330
1F
100
AcDbEntity
  8
0
  6
Continuous
 62
     7
370
    15
100
AcDbLine
 10
99.07062279860001
 20
78.94339947600001
 30
0.0
 11
99.45936710399999
 21
78.69386787509999
 31
0.0
  0
LINE
  5
236
330
1F
100
AcDbEntity
  8
0
  6
Continuous
 62
     7
370
    15
100
AcDbLine
 10
99.45936710399999
 20
78.69386787509999
 30
0.0
 11
99.50486284870002
 21
78.971691525
 31
0.0
  0
LINE
  5
237
330
1F
100
AcDbEntity
  8
0
  6
Continuous
 62
     7
370
    15
100
AcDbLine
 10
99.50486284870002
 20
78.971691525
 30
0.0
 11
99.16162126309998
 21
79.4990473208
 31
0.0
  0
LINE
  5
238
330
1F
100
AcDbEntity
  8
0
  6
Continuous
 62
     7
370
    15
100
AcDbLine
 10
101.5164855648
 20
77.3383789347
 30
0.0
 11
101.4709831256
 21
77.060554666
 31
0.0
  0
LINE
  5
239
330
1F
100
AcDbEntity
  8
0
  6
Continuous
 62
     7
370
    15
100
AcDbLine
 10
101.4709831256
 20
77.060554666
 30
0.0
 11
101.8142249357
 21
76.53319881129999
 31
0.0
  0
LINE
  5
23A
330
1F
100
AcDbEntity
  8
0
  6
Continuous
 62
     7
370
    15
100
AcDbLine
 10
101.8142249357
 20
76.53319881129999
 30
0.0
 11
102.2029690728
 21
76.28366725460001
 31
0.0
  0
LINE
  5
23B
330
1F
100
AcDbEntity
  8
0
  6
Continuous
 62
     7
370
    15
100
AcDbLine
 10
102.2029690728
 20
76.28366725460001
 30
0.0
 11
102.2484649578
 21
76.5614908677
 31
0.0
  0
LINE
  5
23C
330
1F
100
AcDbEntity
  8
0
  6
Continuous
 62
     7
370
    15
100
AcDbLine
 10
102.2484649578
 20
76.5614908677
 30
0.0
 11
101.9052231758
 21
77.0888467151
 31
0.0
  0
LINE
  5
23D
330
1F
100
AcDbEntity
  8
0
  6
Continuous
 62
     7
370
    15
100
AcDbLine
 10
101.9052231758
 20
77.0888467151
 30
0.0
 11
101.5164855648
 21
77.3383789347
 31
0.0
  0
LINE
  5
23E
330
1F
100
AcDbEntity
  8
0
  6
Continuous
 62
     7
370
    15
100
AcDbLine
 10
100.7040621295
 20
77.88221658560001
 30
0.0
 11
101.0473039396
 21
77.3548607308
 31
0.0
  0
LINE
  5
23F
330
1F
100
AcDbEntity
  8
0
  6
Continuous
 62
     7
370
    15
100
AcDbLine
 10
101.0473039396
 20
77.3548607308
 30
0.0
 11
101.4360414944
 21
77.1053285259
 31
0.0
  0
LINE
  5
240
330
1F
100
AcDbEntity
  8
0
  6
Continuous
 62
     7
370
    15
100
AcDbLine
 10
101.4360414944
 20
77.1053285259
 30
0.0
 11
101.4815439336
 21
77.3831527946
 31
0.0
  0
LINE
  5
241
330
1F
100
AcDbEntity
  8
0
  6
Continuous
 62
     7
370
    15
100
AcDbLine
 10
101.4815439336
 20
77.3831527946
 30
0.0
 11
101.1383021796
 21
77.9105086346
 31
0.0
  0
LINE
  5
242
330
1F
100
AcDbEntity
  8
0
  6
Continuous
 62
     7
370
    15
100
AcDbLine
 10
101.1383021796
 20
77.9105086346
 30
0.0
 11
100.7495579864
 21
78.16004020600001
 31
0.0
  0
LINE
  5
243
330
1F
100
AcDbEntity
  8
0
  6
Continuous
 62
     7
370
    15
100
AcDbLine
 10
100.7495579864
 20
78.16004020600001
 30
0.0
 11
100.7040621295
 21
77.88221658560001
 31
0.0
  0
LINE
  5
244
330
1F
100
AcDbEntity
  8
0
  6
Continuous
 62
     7
370
    15
100
AcDbLine
 10
99.48962196610001
 20
78.661756356
 30
0.0
 11
99.83287030239999
 21
78.1344011642
 31
0.0
  0
LINE
  5
245
330
1F
100
AcDbEntity
  8
0
  6
Continuous
 62
     7
370
    15
100
AcDbLine
 10
99.83287030239999
 20
78.1344011642
 30
0.0
 11
100.2216078572
 21
77.8848689594
 31
0.0
  0
LINE
  5
246
330
1F
100
AcDbEntity
  8
0
  6
Continuous
 62
     7
370
    15
100
AcDbLine
 10
100.2216078572
 20
77.8848689594
 30
0.0
 11
100.2671103525
 21
78.1626932132
 31
0.0
  0
LINE
  5
247
330
1F
100
AcDbEntity
  8
0
  6
Continuous
 62
     7
370
    15
100
AcDbLine
 10
100.2671103525
 20
78.1626932132
 30
0.0
 11
99.92386201629999
 21
78.690048405
 31
0.0
  0
LINE
  5
248
330
1F
100
AcDbEntity
  8
0
  6
Continuous
 62
     7
370
    15
100
AcDbLine
 10
99.92386201629999
 20
78.690048405
 30
0.0
 11
99.5351244615
 21
78.93958060989999
 31
0.0
  0
LINE
  5
249
330
1F
100
AcDbEntity
  8
0
  6
Continuous
 62
     7
370
    15
100
AcDbLine
 10
99.5351244615
 20
78.93958060989999
 30
0.0
 11
99.48962196610001
 21
78.661756356
 31
0.0
  0
LINE
  5
24A
330
1F
100
AcDbEntity
  8
0
  6
Continuous
 62
     7
370
    15
100
AcDbLine
 10
99.03743595939999
 20
78.63229111699999
 30
0.0
 11
99.38067776950001
 21
78.1049352622
 31
0.0
  0
LINE
  5
24B
330
1F
100
AcDbEntity
  8
0
  6
Continuous
 62
     7
370
    15
100
AcDbLine
 10
99.38067776950001
 20
78.1049352622
 30
0.0
 11
99.7694153243
 21
77.85540305739999
 31
0.0
  0
LINE
  5
24C
330
1F
100
AcDbEntity
  8
0
  6
Continuous
 62
     7
370
    15
100
AcDbLine
 10
99.7694153243
 20
77.85540305739999
 30
0.0
 11
99.81491781969999
 21
78.1332273112
 31
0.0
  0
LINE
  5
24D
330
1F
100
AcDbEntity
  8
0
  6
Continuous
 62
     7
370
    15
100
AcDbLine
 10
99.81491781969999
 20
78.1332273112
 30
0.0
 11
99.47167600950001
 21
78.66058316600001
 31
0.0
  0
LINE
  5
24E
330
1F
100
AcDbEntity
  8
0
  6
Continuous
 62
     7
370
    15
100
AcDbLine
 10
99.47167600950001
 20
78.66058316600001
 30
0.0
 11
99.08293170410001
 21
78.9101147669
 31
0.0
  0
LINE
  5
24F
330
1F
100
AcDbEntity
  8
0
  6
Continuous
 62
     7
370
    15
100
AcDbLine
 10
99.08293170410001
 20
78.9101147669
 30
0.0
 11
99.03743595939999
 21
78.63229111699999
 31
0.0
  0
ARC
  5
250
330
1F
100
AcDbEntity
  8
0
  6
Continuous
 62
     7
370
    15
100
AcDbCircle
 10
110.1100896877
 20
84.9611818228
 30
0.0
 40
13.01704003148781
100
AcDbArc
 50
204.7339460047
 51
206.4314178533
  0
LINE
  5
251
330
1F
100
AcDbEntity
  8
0
  6
Continuous
 62
     7
370
    15
100
AcDbLine
 10
98.45374933049999
 20
79.1669553294
 30
0.0
 11
98.61843013899999
 21
78.9139409346
 31
0.0
  0
LINE
  5
252
330
1F
100
AcDbEntity
  8
0
  6
Continuous
 62
     7
370
    15
100
AcDbLine
 10
98.61843013899999
 20
78.9139409346
 30
0.0
 11
99.00717444450002
 21
78.66440933369999
 31
0.0
  0
LINE
  5
253
330
1F
100
AcDbEntity
  8
0
  6
Continuous
 62
     7
370
    15
100
AcDbLine
 10
99.00717444450002
 20
78.66440933369999
 30
0.0
 11
99.0526701892
 21
78.9422329837
 31
0.0
  0
LINE
  5
254
330
1F
100
AcDbEntity
  8
0
  6
Continuous
 62
     7
370
    15
100
AcDbLine
 10
99.0526701892
 20
78.9422329837
 30
0.0
 11
98.70942837900001
 21
79.4695888385
 31
0.0
  0
LINE
  5
255
330
1F
100
AcDbEntity
  8
0
  6
Continuous
 62
     7
370
    15
100
AcDbLine
 10
98.70942837900001
 20
79.4695888385
 30
0.0
 11
98.3206908242
 21
79.71912104329999
 31
0.0
  0
LINE
  5
256
330
1F
100
AcDbEntity
  8
0
  6
Continuous
 62
     7
370
    15
100
AcDbLine
 10
98.3206908242
 20
79.71912104329999
 30
0.0
 11
98.2872271217
 21
79.5147837538
 31
0.0
  0
ARC
  5
257
330
1F
100
AcDbEntity
  8
0
  6
Continuous
 62
     7
370
    15
100
AcDbCircle
 10
113.1306527992
 20
86.53568322239999
 30
0.0
 40
16.42373470611968
100
AcDbArc
 50
207.9562657627
 51
211.5427317758
  0
LINE
  5
258
330
1F
100
AcDbEntity
  8
0
  6
Continuous
 62
     7
370
    15
100
AcDbLine
 10
99.13352091310001
 20
77.9438638192
 30
0.0
 11
99.31722931759999
 21
77.82593781840001
 31
0.0
  0
LINE
  5
259
330
1F
100
AcDbEntity
  8
0
  6
Continuous
 62
     7
370
    15
100
AcDbLine
 10
99.31722931759999
 20
77.82593781840001
 30
0.0
 11
99.3627249356
 21
78.1037688289
 31
0.0
  0
LINE
  5
25A
330
1F
100
AcDbEntity
  8
0
  6
Continuous
 62
     7
370
    15
100
AcDbLine
 10
99.3627249356
 20
78.1037688289
 30
0.0
 11
99.01948335
 21
78.63112462470001
 31
0.0
  0
LINE
  5
25B
330
1F
100
AcDbEntity
  8
0
  6
Continuous
 62
     7
370
    15
100
AcDbLine
 10
99.01948335
 20
78.63112462470001
 30
0.0
 11
98.63073904450001
 21
78.8806562256
 31
0.0
  0
LINE
  5
25C
330
1F
100
AcDbEntity
  8
0
  6
Continuous
 62
     7
370
    15
100
AcDbLine
 10
98.63073904450001
 20
78.8806562256
 30
0.0
 11
98.6234745435
 21
78.8362780017
 31
0.0
  0
LINE
  5
25D
330
1F
100
AcDbEntity
  8
0
  6
Continuous
 62
     7
370
    15
100
AcDbLine
 10
102.2168868107
 20
76.24602260839999
 30
0.0
 11
101.8281491997
 21
76.4955548281
 31
0.0
  0
LINE
  5
25E
330
1F
100
AcDbEntity
  8
0
  6
Continuous
 62
     7
370
    15
100
AcDbLine
 10
101.8281491997
 20
76.4955548281
 30
0.0
 11
101.7826467044
 21
76.2177305742
 31
0.0
  0
LINE
  5
25F
330
1F
100
AcDbEntity
  8
0
  6
Continuous
 62
     7
370
    15
100
AcDbLine
 10
101.7826467044
 20
76.2177305742
 30
0.0
 11
102.1258885145
 21
75.69037471939999
 31
0.0
  0
LINE
  5
260
330
1F
100
AcDbEntity
  8
0
  6
Continuous
 62
     7
370
    15
100
AcDbLine
 10
102.1258885145
 20
75.69037471939999
 30
0.0
 11
102.5146327077
 21
75.440843148
 31
0.0
  0
LINE
  5
261
330
1F
100
AcDbEntity
  8
0
  6
Continuous
 62
     7
370
    15
100
AcDbLine
 10
102.5146327077
 20
75.440843148
 30
0.0
 11
102.5601285646
 21
75.7186667684
 31
0.0
  0
LINE
  5
262
330
1F
100
AcDbEntity
  8
0
  6
Continuous
 62
     7
370
    15
100
AcDbLine
 10
102.5601285646
 20
75.7186667684
 30
0.0
 11
102.2168868107
 21
76.24602260839999
 31
0.0
  0
LINE
  5
263
330
1F
100
AcDbEntity
  8
0
  6
Continuous
 62
     7
370
    15
100
AcDbLine
 10
101.0612216774
 20
77.3172160846
 30
0.0
 11
101.0157257082
 21
77.03939249369999
 31
0.0
  0
LINE
  5
264
330
1F
100
AcDbEntity
  8
0
  6
Continuous
 62
     7
370
    15
100
AcDbLine
 10
101.0157257082
 20
77.03939249369999
 30
0.0
 11
101.3589675183
 21
76.5120366389
 31
0.0
  0
LINE
  5
265
330
1F
100
AcDbEntity
  8
0
  6
Continuous
 62
     7
370
    15
100
AcDbLine
 10
101.3589675183
 20
76.5120366389
 30
0.0
 11
101.7477051854
 21
76.26250440449999
 31
0.0
  0
LINE
  5
266
330
1F
100
AcDbEntity
  8
0
  6
Continuous
 62
     7
370
    15
100
AcDbLine
 10
101.7477051854
 20
76.26250440449999
 30
0.0
 11
101.7932075685
 21
76.5403286879
 31
0.0
  0
LINE
  5
267
330
1F
100
AcDbEntity
  8
0
  6
Continuous
 62
     7
370
    15
100
AcDbLine
 10
101.7932075685
 20
76.5403286879
 30
0.0
 11
101.4499657584
 21
77.06768454270001
 31
0.0
  0
LINE
  5
268
330
1F
100
AcDbEntity
  8
0
  6
Continuous
 62
     7
370
    15
100
AcDbLine
 10
101.4499657584
 20
77.06768454270001
 30
0.0
 11
101.0612216774
 21
77.3172160846
 31
0.0
  0
LINE
  5
269
330
1F
100
AcDbEntity
  8
0
  6
Continuous
 62
     7
370
    15
100
AcDbLine
 10
100.9996001993
 20
77.0081379478
 30
0.0
 11
100.6108561183
 21
77.25766948970001
 31
0.0
  0
LINE
  5
26A
330
1F
100
AcDbEntity
  8
0
  6
Continuous
 62
     7
370
    15
100
AcDbLine
 10
100.6108561183
 20
77.25766948970001
 30
0.0
 11
100.5653601491
 21
76.9798458988
 31
0.0
  0
LINE
  5
26B
330
1F
100
AcDbEntity
  8
0
  6
Continuous
 62
     7
370
    15
100
AcDbLine
 10
100.5653601491
 20
76.9798458988
 30
0.0
 11
100.9086019592
 21
76.452490044
 31
0.0
  0
LINE
  5
26C
330
1F
100
AcDbEntity
  8
0
  6
Continuous
 62
     7
370
    15
100
AcDbLine
 10
100.9086019592
 20
76.452490044
 30
0.0
 11
101.2973461524
 21
76.2029584726
 31
0.0
  0
LINE
  5
26D
330
1F
100
AcDbEntity
  8
0
  6
Continuous
 62
     7
370
    15
100
AcDbLine
 10
101.2973461524
 20
76.2029584726
 30
0.0
 11
101.3428420094
 21
76.480782093
 31
0.0
  0
LINE
  5
26E
330
1F
100
AcDbEntity
  8
0
  6
Continuous
 62
     7
370
    15
100
AcDbLine
 10
101.3428420094
 20
76.480782093
 30
0.0
 11
100.9996001993
 21
77.0081379478
 31
0.0
  0
LINE
  5
26F
330
1F
100
AcDbEntity
  8
0
  6
Continuous
 62
     7
370
    15
100
AcDbLine
 10
99.8043568433
 20
77.81062922699999
 30
0.0
 11
100.1475986534
 21
77.2832733722
 31
0.0
  0
LINE
  5
270
330
1F
100
AcDbEntity
  8
0
  6
Continuous
 62
     7
370
    15
100
AcDbLine
 10
100.1475986534
 20
77.2832733722
 30
0.0
 11
100.5363429588
 21
77.0337417713
 31
0.0
  0
LINE
  5
271
330
1F
100
AcDbEntity
  8
0
  6
Continuous
 62
     7
370
    15
100
AcDbLine
 10
100.5363429588
 20
77.0337417713
 30
0.0
 11
100.5818387035
 21
77.3115654212
 31
0.0
  0
LINE
  5
272
330
1F
100
AcDbEntity
  8
0
  6
Continuous
 62
     7
370
    15
100
AcDbLine
 10
100.5818387035
 20
77.3115654212
 30
0.0
 11
100.2385968934
 21
77.83892127600001
 31
0.0
  0
LINE
  5
273
330
1F
100
AcDbEntity
  8
0
  6
Continuous
 62
     7
370
    15
100
AcDbLine
 10
100.2385968934
 20
77.83892127600001
 30
0.0
 11
99.84985933860002
 21
78.0884534809
 31
0.0
  0
LINE
  5
274
330
1F
100
AcDbEntity
  8
0
  6
Continuous
 62
     7
370
    15
100
AcDbLine
 10
99.84985933860002
 20
78.0884534809
 30
0.0
 11
99.8043568433
 21
77.81062922699999
 31
0.0
  0
LINE
  5
275
330
1F
100
AcDbEntity
  8
0
  6
Continuous
 62
     7
370
    15
100
AcDbLine
 10
99.35216418370002
 20
77.7811706856
 30
0.0
 11
99.69541264660001
 21
77.2538081332
 31
0.0
  0
LINE
  5
276
330
1F
100
AcDbEntity
  8
0
  6
Continuous
 62
     7
370
    15
100
AcDbLine
 10
99.69541264660001
 20
77.2538081332
 30
0.0
 11
100.0841500747
 21
77.004283289
 31
0.0
  0
LINE
  5
277
330
1F
100
AcDbEntity
  8
0
  6
Continuous
 62
     7
370
    15
100
AcDbLine
 10
100.0841500747
 20
77.004283289
 30
0.0
 11
100.1296525701
 21
77.2821075429
 31
0.0
  0
LINE
  5
278
330
1F
100
AcDbEntity
  8
0
  6
Continuous
 62
     7
370
    15
100
AcDbLine
 10
100.1296525701
 20
77.2821075429
 30
0.0
 11
99.78640423379999
 21
77.8094627347
 31
0.0
  0
LINE
  5
279
330
1F
100
AcDbEntity
  8
0
  6
Continuous
 62
     7
370
    15
100
AcDbLine
 10
99.78640423379999
 20
77.8094627347
 30
0.0
 11
99.397666679
 21
78.0589949395
 31
0.0
  0
LINE
  5
27A
330
1F
100
AcDbEntity
  8
0
  6
Continuous
 62
     7
370
    15
100
AcDbLine
 10
99.397666679
 20
78.0589949395
 30
0.0
 11
99.35216418370002
 21
77.7811706856
 31
0.0
  0
LINE
  5
27B
330
1F
100
AcDbEntity
  8
0
  6
Continuous
 62
     7
370
    15
100
AcDbLine
 10
100.1131676163
 20
76.95037999680001
 30
0.0
 11
100.4564094264
 21
76.423024142
 31
0.0
  0
LINE
  5
27C
330
1F
100
AcDbEntity
  8
0
  6
Continuous
 62
     7
370
    15
100
AcDbLine
 10
100.4564094264
 20
76.423024142
 30
0.0
 11
100.8451535073
 21
76.17349260010001
 31
0.0
  0
LINE
  5
27D
330
1F
100
AcDbEntity
  8
0
  6
Continuous
 62
     7
370
    15
100
AcDbLine
 10
100.8451535073
 20
76.17349260010001
 30
0.0
 11
100.8906494765
 21
76.451316191
 31
0.0
  0
LINE
  5
27E
330
1F
100
AcDbEntity
  8
0
  6
Continuous
 62
     7
370
    15
100
AcDbLine
 10
100.8906494765
 20
76.451316191
 30
0.0
 11
100.5474076664
 21
76.97867204579999
 31
0.0
  0
LINE
  5
27F
330
1F
100
AcDbEntity
  8
0
  6
Continuous
 62
     7
370
    15
100
AcDbLine
 10
100.5474076664
 20
76.97867204579999
 30
0.0
 11
100.158663361
 21
77.22820364669999
 31
0.0
  0
LINE
  5
280
330
1F
100
AcDbEntity
  8
0
  6
Continuous
 62
     7
370
    15
100
AcDbLine
 10
100.158663361
 20
77.22820364669999
 30
0.0
 11
100.1131676163
 21
76.95037999680001
 31
0.0
  0
LINE
  5
281
330
1F
100
AcDbEntity
  8
0
  6
Continuous
 62
     7
370
    15
100
AcDbLine
 10
100.8876011077
 20
76.133554321
 30
0.0
 11
101.2308494439
 21
75.6061991291
 31
0.0
  0
LINE
  5
282
330
1F
100
AcDbEntity
  8
0
  6
Continuous
 62
     7
370
    15
100
AcDbLine
 10
101.2308494439
 20
75.6061991291
 30
0.0
 11
101.6195869987
 21
75.3566669243
 31
0.0
  0
LINE
  5
283
330
1F
100
AcDbEntity
  8
0
  6
Continuous
 62
     7
370
    15
100
AcDbLine
 10
101.6195869987
 20
75.3566669243
 30
0.0
 11
101.6650893818
 21
75.63449120770001
 31
0.0
  0
LINE
  5
284
330
1F
100
AcDbEntity
  8
0
  6
Continuous
 62
     7
370
    15
100
AcDbLine
 10
101.6650893818
 20
75.63449120770001
 30
0.0
 11
101.3218411578
 21
76.16184637
 31
0.0
  0
LINE
  5
285
330
1F
100
AcDbEntity
  8
0
  6
Continuous
 62
     7
370
    15
100
AcDbLine
 10
101.3218411578
 20
76.16184637
 30
0.0
 11
100.9331033785
 21
76.4113786339
 31
0.0
  0
LINE
  5
286
330
1F
100
AcDbEntity
  8
0
  6
Continuous
 62
     7
370
    15
100
AcDbLine
 10
100.9331033785
 20
76.4113786339
 30
0.0
 11
100.8876011077
 21
76.133554321
 31
0.0
  0
ARC
  5
287
330
1F
100
AcDbEntity
  8
0
  6
Continuous
 62
     7
370
    15
100
AcDbCircle
 10
116.019100185
 20
88.3669455851
 30
0.0
 40
19.8448368028821
100
AcDbArc
 50
214.624283144
 51
217.9826152084
  0
LINE
  5
288
330
1F
100
AcDbEntity
  8
0
  6
Continuous
 62
     7
370
    15
100
AcDbLine
 10
100.377448983
 20
76.153989538
 30
0.0
 11
100.3929608477
 21
76.1440340588
 31
0.0
  0
LINE
  5
289
330
1F
100
AcDbEntity
  8
0
  6
Continuous
 62
     7
370
    15
100
AcDbLine
 10
100.3929608477
 20
76.1440340588
 30
0.0
 11
100.4384565924
 21
76.4218577087
 31
0.0
  0
LINE
  5
28A
330
1F
100
AcDbEntity
  8
0
  6
Continuous
 62
     7
370
    15
100
AcDbLine
 10
100.4384565924
 20
76.4218577087
 30
0.0
 11
100.0952147823
 21
76.9492135635
 31
0.0
  0
LINE
  5
28B
330
1F
100
AcDbEntity
  8
0
  6
Continuous
 62
     7
370
    15
100
AcDbLine
 10
100.0952147823
 20
76.9492135635
 30
0.0
 11
99.70647722750001
 21
77.1987457683
 31
0.0
  0
LINE
  5
28C
330
1F
100
AcDbEntity
  8
0
  6
Continuous
 62
     7
370
    15
100
AcDbLine
 10
99.70647722750001
 20
77.1987457683
 30
0.0
 11
99.6888706896
 21
77.0912570313
 31
0.0
  0
LINE
  5
28D
330
1F
100
AcDbEntity
  8
0
  6
Continuous
 62
     7
370
    15
100
AcDbLine
 10
101.3304540448
 20
76.1882720328
 30
0.0
 11
101.6737022688
 21
75.66091687050001
 31
0.0
  0
LINE
  5
28E
330
1F
100
AcDbEntity
  8
0
  6
Continuous
 62
     7
370
    15
100
AcDbLine
 10
101.6737022688
 20
75.66091687050001
 30
0.0
 11
102.0624399358
 21
75.4113846362
 31
0.0
  0
LINE
  5
28F
330
1F
100
AcDbEntity
  8
0
  6
Continuous
 62
     7
370
    15
100
AcDbLine
 10
102.0624399358
 20
75.4113846362
 30
0.0
 11
102.1079423189
 21
75.68920891960001
 31
0.0
  0
LINE
  5
290
330
1F
100
AcDbEntity
  8
0
  6
Continuous
 62
     7
370
    15
100
AcDbLine
 10
102.1079423189
 20
75.68920891960001
 30
0.0
 11
101.7646940949
 21
76.21656408189998
 31
0.0
  0
LINE
  5
291
330
1F
100
AcDbEntity
  8
0
  6
Continuous
 62
     7
370
    15
100
AcDbLine
 10
101.7646940949
 20
76.21656408189998
 30
0.0
 11
101.3759564279
 21
76.46609631619999
 31
0.0
  0
LINE
  5
292
330
1F
100
AcDbEntity
  8
0
  6
Continuous
 62
     7
370
    15
100
AcDbLine
 10
101.3759564279
 20
76.46609631619999
 30
0.0
 11
101.3304540448
 21
76.1882720328
 31
0.0
  0
LINE
  5
293
330
1F
100
AcDbEntity
  8
0
  6
Continuous
 62
     7
370
    15
100
AcDbLine
 10
102.097381567
 20
75.3666107763
 30
0.0
 11
102.4406233772
 21
74.8392549215
 31
0.0
  0
LINE
  5
294
330
1F
100
AcDbEntity
  8
0
  6
Continuous
 62
     7
370
    15
100
AcDbLine
 10
102.4406233772
 20
74.8392549215
 30
0.0
 11
102.8293674581
 21
74.5897233796
 31
0.0
  0
LINE
  5
295
330
1F
100
AcDbEntity
  8
0
  6
Continuous
 62
     7
370
    15
100
AcDbLine
 10
102.8293674581
 20
74.5897233796
 30
0.0
 11
102.8748633712
 21
74.86754698529999
 31
0.0
  0
LINE
  5
296
330
1F
100
AcDbEntity
  8
0
  6
Continuous
 62
     7
370
    15
100
AcDbLine
 10
102.8748633712
 20
74.86754698529999
 30
0.0
 11
102.5316216172
 21
75.3949028253
 31
0.0
  0
LINE
  5
297
330
1F
100
AcDbEntity
  8
0
  6
Continuous
 62
     7
370
    15
100
AcDbLine
 10
102.5316216172
 20
75.3949028253
 30
0.0
 11
102.142877424
 21
75.6444343967
 31
0.0
  0
LINE
  5
298
330
1F
100
AcDbEntity
  8
0
  6
Continuous
 62
     7
370
    15
100
AcDbLine
 10
102.142877424
 20
75.6444343967
 30
0.0
 11
102.097381567
 21
75.3666107763
 31
0.0
  0
LINE
  5
299
330
1F
100
AcDbEntity
  8
0
  6
Continuous
 62
     7
370
    15
100
AcDbLine
 10
102.4121164442
 20
74.5154836473
 30
0.0
 11
102.7553582543
 21
73.9881277925
 31
0.0
  0
LINE
  5
29A
330
1F
100
AcDbEntity
  8
0
  6
Continuous
 62
     7
370
    15
100
AcDbLine
 10
102.7553582543
 20
73.9881277925
 30
0.0
 11
103.1441024475
 21
73.7385962211
 31
0.0
  0
LINE
  5
29B
330
1F
100
AcDbEntity
  8
0
  6
Continuous
 62
     7
370
    15
100
AcDbLine
 10
103.1441024475
 20
73.7385962211
 30
0.0
 11
103.1895983045
 21
74.0164198415
 31
0.0
  0
LINE
  5
29C
330
1F
100
AcDbEntity
  8
0
  6
Continuous
 62
     7
370
    15
100
AcDbLine
 10
103.1895983045
 20
74.0164198415
 30
0.0
 11
102.8463563676
 21
74.54378305689999
 31
0.0
  0
LINE
  5
29D
330
1F
100
AcDbEntity
  8
0
  6
Continuous
 62
     7
370
    15
100
AcDbLine
 10
102.8463563676
 20
74.54378305689999
 30
0.0
 11
102.4576124134
 21
74.7933072382
 31
0.0
  0
LINE
  5
29E
330
1F
100
AcDbEntity
  8
0
  6
Continuous
 62
     7
370
    15
100
AcDbLine
 10
102.4576124134
 20
74.7933072382
 30
0.0
 11
102.4121164442
 21
74.5154836473
 31
0.0
  0
LINE
  5
29F
330
1F
100
AcDbEntity
  8
0
  6
Continuous
 62
     7
370
    15
100
AcDbLine
 10
101.6451890342
 20
75.33714487430001
 30
0.0
 11
101.9884306198
 21
74.80978907859999
 31
0.0
  0
LINE
  5
2A0
330
1F
100
AcDbEntity
  8
0
  6
Continuous
 62
     7
370
    15
100
AcDbLine
 10
101.9884306198
 20
74.80978907859999
 30
0.0
 11
102.3771749252
 21
74.5602574776
 31
0.0
  0
LINE
  5
2A1
330
1F
100
AcDbEntity
  8
0
  6
Continuous
 62
     7
370
    15
100
AcDbLine
 10
102.3771749252
 20
74.5602574776
 30
0.0
 11
102.4226707822
 21
74.838081098
 31
0.0
  0
LINE
  5
2A2
330
1F
100
AcDbEntity
  8
0
  6
Continuous
 62
     7
370
    15
100
AcDbLine
 10
102.4226707822
 20
74.838081098
 30
0.0
 11
102.0794289721
 21
75.36543695279999
 31
0.0
  0
LINE
  5
2A3
330
1F
100
AcDbEntity
  8
0
  6
Continuous
 62
     7
370
    15
100
AcDbLine
 10
102.0794289721
 20
75.36543695279999
 30
0.0
 11
101.690691305
 21
75.6149691872
 31
0.0
  0
LINE
  5
2A4
330
1F
100
AcDbEntity
  8
0
  6
Continuous
 62
     7
370
    15
100
AcDbLine
 10
101.690691305
 20
75.6149691872
 30
0.0
 11
101.6451890342
 21
75.33714487430001
 31
0.0
  0
ARC
  5
2A5
330
1F
100
AcDbEntity
  8
0
  6
Continuous
 62
     7
370
    15
100
AcDbCircle
 10
114.2190708489
 20
86.77344226749999
 30
0.0
 40
17.44029145597339
100
AcDbArc
 50
223.011882642
 51
223.8266531451
  0
LINE
  5
2A6
330
1F
100
AcDbEntity
  8
0
  6
Continuous
 62
     7
370
    15
100
AcDbLine
 10
101.6369788043
 20
74.6964092772
 30
0.0
 11
101.9343218759
 21
74.50553979529999
 31
0.0
  0
LINE
  5
2A7
330
1F
100
AcDbEntity
  8
0
  6
Continuous
 62
     7
370
    15
100
AcDbLine
 10
101.9343218759
 20
74.50553979529999
 30
0.0
 11
101.9798178451
 21
74.7833633862
 31
0.0
  0
LINE
  5
2A8
330
1F
100
AcDbEntity
  8
0
  6
Continuous
 62
     7
370
    15
100
AcDbLine
 10
101.9798178451
 20
74.7833633862
 30
0.0
 11
101.636576035
 21
75.310719241
 31
0.0
  0
LINE
  5
2A9
330
1F
100
AcDbEntity
  8
0
  6
Continuous
 62
     7
370
    15
100
AcDbLine
 10
101.636576035
 20
75.310719241
 30
0.0
 11
101.2478384802
 21
75.56025144580001
 31
0.0
  0
LINE
  5
2AA
330
1F
100
AcDbEntity
  8
0
  6
Continuous
 62
     7
370
    15
100
AcDbLine
 10
101.2478384802
 20
75.56025144580001
 30
0.0
 11
101.2023359848
 21
75.2824271919
 31
0.0
  0
LINE
  5
2AB
330
1F
100
AcDbEntity
  8
0
  6
Continuous
 62
     7
370
    15
100
AcDbLine
 10
101.2023359848
 20
75.2824271919
 30
0.0
 11
101.4665161727
 21
74.8765470717
 31
0.0
  0
ARC
  5
2AC
330
1F
100
AcDbEntity
  8
0
  6
Continuous
 62
     7
370
    15
100
AcDbCircle
 10
115.8070649875
 20
88.1928703912
 30
0.0
 40
19.57054314521715
100
AcDbArc
 50
218.6457523684
 51
220.5030196282
  0
LINE
  5
2AD
330
1F
100
AcDbEntity
  8
0
  6
Continuous
 62
     7
370
    15
100
AcDbLine
 10
100.9261771014
 20
75.4820350638
 30
0.0
 11
101.167400992
 21
75.3272016853
 31
0.0
  0
LINE
  5
2AE
330
1F
100
AcDbEntity
  8
0
  6
Continuous
 62
     7
370
    15
100
AcDbLine
 10
101.167400992
 20
75.3272016853
 30
0.0
 11
101.2128967367
 21
75.60502533520001
 31
0.0
  0
LINE
  5
2AF
330
1F
100
AcDbEntity
  8
0
  6
Continuous
 62
     7
370
    15
100
AcDbLine
 10
101.2128967367
 20
75.60502533520001
 30
0.0
 11
100.8696549266
 21
76.13238119
 31
0.0
  0
LINE
  5
2B0
330
1F
100
AcDbEntity
  8
0
  6
Continuous
 62
     7
370
    15
100
AcDbLine
 10
100.8696549266
 20
76.13238119
 30
0.0
 11
100.4809108456
 21
76.3819127319
 31
0.0
  0
LINE
  5
2B1
330
1F
100
AcDbEntity
  8
0
  6
Continuous
 62
     7
370
    15
100
AcDbLine
 10
100.4809108456
 20
76.3819127319
 30
0.0
 11
100.4354148764
 21
76.104089141
 31
0.0
  0
LINE
  5
2B2
330
1F
100
AcDbEntity
  8
0
  6
Continuous
 62
     7
370
    15
100
AcDbLine
 10
100.4354148764
 20
76.104089141
 30
0.0
 11
100.5220395138
 21
75.9709983878
 31
0.0
  0
ARC
  5
2B3
330
1F
100
AcDbEntity
  8
0
  6
Continuous
 62
     7
370
    15
100
AcDbCircle
 10
111.8617839533
 20
84.36517378259999
 30
0.0
 40
14.06975800251844
100
AcDbArc
 50
226.4376056144
 51
228.9639834615
  0
LINE
  5
2B4
330
1F
100
AcDbEntity
  8
0
  6
Continuous
 62
     7
370
    15
100
AcDbLine
 10
102.6245190878
 20
73.75239714050001
 30
0.0
 11
102.6919096757
 21
73.70913770930001
 31
0.0
  0
LINE
  5
2B5
330
1F
100
AcDbEntity
  8
0
  6
Continuous
 62
     7
370
    15
100
AcDbLine
 10
102.6919096757
 20
73.70913770930001
 30
0.0
 11
102.7374055326
 21
73.98696132970001
 31
0.0
  0
LINE
  5
2B6
330
1F
100
AcDbEntity
  8
0
  6
Continuous
 62
     7
370
    15
100
AcDbLine
 10
102.7374055326
 20
73.98696132970001
 30
0.0
 11
102.3941638348
 21
74.5143171549
 31
0.0
  0
LINE
  5
2B7
330
1F
100
AcDbEntity
  8
0
  6
Continuous
 62
     7
370
    15
100
AcDbLine
 10
102.3941638348
 20
74.5143171549
 30
0.0
 11
102.0054195293
 21
74.76384875589999
 31
0.0
  0
LINE
  5
2B8
330
1F
100
AcDbEntity
  8
0
  6
Continuous
 62
     7
370
    15
100
AcDbLine
 10
102.0054195293
 20
74.76384875589999
 30
0.0
 11
101.9599237846
 21
74.48602510589999
 31
0.0
  0
LINE
  5
2B9
330
1F
100
AcDbEntity
  8
0
  6
Continuous
 62
     7
370
    15
100
AcDbLine
 10
101.9599237846
 20
74.48602510589999
 30
0.0
 11
102.1656933644
 21
74.169884795
 31
0.0
  0
ARC
  5
2BA
330
1F
100
AcDbEntity
  8
0
  6
Continuous
 62
     7
370
    15
100
AcDbCircle
 10
109.6335209304
 20
81.7385665313
 30
0.0
 40
10.62519807992356
100
AcDbArc
 50
229.4563340889
 51
234.6677690427
  0
LINE
  5
2BB
330
1F
100
AcDbEntity
  8
0
  6
Continuous
 62
     7
370
    15
100
AcDbLine
 10
103.4887920778
 20
73.07039823770001
 30
0.0
 11
103.5043330549
 21
73.16530007309999
 31
0.0
  0
LINE
  5
2BC
330
1F
100
AcDbEntity
  8
0
  6
Continuous
 62
     7
370
    15
100
AcDbLine
 10
103.5043330549
 20
73.16530007309999
 30
0.0
 11
103.1610913571
 21
73.69265589840001
 31
0.0
  0
LINE
  5
2BD
330
1F
100
AcDbEntity
  8
0
  6
Continuous
 62
     7
370
    15
100
AcDbLine
 10
103.1610913571
 20
73.69265589840001
 30
0.0
 11
102.7723471639
 21
73.94218746979999
 31
0.0
  0
LINE
  5
2BE
330
1F
100
AcDbEntity
  8
0
  6
Continuous
 62
     7
370
    15
100
AcDbLine
 10
102.7723471639
 20
73.94218746979999
 30
0.0
 11
102.7268513069
 21
73.66436384939999
 31
0.0
  0
LINE
  5
2BF
330
1F
100
AcDbEntity
  8
0
  6
Continuous
 62
     7
370
    15
100
AcDbLine
 10
106.2050472253
 20
73.04968806479999
 30
0.0
 11
106.2505181631
 21
73.3273461965
 31
0.0
  0
LINE
  5
2C0
330
1F
100
AcDbEntity
  8
0
  6
Continuous
 62
     7
370
    15
100
AcDbLine
 10
106.331529674
 20
72.85536055899999
 30
0.0
 11
106.2050472253
 21
73.04968806479999
 31
0.0
  0
ARC
  5
2C1
330
1F
100
AcDbEntity
  8
0
  6
Continuous
 62
     7
370
    15
100
AcDbCircle
 10
105.7400713348
 20
73.13697302459999
 30
0.0
 40
0.6550790393368917
100
AcDbArc
 50
334.5393684715
 51
342.2688695521
  0
LINE
  5
2C2
330
1F
100
AcDbEntity
  8
0
  6
Continuous
 62
     7
370
    15
100
AcDbLine
 10
97.7438204819
 20
82.05570521129999
 30
0.0
 11
97.5876534446
 21
82.1559509012
 31
0.0
  0
LINE
  5
2C3
330
1F
100
AcDbEntity
  8
0
  6
Continuous
 62
     7
370
    15
100
AcDbLine
 10
97.78931645110001
 20
82.33352880220001
 30
0.0
 11
97.7438204819
 21
82.05570521129999
 31
0.0
  0
LINE
  5
2C4
330
1F
100
AcDbEntity
  8
0
  6
Continuous
 62
     7
370
    15
100
AcDbLine
 10
97.66283400230001
 20
82.5278563081
 30
0.0
 11
97.78931645110001
 21
82.33352880220001
 31
0.0
  0
ARC
  5
2C5
330
1F
100
AcDbEntity
  8
0
  6
Continuous
 62
     7
370
    15
100
AcDbCircle
 10
98.48098907169999
 20
82.16891495909999
 30
0.0
 40
0.8934296892067688
100
AcDbArc
 50
156.3119567209
 51
180.8314161471
  0
LINE
  5
2C6
330
1F
100
AcDbEntity
  8
0
  6
Continuous
 62
     7
370
    15
100
AcDbLine
 10
97.93487872040001
 20
80.3118724632
 30
0.0
 11
97.8940531848
 21
80.3380843204
 31
0.0
  0
LINE
  5
2C7
330
1F
100
AcDbEntity
  8
0
  6
Continuous
 62
     7
370
    15
100
AcDbLine
 10
97.98037433840001
 20
80.5897034738
 30
0.0
 11
97.93487872040001
 21
80.3118724632
 31
0.0
  0
LINE
  5
2C8
330
1F
100
AcDbEntity
  8
0
  6
Continuous
 62
     7
370
    15
100
AcDbLine
 10
97.74789083469999
 20
80.94352406129999
 30
0.0
 11
97.98037433840001
 21
80.5897034738
 31
0.0
  0
ARC
  5
2C9
330
1F
100
AcDbEntity
  8
0
  6
Continuous
 62
     7
370
    15
100
AcDbCircle
 10
99.1589161105
 20
80.96380422020001
 30
0.0
 40
1.411171007945354
100
AcDbArc
 50
180.8234349377
 51
206.3213189463
  0
LINE
  5
2CA
330
1F
100
AcDbEntity
  8
0
  6
Continuous
 62
     7
370
    15
100
AcDbLine
 10
101.2983861195
 20
78.7796045022
 30
0.0
 11
101.3438885167
 21
79.0574287819
 31
0.0
  0
LINE
  5
2CB
330
1F
100
AcDbEntity
  8
0
  6
Continuous
 62
     7
370
    15
100
AcDbLine
 10
101.6416344137
 20
78.2522493215
 30
0.0
 11
101.2983861195
 21
78.7796045022
 31
0.0
  0
LINE
  5
2CC
330
1F
100
AcDbEntity
  8
0
  6
Continuous
 62
     7
370
    15
100
AcDbLine
 10
102.0303720527
 20
78.0027170945
 30
0.0
 11
101.6416344137
 21
78.2522493215
 31
0.0
  0
LINE
  5
2CD
330
1F
100
AcDbEntity
  8
0
  6
Continuous
 62
     7
370
    15
100
AcDbLine
 10
102.0303720527
 20
78.0027170945
 30
0.0
 11
102.0758744358
 21
78.28054137789999
 31
0.0
  0
LINE
  5
2CE
330
1F
100
AcDbEntity
  8
0
  6
Continuous
 62
     7
370
    15
100
AcDbLine
 10
102.0758744358
 20
78.28054137789999
 30
0.0
 11
101.732626029
 21
78.80790391560001
 31
0.0
  0
LINE
  5
2CF
330
1F
100
AcDbEntity
  8
0
  6
Continuous
 62
     7
370
    15
100
AcDbLine
 10
101.3438885167
 20
79.0574287819
 30
0.0
 11
101.732626029
 21
78.80790391560001
 31
0.0
  0
LINE
  5
2D0
330
1F
100
AcDbEntity
  8
0
  6
Continuous
 62
     7
370
    15
100
AcDbLine
 10
102.7926194442
 20
77.1937188122
 30
0.0
 11
102.8381153573
 21
77.47154241789999
 31
0.0
  0
LINE
  5
2D1
330
1F
100
AcDbEntity
  8
0
  6
Continuous
 62
     7
370
    15
100
AcDbLine
 10
102.8381153573
 20
77.47154241789999
 30
0.0
 11
102.4948736033
 21
77.9988982579
 31
0.0
  0
LINE
  5
2D2
330
1F
100
AcDbEntity
  8
0
  6
Continuous
 62
     7
370
    15
100
AcDbLine
 10
102.4948736033
 20
77.9988982579
 30
0.0
 11
102.1061294101
 21
78.2484298293
 31
0.0
  0
LINE
  5
2D3
330
1F
100
AcDbEntity
  8
0
  6
Continuous
 62
     7
370
    15
100
AcDbLine
 10
102.1061294101
 20
78.2484298293
 30
0.0
 11
102.0606335251
 21
77.9706062163
 31
0.0
  0
LINE
  5
2D4
330
1F
100
AcDbEntity
  8
0
  6
Continuous
 62
     7
370
    15
100
AcDbLine
 10
102.0606335251
 20
77.9706062163
 30
0.0
 11
102.4038753072
 21
77.44325036880001
 31
0.0
  0
LINE
  5
2D5
330
1F
100
AcDbEntity
  8
0
  6
Continuous
 62
     7
370
    15
100
AcDbLine
 10
102.4038753072
 20
77.44325036880001
 30
0.0
 11
102.7926194442
 21
77.1937188122
 31
0.0
  0
LINE
  5
2D6
330
1F
100
AcDbEntity
  8
0
  6
Continuous
 62
     7
370
    15
100
AcDbLine
 10
103.2617945995
 20
77.17723633840001
 30
0.0
 11
102.8730569324
 21
77.4267685727
 31
0.0
  0
LINE
  5
2D7
330
1F
100
AcDbEntity
  8
0
  6
Continuous
 62
     7
370
    15
100
AcDbLine
 10
102.8730569324
 20
77.4267685727
 30
0.0
 11
102.8289885126
 21
77.15767694659999
 31
0.0
  0
LINE
  5
2D8
330
1F
100
AcDbEntity
  8
0
  6
Continuous
 62
     7
370
    15
100
AcDbLine
 10
103.1614362952
 20
76.6468996766
 30
0.0
 11
102.8289885126
 21
77.15767694659999
 31
0.0
  0
LINE
  5
2D9
330
1F
100
AcDbEntity
  8
0
  6
Continuous
 62
     7
370
    15
100
AcDbLine
 10
103.5501804323
 20
76.39736811999999
 30
0.0
 11
103.1614362952
 21
76.6468996766
 31
0.0
  0
LINE
  5
2DA
330
1F
100
AcDbEntity
  8
0
  6
Continuous
 62
     7
370
    15
100
AcDbLine
 10
103.5942489083
 20
76.66645973129999
 30
0.0
 11
103.5501804323
 21
76.39736811999999
 31
0.0
  0
LINE
  5
2DB
330
1F
100
AcDbEntity
  8
0
  6
Continuous
 62
     7
370
    15
100
AcDbLine
 10
103.5942489083
 20
76.66645973129999
 30
0.0
 11
103.2617945995
 21
77.17723633840001
 31
0.0
  0
LINE
  5
2DC
330
1F
100
AcDbEntity
  8
0
  6
Continuous
 62
     7
370
    15
100
AcDbLine
 10
103.6183088883
 20
76.6637099502
 30
0.0
 11
104.0070530815
 21
76.4141783788
 31
0.0
  0
LINE
  5
2DD
330
1F
100
AcDbEntity
  8
0
  6
Continuous
 62
     7
370
    15
100
AcDbLine
 10
104.0070530815
 20
76.4141783788
 30
0.0
 11
104.0525489384
 21
76.6920019992
 31
0.0
  0
LINE
  5
2DE
330
1F
100
AcDbEntity
  8
0
  6
Continuous
 62
     7
370
    15
100
AcDbLine
 10
104.0525489384
 20
76.6920019992
 30
0.0
 11
103.7093071283
 21
77.21935785399999
 31
0.0
  0
LINE
  5
2DF
330
1F
100
AcDbEntity
  8
0
  6
Continuous
 62
     7
370
    15
100
AcDbLine
 10
103.7093071283
 20
77.21935785399999
 30
0.0
 11
103.3205630474
 21
77.4688893959
 31
0.0
  0
LINE
  5
2E0
330
1F
100
AcDbEntity
  8
0
  6
Continuous
 62
     7
370
    15
100
AcDbLine
 10
103.3205630474
 20
77.4688893959
 30
0.0
 11
103.2750670781
 21
77.191065805
 31
0.0
  0
LINE
  5
2E1
330
1F
100
AcDbEntity
  8
0
  6
Continuous
 62
     7
370
    15
100
AcDbLine
 10
103.2750670781
 20
77.191065805
 30
0.0
 11
103.6183088883
 21
76.6637099502
 31
0.0
  0
LINE
  5
2E2
330
1F
100
AcDbEntity
  8
0
  6
Continuous
 62
     7
370
    15
100
AcDbLine
 10
104.4762346506
 20
76.3976965975
 30
0.0
 11
104.0874905696
 21
76.6472281393
 31
0.0
  0
LINE
  5
2E3
330
1F
100
AcDbEntity
  8
0
  6
Continuous
 62
     7
370
    15
100
AcDbLine
 10
104.0874905696
 20
76.6472281393
 30
0.0
 11
104.0434220937
 21
76.378136528
 31
0.0
  0
LINE
  5
2E4
330
1F
100
AcDbEntity
  8
0
  6
Continuous
 62
     7
370
    15
100
AcDbLine
 10
104.3758764025
 20
75.8673599209
 30
0.0
 11
104.0434220937
 21
76.378136528
 31
0.0
  0
LINE
  5
2E5
330
1F
100
AcDbEntity
  8
0
  6
Continuous
 62
     7
370
    15
100
AcDbLine
 10
104.7646141818
 20
75.61782765699999
 30
0.0
 11
104.3758764025
 21
75.8673599209
 31
0.0
  0
LINE
  5
2E6
330
1F
100
AcDbEntity
  8
0
  6
Continuous
 62
     7
370
    15
100
AcDbLine
 10
104.8086824333
 20
75.88691932739999
 30
0.0
 11
104.7646141818
 21
75.61782765699999
 31
0.0
  0
LINE
  5
2E7
330
1F
100
AcDbEntity
  8
0
  6
Continuous
 62
     7
370
    15
100
AcDbLine
 10
104.8086824333
 20
75.88691932739999
 30
0.0
 11
104.4762346506
 21
76.3976965975
 31
0.0
  0
LINE
  5
2E8
330
1F
100
AcDbEntity
  8
0
  6
Continuous
 62
     7
370
    15
100
AcDbLine
 10
104.8327424132
 20
75.8841695463
 30
0.0
 11
105.2214867187
 21
75.6346379454
 31
0.0
  0
LINE
  5
2E9
330
1F
100
AcDbEntity
  8
0
  6
Continuous
 62
     7
370
    15
100
AcDbLine
 10
105.2214867187
 20
75.6346379454
 30
0.0
 11
105.2669824634
 21
75.9124615953
 31
0.0
  0
LINE
  5
2EA
330
1F
100
AcDbEntity
  8
0
  6
Continuous
 62
     7
370
    15
100
AcDbLine
 10
105.2669824634
 20
75.9124615953
 30
0.0
 11
104.9237408778
 21
76.4398173911
 31
0.0
  0
LINE
  5
2EB
330
1F
100
AcDbEntity
  8
0
  6
Continuous
 62
     7
370
    15
100
AcDbLine
 10
104.9237408778
 20
76.4398173911
 30
0.0
 11
104.5350030985
 21
76.689349655
 31
0.0
  0
LINE
  5
2EC
330
1F
100
AcDbEntity
  8
0
  6
Continuous
 62
     7
370
    15
100
AcDbLine
 10
104.5350030985
 20
76.689349655
 30
0.0
 11
104.4895008276
 21
76.411525342
 31
0.0
  0
LINE
  5
2ED
330
1F
100
AcDbEntity
  8
0
  6
Continuous
 62
     7
370
    15
100
AcDbLine
 10
104.4895008276
 20
76.411525342
 30
0.0
 11
104.8327424132
 21
75.8841695463
 31
0.0
  0
LINE
  5
2EE
330
1F
100
AcDbEntity
  8
0
  6
Continuous
 62
     7
370
    15
100
AcDbLine
 10
105.6453099931
 20
75.64727306039999
 30
0.0
 11
105.3019242069
 21
75.86768770589999
 31
0.0
  0
LINE
  5
2EF
330
1F
100
AcDbEntity
  8
0
  6
Continuous
 62
     7
370
    15
100
AcDbLine
 10
105.3019242069
 20
75.86768770589999
 30
0.0
 11
105.2578557309
 21
75.5985960946
 31
0.0
  0
LINE
  5
2F0
330
1F
100
AcDbEntity
  8
0
  6
Continuous
 62
     7
370
    15
100
AcDbLine
 10
105.5903100397
 20
75.0878194875
 30
0.0
 11
105.2578557309
 21
75.5985960946
 31
0.0
  0
LINE
  5
2F1
330
1F
100
AcDbEntity
  8
0
  6
Continuous
 62
     7
370
    15
100
AcDbLine
 10
105.7940614814
 20
74.9570310062
 30
0.0
 11
105.5903100397
 21
75.0878194875
 31
0.0
  0
LINE
  5
2F2
330
1F
100
AcDbEntity
  8
0
  6
Continuous
 62
     7
370
    15
100
AcDbLine
 10
101.7611395587
 20
79.1316685069
 30
0.0
 11
101.4178977485
 21
79.65902436170001
 31
0.0
  0
LINE
  5
2F3
330
1F
100
AcDbEntity
  8
0
  6
Continuous
 62
     7
370
    15
100
AcDbLine
 10
101.0291535834
 20
79.90855592569999
 30
0.0
 11
101.4178977485
 21
79.65902436170001
 31
0.0
  0
LINE
  5
2F4
330
1F
100
AcDbEntity
  8
0
  6
Continuous
 62
     7
370
    15
100
AcDbLine
 10
100.9836577124
 20
79.630732309
 30
0.0
 11
101.0291535834
 21
79.90855592569999
 31
0.0
  0
LINE
  5
2F5
330
1F
100
AcDbEntity
  8
0
  6
Continuous
 62
     7
370
    15
100
AcDbLine
 10
101.3268994804
 20
79.1033764653
 30
0.0
 11
100.9836577124
 21
79.630732309
 31
0.0
  0
LINE
  5
2F6
330
1F
100
AcDbEntity
  8
0
  6
Continuous
 62
     7
370
    15
100
AcDbLine
 10
101.7156371194
 20
78.8538442383
 30
0.0
 11
101.3268994804
 21
79.1033764653
 31
0.0
  0
LINE
  5
2F7
330
1F
100
AcDbEntity
  8
0
  6
Continuous
 62
     7
370
    15
100
AcDbLine
 10
101.7156371194
 20
78.8538442383
 30
0.0
 11
101.7611395587
 21
79.1316685069
 31
0.0
  0
LINE
  5
2F8
330
1F
100
AcDbEntity
  8
0
  6
Continuous
 62
     7
370
    15
100
AcDbLine
 10
101.1316698188
 20
80.83391543380001
 30
0.0
 11
100.7884280087
 21
81.3612712886
 31
0.0
  0
LINE
  5
2F9
330
1F
100
AcDbEntity
  8
0
  6
Continuous
 62
     7
370
    15
100
AcDbLine
 10
100.3996838716
 20
81.6108028452
 30
0.0
 11
100.7884280087
 21
81.3612712886
 31
0.0
  0
LINE
  5
2FA
330
1F
100
AcDbEntity
  8
0
  6
Continuous
 62
     7
370
    15
100
AcDbLine
 10
100.3541879866
 20
81.3329792322
 30
0.0
 11
100.3996838716
 21
81.6108028452
 31
0.0
  0
LINE
  5
2FB
330
1F
100
AcDbEntity
  8
0
  6
Continuous
 62
     7
370
    15
100
AcDbLine
 10
100.6974297686
 20
80.8056233848
 30
0.0
 11
100.3541879866
 21
81.3329792322
 31
0.0
  0
LINE
  5
2FC
330
1F
100
AcDbEntity
  8
0
  6
Continuous
 62
     7
370
    15
100
AcDbLine
 10
101.0861739057
 20
80.55609182819999
 30
0.0
 11
100.6974297686
 21
80.8056233848
 31
0.0
  0
LINE
  5
2FD
330
1F
100
AcDbEntity
  8
0
  6
Continuous
 62
     7
370
    15
100
AcDbLine
 10
101.0861739057
 20
80.55609182819999
 30
0.0
 11
101.1316698188
 21
80.83391543380001
 31
0.0
  0
LINE
  5
2FE
330
1F
100
AcDbEntity
  8
0
  6
Continuous
 62
     7
370
    15
100
AcDbLine
 10
100.8169349561
 20
81.6850352317
 30
0.0
 11
100.4736932583
 21
82.212391057
 31
0.0
  0
LINE
  5
2FF
330
1F
100
AcDbEntity
  8
0
  6
Continuous
 62
     7
370
    15
100
AcDbLine
 10
100.0849555912
 20
82.46192329139999
 30
0.0
 11
100.4736932583
 21
82.212391057
 31
0.0
  0
LINE
  5
300
330
1F
100
AcDbEntity
  8
0
  6
Continuous
 62
     7
370
    15
100
AcDbLine
 10
100.039453152
 20
82.18409902270002
 30
0.0
 11
100.0849555912
 21
82.46192329139999
 31
0.0
  0
LINE
  5
301
330
1F
100
AcDbEntity
  8
0
  6
Continuous
 62
     7
370
    15
100
AcDbLine
 10
100.3826949621
 20
81.65674316790001
 30
0.0
 11
100.039453152
 21
82.18409902270002
 31
0.0
  0
LINE
  5
302
330
1F
100
AcDbEntity
  8
0
  6
Continuous
 62
     7
370
    15
100
AcDbLine
 10
100.7714390992
 20
81.4072116113
 30
0.0
 11
100.3826949621
 21
81.65674316790001
 31
0.0
  0
LINE
  5
303
330
1F
100
AcDbEntity
  8
0
  6
Continuous
 62
     7
370
    15
100
AcDbLine
 10
100.7714390992
 20
81.4072116113
 30
0.0
 11
100.8169349561
 21
81.6850352317
 31
0.0
  0
LINE
  5
304
330
1F
100
AcDbEntity
  8
0
  6
Continuous
 62
     7
370
    15
100
AcDbLine
 10
102.4778846377
 20
78.04483859539999
 30
0.0
 11
102.5233805508
 21
78.322662201
 31
0.0
  0
LINE
  5
305
330
1F
100
AcDbEntity
  8
0
  6
Continuous
 62
     7
370
    15
100
AcDbLine
 10
102.5233805508
 20
78.322662201
 30
0.0
 11
102.1801387406
 21
78.85001805579999
 31
0.0
  0
LINE
  5
306
330
1F
100
AcDbEntity
  8
0
  6
Continuous
 62
     7
370
    15
100
AcDbLine
 10
102.1801387406
 20
78.85001805579999
 30
0.0
 11
101.7913946036
 21
79.0995496124
 31
0.0
  0
LINE
  5
307
330
1F
100
AcDbEntity
  8
0
  6
Continuous
 62
     7
370
    15
100
AcDbLine
 10
101.7913946036
 20
79.0995496124
 30
0.0
 11
101.7458987185
 21
78.8217259994
 31
0.0
  0
LINE
  5
308
330
1F
100
AcDbEntity
  8
0
  6
Continuous
 62
     7
370
    15
100
AcDbLine
 10
101.7458987185
 20
78.8217259994
 30
0.0
 11
102.0891405006
 21
78.29437015199999
 31
0.0
  0
LINE
  5
309
330
1F
100
AcDbEntity
  8
0
  6
Continuous
 62
     7
370
    15
100
AcDbLine
 10
102.0891405006
 20
78.29437015199999
 30
0.0
 11
102.4778846377
 21
78.04483859539999
 31
0.0
  0
LINE
  5
30A
330
1F
100
AcDbEntity
  8
0
  6
Continuous
 62
     7
370
    15
100
AcDbLine
 10
103.290308073
 20
77.50100094449999
 30
0.0
 11
102.9470661362
 21
78.02836415989999
 31
0.0
  0
LINE
  5
30B
330
1F
100
AcDbEntity
  8
0
  6
Continuous
 62
     7
370
    15
100
AcDbLine
 10
102.9470661362
 20
78.02836415989999
 30
0.0
 11
102.558322182
 21
78.27788834109999
 31
0.0
  0
LINE
  5
30C
330
1F
100
AcDbEntity
  8
0
  6
Continuous
 62
     7
370
    15
100
AcDbLine
 10
102.558322182
 20
78.27788834109999
 30
0.0
 11
102.5128262689
 21
78.0000647355
 31
0.0
  0
LINE
  5
30D
330
1F
100
AcDbEntity
  8
0
  6
Continuous
 62
     7
370
    15
100
AcDbLine
 10
102.5128262689
 20
78.0000647355
 30
0.0
 11
102.8560680229
 21
77.47270889540001
 31
0.0
  0
LINE
  5
30E
330
1F
100
AcDbEntity
  8
0
  6
Continuous
 62
     7
370
    15
100
AcDbLine
 10
102.8560680229
 20
77.47270889540001
 30
0.0
 11
103.2448056899
 21
77.2231766611
 31
0.0
  0
LINE
  5
30F
330
1F
100
AcDbEntity
  8
0
  6
Continuous
 62
     7
370
    15
100
AcDbLine
 10
103.2448056899
 20
77.2231766611
 30
0.0
 11
103.290308073
 21
77.50100094449999
 31
0.0
  0
LINE
  5
310
330
1F
100
AcDbEntity
  8
0
  6
Continuous
 62
     7
370
    15
100
AcDbLine
 10
103.3035741378
 20
77.51482971859999
 30
0.0
 11
103.6923182188
 21
77.2652981767
 31
0.0
  0
LINE
  5
311
330
1F
100
AcDbEntity
  8
0
  6
Continuous
 62
     7
370
    15
100
AcDbLine
 10
103.6923182188
 20
77.2652981767
 30
0.0
 11
103.7378140757
 21
77.5431217971
 31
0.0
  0
LINE
  5
312
330
1F
100
AcDbEntity
  8
0
  6
Continuous
 62
     7
370
    15
100
AcDbLine
 10
103.7378140757
 20
77.5431217971
 30
0.0
 11
103.3945722656
 21
78.07047765189999
 31
0.0
  0
LINE
  5
313
330
1F
100
AcDbEntity
  8
0
  6
Continuous
 62
     7
370
    15
100
AcDbLine
 10
103.3945722656
 20
78.07047765189999
 30
0.0
 11
103.0058347108
 21
78.3200098568
 31
0.0
  0
LINE
  5
314
330
1F
100
AcDbEntity
  8
0
  6
Continuous
 62
     7
370
    15
100
AcDbLine
 10
103.0058347108
 20
78.3200098568
 30
0.0
 11
102.9603323277
 21
78.0421855734
 31
0.0
  0
LINE
  5
315
330
1F
100
AcDbEntity
  8
0
  6
Continuous
 62
     7
370
    15
100
AcDbLine
 10
102.9603323277
 20
78.0421855734
 30
0.0
 11
103.3035741378
 21
77.51482971859999
 31
0.0
  0
LINE
  5
316
330
1F
100
AcDbEntity
  8
0
  6
Continuous
 62
     7
370
    15
100
AcDbLine
 10
104.5047415835
 20
76.72146787169999
 30
0.0
 11
104.1614997734
 21
77.24882372649999
 31
0.0
  0
LINE
  5
317
330
1F
100
AcDbEntity
  8
0
  6
Continuous
 62
     7
370
    15
100
AcDbLine
 10
104.1614997734
 20
77.24882372649999
 30
0.0
 11
103.7727556925
 21
77.4983552683
 31
0.0
  0
LINE
  5
318
330
1F
100
AcDbEntity
  8
0
  6
Continuous
 62
     7
370
    15
100
AcDbLine
 10
103.7727556925
 20
77.4983552683
 30
0.0
 11
103.72725985
 21
77.22052431680001
 31
0.0
  0
LINE
  5
319
330
1F
100
AcDbEntity
  8
0
  6
Continuous
 62
     7
370
    15
100
AcDbLine
 10
103.72725985
 20
77.22052431680001
 30
0.0
 11
104.0705016601
 21
76.693168462
 31
0.0
  0
LINE
  5
31A
330
1F
100
AcDbEntity
  8
0
  6
Continuous
 62
     7
370
    15
100
AcDbLine
 10
104.0705016601
 20
76.693168462
 30
0.0
 11
104.459245741
 21
76.4436369202
 31
0.0
  0
LINE
  5
31B
330
1F
100
AcDbEntity
  8
0
  6
Continuous
 62
     7
370
    15
100
AcDbLine
 10
104.459245741
 20
76.4436369202
 30
0.0
 11
104.5047415835
 21
76.72146787169999
 31
0.0
  0
LINE
  5
31C
330
1F
100
AcDbEntity
  8
0
  6
Continuous
 62
     7
370
    15
100
AcDbLine
 10
104.9569342431
 20
76.750926413
 30
0.0
 11
104.613692433
 21
77.27828226779999
 31
0.0
  0
LINE
  5
31D
330
1F
100
AcDbEntity
  8
0
  6
Continuous
 62
     7
370
    15
100
AcDbLine
 10
104.613692433
 20
77.27828226779999
 30
0.0
 11
104.2249483521
 21
77.52781380970001
 31
0.0
  0
LINE
  5
31E
330
1F
100
AcDbEntity
  8
0
  6
Continuous
 62
     7
370
    15
100
AcDbLine
 10
104.2249483521
 20
77.52781380970001
 30
0.0
 11
104.1794523829
 21
77.24999021880001
 31
0.0
  0
LINE
  5
31F
330
1F
100
AcDbEntity
  8
0
  6
Continuous
 62
     7
370
    15
100
AcDbLine
 10
104.1794523829
 20
77.24999021880001
 30
0.0
 11
104.522694193
 21
76.722634364
 31
0.0
  0
LINE
  5
320
330
1F
100
AcDbEntity
  8
0
  6
Continuous
 62
     7
370
    15
100
AcDbLine
 10
104.522694193
 20
76.722634364
 30
0.0
 11
104.9114319723
 21
76.47310210010001
 31
0.0
  0
LINE
  5
321
330
1F
100
AcDbEntity
  8
0
  6
Continuous
 62
     7
370
    15
100
AcDbLine
 10
104.9114319723
 20
76.47310210010001
 30
0.0
 11
104.9569342431
 21
76.750926413
 31
0.0
  0
LINE
  5
322
330
1F
100
AcDbEntity
  8
0
  6
Continuous
 62
     7
370
    15
100
AcDbLine
 10
105.0165964037
 20
76.69993606439999
 30
0.0
 11
104.9871891052
 21
76.71881489399999
 31
0.0
  0
LINE
  5
323
330
1F
100
AcDbEntity
  8
0
  6
Continuous
 62
     7
370
    15
100
AcDbLine
 10
104.9871891052
 20
76.71881489399999
 30
0.0
 11
104.9416934872
 21
76.44098388340001
 31
0.0
  0
LINE
  5
324
330
1F
100
AcDbEntity
  8
0
  6
Continuous
 62
     7
370
    15
100
AcDbLine
 10
104.9416934872
 20
76.44098388340001
 30
0.0
 11
105.2849352973
 21
75.9136280286
 31
0.0
  0
LINE
  5
325
330
1F
100
AcDbEntity
  8
0
  6
Continuous
 62
     7
370
    15
100
AcDbLine
 10
105.2849352973
 20
75.9136280286
 30
0.0
 11
105.6140773709
 21
75.7023609803
 31
0.0
  0
LINE
  5
326
330
1F
100
AcDbEntity
  8
0
  6
Continuous
 62
     7
370
    15
100
AcDbLine
 10
104.633714433
 20
77.29210849520001
 30
0.0
 11
104.6316386141
 21
77.2794553988
 31
0.0
  0
LINE
  5
327
330
1F
100
AcDbEntity
  8
0
  6
Continuous
 62
     7
370
    15
100
AcDbLine
 10
104.6316386141
 20
77.2794553988
 30
0.0
 11
104.9748801997
 21
76.75209960300001
 31
0.0
  0
LINE
  5
328
330
1F
100
AcDbEntity
  8
0
  6
Continuous
 62
     7
370
    15
100
AcDbLine
 10
104.9748801997
 20
76.75209960300001
 30
0.0
 11
104.9897328058
 21
76.7425681529
 31
0.0
  0
LINE
  5
329
330
1F
100
AcDbEntity
  8
0
  6
Continuous
 62
     7
370
    15
100
AcDbLine
 10
101.7774768657
 20
79.13719425859999
 30
0.0
 11
102.1662210028
 21
78.887662702
 31
0.0
  0
LINE
  5
32A
330
1F
100
AcDbEntity
  8
0
  6
Continuous
 62
     7
370
    15
100
AcDbLine
 10
102.1662210028
 20
78.887662702
 30
0.0
 11
102.211716972
 21
79.1654862929
 31
0.0
  0
LINE
  5
32B
330
1F
100
AcDbEntity
  8
0
  6
Continuous
 62
     7
370
    15
100
AcDbLine
 10
102.211716972
 20
79.1654862929
 30
0.0
 11
101.8684751619
 21
79.6928421477
 31
0.0
  0
LINE
  5
32C
330
1F
100
AcDbEntity
  8
0
  6
Continuous
 62
     7
370
    15
100
AcDbLine
 10
101.8684751619
 20
79.6928421477
 30
0.0
 11
101.4797309687
 21
79.9423737191
 31
0.0
  0
LINE
  5
32D
330
1F
100
AcDbEntity
  8
0
  6
Continuous
 62
     7
370
    15
100
AcDbLine
 10
101.4797309687
 20
79.9423737191
 30
0.0
 11
101.4342351117
 21
79.6645500986
 31
0.0
  0
LINE
  5
32E
330
1F
100
AcDbEntity
  8
0
  6
Continuous
 62
     7
370
    15
100
AcDbLine
 10
101.4342351117
 20
79.6645500986
 30
0.0
 11
101.7774768657
 21
79.13719425859999
 31
0.0
  0
LINE
  5
32F
330
1F
100
AcDbEntity
  8
0
  6
Continuous
 62
     7
370
    15
100
AcDbLine
 10
102.9331419989
 20
78.06600078249999
 30
0.0
 11
102.9786444943
 21
78.3438250363
 31
0.0
  0
LINE
  5
330
330
1F
100
AcDbEntity
  8
0
  6
Continuous
 62
     7
370
    15
100
AcDbLine
 10
102.9786444943
 20
78.3438250363
 30
0.0
 11
102.6354026842
 21
78.8711808911
 31
0.0
  0
LINE
  5
331
330
1F
100
AcDbEntity
  8
0
  6
Continuous
 62
     7
370
    15
100
AcDbLine
 10
102.6354026842
 20
78.8711808911
 30
0.0
 11
102.246658491
 21
79.1207124625
 31
0.0
  0
LINE
  5
332
330
1F
100
AcDbEntity
  8
0
  6
Continuous
 62
     7
370
    15
100
AcDbLine
 10
102.246658491
 20
79.1207124625
 30
0.0
 11
102.201162634
 21
78.8428888421
 31
0.0
  0
LINE
  5
333
330
1F
100
AcDbEntity
  8
0
  6
Continuous
 62
     7
370
    15
100
AcDbLine
 10
102.201162634
 20
78.8428888421
 30
0.0
 11
102.5444044441
 21
78.31553298729999
 31
0.0
  0
LINE
  5
334
330
1F
100
AcDbEntity
  8
0
  6
Continuous
 62
     7
370
    15
100
AcDbLine
 10
102.5444044441
 20
78.31553298729999
 30
0.0
 11
102.9331419989
 21
78.06600078249999
 31
0.0
  0
LINE
  5
335
330
1F
100
AcDbEntity
  8
0
  6
Continuous
 62
     7
370
    15
100
AcDbLine
 10
102.9947700032
 20
78.37507958229998
 30
0.0
 11
103.383507558
 21
78.1255473774
 31
0.0
  0
LINE
  5
336
330
1F
100
AcDbEntity
  8
0
  6
Continuous
 62
     7
370
    15
100
AcDbLine
 10
103.383507558
 20
78.1255473774
 30
0.0
 11
103.4290100534
 21
78.4033716313
 31
0.0
  0
LINE
  5
337
330
1F
100
AcDbEntity
  8
0
  6
Continuous
 62
     7
370
    15
100
AcDbLine
 10
103.4290100534
 20
78.4033716313
 30
0.0
 11
103.0857617170999
 21
78.9307268231
 31
0.0
  0
LINE
  5
338
330
1F
100
AcDbEntity
  8
0
  6
Continuous
 62
     7
370
    15
100
AcDbLine
 10
103.0857617170999
 20
78.9307268231
 30
0.0
 11
102.6970240501
 21
79.18025905749999
 31
0.0
  0
LINE
  5
339
330
1F
100
AcDbEntity
  8
0
  6
Continuous
 62
     7
370
    15
100
AcDbLine
 10
102.6970240501
 20
79.18025905749999
 30
0.0
 11
102.651521667
 21
78.9024347741
 31
0.0
  0
LINE
  5
33A
330
1F
100
AcDbEntity
  8
0
  6
Continuous
 62
     7
370
    15
100
AcDbLine
 10
102.651521667
 20
78.9024347741
 30
0.0
 11
102.9947700032
 21
78.37507958229998
 31
0.0
  0
LINE
  5
33B
330
1F
100
AcDbEntity
  8
0
  6
Continuous
 62
     7
370
    15
100
AcDbLine
 10
104.1900068331
 20
77.5725876401
 30
0.0
 11
103.9466858899
 21
77.94643118659999
 31
0.0
  0
LINE
  5
33C
330
1F
100
AcDbEntity
  8
0
  6
Continuous
 62
     7
370
    15
100
AcDbLine
 10
103.593896804
 20
78.2622602383
 30
0.0
 11
103.4580207175
 21
78.3494750958
 31
0.0
  0
LINE
  5
33D
330
1F
100
AcDbEntity
  8
0
  6
Continuous
 62
     7
370
    15
100
AcDbLine
 10
103.4580207175
 20
78.3494750958
 30
0.0
 11
103.4125249728
 21
78.0716514458
 31
0.0
  0
LINE
  5
33E
330
1F
100
AcDbEntity
  8
0
  6
Continuous
 62
     7
370
    15
100
AcDbLine
 10
103.4125249728
 20
78.0716514458
 30
0.0
 11
103.7557667829
 21
77.544295591
 31
0.0
  0
LINE
  5
33F
330
1F
100
AcDbEntity
  8
0
  6
Continuous
 62
     7
370
    15
100
AcDbLine
 10
103.7557667829
 20
77.544295591
 30
0.0
 11
104.1445108639
 21
77.29476404919999
 31
0.0
  0
LINE
  5
340
330
1F
100
AcDbEntity
  8
0
  6
Continuous
 62
     7
370
    15
100
AcDbLine
 10
104.1445108639
 20
77.29476404919999
 30
0.0
 11
104.1900068331
 21
77.5725876401
 31
0.0
  0
LINE
  5
341
330
1F
100
AcDbEntity
  8
0
  6
Continuous
 62
     7
370
    15
100
AcDbLine
 10
103.9620884641
 20
77.9515122263
 30
0.0
 11
104.2079594425
 21
77.5737541324
 31
0.0
  0
LINE
  5
342
330
1F
100
AcDbEntity
  8
0
  6
Continuous
 62
     7
370
    15
100
AcDbLine
 10
104.2079594425
 20
77.5737541324
 30
0.0
 11
104.5967033968
 21
77.3242299512
 31
0.0
  0
LINE
  5
343
330
1F
100
AcDbEntity
  8
0
  6
Continuous
 62
     7
370
    15
100
AcDbLine
 10
104.5967033968
 20
77.3242299512
 30
0.0
 11
104.5997879982
 21
77.3430710485
 31
0.0
  0
LINE
  5
344
330
1F
100
AcDbEntity
  8
0
  6
Continuous
 62
     7
370
    15
100
AcDbLine
 10
103.1841601065
 20
78.80829886009999
 30
0.0
 11
103.4469560099
 21
78.40454482130001
 31
0.0
  0
LINE
  5
345
330
1F
100
AcDbEntity
  8
0
  6
Continuous
 62
     7
370
    15
100
AcDbLine
 10
103.4469560099
 20
78.40454482130001
 30
0.0
 11
103.5275870243
 21
78.35279227779999
 31
0.0
  0
LINE
  5
346
330
1F
100
AcDbEntity
  8
0
  6
Continuous
 62
     7
370
    15
100
AcDbLine
 10
102.3438315265
 20
79.83758515979999
 30
0.0
 11
102.3292808207
 21
79.7487263223
 31
0.0
  0
LINE
  5
347
330
1F
100
AcDbEntity
  8
0
  6
Continuous
 62
     7
370
    15
100
AcDbLine
 10
102.3292808207
 20
79.7487263223
 30
0.0
 11
102.6725225185
 21
79.22137049709999
 31
0.0
  0
LINE
  5
348
330
1F
100
AcDbEntity
  8
0
  6
Continuous
 62
     7
370
    15
100
AcDbLine
 10
102.6725225185
 20
79.22137049709999
 30
0.0
 11
103.0522145673
 21
78.9776478661
 31
0.0
  0
LINE
  5
349
330
1F
100
AcDbEntity
  8
0
  6
Continuous
 62
     7
370
    15
100
AcDbLine
 10
102.6639095049
 20
79.19495219489999
 30
0.0
 11
102.320667807
 21
79.7223080201
 31
0.0
  0
LINE
  5
34A
330
1F
100
AcDbEntity
  8
0
  6
Continuous
 62
     7
370
    15
100
AcDbLine
 10
102.320667807
 20
79.7223080201
 30
0.0
 11
101.9319236138
 21
79.9718395915
 31
0.0
  0
LINE
  5
34B
330
1F
100
AcDbEntity
  8
0
  6
Continuous
 62
     7
370
    15
100
AcDbLine
 10
101.9319236138
 20
79.9718395915
 30
0.0
 11
101.8864278836
 21
79.69400861050001
 31
0.0
  0
LINE
  5
34C
330
1F
100
AcDbEntity
  8
0
  6
Continuous
 62
     7
370
    15
100
AcDbLine
 10
101.8864278836
 20
79.69400861050001
 30
0.0
 11
102.2296695814
 21
79.1666527852
 31
0.0
  0
LINE
  5
34D
330
1F
100
AcDbEntity
  8
0
  6
Continuous
 62
     7
370
    15
100
AcDbLine
 10
102.2296695814
 20
79.1666527852
 30
0.0
 11
102.6184137746
 21
78.9171212138
 31
0.0
  0
LINE
  5
34E
330
1F
100
AcDbEntity
  8
0
  6
Continuous
 62
     7
370
    15
100
AcDbLine
 10
102.6184137746
 20
78.9171212138
 30
0.0
 11
102.6639095049
 21
79.19495219489999
 31
0.0
  0
LINE
  5
34F
330
1F
100
AcDbEntity
  8
0
  6
Continuous
 62
     7
370
    15
100
AcDbLine
 10
101.8969821093
 20
80.01660609079999
 30
0.0
 11
101.5537402992
 21
80.5439619456
 31
0.0
  0
LINE
  5
350
330
1F
100
AcDbEntity
  8
0
  6
Continuous
 62
     7
370
    15
100
AcDbLine
 10
101.5537402992
 20
80.5439619456
 30
0.0
 11
101.1650027444
 21
80.79349415039999
 31
0.0
  0
LINE
  5
351
330
1F
100
AcDbEntity
  8
0
  6
Continuous
 62
     7
370
    15
100
AcDbLine
 10
101.1650027444
 20
80.79349415039999
 30
0.0
 11
101.1195003052
 21
80.51566988180001
 31
0.0
  0
LINE
  5
352
330
1F
100
AcDbEntity
  8
0
  6
Continuous
 62
     7
370
    15
100
AcDbLine
 10
101.1195003052
 20
80.51566988180001
 30
0.0
 11
101.4627420592
 21
79.98831404180001
 31
0.0
  0
LINE
  5
353
330
1F
100
AcDbEntity
  8
0
  6
Continuous
 62
     7
370
    15
100
AcDbLine
 10
101.4627420592
 20
79.98831404180001
 30
0.0
 11
101.8514862524
 21
79.7387824704
 31
0.0
  0
LINE
  5
354
330
1F
100
AcDbEntity
  8
0
  6
Continuous
 62
     7
370
    15
100
AcDbLine
 10
101.8514862524
 20
79.7387824704
 30
0.0
 11
101.8969821093
 21
80.01660609079999
 31
0.0
  0
LINE
  5
355
330
1F
100
AcDbEntity
  8
0
  6
Continuous
 62
     7
370
    15
100
AcDbLine
 10
101.5822537583
 20
80.86773388279999
 30
0.0
 11
101.2390054221
 21
81.39508907459999
 31
0.0
  0
LINE
  5
356
330
1F
100
AcDbEntity
  8
0
  6
Continuous
 62
     7
370
    15
100
AcDbLine
 10
101.2390054221
 20
81.39508907459999
 30
0.0
 11
100.850267755
 21
81.644621309
 31
0.0
  0
LINE
  5
357
330
1F
100
AcDbEntity
  8
0
  6
Continuous
 62
     7
370
    15
100
AcDbLine
 10
100.850267755
 20
81.644621309
 30
0.0
 11
100.8047653719
 21
81.3667970256
 31
0.0
  0
LINE
  5
358
330
1F
100
AcDbEntity
  8
0
  6
Continuous
 62
     7
370
    15
100
AcDbLine
 10
100.8047653719
 20
81.3667970256
 30
0.0
 11
101.1480137081
 21
80.83944183369998
 31
0.0
  0
LINE
  5
359
330
1F
100
AcDbEntity
  8
0
  6
Continuous
 62
     7
370
    15
100
AcDbLine
 10
101.1480137081
 20
80.83944183369998
 30
0.0
 11
101.5367512629
 21
80.5899096289
 31
0.0
  0
LINE
  5
35A
330
1F
100
AcDbEntity
  8
0
  6
Continuous
 62
     7
370
    15
100
AcDbLine
 10
101.5367512629
 20
80.5899096289
 30
0.0
 11
101.5822537583
 21
80.86773388279999
 31
0.0
  0
LINE
  5
35B
330
1F
100
AcDbEntity
  8
0
  6
Continuous
 62
     7
370
    15
100
AcDbLine
 10
102.2515285167
 20
80.1961008966
 30
0.0
 11
102.0059330566
 21
80.57342778849999
 31
0.0
  0
LINE
  5
35C
330
1F
100
AcDbEntity
  8
0
  6
Continuous
 62
     7
370
    15
100
AcDbLine
 10
102.0059330566
 20
80.57342778849999
 30
0.0
 11
101.6171887511
 21
80.82295938939999
 31
0.0
  0
LINE
  5
35D
330
1F
100
AcDbEntity
  8
0
  6
Continuous
 62
     7
370
    15
100
AcDbLine
 10
101.6171887511
 20
80.82295938939999
 30
0.0
 11
101.5716928942
 21
80.54513576899999
 31
0.0
  0
LINE
  5
35E
330
1F
100
AcDbEntity
  8
0
  6
Continuous
 62
     7
370
    15
100
AcDbLine
 10
101.5716928942
 20
80.54513576899999
 30
0.0
 11
101.9149347043
 21
80.0177799142
 31
0.0
  0
LINE
  5
35F
330
1F
100
AcDbEntity
  8
0
  6
Continuous
 62
     7
370
    15
100
AcDbLine
 10
101.9149347043
 20
80.0177799142
 30
0.0
 11
102.3036788975
 21
79.76824834279999
 31
0.0
  0
LINE
  5
360
330
1F
100
AcDbEntity
  8
0
  6
Continuous
 62
     7
370
    15
100
AcDbLine
 10
102.3036788975
 20
79.76824834279999
 30
0.0
 11
102.3196176141
 21
79.8655816787
 31
0.0
  0
LINE
  5
361
330
1F
100
AcDbEntity
  8
0
  6
Continuous
 62
     7
370
    15
100
AcDbLine
 10
102.0254474513
 20
80.66642201029999
 30
0.0
 11
102.0145458313
 21
80.5998534809
 31
0.0
  0
LINE
  5
362
330
1F
100
AcDbEntity
  8
0
  6
Continuous
 62
     7
370
    15
100
AcDbLine
 10
102.0145458313
 20
80.5998534809
 30
0.0
 11
102.2607495083
 21
80.2215852017
 31
0.0
  0
LINE
  5
363
330
1F
100
AcDbEntity
  8
0
  6
Continuous
 62
     7
370
    15
100
AcDbLine
 10
101.2700715026
 20
81.47631866270002
 30
0.0
 11
101.2569581437
 21
81.3962555374
 31
0.0
  0
LINE
  5
364
330
1F
100
AcDbEntity
  8
0
  6
Continuous
 62
     7
370
    15
100
AcDbLine
 10
101.2569581437
 20
81.3962555374
 30
0.0
 11
101.6001998416
 21
80.8688997121
 31
0.0
  0
LINE
  5
365
330
1F
100
AcDbEntity
  8
0
  6
Continuous
 62
     7
370
    15
100
AcDbLine
 10
101.6001998416
 20
80.8688997121
 30
0.0
 11
101.9889441471
 21
80.6193681112
 31
0.0
  0
LINE
  5
366
330
1F
100
AcDbEntity
  8
0
  6
Continuous
 62
     7
370
    15
100
AcDbLine
 10
101.9889441471
 20
80.6193681112
 30
0.0
 11
102.0010991085
 21
80.69358139669999
 31
0.0
  0
LINE
  5
367
330
1F
100
AcDbEntity
  8
0
  6
Continuous
 62
     7
370
    15
100
AcDbLine
 10
100.4936815474
 20
82.2401943428
 30
0.0
 11
100.4900371476
 21
82.2179174569
 31
0.0
  0
LINE
  5
368
330
1F
100
AcDbEntity
  8
0
  6
Continuous
 62
     7
370
    15
100
AcDbLine
 10
100.4900371476
 20
82.2179174569
 30
0.0
 11
100.8332788454
 21
81.69056163170001
 31
0.0
  0
LINE
  5
369
330
1F
100
AcDbEntity
  8
0
  6
Continuous
 62
     7
370
    15
100
AcDbLine
 10
100.8332788454
 20
81.69056163170001
 30
0.0
 11
101.2220165125
 21
81.4410293973
 31
0.0
  0
LINE
  5
36A
330
1F
100
AcDbEntity
  8
0
  6
Continuous
 62
     7
370
    15
100
AcDbLine
 10
101.2220165125
 20
81.4410293973
 30
0.0
 11
101.2338787462
 21
81.5134618383
 31
0.0
  0
LINE
  5
36B
330
1F
100
AcDbEntity
  8
0
  6
Continuous
 62
     7
370
    15
100
AcDbLine
 10
100.0679665549
 20
82.5078709747
 30
0.0
 11
99.99799226569999
 21
82.6153747554
 31
0.0
  0
LINE
  5
36C
330
1F
100
AcDbEntity
  8
0
  6
Continuous
 62
     7
370
    15
100
AcDbLine
 10
100.456704222
 20
82.2583387403
 30
0.0
 11
100.0679665549
 21
82.5078709747
 31
0.0
  0
LINE
  5
36D
330
1F
100
AcDbEntity
  8
0
  6
Continuous
 62
     7
370
    15
100
AcDbLine
 10
100.456704222
 20
82.2583387403
 30
0.0
 11
100.459051768
 21
82.27266515869999
 31
0.0
  0
LINE
  5
36E
330
1F
100
AcDbEntity
  8
0
  6
Continuous
 62
     7
370
    15
100
AcDbLine
 10
107.1546171892
 20
72.29307306609999
 30
0.0
 11
106.3730277094
 21
72.90122032159999
 31
0.0
  0
LINE
  5
36F
330
1F
100
AcDbEntity
  8
0
  6
Continuous
 62
     7
370
    15
100
AcDbLine
 10
105.6480962439
 20
74.8459047308
 30
0.0
 11
106.2142330096
 21
74.5771461276
 31
0.0
  0
LINE
  5
370
330
1F
100
AcDbEntity
  8
0
  6
Continuous
 62
     7
370
    15
100
AcDbLine
 10
99.52449096270001
 20
83.0961869368
 30
0.0
 11
99.70605122690001
 21
82.3931211036
 31
0.0
  0
LINE
  5
371
330
1F
100
AcDbEntity
  8
0
  6
Continuous
 62
     7
370
    15
100
AcDbLine
 10
98.08730051239999
 20
83.4252272612
 30
0.0
 11
97.6312752479
 21
84.397783061
 31
0.0
  0
LINE
  5
372
330
1F
100
AcDbEntity
  8
0
  6
Continuous
 62
     7
370
    15
100
AcDbLine
 10
104.6386014959
 20
77.2847490723
 30
0.0
 11
104.6316386141
 21
77.2794553988
 31
0.0
  0
LINE
  5
373
330
1F
100
AcDbEntity
  8
0
  6
Continuous
 62
     7
370
    15
100
AcDbLine
 10
107.1934550853
 20
71.51090585670001
 30
0.0
 11
107.4193633817
 21
71.2545647985
 31
0.0
  0
LINE
  5
374
330
1F
100
AcDbEntity
  8
0
  6
Continuous
 62
     7
370
    15
100
AcDbLine
 10
102.0564449642
 20
80.6317532497
 30
0.0
 11
102.0145458313
 21
80.5998534809
 31
0.0
  0
LINE
  5
375
330
1F
100
AcDbEntity
  8
0
  6
Continuous
 62
     7
370
    15
100
AcDbLine
 10
104.9808428083
 20
76.75663541770001
 30
0.0
 11
104.9748801997
 21
76.75209960300001
 31
0.0
  0
LINE
  5
376
330
1F
100
AcDbEntity
  8
0
  6
Continuous
 62
     7
370
    15
100
AcDbLine
 10
101.3091820062
 20
81.4360173056
 30
0.0
 11
101.2569581437
 21
81.3962555374
 31
0.0
  0
LINE
  5
377
330
1F
100
AcDbEntity
  8
0
  6
Continuous
 62
     7
370
    15
100
AcDbLine
 10
104.3632630756
 20
77.6919935265
 30
0.0
 11
104.2079594425
 21
77.5737541324
 31
0.0
  0
LINE
  5
378
330
1F
100
AcDbEntity
  8
0
  6
Continuous
 62
     7
370
    15
100
AcDbLine
 10
96.73924815219999
 20
84.84964685760001
 30
0.0
 11
97.1329034104
 21
84.28918810489999
 31
0.0
  0
LINE
  5
379
330
1F
100
AcDbEntity
  8
0
  6
Continuous
 62
     7
370
    15
100
AcDbLine
 10
105.1020885847
 20
76.56309546
 30
0.0
 11
104.9416934872
 21
76.44098388340001
 31
0.0
  0
LINE
  5
37A
330
1F
100
AcDbEntity
  8
0
  6
Continuous
 62
     7
370
    15
100
AcDbLine
 10
101.7427073666
 20
80.9773891234
 30
0.0
 11
101.6001998416
 21
80.8688997121
 31
0.0
  0
LINE
  5
37B
330
1F
100
AcDbEntity
  8
0
  6
Continuous
 62
     7
370
    15
100
AcDbLine
 10
103.4740908657
 20
78.4251969256
 30
0.0
 11
103.4469560099
 21
78.40454482130001
 31
0.0
  0
LINE
  5
37C
330
1F
100
AcDbEntity
  8
0
  6
Continuous
 62
     7
370
    15
100
AcDbLine
 10
102.3842858949
 20
79.79060663430001
 30
0.0
 11
102.3292808207
 21
79.7487263223
 31
0.0
  0
LINE
  5
37D
330
1F
100
AcDbEntity
  8
0
  6
Continuous
 62
     7
370
    15
100
AcDbLine
 10
105.4285914225
 20
76.02299359629999
 30
0.0
 11
105.2849352973
 21
75.9136280286
 31
0.0
  0
LINE
  5
37E
330
1F
100
AcDbEntity
  8
0
  6
Continuous
 62
     7
370
    15
100
AcDbLine
 10
104.3982598318
 20
77.4165697954
 30
0.0
 11
104.1794523829
 21
77.24999021880001
 31
0.0
  0
LINE
  5
37F
330
1F
100
AcDbEntity
  8
0
  6
Continuous
 62
     7
370
    15
100
AcDbLine
 10
100.9614929256
 20
81.78817564419999
 30
0.0
 11
100.8332788454
 21
81.69056163170001
 31
0.0
  0
LINE
  5
380
330
1F
100
AcDbEntity
  8
0
  6
Continuous
 62
     7
370
    15
100
AcDbLine
 10
102.7872757749
 20
79.3087319621
 30
0.0
 11
102.6725225185
 21
79.22137049709999
 31
0.0
  0
LINE
  5
381
330
1F
100
AcDbEntity
  8
0
  6
Continuous
 62
     7
370
    15
100
AcDbLine
 10
100.5051435084
 20
82.2294210785
 30
0.0
 11
100.4900371476
 21
82.2179174569
 31
0.0
  0
LINE
  5
382
330
1F
100
AcDbEntity
  8
0
  6
Continuous
 62
     7
370
    15
100
AcDbLine
 10
101.7905003432
 20
80.71171534559999
 30
0.0
 11
101.5716928942
 21
80.54513576899999
 31
0.0
  0
LINE
  5
383
330
1F
100
AcDbEntity
  8
0
  6
Continuous
 62
     7
370
    15
100
AcDbLine
 10
104.825370935
 20
76.9530649348
 30
0.0
 11
104.522694193
 21
76.722634364
 31
0.0
  0
LINE
  5
384
330
1F
100
AcDbEntity
  8
0
  6
Continuous
 62
     7
370
    15
100
AcDbLine
 10
103.6184910109
 20
78.2284543168
 30
0.0
 11
103.4125249728
 21
78.0716514458
 31
0.0
  0
LINE
  5
385
330
1F
100
AcDbEntity
  8
0
  6
Continuous
 62
     7
370
    15
100
AcDbLine
 10
100.1184158783
 20
82.5462800816
 30
0.0
 11
100.0679665549
 21
82.5078709747
 31
0.0
  0
LINE
  5
386
330
1F
100
AcDbEntity
  8
0
  6
Continuous
 62
     7
370
    15
100
AcDbLine
 10
105.4697842509
 20
75.75994214089999
 30
0.0
 11
105.2578557309
 21
75.5985960946
 31
0.0
  0
LINE
  5
387
330
1F
100
AcDbEntity
  8
0
  6
Continuous
 62
     7
370
    15
100
AcDbLine
 10
102.217611573
 20
80.24820312439999
 30
0.0
 11
101.9149347043
 21
80.0177799142
 31
0.0
  0
LINE
  5
388
330
1F
100
AcDbEntity
  8
0
  6
Continuous
 62
     7
370
    15
100
AcDbLine
 10
101.023579347
 20
81.53337726510001
 30
0.0
 11
100.8047653719
 21
81.3667970256
 31
0.0
  0
LINE
  5
389
330
1F
100
AcDbEntity
  8
0
  6
Continuous
 62
     7
370
    15
100
AcDbLine
 10
104.0584436517
 20
77.7747188012
 30
0.0
 11
103.7557667829
 21
77.544295591
 31
0.0
  0
LINE
  5
38A
330
1F
100
AcDbEntity
  8
0
  6
Continuous
 62
     7
370
    15
100
AcDbLine
 10
102.8703291159
 20
79.0690143507
 30
0.0
 11
102.651521667
 21
78.9024347741
 31
0.0
  0
LINE
  5
38B
330
1F
100
AcDbEntity
  8
0
  6
Continuous
 62
     7
370
    15
100
AcDbLine
 10
105.847002857
 20
75.28324398959999
 30
0.0
 11
105.5903100397
 21
75.0878194875
 31
0.0
  0
LINE
  5
38C
330
1F
100
AcDbEntity
  8
0
  6
Continuous
 62
     7
370
    15
100
AcDbLine
 10
104.7083082766
 20
76.57810491869999
 30
0.0
 11
104.4895008276
 21
76.411525342
 31
0.0
  0
LINE
  5
38D
330
1F
100
AcDbEntity
  8
0
  6
Continuous
 62
     7
370
    15
100
AcDbLine
 10
101.4506905769
 20
81.0698650439
 30
0.0
 11
101.1480137081
 21
80.83944183369998
 31
0.0
  0
LINE
  5
38E
330
1F
100
AcDbEntity
  8
0
  6
Continuous
 62
     7
370
    15
100
AcDbLine
 10
100.2582606009
 20
82.3506785993
 30
0.0
 11
100.039453152
 21
82.18409902270002
 31
0.0
  0
LINE
  5
38F
330
1F
100
AcDbEntity
  8
0
  6
Continuous
 62
     7
370
    15
100
AcDbLine
 10
103.2974467452
 20
78.6055101531
 30
0.0
 11
102.9947700032
 21
78.37507958229998
 31
0.0
  0
LINE
  5
390
330
1F
100
AcDbEntity
  8
0
  6
Continuous
 62
     7
370
    15
100
AcDbLine
 10
102.1052353326
 20
79.86058818710001
 30
0.0
 11
101.8864278836
 21
79.69400861050001
 31
0.0
  0
LINE
  5
391
330
1F
100
AcDbEntity
  8
0
  6
Continuous
 62
     7
370
    15
100
AcDbLine
 10
105.135419282
 20
76.1145927565
 30
0.0
 11
104.8327424132
 21
75.8841695463
 31
0.0
  0
LINE
  5
392
330
1F
100
AcDbEntity
  8
0
  6
Continuous
 62
     7
370
    15
100
AcDbLine
 10
103.946067299
 20
77.38710389339999
 30
0.0
 11
103.72725985
 21
77.22052431680001
 31
0.0
  0
LINE
  5
393
330
1F
100
AcDbEntity
  8
0
  6
Continuous
 62
     7
370
    15
100
AcDbLine
 10
100.6853717041
 20
81.8871737387
 30
0.0
 11
100.3826949621
 21
81.65674316790001
 31
0.0
  0
LINE
  5
394
330
1F
100
AcDbEntity
  8
0
  6
Continuous
 62
     7
370
    15
100
AcDbLine
 10
105.6536739512
 20
74.8339988816
 30
0.0
 11
105.5617964539
 21
74.764054911
 31
0.0
  0
LINE
  5
395
330
1F
100
AcDbEntity
  8
0
  6
Continuous
 62
     7
370
    15
100
AcDbLine
 10
102.5323463235
 20
79.39708335600001
 30
0.0
 11
102.2296695814
 21
79.1666527852
 31
0.0
  0
LINE
  5
396
330
1F
100
AcDbEntity
  8
0
  6
Continuous
 62
     7
370
    15
100
AcDbLine
 10
101.3383077542
 20
80.6822494584
 30
0.0
 11
101.1195003052
 21
80.51566988180001
 31
0.0
  0
LINE
  5
397
330
1F
100
AcDbEntity
  8
0
  6
Continuous
 62
     7
370
    15
100
AcDbLine
 10
104.3731784021
 20
76.92359903279999
 30
0.0
 11
104.0705016601
 21
76.693168462
 31
0.0
  0
LINE
  5
398
330
1F
100
AcDbEntity
  8
0
  6
Continuous
 62
     7
370
    15
100
AcDbLine
 10
103.1791397767
 20
78.20876515000001
 30
0.0
 11
102.9603323277
 21
78.0421855734
 31
0.0
  0
LINE
  5
399
330
1F
100
AcDbEntity
  8
0
  6
Continuous
 62
     7
370
    15
100
AcDbLine
 10
105.9143241972
 20
74.2437624156
 30
0.0
 11
105.9050447901
 21
74.2366997191
 31
0.0
  0
LINE
  5
39A
330
1F
100
AcDbEntity
  8
0
  6
Continuous
 62
     7
370
    15
100
AcDbLine
 10
105.0183631497
 20
75.7396334033
 30
0.0
 11
104.799555574
 21
75.5730611873
 31
0.0
  0
LINE
  5
39B
330
1F
100
AcDbEntity
  8
0
  6
Continuous
 62
     7
370
    15
100
AcDbLine
 10
101.7654188012
 20
80.21874461260001
 30
0.0
 11
101.4627420592
 21
79.98831404180001
 31
0.0
  0
LINE
  5
39C
330
1F
100
AcDbEntity
  8
0
  6
Continuous
 62
     7
370
    15
100
AcDbLine
 10
100.5729954356
 20
81.4995588088
 30
0.0
 11
100.3541879866
 21
81.3329792322
 31
0.0
  0
LINE
  5
39D
330
1F
100
AcDbEntity
  8
0
  6
Continuous
 62
     7
370
    15
100
AcDbLine
 10
103.6062508798
 20
77.74526028939999
 30
0.0
 11
103.3035741378
 21
77.51482971859999
 31
0.0
  0
LINE
  5
39E
330
1F
100
AcDbEntity
  8
0
  6
Continuous
 62
     7
370
    15
100
AcDbLine
 10
102.419970083
 20
79.00946841869999
 30
0.0
 11
102.201162634
 21
78.8428888421
 31
0.0
  0
LINE
  5
39F
330
1F
100
AcDbEntity
  8
0
  6
Continuous
 62
     7
370
    15
100
AcDbLine
 10
105.4454742529
 20
75.2761285427
 30
0.0
 11
105.1427973841
 21
75.0457053325
 31
0.0
  0
LINE
  5
3A0
330
1F
100
AcDbEntity
  8
0
  6
Continuous
 62
     7
370
    15
100
AcDbLine
 10
104.2553506136
 20
76.53948257430001
 30
0.0
 11
104.0434220937
 21
76.378136528
 31
0.0
  0
LINE
  5
3A1
330
1F
100
AcDbEntity
  8
0
  6
Continuous
 62
     7
370
    15
100
AcDbLine
 10
101.0001066374
 20
81.036046595
 30
0.0
 11
100.6974297686
 21
80.8056233848
 31
0.0
  0
LINE
  5
3A2
330
1F
100
AcDbEntity
  8
0
  6
Continuous
 62
     7
370
    15
100
AcDbLine
 10
106.0025888391
 20
74.02511271829999
 30
0.0
 11
105.8718514248
 21
73.9255906972
 31
0.0
  0
LINE
  5
3A3
330
1F
100
AcDbEntity
  8
0
  6
Continuous
 62
     7
370
    15
100
AcDbLine
 10
99.80913921870001
 20
82.3129170264
 30
0.0
 11
99.59033176969999
 21
82.14633744969999
 31
0.0
  0
LINE
  5
3A4
330
1F
100
AcDbEntity
  8
0
  6
Continuous
 62
     7
370
    15
100
AcDbLine
 10
106.5256489801
 20
69.27765232209999
 30
0.0
 11
105.8113676228
 21
70.2945951703
 31
0.0
  0
LINE
  5
3A5
330
1F
100
AcDbEntity
  8
0
  6
Continuous
 62
     7
370
    15
100
AcDbLine
 10
106.4433871013
 20
70.93987851850001
 30
0.0
 11
107.2534339082
 21
70.02071067340001
 31
0.0
  0
LINE
  5
3A6
330
1F
100
AcDbEntity
  8
0
  6
Continuous
 62
     7
370
    15
100
AcDbLine
 10
102.8470813129
 20
78.5459561975
 30
0.0
 11
102.5444044441
 21
78.31553298729999
 31
0.0
  0
LINE
  5
3A7
330
1F
100
AcDbEntity
  8
0
  6
Continuous
 62
     7
370
    15
100
AcDbLine
 10
101.6530425607
 20
79.83112967529999
 30
0.0
 11
101.4342351117
 21
79.6645500986
 31
0.0
  0
LINE
  5
3A8
330
1F
100
AcDbEntity
  8
0
  6
Continuous
 62
     7
370
    15
100
AcDbLine
 10
104.6737908383
 20
76.09416557979999
 30
0.0
 11
104.3758764025
 21
75.8673599209
 31
0.0
  0
LINE
  5
3A9
330
1F
100
AcDbEntity
  8
0
  6
Continuous
 62
     7
370
    15
100
AcDbLine
 10
103.4938745271
 20
77.35764538159999
 30
0.0
 11
103.2750670781
 21
77.191065805
 31
0.0
  0
LINE
  5
3AA
330
1F
100
AcDbEntity
  8
0
  6
Continuous
 62
     7
370
    15
100
AcDbLine
 10
100.2362503995
 20
81.849404818
 30
0.0
 11
99.93357353070001
 21
81.6189816079
 31
0.0
  0
LINE
  5
3AB
330
1F
100
AcDbEntity
  8
0
  6
Continuous
 62
     7
370
    15
100
AcDbLine
 10
105.3284178961
 20
74.9011692486
 30
0.0
 11
105.1096104471
 21
74.7345896719
 31
0.0
  0
LINE
  5
3AC
330
1F
100
AcDbEntity
  8
0
  6
Continuous
 62
     7
370
    15
100
AcDbLine
 10
106.2253406646
 20
73.4060300009
 30
0.0
 11
106.2150932349
 21
73.3982348424
 31
0.0
  0
LINE
  5
3AD
330
1F
100
AcDbEntity
  8
0
  6
Continuous
 62
     7
370
    15
100
AcDbLine
 10
102.0801537345
 20
79.36761746880001
 30
0.0
 11
101.7774768657
 21
79.13719425859999
 31
0.0
  0
LINE
  5
3AE
330
1F
100
AcDbEntity
  8
0
  6
Continuous
 62
     7
370
    15
100
AcDbLine
 10
103.920985757
 20
76.8941331604
 30
0.0
 11
103.6183088883
 21
76.6637099502
 31
0.0
  0
LINE
  5
3AF
330
1F
100
AcDbEntity
  8
0
  6
Continuous
 62
     7
370
    15
100
AcDbLine
 10
102.7316337179
 20
78.1666443121
 30
0.0
 11
102.5128262689
 21
78.0000647355
 31
0.0
  0
LINE
  5
3B0
330
1F
100
AcDbEntity
  8
0
  6
Continuous
 62
     7
370
    15
100
AcDbLine
 10
105.7555289993
 20
74.437664388
 30
0.0
 11
105.4528522573
 21
74.20723381720001
 31
0.0
  0
LINE
  5
3B1
330
1F
100
AcDbEntity
  8
0
  6
Continuous
 62
     7
370
    15
100
AcDbLine
 10
98.8696996488
 20
82.9870149549
 30
0.0
 11
98.82809089730001
 21
82.9553363968
 31
0.0
  0
LINE
  5
3B2
330
1F
100
AcDbEntity
  8
0
  6
Continuous
 62
     7
370
    15
100
AcDbLine
 10
99.41462914590001
 20
82.61320330489999
 30
0.0
 11
99.17133265129999
 21
82.42798055680001
 31
0.0
  0
LINE
  5
3B3
330
1F
100
AcDbEntity
  8
0
  6
Continuous
 62
     7
370
    15
100
AcDbLine
 10
104.5661703779
 20
75.7101748915
 30
0.0
 11
104.3473629289
 21
75.5435953148
 31
0.0
  0
LINE
  5
3B4
330
1F
100
AcDbEntity
  8
0
  6
Continuous
 62
     7
370
    15
100
AcDbLine
 10
106.3103146459
 20
73.12982576579999
 30
0.0
 11
106.2050472253
 21
73.04968806479999
 31
0.0
  0
LINE
  5
3B5
330
1F
100
AcDbEntity
  8
0
  6
Continuous
 62
     7
370
    15
100
AcDbLine
 10
100.123874145
 20
81.46178988439999
 30
0.0
 11
99.90506669600001
 21
81.29521030779999
 31
0.0
  0
LINE
  5
3B6
330
1F
100
AcDbEntity
  8
0
  6
Continuous
 62
     7
370
    15
100
AcDbLine
 10
103.1587447649
 20
77.70313946619999
 30
0.0
 11
102.8560680229
 21
77.47270889540001
 31
0.0
  0
LINE
  5
3B7
330
1F
100
AcDbEntity
  8
0
  6
Continuous
 62
     7
370
    15
100
AcDbLine
 10
101.9647061675
 20
78.988305576
 30
0.0
 11
101.7458987185
 21
78.8217259994
 31
0.0
  0
LINE
  5
3B8
330
1F
100
AcDbEntity
  8
0
  6
Continuous
 62
     7
370
    15
100
AcDbLine
 10
95.6685540692
 20
84.735103615
 30
0.0
 11
96.3828354265
 21
83.71816076669999
 31
0.0
  0
LINE
  5
3B9
330
1F
100
AcDbEntity
  8
0
  6
Continuous
 62
     7
370
    15
100
AcDbLine
 10
95.750815948
 20
83.0728774185
 30
0.0
 11
94.94076926780001
 21
83.9920379031
 31
0.0
  0
LINE
  5
3BA
330
1F
100
AcDbEntity
  8
0
  6
Continuous
 62
     7
370
    15
100
AcDbLine
 10
104.9932816078
 20
75.24666267020001
 30
0.0
 11
104.690604739
 21
75.01623946009999
 31
0.0
  0
LINE
  5
3BB
330
1F
100
AcDbEntity
  8
0
  6
Continuous
 62
     7
370
    15
100
AcDbLine
 10
103.8039295125
 20
76.5191738367
 30
0.0
 11
103.5851219368
 21
76.3526016207
 31
0.0
  0
LINE
  5
3BC
330
1F
100
AcDbEntity
  8
0
  6
Continuous
 62
     7
370
    15
100
AcDbLine
 10
100.5509852096
 20
80.99828503399999
 30
0.0
 11
100.2483084675
 21
80.7678544632
 31
0.0
  0
LINE
  5
3BD
330
1F
100
AcDbEntity
  8
0
  6
Continuous
 62
     7
370
    15
100
AcDbLine
 10
105.6431527588
 20
74.0500494507
 30
0.0
 11
105.4243453098
 21
73.883469874
 31
0.0
  0
LINE
  5
3BE
330
1F
100
AcDbEntity
  8
0
  6
Continuous
 62
     7
370
    15
100
AcDbLine
 10
99.36163315290002
 20
82.2707961903
 30
0.0
 11
99.1428257039
 21
82.1042166137
 31
0.0
  0
LINE
  5
3BF
330
1F
100
AcDbEntity
  8
0
  6
Continuous
 62
     7
370
    15
100
AcDbLine
 10
102.3918172426
 20
78.52480072279999
 30
0.0
 11
102.0891405006
 21
78.29437015199999
 31
0.0
  0
LINE
  5
3C0
330
1F
100
AcDbEntity
  8
0
  6
Continuous
 62
     7
370
    15
100
AcDbLine
 10
101.2024651614
 20
79.79731188560001
 30
0.0
 11
100.9836577124
 21
79.630732309
 31
0.0
  0
LINE
  5
3C1
330
1F
100
AcDbEntity
  8
0
  6
Continuous
 62
     7
370
    15
100
AcDbLine
 10
104.2310406157
 20
76.0556689761
 30
0.0
 11
103.9283638736
 21
75.8252384053
 31
0.0
  0
LINE
  5
3C2
330
1F
100
AcDbEntity
  8
0
  6
Continuous
 62
     7
370
    15
100
AcDbLine
 10
103.0409170325
 20
77.3190229929
 30
0.0
 11
102.8289885126
 21
77.15767694659999
 31
0.0
  0
LINE
  5
3C3
330
1F
100
AcDbEntity
  8
0
  6
Continuous
 62
     7
370
    15
100
AcDbLine
 10
106.0702638764
 20
73.5865372589
 30
0.0
 11
105.7675870077
 21
73.35611404879999
 31
0.0
  0
LINE
  5
3C4
330
1F
100
AcDbEntity
  8
0
  6
Continuous
 62
     7
370
    15
100
AcDbLine
 10
99.78874432659999
 20
81.80728398380001
 30
0.0
 11
99.48606745790002
 21
81.5768607737
 31
0.0
  0
LINE
  5
3C5
330
1F
100
AcDbEntity
  8
0
  6
Continuous
 62
     7
370
    15
100
AcDbLine
 10
104.8809053673
 20
74.85904773289999
 30
0.0
 11
104.6620979183
 21
74.6924681563
 31
0.0
  0
LINE
  5
3C6
330
1F
100
AcDbEntity
  8
0
  6
Continuous
 62
     7
370
    15
100
AcDbLine
 10
101.6295763492
 20
79.3337996754
 30
0.0
 11
101.3268994804
 21
79.1033764653
 31
0.0
  0
LINE
  5
3C7
330
1F
100
AcDbEntity
  8
0
  6
Continuous
 62
     7
370
    15
100
AcDbLine
 10
100.4386089516
 20
80.61067010130001
 30
0.0
 11
100.2198015026
 21
80.44409052469999
 31
0.0
  0
LINE
  5
3C8
330
1F
100
AcDbEntity
  8
0
  6
Continuous
 62
     7
370
    15
100
AcDbLine
 10
103.4593572572
 20
76.8737059985
 30
0.0
 11
103.1614362952
 21
76.6468996766
 31
0.0
  0
LINE
  5
3C9
330
1F
100
AcDbEntity
  8
0
  6
Continuous
 62
     7
370
    15
100
AcDbLine
 10
98.59004595469999
 20
83.10505366520001
 30
0.0
 11
98.3712385057
 21
82.93847408860001
 31
0.0
  0
LINE
  5
3CA
330
1F
100
AcDbEntity
  8
0
  6
Continuous
 62
     7
370
    15
100
AcDbLine
 10
102.2794409741
 20
78.1371857929
 30
0.0
 11
102.0606335251
 21
77.9706062163
 31
0.0
  0
LINE
  5
3CB
330
1F
100
AcDbEntity
  8
0
  6
Continuous
 62
     7
370
    15
100
AcDbLine
 10
105.3080163582
 20
74.3955429018
 30
0.0
 11
105.0053396162
 21
74.165112331
 31
0.0
  0
LINE
  5
3CC
330
1F
100
AcDbEntity
  8
0
  6
Continuous
 62
     7
370
    15
100
AcDbLine
 10
99.0171571846
 20
82.641541444
 30
0.0
 11
98.71448031580001
 21
82.4111182338
 31
0.0
  0
LINE
  5
3CD
330
1F
100
AcDbEntity
  8
0
  6
Continuous
 62
     7
370
    15
100
AcDbLine
 10
100.8657201393
 20
80.14715789109999
 30
0.0
 11
100.5630432706
 21
79.91673468100001
 31
0.0
  0
LINE
  5
3CE
330
1F
100
AcDbEntity
  8
0
  6
Continuous
 62
     7
370
    15
100
AcDbLine
 10
105.9763420332
 20
73.17414615529999
 30
0.0
 11
105.7575345842
 21
73.0075665787
 31
0.0
  0
LINE
  5
3CF
330
1F
100
AcDbEntity
  8
0
  6
Continuous
 62
     7
370
    15
100
AcDbLine
 10
99.676361532
 20
81.41966839090001
 30
0.0
 11
99.457554083
 21
81.25308881429999
 31
0.0
  0
LINE
  5
3D0
330
1F
100
AcDbEntity
  8
0
  6
Continuous
 62
     7
370
    15
100
AcDbLine
 10
102.7065521759
 20
77.67367357899999
 30
0.0
 11
102.4038753072
 21
77.44325036880001
 31
0.0
  0
LINE
  5
3D1
330
1F
100
AcDbEntity
  8
0
  6
Continuous
 62
     7
370
    15
100
AcDbLine
 10
101.5171935685
 20
78.9461840788
 30
0.0
 11
101.2983861195
 21
78.7796045022
 31
0.0
  0
LINE
  5
3D2
330
1F
100
AcDbEntity
  8
0
  6
Continuous
 62
     7
370
    15
100
AcDbLine
 10
103.3517367968
 20
76.48971531009999
 30
0.0
 11
103.1329293478
 21
76.32313573350001
 31
0.0
  0
LINE
  5
3D3
330
1F
100
AcDbEntity
  8
0
  6
Continuous
 62
     7
370
    15
100
AcDbLine
 10
100.103472579
 20
80.95616354509999
 30
0.0
 11
99.8008023631
 21
80.72573363729999
 31
0.0
  0
LINE
  5
3D4
330
1F
100
AcDbEntity
  8
0
  6
Continuous
 62
     7
370
    15
100
AcDbLine
 10
105.2141011678
 20
73.9831451006
 30
0.0
 11
104.9952935921
 21
73.81657288460001
 31
0.0
  0
LINE
  5
3D5
330
1F
100
AcDbEntity
  8
0
  6
Continuous
 62
     7
370
    15
100
AcDbLine
 10
106.1712107147
 20
72.53382654380001
 30
0.0
 11
106.1007829205
 21
72.48021138689999
 31
0.0
  0
LINE
  5
3D6
330
1F
100
AcDbEntity
  8
0
  6
Continuous
 62
     7
370
    15
100
AcDbLine
 10
98.90478094409999
 20
82.2539265067
 30
0.0
 11
98.6859734951
 21
82.08734693009999
 31
0.0
  0
LINE
  5
3D7
330
1F
100
AcDbEntity
  8
0
  6
Continuous
 62
     7
370
    15
100
AcDbLine
 10
101.9443046296
 20
78.4826792293
 30
0.0
 11
101.6416344137
 21
78.2522493215
 31
0.0
  0
LINE
  5
3D8
330
1F
100
AcDbEntity
  8
0
  6
Continuous
 62
     7
370
    15
100
AcDbLine
 10
100.7502725584
 20
79.767846002
 30
0.0
 11
100.5314651094
 21
79.6012664254
 31
0.0
  0
LINE
  5
3D9
330
1F
100
AcDbEntity
  8
0
  6
Continuous
 62
     7
370
    15
100
AcDbLine
 10
103.7788479705
 20
76.02620310359999
 30
0.0
 11
103.4761711018
 21
75.79577989349999
 31
0.0
  0
LINE
  5
3DA
330
1F
100
AcDbEntity
  8
0
  6
Continuous
 62
     7
370
    15
100
AcDbLine
 10
97.99373975790002
 20
83.01102692189999
 30
0.0
 11
97.9352113298
 21
82.9664660212
 31
0.0
  0
LINE
  5
3DB
330
1F
100
AcDbEntity
  8
0
  6
Continuous
 62
     7
370
    15
100
AcDbLine
 10
102.5894959104
 20
77.29871426089999
 30
0.0
 11
102.3706884614
 21
77.1321346843
 31
0.0
  0
LINE
  5
3DC
330
1F
100
AcDbEntity
  8
0
  6
Continuous
 62
     7
370
    15
100
AcDbLine
 10
105.641212271
 20
73.51964024
 30
0.0
 11
105.3385354022
 21
73.2892170298
 31
0.0
  0
LINE
  5
3DD
330
1F
100
AcDbEntity
  8
0
  6
Continuous
 62
     7
370
    15
100
AcDbLine
 10
99.331891935
 20
81.7904216756
 30
0.0
 11
99.02921519300001
 21
81.55999110479999
 31
0.0
  0
LINE
  5
3DE
330
1F
100
AcDbEntity
  8
0
  6
Continuous
 62
     7
370
    15
100
AcDbLine
 10
104.4518536496
 20
74.7921507435
 30
0.0
 11
104.2330462006
 21
74.6255711669
 31
0.0
  0
LINE
  5
3DF
330
1F
100
AcDbEntity
  8
0
  6
Continuous
 62
     7
370
    15
100
AcDbLine
 10
101.1773836334
 20
79.3043411488
 30
0.0
 11
100.8747068914
 21
79.07391057799999
 31
0.0
  0
LINE
  5
3E0
330
1F
100
AcDbEntity
  8
0
  6
Continuous
 62
     7
370
    15
100
AcDbLine
 10
99.9910963385
 20
80.56854860779999
 30
0.0
 11
99.77228888950001
 21
80.4019690312
 31
0.0
  0
LINE
  5
3E1
330
1F
100
AcDbEntity
  8
0
  6
Continuous
 62
     7
370
    15
100
AcDbLine
 10
103.0166069784
 20
76.8352094095
 30
0.0
 11
102.7139302364
 21
76.6047788387
 31
0.0
  0
LINE
  5
3E2
330
1F
100
AcDbEntity
  8
0
  6
Continuous
 62
     7
370
    15
100
AcDbLine
 10
106.0638673503
 20
72.445531472
 30
0.0
 11
105.8776151261
 21
72.303738174
 31
0.0
  0
LINE
  5
3E3
330
1F
100
AcDbEntity
  8
0
  6
Continuous
 62
     7
370
    15
100
AcDbLine
 10
104.8789646966
 20
74.3286458977
 30
0.0
 11
104.5762944807
 21
74.09821598979999
 31
0.0
  0
LINE
  5
3E4
330
1F
100
AcDbEntity
  8
0
  6
Continuous
 62
     7
370
    15
100
AcDbLine
 10
98.56965106959998
 20
82.59942062090001
 30
0.0
 11
98.26697420089999
 21
82.36899741070001
 31
0.0
  0
LINE
  5
3E5
330
1F
100
AcDbEntity
  8
0
  6
Continuous
 62
     7
370
    15
100
AcDbLine
 10
103.6634004036
 20
75.64689121089999
 30
0.0
 11
103.4445929546
 21
75.48031163430001
 31
0.0
  0
LINE
  5
3E6
330
1F
100
AcDbEntity
  8
0
  6
Continuous
 62
     7
370
    15
100
AcDbLine
 10
98.14253983969999
 20
83.06293284209999
 30
0.0
 11
97.92373239079999
 21
82.8963532655
 31
0.0
  0
LINE
  5
3E7
330
1F
100
AcDbEntity
  8
0
  6
Continuous
 62
     7
370
    15
100
AcDbLine
 10
100.4182075123
 20
80.1050364013
 30
0.0
 11
100.1155306435
 21
79.8746131912
 31
0.0
  0
LINE
  5
3E8
330
1F
100
AcDbEntity
  8
0
  6
Continuous
 62
     7
370
    15
100
AcDbLine
 10
105.5119634005
 20
73.15250764689999
 30
0.0
 11
105.2931559515
 21
72.98592807029999
 31
0.0
  0
LINE
  5
3E9
330
1F
100
AcDbEntity
  8
0
  6
Continuous
 62
     7
370
    15
100
AcDbLine
 10
99.2026430645
 20
81.42328908260001
 30
0.0
 11
98.9838356155
 21
81.2567095059
 31
0.0
  0
LINE
  5
3EA
330
1F
100
AcDbEntity
  8
0
  6
Continuous
 62
     7
370
    15
100
AcDbLine
 10
101.0650074916
 20
78.9167188583
 30
0.0
 11
100.8461999159
 21
78.7501466423
 31
0.0
  0
LINE
  5
3EB
330
1F
100
AcDbEntity
  8
0
  6
Continuous
 62
     7
370
    15
100
AcDbLine
 10
104.0905114787
 20
75.1833863577
 30
0.0
 11
103.7878347367
 21
74.95295578689999
 31
0.0
  0
LINE
  5
3EC
330
1F
100
AcDbEntity
  8
0
  6
Continuous
 62
     7
370
    15
100
AcDbLine
 10
102.9042241908
 20
76.4475938148
 30
0.0
 11
102.6854167418
 21
76.2810142382
 31
0.0
  0
LINE
  5
3ED
330
1F
100
AcDbEntity
  8
0
  6
Continuous
 62
     7
370
    15
100
AcDbLine
 10
104.8569705208
 20
71.15855601399999
 30
0.0
 11
105.2493649515
 21
70.32171341109999
 31
0.0
  0
LINE
  5
3EE
330
1F
100
AcDbEntity
  8
0
  6
Continuous
 62
     7
370
    15
100
AcDbLine
 10
97.9724671966
 20
82.78181343449999
 30
0.0
 11
97.66979045459999
 21
82.5513828637
 31
0.0
  0
LINE
  5
3EF
330
1F
100
AcDbEntity
  8
0
  6
Continuous
 62
     7
370
    15
100
AcDbLine
 10
99.6297542944
 20
80.9597768613
 30
0.0
 11
99.32707742559999
 21
80.72935365120001
 31
0.0
  0
LINE
  5
3F0
330
1F
100
AcDbEntity
  8
0
  6
Continuous
 62
     7
370
    15
100
AcDbLine
 10
104.7497158541
 20
73.9615132972
 30
0.0
 11
104.5309084052
 21
73.7949337206
 31
0.0
  0
LINE
  5
3F1
330
1F
100
AcDbEntity
  8
0
  6
Continuous
 62
     7
370
    15
100
AcDbLine
 10
105.9390744475
 20
72.6890028011
 30
0.0
 11
105.6363977055
 21
72.45857223029999
 31
0.0
  0
LINE
  5
3F2
330
1F
100
AcDbEntity
  8
0
  6
Continuous
 62
     7
370
    15
100
AcDbLine
 10
98.44039567300001
 20
82.23228736480001
 30
0.0
 11
98.2215880973
 21
82.0657151488
 31
0.0
  0
LINE
  5
3F3
330
1F
100
AcDbEntity
  8
0
  6
Continuous
 62
     7
370
    15
100
AcDbLine
 10
101.4921185387
 20
78.45321401239999
 30
0.0
 11
101.1894416699
 21
78.2227908023
 31
0.0
  0
LINE
  5
3F4
330
1F
100
AcDbEntity
  8
0
  6
Continuous
 62
     7
370
    15
100
AcDbLine
 10
100.3027599734
 20
79.72572450120001
 30
0.0
 11
100.0839525244
 21
79.5591449246
 31
0.0
  0
LINE
  5
3F5
330
1F
100
AcDbEntity
  8
0
  6
Continuous
 62
     7
370
    15
100
AcDbLine
 10
103.3313353786
 20
75.9840816046
 30
0.0
 11
103.0286650359
 21
75.7536590574
 31
0.0
  0
LINE
  5
3F6
330
1F
100
AcDbEntity
  8
0
  6
Continuous
 62
     7
370
    15
100
AcDbLine
 10
102.1373032157
 20
77.2692557288
 30
0.0
 11
101.9184957667
 21
77.10267615220001
 31
0.0
  0
LINE
  5
3F7
330
1F
100
AcDbEntity
  8
0
  6
Continuous
 62
     7
370
    15
100
AcDbLine
 10
105.176827056
 20
73.4980010833
 30
0.0
 11
104.8741501872
 21
73.2675778732
 31
0.0
  0
LINE
  5
3F8
330
1F
100
AcDbEntity
  8
0
  6
Continuous
 62
     7
370
    15
100
AcDbLine
 10
98.86750677610001
 20
81.76878250420001
 30
0.0
 11
98.56483656020001
 21
81.5383525964
 31
0.0
  0
LINE
  5
3F9
330
1F
100
AcDbEntity
  8
0
  6
Continuous
 62
     7
370
    15
100
AcDbLine
 10
103.9781352102
 20
74.79577142770001
 30
0.0
 11
103.7593277612
 21
74.6291918511
 31
0.0
  0
LINE
  5
3FA
330
1F
100
AcDbEntity
  8
0
  6
Continuous
 62
     7
370
    15
100
AcDbLine
 10
100.7298710766
 20
79.26221964060001
 30
0.0
 11
100.4271943345
 21
79.0317890698
 31
0.0
  0
LINE
  5
3FB
330
1F
100
AcDbEntity
  8
0
  6
Continuous
 62
     7
370
    15
100
AcDbLine
 10
99.53583897729998
 20
80.54738642069999
 30
0.0
 11
99.31703152829999
 21
80.38080684409999
 31
0.0
  0
LINE
  5
3FC
330
1F
100
AcDbEntity
  8
0
  6
Continuous
 62
     7
370
    15
100
AcDbLine
 10
102.5644143894
 20
76.80574352229999
 30
0.0
 11
102.2617375207
 21
76.5753203121
 31
0.0
  0
LINE
  5
3FD
330
1F
100
AcDbEntity
  8
0
  6
Continuous
 62
     7
370
    15
100
AcDbLine
 10
101.375055768
 20
78.07825402579999
 30
0.0
 11
101.156248319
 21
77.91167444920001
 31
0.0
  0
LINE
  5
3FE
330
1F
100
AcDbEntity
  8
0
  6
Continuous
 62
     7
370
    15
100
AcDbLine
 10
104.4052463979
 20
74.3322592176
 30
0.0
 11
104.1025695292
 21
74.10183600739999
 31
0.0
  0
LINE
  5
3FF
330
1F
100
AcDbEntity
  8
0
  6
Continuous
 62
     7
370
    15
100
AcDbLine
 10
98.10526578400001
 20
82.57778881010001
 30
0.0
 11
97.80258904200001
 21
82.3473582393
 31
0.0
  0
LINE
  5
400
330
1F
100
AcDbEntity
  8
0
  6
Continuous
 62
     7
370
    15
100
AcDbLine
 10
103.2158877906
 20
75.6047697174
 30
0.0
 11
102.9970803416
 21
75.4381901408
 31
0.0
  0
LINE
  5
401
330
1F
100
AcDbEntity
  8
0
  6
Continuous
 62
     7
370
    15
100
AcDbLine
 10
99.96294996819999
 20
80.0838815896
 30
0.0
 11
99.66027322610001
 21
79.8534510188
 31
0.0
  0
LINE
  5
402
330
1F
100
AcDbEntity
  8
0
  6
Continuous
 62
     7
370
    15
100
AcDbLine
 10
95.88340743819999
 20
82.2177635311
 30
0.0
 11
96.57124332389999
 21
81.6825629536
 31
0.0
  0
LINE
  5
403
330
1F
100
AcDbEntity
  8
0
  6
Continuous
 62
     7
370
    15
100
AcDbLine
 10
105.0644507874
 20
73.1103861534
 30
0.0
 11
104.8456433384
 21
72.9438065768
 31
0.0
  0
LINE
  5
404
330
1F
100
AcDbEntity
  8
0
  6
Continuous
 62
     7
370
    15
100
AcDbLine
 10
98.77359158570001
 20
81.35638470299999
 30
0.0
 11
98.55478401
 21
81.189812487
 31
0.0
  0
LINE
  5
405
330
1F
100
AcDbEntity
  8
0
  6
Continuous
 62
     7
370
    15
100
AcDbLine
 10
101.8021668151
 20
77.61474918000001
 30
0.0
 11
101.4994965992
 21
77.3843192721
 31
0.0
  0
LINE
  5
406
330
1F
100
AcDbEntity
  8
0
  6
Continuous
 62
     7
370
    15
100
AcDbLine
 10
105.6016201863
 20
72.3134352647
 30
0.0
 11
105.4862345915
 21
72.22558927109999
 31
0.0
  0
LINE
  5
407
330
1F
100
AcDbEntity
  8
0
  6
Continuous
 62
     7
370
    15
100
AcDbLine
 10
100.6120434148
 20
78.8780958214
 30
0.0
 11
100.4001147681
 21
78.71675713569999
 31
0.0
  0
LINE
  5
408
330
1F
100
AcDbEntity
  8
0
  6
Continuous
 62
     7
370
    15
100
AcDbLine
 10
103.6429988657
 20
75.1412648642
 30
0.0
 11
103.3403286498
 21
74.9108349563
 31
0.0
  0
LINE
  5
409
330
1F
100
AcDbEntity
  8
0
  6
Continuous
 62
     7
370
    15
100
AcDbLine
 10
102.4520380928
 20
76.41812859979999
 30
0.0
 11
102.2332306439
 21
76.2515490231
 31
0.0
  0
LINE
  5
40A
330
1F
100
AcDbEntity
  8
0
  6
Continuous
 62
     7
370
    15
100
AcDbLine
 10
99.2007025766
 20
80.89287987189999
 30
0.0
 11
98.89802570790001
 21
80.66245666170001
 31
0.0
  0
LINE
  5
40B
330
1F
100
AcDbEntity
  8
0
  6
Continuous
 62
     7
370
    15
100
AcDbLine
 10
104.2928701434
 20
73.94464428399999
 30
0.0
 11
104.0740626945
 21
73.77806470729999
 31
0.0
  0
LINE
  5
40C
330
1F
100
AcDbEntity
  8
0
  6
Continuous
 62
     7
370
    15
100
AcDbLine
 10
97.7848176874
 20
82.3060492831
 30
0.0
 11
97.5876534446
 21
82.1559509012
 31
0.0
  0
LINE
  5
40D
330
1F
100
AcDbEntity
  8
0
  6
Continuous
 62
     7
370
    15
100
AcDbLine
 10
105.4915618345
 20
72.64688130759999
 30
0.0
 11
105.1888850924
 21
72.4164507368
 31
0.0
  0
LINE
  5
40E
330
1F
100
AcDbEntity
  8
0
  6
Continuous
 62
     7
370
    15
100
AcDbLine
 10
98.01135059359999
 20
82.1653910088
 30
0.0
 11
97.79254314459999
 21
81.9988114322
 31
0.0
  0
LINE
  5
40F
330
1F
100
AcDbEntity
  8
0
  6
Continuous
 62
     7
370
    15
100
AcDbLine
 10
101.0304900388
 20
78.43278685060001
 30
0.0
 11
100.7325690769
 21
78.2059805287
 31
0.0
  0
LINE
  5
410
330
1F
100
AcDbEntity
  8
0
  6
Continuous
 62
     7
370
    15
100
AcDbLine
 10
99.85056732830001
 20
79.6962586287
 30
0.0
 11
99.6317597526
 21
79.5296864127
 31
0.0
  0
LINE
  5
411
330
1F
100
AcDbEntity
  8
0
  6
Continuous
 62
     7
370
    15
100
AcDbLine
 10
102.879149196
 20
75.9546237392
 30
0.0
 11
102.576472454
 21
75.72419316840001
 31
0.0
  0
LINE
  5
412
330
1F
100
AcDbEntity
  8
0
  6
Continuous
 62
     7
370
    15
100
AcDbLine
 10
101.6897905746
 20
77.22713424270001
 30
0.0
 11
101.4709831256
 21
77.060554666
 31
0.0
  0
LINE
  5
413
330
1F
100
AcDbEntity
  8
0
  6
Continuous
 62
     7
370
    15
100
AcDbLine
 10
104.7199812045
 20
73.48113943439999
 30
0.0
 11
104.4173044625
 21
73.25070886359999
 31
0.0
  0
LINE
  5
414
330
1F
100
AcDbEntity
  8
0
  6
Continuous
 62
     7
370
    15
100
AcDbLine
 10
98.4384616968
 20
81.7018861482
 30
0.0
 11
98.13578495480001
 21
81.4714555774
 31
0.0
  0
LINE
  5
415
330
1F
100
AcDbEntity
  8
0
  6
Continuous
 62
     7
370
    15
100
AcDbLine
 10
103.5306225971
 20
74.7536499342
 30
0.0
 11
103.3118151481
 21
74.58707035759999
 31
0.0
  0
LINE
  5
416
330
1F
100
AcDbEntity
  8
0
  6
Continuous
 62
     7
370
    15
100
AcDbLine
 10
100.2776849576
 20
79.23275443109999
 30
0.0
 11
99.97500808879999
 21
79.0023312209
 31
0.0
  0
LINE
  5
417
330
1F
100
AcDbEntity
  8
0
  6
Continuous
 62
     7
370
    15
100
AcDbLine
 10
99.0883264484
 20
80.5052649051
 30
0.0
 11
98.86951899940001
 21
80.3386853285
 31
0.0
  0
LINE
  5
418
330
1F
100
AcDbEntity
  8
0
  6
Continuous
 62
     7
370
    15
100
AcDbLine
 10
102.1169018045
 20
76.76362202140001
 30
0.0
 11
101.8142249357
 21
76.53319881129999
 31
0.0
  0
LINE
  5
419
330
1F
100
AcDbEntity
  8
0
  6
Continuous
 62
     7
370
    15
100
AcDbLine
 10
100.9228695785
 20
78.0487961622
 30
0.0
 11
100.7040621295
 21
77.88221658560001
 31
0.0
  0
LINE
  5
41A
330
1F
100
AcDbEntity
  8
0
  6
Continuous
 62
     7
370
    15
100
AcDbLine
 10
103.9577337989
 20
74.2901377204
 30
0.0
 11
103.6550569302
 21
74.0597145102
 31
0.0
  0
LINE
  5
41B
330
1F
100
AcDbEntity
  8
0
  6
Continuous
 62
     7
370
    15
100
AcDbLine
 10
102.7667663733
 20
75.5670081536
 30
0.0
 11
102.5479589243
 21
75.400428577
 31
0.0
  0
LINE
  5
41C
330
1F
100
AcDbEntity
  8
0
  6
Continuous
 62
     7
370
    15
100
AcDbLine
 10
99.51543743930001
 20
80.04176007399999
 30
0.0
 11
99.2127606973
 21
79.8113295032
 31
0.0
  0
LINE
  5
41D
330
1F
100
AcDbEntity
  8
0
  6
Continuous
 62
     7
370
    15
100
AcDbLine
 10
104.6075984239
 20
73.09352383779999
 30
0.0
 11
104.3887909749
 21
72.92694426119999
 31
0.0
  0
LINE
  5
41E
330
1F
100
AcDbEntity
  8
0
  6
Continuous
 62
     7
370
    15
100
AcDbLine
 10
105.0758688653
 20
72.56678176040001
 30
0.0
 11
104.7994298569
 21
72.3563296492
 31
0.0
  0
LINE
  5
41F
330
1F
100
AcDbEntity
  8
0
  6
Continuous
 62
     7
370
    15
100
AcDbLine
 10
98.32608534409999
 20
81.3142712405
 30
0.0
 11
98.10727136889999
 21
81.14769100089999
 31
0.0
  0
LINE
  5
420
330
1F
100
AcDbEntity
  8
0
  6
Continuous
 62
     7
370
    15
100
AcDbLine
 10
101.3499808083
 20
77.58528394089999
 30
0.0
 11
101.0473039396
 21
77.3548607308
 31
0.0
  0
LINE
  5
421
330
1F
100
AcDbEntity
  8
0
  6
Continuous
 62
     7
370
    15
100
AcDbLine
 10
100.1606221869
 20
78.8577944445
 30
0.0
 11
99.9418147379
 21
78.6912148678
 31
0.0
  0
LINE
  5
422
330
1F
100
AcDbEntity
  8
0
  6
Continuous
 62
     7
370
    15
100
AcDbLine
 10
97.9361256259
 20
81.7439950496
 30
0.0
 11
97.63344888389999
 21
81.51356447880001
 31
0.0
  0
LINE
  5
423
330
1F
100
AcDbEntity
  8
0
  6
Continuous
 62
     7
370
    15
100
AcDbLine
 10
103.1938841293
 20
75.1034965954
 30
0.0
 11
102.8912072605
 21
74.8730733852
 31
0.0
  0
LINE
  5
424
330
1F
100
AcDbEntity
  8
0
  6
Continuous
 62
     7
370
    15
100
AcDbLine
 10
102.0014541533
 20
76.3843101508
 30
0.0
 11
101.7826467044
 21
76.2177305742
 31
0.0
  0
LINE
  5
425
330
1F
100
AcDbEntity
  8
0
  6
Continuous
 62
     7
370
    15
100
AcDbLine
 10
98.75319657390001
 20
80.85075901919999
 30
0.0
 11
98.45051970520001
 21
80.6203358091
 31
0.0
  0
LINE
  5
426
330
1F
100
AcDbEntity
  8
0
  6
Continuous
 62
     7
370
    15
100
AcDbLine
 10
103.8453575304
 20
73.9025227905
 30
0.0
 11
103.6265500814
 21
73.7359432138
 31
0.0
  0
LINE
  5
427
330
1F
100
AcDbEntity
  8
0
  6
Continuous
 62
     7
370
    15
100
AcDbLine
 10
105.0347161237
 20
72.6300122943
 30
0.0
 11
104.732039255
 21
72.3995890842
 31
0.0
  0
LINE
  5
428
330
1F
100
AcDbEntity
  8
0
  6
Continuous
 62
     7
370
    15
100
AcDbLine
 10
100.5877332901
 20
78.3942895839
 30
0.0
 11
100.2850565481
 21
78.16385901310001
 31
0.0
  0
LINE
  5
429
330
1F
100
AcDbEntity
  8
0
  6
Continuous
 62
     7
370
    15
100
AcDbLine
 10
99.39760988979999
 20
79.65763622529999
 30
0.0
 11
99.18568124309999
 21
79.4962975396
 31
0.0
  0
LINE
  5
42A
330
1F
100
AcDbEntity
  8
0
  6
Continuous
 62
     7
370
    15
100
AcDbLine
 10
102.4285652565
 20
75.92080529020001
 30
0.0
 11
102.1258885145
 21
75.69037471939999
 31
0.0
  0
LINE
  5
42B
330
1F
100
AcDbEntity
  8
0
  6
Continuous
 62
     7
370
    15
100
AcDbLine
 10
101.2345331572
 20
77.20597207029999
 30
0.0
 11
101.0157257082
 21
77.03939249369999
 31
0.0
  0
LINE
  5
42C
330
1F
100
AcDbEntity
  8
0
  6
Continuous
 62
     7
370
    15
100
AcDbLine
 10
104.2724685774
 20
73.43901794459999
 30
0.0
 11
103.9697918354
 21
73.2085873738
 31
0.0
  0
LINE
  5
42D
330
1F
100
AcDbEntity
  8
0
  6
Continuous
 62
     7
370
    15
100
AcDbLine
 10
97.99094894340001
 20
81.65976469170001
 30
0.0
 11
97.6882722014
 21
81.4293341209
 31
0.0
  0
LINE
  5
42E
330
1F
100
AcDbEntity
  8
0
  6
Continuous
 62
     7
370
    15
100
AcDbLine
 10
103.0815013066
 20
74.7158810099
 30
0.0
 11
102.8626938576
 21
74.5493014332
 31
0.0
  0
LINE
  5
42F
330
1F
100
AcDbEntity
  8
0
  6
Continuous
 62
     7
370
    15
100
AcDbLine
 10
99.8160499877
 20
79.2123265915
 30
0.0
 11
99.5181355519
 21
78.9855209326
 31
0.0
  0
LINE
  5
430
330
1F
100
AcDbEntity
  8
0
  6
Continuous
 62
     7
370
    15
100
AcDbLine
 10
104.3520880894
 20
72.92816227600001
 30
0.0
 11
104.0585359013
 21
72.70467544129999
 31
0.0
  0
LINE
  5
431
330
1F
100
AcDbEntity
  8
0
  6
Continuous
 62
     7
370
    15
100
AcDbLine
 10
98.63613369100001
 20
80.4757990621
 30
0.0
 11
98.4173261153
 21
80.30922684610001
 31
0.0
  0
LINE
  5
432
330
1F
100
AcDbEntity
  8
0
  6
Continuous
 62
     7
370
    15
100
AcDbLine
 10
101.6616442604
 20
76.7424672097
 30
0.0
 11
101.3589675183
 21
76.5120366389
 31
0.0
  0
LINE
  5
433
330
1F
100
AcDbEntity
  8
0
  6
Continuous
 62
     7
370
    15
100
AcDbLine
 10
103.5086124097
 20
74.25237614930001
 30
0.0
 11
103.2059356677
 21
74.02194557850001
 31
0.0
  0
LINE
  5
434
330
1F
100
AcDbEntity
  8
0
  6
Continuous
 62
     7
370
    15
100
AcDbLine
 10
102.316189016
 20
75.53319035289999
 30
0.0
 11
102.097381567
 21
75.3666107763
 31
0.0
  0
LINE
  5
435
330
1F
100
AcDbEntity
  8
0
  6
Continuous
 62
     7
370
    15
100
AcDbLine
 10
99.0632447942
 20
80.0122942015
 30
0.0
 11
98.76056805220001
 21
79.7818636307
 31
0.0
  0
LINE
  5
436
330
1F
100
AcDbEntity
  8
0
  6
Continuous
 62
     7
370
    15
100
AcDbLine
 10
104.160092337
 20
73.05140300729999
 30
0.0
 11
103.941284888
 21
72.8848234307
 31
0.0
  0
LINE
  5
437
330
1F
100
AcDbEntity
  8
0
  6
Continuous
 62
     7
370
    15
100
AcDbLine
 10
97.7837349946
 20
81.34267431259999
 30
0.0
 11
97.67875142940001
 21
81.2627571594
 31
0.0
  0
LINE
  5
438
330
1F
100
AcDbEntity
  8
0
  6
Continuous
 62
     7
370
    15
100
AcDbLine
 10
99.70842941509999
 20
78.82833593259999
 30
0.0
 11
99.48962196610001
 21
78.661756356
 31
0.0
  0
LINE
  5
439
330
1F
100
AcDbEntity
  8
0
  6
Continuous
 62
     7
370
    15
100
AcDbLine
 10
102.7433002459
 20
75.0696781317
 30
0.0
 11
102.4406233772
 21
74.8392549215
 31
0.0
  0
LINE
  5
43A
330
1F
100
AcDbEntity
  8
0
  6
Continuous
 62
     7
370
    15
100
AcDbLine
 10
101.5492616205
 20
76.35484424880001
 30
0.0
 11
101.3304540448
 21
76.1882720328
 31
0.0
  0
LINE
  5
43B
330
1F
100
AcDbEntity
  8
0
  6
Continuous
 62
     7
370
    15
100
AcDbLine
 10
98.30100391430001
 20
80.8213004779
 30
0.0
 11
97.9983271723
 21
80.5908699071
 31
0.0
  0
LINE
  5
43C
330
1F
100
AcDbEntity
  8
0
  6
Continuous
 62
     7
370
    15
100
AcDbLine
 10
98.02256386700001
 20
81.18937436119999
 30
0.0
 11
97.7458796532
 21
80.9787351227
 31
0.0
  0
LINE
  5
43D
330
1F
100
AcDbEntity
  8
0
  6
Continuous
 62
     7
370
    15
100
AcDbLine
 10
103.3962361692
 20
73.86476121200001
 30
0.0
 11
103.1774287203
 21
73.6981816353
 31
0.0
  0
LINE
  5
43E
330
1F
100
AcDbEntity
  8
0
  6
Continuous
 62
     7
370
    15
100
AcDbLine
 10
100.135540645
 20
78.3648237114
 30
0.0
 11
99.83287030239999
 21
78.1344011642
 31
0.0
  0
LINE
  5
43F
330
1F
100
AcDbEntity
  8
0
  6
Continuous
 62
     7
370
    15
100
AcDbLine
 10
102.6989162242
 20
70.803467916
 30
0.0
 11
102.4881518224
 21
71.6196348335
 31
0.0
  0
LINE
  5
440
330
1F
100
AcDbEntity
  8
0
  6
Continuous
 62
     7
370
    15
100
AcDbLine
 10
104.1069025368
 20
70.5875286758
 30
0.0
 11
104.5629278014
 21
69.6149728761
 31
0.0
  0
LINE
  5
441
330
1F
100
AcDbEntity
  8
0
  6
Continuous
 62
     7
370
    15
100
AcDbLine
 10
98.94618866200001
 20
79.6373348483
 30
0.0
 11
98.72738121299999
 21
79.47075527169999
 31
0.0
  0
LINE
  5
442
330
1F
100
AcDbEntity
  8
0
  6
Continuous
 62
     7
370
    15
100
AcDbLine
 10
101.9763726114
 20
75.89133941770001
 30
0.0
 11
101.6737022688
 21
75.66091687050001
 31
0.0
  0
LINE
  5
443
330
1F
100
AcDbEntity
  8
0
  6
Continuous
 62
     7
370
    15
100
AcDbLine
 10
100.7841675981
 20
77.14642547539999
 30
0.0
 11
100.5653601491
 21
76.9798458988
 31
0.0
  0
LINE
  5
444
330
1F
100
AcDbEntity
  8
0
  6
Continuous
 62
     7
370
    15
100
AcDbLine
 10
103.8233472869
 20
73.4012490202
 30
0.0
 11
103.5206704181
 21
73.1708258101
 31
0.0
  0
LINE
  5
445
330
1F
100
AcDbEntity
  8
0
  6
Continuous
 62
     7
370
    15
100
AcDbLine
 10
102.6309238932
 20
74.6820632239
 30
0.0
 11
102.4121164442
 21
74.5154836473
 31
0.0
  0
LINE
  5
446
330
1F
100
AcDbEntity
  8
0
  6
Continuous
 62
     7
370
    15
100
AcDbLine
 10
103.5873205452
 20
73.0930060819
 30
0.0
 11
103.5246233726
 21
73.04527873800001
 31
0.0
  0
LINE
  5
447
330
1F
100
AcDbEntity
  8
0
  6
Continuous
 62
     7
370
    15
100
AcDbLine
 10
97.94559313349999
 20
80.3773194531
 30
0.0
 11
97.8940531848
 21
80.3380843204
 31
0.0
  0
LINE
  5
448
330
1F
100
AcDbEntity
  8
0
  6
Continuous
 62
     7
370
    15
100
AcDbLine
 10
99.3732995406
 20
79.17383004680001
 30
0.0
 11
99.07062279860001
 21
78.94339947600001
 31
0.0
  0
LINE
  5
449
330
1F
100
AcDbEntity
  8
0
  6
Continuous
 62
     7
370
    15
100
AcDbLine
 10
98.1831762526
 20
80.4371766587
 30
0.0
 11
97.97124760590001
 21
80.27583797300001
 31
0.0
  0
LINE
  5
44A
330
1F
100
AcDbEntity
  8
0
  6
Continuous
 62
     7
370
    15
100
AcDbLine
 10
101.211278828
 20
76.6829132541
 30
0.0
 11
100.9086019592
 21
76.452490044
 31
0.0
  0
LINE
  5
44B
330
1F
100
AcDbEntity
  8
0
  6
Continuous
 62
     7
370
    15
100
AcDbLine
 10
100.0231642922
 20
77.97720880359999
 30
0.0
 11
99.8043568433
 21
77.81062922699999
 31
0.0
  0
LINE
  5
44C
330
1F
100
AcDbEntity
  8
0
  6
Continuous
 62
     7
370
    15
100
AcDbLine
 10
103.0580349963
 20
74.2185583633
 30
0.0
 11
102.7553582543
 21
73.9881277925
 31
0.0
  0
LINE
  5
44D
330
1F
100
AcDbEntity
  8
0
  6
Continuous
 62
     7
370
    15
100
AcDbLine
 10
101.8639964832
 20
75.50372445089999
 30
0.0
 11
101.6451890342
 21
75.33714487430001
 31
0.0
  0
LINE
  5
44E
330
1F
100
AcDbEntity
  8
0
  6
Continuous
 62
     7
370
    15
100
AcDbLine
 10
95.02179230850002
 20
81.7335314221
 30
0.0
 11
95.82117533989999
 21
81.11153561550001
 31
0.0
  0
LINE
  5
44F
330
1F
100
AcDbEntity
  8
0
  6
Continuous
 62
     7
370
    15
100
AcDbLine
 10
96.54610680540002
 20
79.16685120629999
 30
0.0
 11
95.85656634299999
 21
79.4941979713
 31
0.0
  0
LINE
  5
450
330
1F
100
AcDbEntity
  8
0
  6
Continuous
 62
     7
370
    15
100
AcDbLine
 10
98.60161635049999
 20
79.9918670249
 30
0.0
 11
98.30370191470001
 21
79.765061366
 31
0.0
  0
LINE
  5
451
330
1F
100
AcDbEntity
  8
0
  6
Continuous
 62
     7
370
    15
100
AcDbLine
 10
100.4502753954
 20
77.513703943
 30
0.0
 11
100.1475986534
 21
77.2832733722
 31
0.0
  0
LINE
  5
452
330
1F
100
AcDbEntity
  8
0
  6
Continuous
 62
     7
370
    15
100
AcDbLine
 10
102.9456587559
 20
73.830943426
 30
0.0
 11
102.7268513069
 21
73.66436384939999
 31
0.0
  0
LINE
  5
453
330
1F
100
AcDbEntity
  8
0
  6
Continuous
 62
     7
370
    15
100
AcDbLine
 10
99.2562434084
 20
78.79887069359999
 30
0.0
 11
99.03743595939999
 21
78.63229111699999
 31
0.0
  0
LINE
  5
454
330
1F
100
AcDbEntity
  8
0
  6
Continuous
 62
     7
370
    15
100
AcDbLine
 10
102.2911073618
 20
75.0402196494
 30
0.0
 11
101.9884306198
 21
74.80978907859999
 31
0.0
  0
LINE
  5
455
330
1F
100
AcDbEntity
  8
0
  6
Continuous
 62
     7
370
    15
100
AcDbLine
 10
101.1064150828
 20
76.3001345605
 30
0.0
 11
100.8876011077
 21
76.133554321
 31
0.0
  0
LINE
  5
456
330
1F
100
AcDbEntity
  8
0
  6
Continuous
 62
     7
370
    15
100
AcDbLine
 10
99.6833545115
 20
78.33536583299999
 30
0.0
 11
99.38067776950001
 21
78.1049352622
 31
0.0
  0
LINE
  5
457
330
1F
100
AcDbEntity
  8
0
  6
Continuous
 62
     7
370
    15
100
AcDbLine
 10
98.4481514065
 20
79.63729564489999
 30
0.0
 11
98.2872271217
 21
79.5147837538
 31
0.0
  0
LINE
  5
458
330
1F
100
AcDbEntity
  8
0
  6
Continuous
 62
     7
370
    15
100
AcDbLine
 10
101.5335263126
 20
75.83662233930001
 30
0.0
 11
101.2308494439
 21
75.6061991291
 31
0.0
  0
LINE
  5
459
330
1F
100
AcDbEntity
  8
0
  6
Continuous
 62
     7
370
    15
100
AcDbLine
 10
100.3319750652
 20
77.11695957339999
 30
0.0
 11
100.1131676163
 21
76.95037999680001
 31
0.0
  0
LINE
  5
45A
330
1F
100
AcDbEntity
  8
0
  6
Continuous
 62
     7
370
    15
100
AcDbLine
 10
102.1787312336
 20
74.6526046825
 30
0.0
 11
101.9599237846
 21
74.48602510589999
 31
0.0
  0
LINE
  5
45B
330
1F
100
AcDbEntity
  8
0
  6
Continuous
 62
     7
370
    15
100
AcDbLine
 10
98.9211070077
 20
79.14436414479999
 30
0.0
 11
98.61843013899999
 21
78.9139409346
 31
0.0
  0
LINE
  5
45C
330
1F
100
AcDbEntity
  8
0
  6
Continuous
 62
     7
370
    15
100
AcDbLine
 10
100.7573820544
 20
74.566274943
 30
0.0
 11
100.6153021611
 21
74.1737040884
 31
0.0
  0
LINE
  5
45D
330
1F
100
AcDbEntity
  8
0
  6
Continuous
 62
     7
370
    15
100
AcDbLine
 10
98.7564261992
 20
79.3973785396
 30
0.0
 11
98.45374933049999
 21
79.1669553294
 31
0.0
  0
LINE
  5
45E
330
1F
100
AcDbEntity
  8
0
  6
Continuous
 62
     7
370
    15
100
AcDbLine
 10
100.7590861684
 20
76.6534547128
 30
0.0
 11
100.4564094264
 21
76.423024142
 31
0.0
  0
LINE
  5
45F
330
1F
100
AcDbEntity
  8
0
  6
Continuous
 62
     7
370
    15
100
AcDbLine
 10
102.4683702331
 20
74.4003080051
 30
0.0
 11
102.1656933644
 21
74.169884795
 31
0.0
  0
LINE
  5
460
330
1F
100
AcDbEntity
  8
0
  6
Continuous
 62
     7
370
    15
100
AcDbLine
 10
102.7096016088
 20
73.8171677241
 30
0.0
 11
102.6245190878
 21
73.75239714050001
 31
0.0
  0
LINE
  5
461
330
1F
100
AcDbEntity
  8
0
  6
Continuous
 62
     7
370
    15
100
AcDbLine
 10
99.57097175940001
 20
77.94774290159999
 30
0.0
 11
99.35216418370002
 21
77.7811706856
 31
0.0
  0
LINE
  5
462
330
1F
100
AcDbEntity
  8
0
  6
Continuous
 62
     7
370
    15
100
AcDbLine
 10
101.4211434338
 20
75.4490067685
 30
0.0
 11
101.2023359848
 21
75.2824271919
 31
0.0
  0
LINE
  5
463
330
1F
100
AcDbEntity
  8
0
  6
Continuous
 62
     7
370
    15
100
AcDbLine
 10
98.65842384690001
 20
78.86288542289999
 30
0.0
 11
98.6234745435
 21
78.8362780017
 31
0.0
  0
LINE
  5
464
330
1F
100
AcDbEntity
  8
0
  6
Continuous
 62
     7
370
    15
100
AcDbLine
 10
99.3563743772
 20
78.1135236359
 30
0.0
 11
99.13352091310001
 21
77.9438638192
 31
0.0
  0
LINE
  5
465
330
1F
100
AcDbEntity
  8
0
  6
Continuous
 62
     7
370
    15
100
AcDbLine
 10
98.6839312164
 20
76.53388372180001
 30
0.0
 11
99.10014488290002
 21
76.67118701060001
 31
0.0
  0
LINE
  5
466
330
1F
100
AcDbEntity
  8
0
  6
Continuous
 62
     7
370
    15
100
AcDbLine
 10
99.99808938870001
 20
77.48423870399999
 30
0.0
 11
99.69541264660001
 21
77.2538081332
 31
0.0
  0
LINE
  5
467
330
1F
100
AcDbEntity
  8
0
  6
Continuous
 62
     7
370
    15
100
AcDbLine
 10
101.9040739045
 20
74.89974789819999
 30
0.0
 11
101.6369788043
 21
74.6964092772
 31
0.0
  0
LINE
  5
468
330
1F
100
AcDbEntity
  8
0
  6
Continuous
 62
     7
370
    15
100
AcDbLine
 10
100.6542223254
 20
76.2706687176
 30
0.0
 11
100.4354148764
 21
76.104089141
 31
0.0
  0
LINE
  5
469
330
1F
100
AcDbEntity
  8
0
  6
Continuous
 62
     7
370
    15
100
AcDbLine
 10
99.7735273009
 20
77.15570415390001
 30
0.0
 11
99.6888706896
 21
77.0912570313
 31
0.0
  0
LINE
  5
46A
330
1F
100
AcDbEntity
  8
0
  6
Continuous
 62
     7
370
    15
100
AcDbLine
 10
100.3970337947
 20
76.16889752369999
 30
0.0
 11
100.377448983
 21
76.153989538
 31
0.0
  0
LINE
  5
46B
330
1F
100
AcDbEntity
  8
0
  6
Continuous
 62
     7
370
    15
100
AcDbLine
 10
101.7691929147
 20
75.1069776425
 30
0.0
 11
101.4665161727
 21
74.8765470717
 31
0.0
  0
LINE
  5
46C
330
1F
100
AcDbEntity
  8
0
  6
Continuous
 62
     7
370
    15
100
AcDbLine
 10
101.1714223133
 20
75.66874614390001
 30
0.0
 11
100.9261771014
 21
75.4820350638
 31
0.0
  0
LINE
  5
46D
330
1F
100
AcDbEntity
  8
0
  6
Continuous
 62
     7
370
    15
100
AcDbLine
 10
100.7960716447
 20
76.1796133092
 30
0.0
 11
100.5220395138
 21
75.9709983878
 31
0.0
  0
LINE
  5
46E
330
1F
100
AcDbEntity
  8
0
  6
Continuous
 62
     7
370
    15
100
AcDbLine
 10
97.9338632325
 20
75.9628563837
 30
0.0
 11
98.35007689900001
 21
76.10015967249999
 31
0.0
  0
LINE
  5
46F
330
1F
100
AcDbEntity
  8
0
  6
Continuous
 62
     7
370
    15
100
AcDbLine
 10
100.0073140704
 20
73.9952476048
 30
0.0
 11
99.8421907874
 21
73.5390140768
 31
0.0
  0
LWPOLYLINE
  5
470
330
1F
100
AcDbEntity
  8
0
  6
Continuous
 62
     7
370
    15
100
AcDbPolyline
 90
       48
 70
   128
 43
0.0
 10
95.81619901080001
 20
85.81443370109999
 10
96.57436480400001
 20
85.5464950582
 10
97.4086745732
 20
85.122684046
 10
98.30423173040001
 20
84.5505508217
 10
99.24506447620002
 20
83.8403215109
 10
100.2143701199
 20
83.00465295859998
 10
101.1948638154
 20
82.0584761197
 10
102.1690431151
 20
81.01865956119999
 10
103.1195308362
 20
79.9037686593
 10
104.0293505012
 20
78.7336939818
 10
104.8822779614
 20
77.5293173078
 10
105.6630930303
 20
76.3121338072
 10
106.3578555427
 20
75.10385752229999
 10
106.954171553
 20
73.9260512354
 10
107.441399441
 20
72.7997382625
 10
107.8108464536
 20
71.74501162439999
 10
108.055914007
 20
70.780698469
 10
108.1722372689
 20
69.92400620499999
 10
108.1577308794
 20
69.1902134919
 10
108.0126564396
 20
68.59243077939999
 10
107.7396128591
 20
68.1413108087
 10
107.3434592747
 20
67.84491406569999
 10
106.8312730063
 20
67.7085254359
 10
106.2121884729
 20
67.73457767020001
 10
105.4972576597
 20
67.922606726
 10
104.6992385635
 20
68.26925720979999
 10
103.8323674184
 20
68.76834228319999
 10
102.9121191357
 20
69.41095686369999
 10
101.9549073425
 20
70.1856378728
 10
100.9778272423
 20
71.07855076389999
 10
99.9983047521
 20
72.0737762034
 10
99.0338170471
 20
73.15353838750001
 10
98.1015838467
 20
74.29857827239999
 10
97.21823319649999
 20
75.4884631859
 10
96.39953482200001
 20
76.7019539409
 10
95.66009529969999
 20
77.9174021623
 10
95.01311217120001
 20
79.1131123187
 10
94.470125313
 20
80.26774625079999
 10
94.0408305877
 20
81.3607061811
 10
93.73288908520001
 20
82.37248500600001
 10
93.55178487559999
 20
83.28502562109999
 10
93.5007637684
 20
84.08204866709999
 10
93.58073000639999
 20
84.7493212032
 10
93.79026180169999
 20
85.27495179589999
 10
94.1256074926
 20
85.64954215810001
 10
94.5807963851
 20
85.86642491680001
 10
95.14769628319999
 20
85.92171337290002
 10
95.81619901080001
 20
85.81443370109999
  0
SPLINE
  5
471
330
1F
100
AcDbEntity
  8
0
  6
Continuous
 62
     7
370
    15
100
AcDbSpline
210
0.0
220
0.0
230
1.0
 70
     8
 71
     3
 72
    24
 73
    20
 74
     0
 42
0.000000001
 43
0.0000000001
 40
0.0
 40
0.0
 40
0.0
 40
0.0
 40
0.0545718424736187
 40
0.1107279891172804
 40
0.1652993743258967
 40
0.2214669184467503
 40
0.2756748081632467
 40
0.3316316515328793
 40
0.3828128976618833
 40
0.4356522234224629
 40
0.4843543300855703
 40
0.5342092944566113
 40
0.6050427739711097
 40
0.6778810242468646
 40
0.7671987326558835
 40
0.8590990413188364
 40
0.9171107939175456
 40
0.9763220500770923
 40
1.0
 40
1.0
 40
1.0
 40
1.0
 10
163.3287362138661
 20
137.2117122297922
 30
0.0
 10
163.6401001475446
 20
137.1108334162348
 30
0.0
 10
164.271867386786
 20
136.9061471226548
 30
0.0
 10
165.383563136862
 20
136.2994868592906
 30
0.0
 10
166.5765165935233
 20
135.4726494670499
 30
0.0
 10
167.7851342249839
 20
134.4271334458121
 30
0.0
 10
168.9613591104728
 20
133.1568945746423
 30
0.0
 10
169.9900780246231
 20
131.7252201420531
 30
0.0
 10
170.8266047596553
 20
130.1409017199294
 30
0.0
 10
171.4046001801838
 20
128.5128667743201
 30
0.0
 10
171.739483206369
 20
126.8378914700502
 30
0.0
 10
171.8621246776647
 20
124.9450853848507
 30
0.0
 10
171.6852128959464
 20
122.8081112067892
 30
0.0
 10
171.1120452478042
 20
120.3437038807885
 30
0.0
 10
170.1461517315914
 20
117.8359199015151
 30
0.0
 10
168.9680899399774
 20
115.7124009793123
 30
0.0
 10
167.7914317749045
 20
114.1258908155744
 30
0.0
 10
166.9392158964273
 20
113.1919326987552
 30
0.0
 10
166.4187180301384
 20
112.806219409075
 30
0.0
 10
166.2700337442651
 20
112.6960373915447
 30
0.0
  0
SPLINE
  5
472
330
1F
100
AcDbEntity
  8
0
  6
Continuous
 62
     7
370
    15
100
AcDbSpline
210
0.0
220
0.0
230
1.0
 70
     8
 71
     3
 72
    10
 73
     6
 74
     0
 42
0.000000001
 43
0.0000000001
 40
0.0
 40
0.0
 40
0.0
 40
0.0
 40
0.1645490899337216
 40
0.5762983439783262
 40
1.0
 40
1.0
 40
1.0
 40
1.0
 10
161.680008155281
 20
137.0349101208172
 30
0.0
 10
161.7387246067575
 20
137.089885731676
 30
0.0
 10
161.9443665447578
 20
137.2824261675415
 30
0.0
 10
162.4742892014422
 20
137.3696976612039
 30
0.0
 10
163.0412169537723
 20
137.2648739281593
 30
0.0
 10
163.3287362138661
 20
137.2117122297922
 30
0.0
  0
LWPOLYLINE
  5
473
330
1F
100
AcDbEntity
  8
0
  6
Continuous
 62
     7
370
    15
100
AcDbPolyline
 90
       46
 70
   128
 43
0.0
 10
96.2688846974
 20
85.003353986
 10
96.99111920790002
 20
84.7453862701
 10
97.78828085469999
 20
84.3329919163
 10
98.64486447
 20
83.7742002963
 10
99.54419452659999
 20
83.07988488659999
 10
100.4687667397
 20
82.26356989740001
 10
101.4005916136
 20
81.3411239132
 10
102.3215153646
 20
80.33051809999999
 10
103.2136294441
 20
79.251423327
 10
104.0595627356
 20
78.124829194
 10
104.8428531502
 20
76.97267292020001
 10
105.5482539858
 20
75.81738556569999
 10
106.1620326143
 20
74.68144246050001
 10
106.6722509715
 20
73.58695486710001
 10
107.0689625885
 20
72.55522792189999
 10
107.3444625685
 20
71.60635261680001
 10
107.4933765497
 20
70.7587802654
 10
107.5128123177
 20
70.0290163867
 10
107.4023896201
 20
69.43127172469999
 10
107.1642585705
 20
68.9771723203
 10
106.8030564137
 20
68.6755544972
 10
106.3258108327
 20
68.5322913202
 10
105.7418062752
 20
68.55018025939999
 10
105.0624175082
 20
68.72886164509999
 10
104.300868012
 20
69.06485766029999
 10
103.4719729059
 20
69.5516399521
 10
102.5918702238
 20
70.17972485770001
 10
101.6776925196
 20
70.9368850939
 10
100.7472310726
 20
71.8083855645
 10
99.8185958912
 20
72.7772717528
 10
98.90986289690001
 20
73.8246788979
 10
98.0387147004
 20
74.93021156020001
 10
97.22211711709999
 20
76.0723698371
 10
96.47594932209999
 20
77.22891287580001
 10
95.81475053959998
 20
78.37732763089999
 10
95.2513802588
 20
79.4952605021
 10
94.796807731
 20
80.56096293619999
 10
94.4598817724
 20
81.5536865374
 10
94.2471569089
 20
82.45409980659999
 10
94.16277965419999
 20
83.24469125630001
 10
94.2083778051
 20
83.91007190640001
 10
94.38307942709998
 20
84.4372744143
 10
94.68347872729999
 20
84.8160572243
 10
95.1037282454
 20
85.0390377084
 10
95.63565164139999
 20
85.10187850959999
 10
96.2688846974
 20
85.003353986
  0
LWPOLYLINE
  5
474
330
1F
100
AcDbEntity
  8
0
  6
Continuous
 62
     7
370
    15
100
AcDbPolyline
 90
       49
 70
   128
 43
0.0
 10
202.9490151256
 20
17.0797707201
 10
204.0093023157
 20
16.8286803596
 10
204.9744670103
 20
16.5430838497
 10
205.757437763
 20
16.2421575312
 10
206.3517262035
 20
15.9283948447
 10
206.7524082712
 20
15.6043959214
 10
206.9561632056
 20
15.2728454319
 10
206.9613044996
 20
14.936490764
 10
206.7677883549
 20
14.5981189792
 10
206.37721871
 20
14.2605340758
 10
205.7928299963
 20
13.926532972
 10
205.0194671538
 20
13.5988839935
 10
204.0635373429
 20
13.2803015036
 10
202.9329619704
 20
12.9734258041
 10
201.6371090999
 20
12.6807995696
 10
200.1867162262
 20
12.4048475604
 10
198.5938025234
 20
12.1478565753
 10
196.8715680379
 20
11.9119557147
 10
195.0342815504
 20
11.699100405
 10
193.0971691992
 20
11.5110538805
 10
191.0762824674
 20
11.3493744274
 10
188.9883660284
 20
11.2154019579
 10
186.8507216503
 20
11.1102464771
 10
184.6810620376
 20
11.0347794557
 10
182.4973659552
 20
10.9896263158
 10
180.317729003
 20
10.9751607669
 10
178.16021169
 20
10.9915031242
 10
176.0426910993
 20
11.0385176813
 10
173.982714583
 20
11.1158152016
 10
171.9973515399
 20
11.222754723
 10
170.1030539132
 20
11.3584505056
 10
168.3155173839
 20
11.5217779035
 10
166.6495558335
 20
11.7113837774
 10
165.1189704635
 20
11.9256965284
 10
163.7364483495
 20
12.1629408812
 10
162.5134422032
 20
12.4211504726
 10
161.4600880633
 20
12.6981859292
 10
160.5851143202
 20
12.9917516571
 10
159.8957691969
 20
13.2994149137
 10
159.3977689296
 20
13.6186265749
 10
159.0952350383
 20
13.9467412026
 10
158.9906785059
 20
14.2810402398
 10
159.0849635944
 20
14.6187534244
 10
159.37731075
 20
14.9570824141
 10
159.8652950621
 20
15.293223795
 10
160.5448755054
 20
15.6243920259
 10
161.4104185903
 20
15.9478429601
 10
162.4547540832
 20
16.2608963688
 10
162.9549410068
 20
16.3912272155
  0
LWPOLYLINE
  5
475
330
1F
100
AcDbEntity
  8
0
  6
Continuous
 62
     7
370
    15
100
AcDbPolyline
 90
       36
 70
   128
 43
0.0
 10
207.0516182553
 20
11.1544813738
 10
207.0293377294
 20
10.9847783525
 10
206.8358215846
 20
10.6464065677
 10
206.4452519398
 20
10.3088216643
 10
205.8608632261
 20
9.974820560499999
 10
205.0875003836
 20
9.6471715821
 10
204.1315705726
 20
9.328589092199999
 10
203.0009952002
 20
9.0217133926
 10
201.7051423297
 20
8.729087158099998
 10
200.254749456
 20
8.453135148999999
 10
198.6618357532
 20
8.196144163899999
 10
196.9396012677
 20
7.9602433032
 10
195.1023147801
 20
7.7473879935
 10
193.165202429
 20
7.559341469099999
 10
191.1443156972
 20
7.397662015899999
 10
189.0563992581
 20
7.2636895465
 10
186.9187548801
 20
7.1585340657
 10
184.7490952674
 20
7.083067044199999
 10
182.5653991849
 20
7.037913904299999
 10
180.3857622327999
 20
7.023448355499999
 10
178.2282449197
 20
7.039790712699999
 10
176.1107243291
 20
7.0868052698
 10
174.0507478128
 20
7.1641027901
 10
172.0653847697
 20
7.271042311599999
 10
170.171087143
 20
7.406738094199999
 10
168.3835506137
 20
7.570065492
 10
166.7175890632
 20
7.7596713659
 10
165.1870036932
 20
7.9739841169
 10
163.8044815793
 20
8.211228469799999
 10
162.581475433
 20
8.469438061099999
 10
161.528121293
 20
8.7464735178
 10
160.65314755
 20
9.040039245599999
 10
159.9638024267
 20
9.3477025022
 10
159.4658021594
 20
9.666914163499999
 10
159.1632682681
 20
9.995028791199999
 10
159.0587297737
 20
10.328229166
  0
ELLIPSE
  5
476
330
1F
100
AcDbEntity
  8
0
  6
Continuous
 62
     7
370
    15
100
AcDbEllipse
 10
180.1596660997
 20
149.7586275803
 30
0.0
 11
19.70476425728228
 21
9.208868901929124
 31
0.0
210
0.0
220
0.0
230
1.0
 40
0.3191757691
 41
5.034619347749078
 42
6.138726213508691
  0
LWPOLYLINE
  5
477
330
1F
100
AcDbEntity
  8
0
  6
Continuous
 62
     7
370
    15
100
AcDbPolyline
 90
       22
 70
   128
 43
0.0
 10
160.1649721465
 20
149.1068848541
 10
160.166207928
 20
149.0775930873
 10
160.2915939355
 20
148.7758731605
 10
160.6210728646
 20
148.4795192031
 10
161.1512612472
 20
148.1915489443
 10
161.876712648
 20
147.9149499528
 10
162.7899769504
 20
147.6525459955
 10
163.8816767793
 20
147.4070412892
 10
165.1405968423
 20
147.1809476861
 10
166.553811332
 20
146.9766046474
 10
168.1068042182
 20
146.796080282
 10
169.7836262714
 20
146.64125464
 10
171.5670561355
 20
146.5137120267
 10
173.4387790263
 20
146.4147709818
 10
175.3795722645
 20
146.3454110689
 10
177.3695017786
 20
146.306397402
 10
179.3881311958
 20
146.2980833262
 10
181.4147303453
 20
146.3205831875
 10
183.4284857988
 20
146.3736559361
 10
185.4087140021
 20
146.4567541555999
 10
187.3350792852
 20
146.5690291852
 10
189.1877977706
 20
146.7093289003
  0
LWPOLYLINE
  5
478
330
1F
100
AcDbEntity
  8
0
  6
Continuous
 62
     7
370
    15
100
AcDbPolyline
 90
       64
 70
   128
 43
0.0
 10
189.6163520009
 20
194.2452616706
 10
191.297032609
 20
194.4215120003
 10
192.8625714885
 20
194.6209682116
 10
194.2974099217
 20
194.8416117273
 10
195.5872858505
 20
195.0812757928
 10
196.7193834824
 20
195.3375646496
 10
197.6824468157
 20
195.6079397725
 10
198.4669088168999
 20
195.8897003752
 10
199.0649708421
 20
196.1800574941
 10
199.4706899073
 20
196.4761179311
 10
199.6800321214
 20
196.7749584804
 10
199.6909207612
 20
197.0735834352
 10
199.5032424975
 20
197.3690421068
 10
199.118868235
 20
197.658387249
 10
198.5416135116
 20
197.9387472819
 10
197.7772156684
 20
198.2073420303
 10
196.8332737553
 20
198.4614957712
 10
195.7191685228
 20
198.6986782841
 10
194.4459719241
 20
198.9165450918
 10
193.0263391172
 20
199.1129165462
 10
191.4743763867
 20
199.2858575029
 10
189.8055080221
 20
199.4336235932
 10
188.0363224459
 20
199.5547798868
 10
186.1844012482
 20
199.6480973899
 10
184.2681500455
 20
199.712651849
 10
182.3066121874
 20
199.7478182370999
 10
180.3192838063
 20
199.7532155703
 10
178.3259148919
 20
199.728828577
 10
176.3463170538
 20
199.6748731274
 10
174.4001634794
 20
199.591895512
 10
172.5067971934999
 20
199.4807070721
 10
170.6850350856
 20
199.3424327746
 10
168.952982136
 20
199.1784258084
 10
167.3278513603
 20
198.9903397388
 10
165.8257963575
 20
198.7800367794
 10
164.4617431983
 20
198.5495982433
 10
163.249249544
 20
198.3013154822
 10
162.2003651594
 20
198.0376518018
 10
161.3255147445
 20
197.7612446629
 10
160.6333926473
 20
197.4748207724
 10
160.1308774487
 20
197.1812542773
 10
159.8229633025
 20
196.8834349504
 10
159.7127109946
 20
196.5843261607
 10
159.8012150548
 20
196.2869196089
 10
160.0875975769
 20
195.9941459152
 10
160.5690122436
 20
195.7089478877
 10
161.2406733459
 20
195.4341178002
 10
162.0959052598
 20
195.1724313039
 10
163.1262095901
 20
194.9264432058
 10
164.3213457077
 20
194.6986379789
 10
165.6694362166
 20
194.4912584516
 10
167.1570836002
 20
194.3063866347
 10
168.7695041164
 20
194.1458202005
 10
170.4906685792
 20
194.0112022276
 10
172.3034760274
 20
193.9038297094
 10
174.1899078016
 20
193.8247875359
 10
176.1312158676
 20
193.7748661397
 10
178.1081066177
 20
193.7545685574
 10
180.1009326918
 20
193.7640639011
 10
182.0898875664
 20
193.8032885816
 10
184.0552072315
 20
193.8718455583
 10
185.9773562362
 20
193.9690407824
 10
187.8372322475
 20
194.0939338116999
 10
189.6163520009
 20
194.2452616706
  0
LWPOLYLINE
  5
479
330
1F
100
AcDbEntity
  8
0
  6
Continuous
 62
     7
370
    15
100
AcDbPolyline
 90
       32
 70
   128
 43
0.0
 10
198.667740936
 20
148.4983417982
 10
198.6846667131
 20
148.3092182513
 10
198.547699019
 20
148.0175350520999
 10
198.2150894462
 20
147.7263540233
 10
197.6904829101
 20
147.4388652805
 10
196.9796271659
 20
147.1582186414
 10
196.0903093647999
 20
146.8874888579
 10
195.0322742467
 20
146.6296422568
 10
193.8171124697
 20
146.3875039487
 10
192.4581393886
 20
146.1637263587
 10
190.9702431045
 20
145.960761675
 10
189.3697247238
 20
145.7808336695
 10
187.6741217587
 20
145.6259132092
 10
185.9020098962
 20
145.4976981178
 10
184.0728047666
 20
145.3975930377
 10
182.2065494213999
 20
145.3266943889
 10
180.3236890323
 20
145.2857794321
 10
178.4448524838
 20
145.2752961959
 10
176.5906260769
 20
145.2953596426
 10
174.7813242101
 20
145.3457498184
 10
173.0367701677
 20
145.4259146324
 10
171.3760773082
 20
145.5349759512
 10
169.8174414047
 20
145.6717387078
 10
168.3779399309
 20
145.834704728
 10
167.0733409707
 20
146.0220881897
 10
165.9179409205
 20
146.2318362981
 10
164.924398965
 20
146.4616511072
 10
164.1035973512
 20
146.7090143717
 10
163.4645322723
 20
146.9712162445
 10
163.0142047515
 20
147.245383975
 10
162.7575461773
 20
147.52851339
 10
162.7022855973
 20
147.6750126557
  0
LWPOLYLINE
  5
47A
330
1F
100
AcDbEntity
  8
0
  6
Continuous
 62
     7
370
    15
100
AcDbPolyline
 90
       40
 70
   128
 43
0.0
 10
198.2094866962
 20
149.8430377096
 10
199.0825679418
 20
149.5816760924
 10
199.7728640622
 20
149.3052246176
 10
200.2735168907
 20
149.0164310222
 10
200.5795489822
 20
148.7181652605
 10
200.6879212913
 20
148.4133918436
 10
200.5975550764
 20
148.1051396892
 10
200.309349224
 20
147.7964722847
 10
199.8261669552
 20
147.4904572773
 10
199.1528120473
 20
147.1901361449
 10
198.2959739888
 20
146.8984934123
 10
197.2641705604999
 20
146.6184277342
 10
196.0676562285
 20
146.3527224519
 10
194.7183211905
 20
146.1040183113
 10
193.22957708
 20
145.87478679
 10
191.6162184286
 20
145.6673065277
 10
189.8942811531
 20
145.4836391272
 10
188.0808768364
 20
145.3256103549
 10
186.1940299892
 20
145.194790334
 10
184.2524905346
 20
145.0924797337
 10
182.2755568611
 20
145.0196947407
 10
180.2828741775
 20
144.9771593439
 10
178.2942479665
 20
144.9652958789
 10
176.3294424912
 20
144.9842224037
 10
174.4079837057
 20
145.0337508488
 10
172.5489691753
 20
145.1133888267
 10
170.7708737455
 20
145.2223449386
 10
169.0913680162999
 20
145.3595363639
 10
167.5271462544
 20
145.5235996194
 10
166.0937535645
 20
145.7129041892
 10
164.8054340758
 20
145.9255686586
 10
163.6749921886
 20
146.1594793612
 10
162.7136637897
 20
146.4123117581
 10
161.9310030495
 20
146.6815530724
 10
161.3347870018
 20
146.9645273851
 10
160.9309414974999
 20
147.2584222474
 10
160.7234809448
 20
147.5603170211
 10
160.7144674478
 20
147.8672114707
 10
160.9039895155
 20
148.1760551568
 10
160.9952696457
 20
148.2650120557
  0
LWPOLYLINE
  5
47B
330
1F
100
AcDbEntity
  8
0
  6
Continuous
 62
     7
370
    15
100
AcDbPolyline
 90
       33
 70
   128
 43
0.0
 10
202.9841773801
 20
15.037339407
 10
202.8936765636
 20
14.7348468376
 10
202.6054707112
 20
14.4261794331
 10
202.1222884424
 20
14.1201644257
 10
201.4489335345
 20
13.8198432933
 10
200.592095476
 20
13.5282005607
 10
199.5602920477
 20
13.2481348826
 10
198.3637777157
 20
12.9824296003
 10
197.0144426778
 20
12.7337254597
 10
195.5256985672
 20
12.5044939384
 10
193.9123399158
 20
12.2970136761
 10
192.1904026403
 20
12.1133462756
 10
190.3769983236
 20
11.9553175033
 10
188.4901514764
 20
11.8244974824
 10
186.5486120218
 20
11.7221868821
 10
184.5716783483
 20
11.6494018891
 10
182.5789956647
 20
11.6068664923
 10
180.5903694537
 20
11.5950030273
 10
178.6255639784
 20
11.6139295521
 10
176.7041051929
 20
11.6634579972
 10
174.8450906625
 20
11.7430959751
 10
173.0669952327
 20
11.852052087
 10
171.3874895035
 20
11.9892435123
 10
169.8232677416
 20
12.1533067678
 10
168.3898750517
 20
12.3426113376
 10
167.101555563
 20
12.555275807
 10
165.9711136758
 20
12.7891865096
 10
165.0097852769
 20
13.0420189065
 10
164.2271245368
 20
13.3112602208
 10
163.630908489
 20
13.5942345335
 10
163.2270629846999
 20
13.8881293957
 10
163.0196024321
 20
14.1900241695
 10
162.9901041893
 20
14.3487959557
  0
ENDSEC
  0
SECTION
  2
OBJECTS
  0
DICTIONARY
  5
C
330
0
100
AcDbDictionary
281
     1
  3
ACAD_CIP_PREVIOUS_PRODUCT_INFO
350
4BB
  3
ACAD_COLOR
350
4B0
  3
ACAD_DETAILVIEWSTYLE
350
4B7
  3
ACAD_GROUP
350
D
  3
ACAD_LAYOUT
350
1A
  3
ACAD_MATERIAL
350
47E
  3
ACAD_MLEADERSTYLE
350
4B3
  3
ACAD_MLINESTYLE
350
17
  3
ACAD_PLOTSETTINGS
350
19
  3
ACAD_PLOTSTYLENAME
350
E
  3
ACAD_SCALELIST
350
47
  3
ACAD_SECTIONVIEWSTYLE
350
4B5
  3
ACAD_TABLESTYLE
350
4B1
  3
ACAD_VISUALSTYLE
350
497
  3
ACDB_RECOMPOSE_DATA
350
4E4
  3
AcDbVariableDictionary
350
4D4
  0
DICTIONARY
  5
4CC
330
10
100
AcDbDictionary
280
     1
281
     1
  3
ADSK_XREC_LAYER_RECONCILED
360
4CD
  0
DICTIONARY
  5
4CE
330
73
100
AcDbDictionary
280
     1
281
     1
  3
ADSK_XREC_LAYER_RECONCILED
360
4CF
  0
DICTIONARY
  5
4D0
330
74
100
AcDbDictionary
280
     1
281
     1
  3
ADSK_XREC_LAYER_RECONCILED
360
4D1
  0
DICTIONARY
  5
4D2
330
75
100
AcDbDictionary
280
     1
281
     1
  3
ADSK_XREC_LAYER_RECONCILED
360
4D3
  0
XRECORD
  5
4BB
102
{ACAD_REACTORS
330
C
102
}
330
C
100
AcDbXrecord
280
     1
300
ACD
300
2017
300
ACD_F_S
  0
DICTIONARY
  5
4B0
102
{ACAD_REACTORS
330
C
102
}
330
C
100
AcDbDictionary
281
     1
  0
DICTIONARY
  5
4B7
102
{ACAD_REACTORS
330
C
102
}
330
C
100
AcDbDictionary
281
     1
  3
Metric50
350
4B8
  0
DICTIONARY
  5
D
102
{ACAD_REACTORS
330
C
102
}
330
C
100
AcDbDictionary
281
     1
  0
DICTIONARY
  5
1A
102
{ACAD_REACTORS
330
C
102
}
330
C
100
AcDbDictionary
281
     1
  3
Layout1
350
1E
  3
Layout2
350
26
  3
Model
350
22
  0
DICTIONARY
  5
47E
102
{ACAD_REACTORS
330
C
102
}
330
C
100
AcDbDictionary
281
     1
  3
ByBlock
350
487
  3
ByLayer
350
47F
  3
Global
350
48F
  0
DICTIONARY
  5
4B3
102
{ACAD_REACTORS
330
C
102
}
330
C
100
AcDbDictionary
281
     1
  3
Standard
350
4B4
  0
DICTIONARY
  5
17
102
{ACAD_REACTORS
330
C
102
}
330
C
100
AcDbDictionary
281
     1
  3
Standard
350
18
  0
DICTIONARY
  5
19
102
{ACAD_REACTORS
330
C
102
}
330
C
100
AcDbDictionary
281
     1
  0
ACDBDICTIONARYWDFLT
  5
E
102
{ACAD_REACTORS
330
C
102
}
330
C
100
AcDbDictionary
281
     1
  3
Normal
350
F
100
AcDbDictionaryWithDefault
340
F
  0
DICTIONARY
  5
47
102
{ACAD_REACTORS
330
C
102
}
330
C
100
AcDbDictionary
281
     1
  3
A0
350
48
  3
A1
350
49
  3
A2
350
4A
  3
A3
350
4B
  3
A4
350
4C
  3
A5
350
4D
  3
A6
350
4E
  3
A7
350
4F
  3
A8
350
50
  3
A9
350
51
  3
B0
350
52
  3
B1
350
53
  3
B2
350
54
  3
B3
350
55
  3
B4
350
56
  3
B5
350
57
  3
B6
350
58
  3
B7
350
59
  3
B8
350
5A
  3
B9
350
5B
  3
C0
350
5C
  3
C1
350
5D
  3
C2
350
5E
  3
C3
350
5F
  3
C4
350
60
  3
C5
350
61
  3
C6
350
62
  3
C7
350
63
  3
C8
350
64
  3
C9
350
65
  3
D0
350
66
  3
D1
350
67
  3
D2
350
68
  0
DICTIONARY
  5
4B5
102
{ACAD_REACTORS
330
C
102
}
330
C
100
AcDbDictionary
281
     1
  3
Metric50
350
4B6
  0
DICTIONARY
  5
4B1
102
{ACAD_REACTORS
330
C
102
}
330
C
100
AcDbDictionary
281
     1
  3
Standard
350
4B2
  0
DICTIONARY
  5
497
102
{ACAD_REACTORS
330
C
102
}
330
C
100
AcDbDictionary
281
     1
  3
2dWireframe
350
49D
  3
Basic
350
49C
  3
Brighten
350
4A3
  3
ColorChange
350
4A7
  3
Conceptual
350
4A0
  3
Dim
350
4A2
  3
EdgeColorOff
350
4AF
  3
Facepattern
350
4A6
  3
Flat
350
498
  3
FlatWithEdges
350
499
  3
Gouraud
350
49A
  3
GouraudWithEdges
350
49B
  3
Hidden
350
49F
  3
JitterOff
350
4AD
  3
Linepattern
350
4A5
  3
OverhangOff
350
4AE
  3
Realistic
350
4A1
  3
Shaded
350
4AC
  3
Shaded with edges
350
4AB
  3
Shades of Gray
350
4A8
  3
Sketchy
350
4A9
  3
Thicken
350
4A4
  3
Wireframe
350
49E
  3
X-Ray
350
4AA
  0
XRECORD
  5
4E4
102
{ACAD_REACTORS
330
C
102
}
330
C
100
AcDbXrecord
280
     1
 90
        1
330
4B2
330
4B6
330
4B8
  0
DICTIONARY
  5
4D4
102
{ACAD_REACTORS
330
C
102
}
330
C
100
AcDbDictionary
281
     1
  3
CANNOSCALE
350
4DA
  3
CMLEADERSTYLE
350
4D6
  3
CTABLESTYLE
350
4D5
  3
CVIEWDETAILSTYLE
350
4D7
  3
CVIEWSECTIONSTYLE
350
4D8
  3
LAYEREVAL
350
4DC
  3
LAYERNOTIFY
350
4DD
  3
LIGHTINGUNITS
350
4DB
  3
MSLTSCALE
350
4D9
  0
XRECORD
  5
4CD
102
{ACAD_REACTORS
330
4CC
102
}
330
4CC
100
AcDbXrecord
280
     1
290
     1
  0
XRECORD
  5
4CF
102
{ACAD_REACTORS
330
4CE
102
}
330
4CE
100
AcDbXrecord
280
     1
290
     1
  0
XRECORD
  5
4D1
102
{ACAD_REACTORS
330
4D0
102
}
330
4D0
100
AcDbXrecord
280
     1
290
     1
  0
XRECORD
  5
4D3
102
{ACAD_REACTORS
330
4D2
102
}
330
4D2
100
AcDbXrecord
280
     1
290
     1
  0
ACDBDETAILVIEWSTYLE
  5
4B8
102
{ACAD_XDICTIONARY
360
4E2
102
}
102
{ACAD_REACTORS
330
4B7
102
}
330
4B7
100
AcDbModelDocViewStyle
 70
     0
  3
Metric50
290
     0
100
AcDbDetailViewStyle
 70
     0
 71
     0
 90
        3
 71
     1
340
11
 62
   256
 40
5.0
340
0
 62
   256
 40
5.0
300

 40
0.0
280
     1
 71
     2
340
16
 90
       25
 62
   256
 71
     3
340
11
 62
   256
 40
5.0
 90
        0
 40
15.0
 90
        1
300
%<\AcVar ViewDetailId>% (%<\AcVar ViewScale \f "%sn">%)
 71
     4
340
16
 90
       25
 62
   256
340
16
 90
       25
 62
   256
280
     0
  0
LAYOUT
  5
1E
102
{ACAD_REACTORS
330
1A
102
}
330
1A
100
AcDbPlotSettings
  1

  2
none_device
  4

  6

 40
0.0
 41
0.0
 42
0.0
 43
0.0
 44
0.0
 45
0.0
 46
0.0
 47
0.0
 48
0.0
 49
0.0
140
0.0
141
0.0
142
1.0
143
1.0
 70
   688
 72
     1
 73
     0
 74
     5
  7

 75
    16
147
1.0
 76
     0
 77
     2
 78
   300
148
0.0
149
0.0
100
AcDbLayout
  1
Layout1
 70
     1
 71
     1
 10
0.0
 20
0.0
 11
420.0
 21
297.0
 12
0.0
 22
0.0
 32
0.0
 14
1.000000000000000E+20
 24
1.000000000000000E+20
 34
1.000000000000000E+20
 15
-1.000000000000000E+20
 25
-1.000000000000000E+20
 35
-1.000000000000000E+20
146
0.0
 13
0.0
 23
0.0
 33
0.0
 16
1.0
 26
0.0
 36
0.0
 17
0.0
 27
1.0
 37
0.0
 76
     0
330
1B
  0
LAYOUT
  5
26
102
{ACAD_REACTORS
330
1A
102
}
330
1A
100
AcDbPlotSettings
  1

  2
none_device
  4

  6

 40
0.0
 41
0.0
 42
0.0
 43
0.0
 44
0.0
 45
0.0
 46
0.0
 47
0.0
 48
0.0
 49
0.0
140
0.0
141
0.0
142
1.0
143
1.0
 70
   688
 72
     1
 73
     0
 74
     5
  7

 75
    16
147
1.0
 76
     0
 77
     2
 78
   300
148
0.0
149
0.0
100
AcDbLayout
  1
Layout2
 70
     1
 71
     2
 10
0.0
 20
0.0
 11
0.0
 21
0.0
 12
0.0
 22
0.0
 32
0.0
 14
0.0
 24
0.0
 34
0.0
 15
0.0
 25
0.0
 35
0.0
146
0.0
 13
0.0
 23
0.0
 33
0.0
 16
1.0
 26
0.0
 36
0.0
 17
0.0
 27
1.0
 37
0.0
 76
     0
330
23
  0
LAYOUT
  5
22
102
{ACAD_REACTORS
330
1A
102
}
330
1A
100
AcDbPlotSettings
  1

  2
none_device
  4
Letter_(8.50_x_11.00_Inches)
  6

 40
6.349999999999999
 41
6.349999999999999
 42
6.350005079999999
 43
6.350005079999999
 44
215.9
 45
279.4
 46
0.0
 47
0.0
 48
0.0
 49
0.0
140
0.0
141
0.0
142
1.0
143
1.0
 70
  1712
 72
     1
 73
     0
 74
     0
  7

 75
     0
147
1.0
 76
     0
 77
     2
 78
   300
148
0.0
149
0.0
100
AcDbLayout
  1
Model
 70
     1
 71
     0
 10
0.0
 20
0.0
 11
297.0
 21
210.0
 12
0.0
 22
0.0
 32
0.0
 14
0.0
 24
0.0
 34
0.0
 15
297.0
 25
210.0
 35
0.0
146
0.0
 13
0.0
 23
0.0
 33
0.0
 16
1.0
 26
0.0
 36
0.0
 17
0.0
 27
1.0
 37
0.0
 76
     0
330
1F
331
29
  0
MATERIAL
  5
487
102
{ACAD_XDICTIONARY
360
488
102
}
102
{ACAD_REACTORS
330
47E
102
}
330
47E
100
AcDbMaterial
  1
ByBlock
 72
     0
 43
0.0008202099737533
 43
0.0
 43
0.0
 43
0.0
 43
0.0
 43
0.0008202099737533
 43
0.0
 43
0.0
 43
0.0
 43
0.0
 43
1.0
 43
0.0
 43
0.0
 43
0.0
 43
0.0
 43
1.0
 77
     0
 47
0.0008202099737533
 47
0.0
 47
0.0
 47
0.0
 47
0.0
 47
0.0008202099737533
 47
0.0
 47
0.0
 47
0.0
 47
0.0
 47
1.0
 47
0.0
 47
0.0
 47
0.0
 47
0.0
 47
1.0
171
     0
 49
0.0008202099737533
 49
0.0
 49
0.0
 49
0.0
 49
0.0
 49
0.0008202099737533
 49
0.0
 49
0.0
 49
0.0
 49
0.0
 49
1.0
 49
0.0
 49
0.0
 49
0.0
 49
0.0
 49
1.0
175
     0
142
0.0008202099737533
142
0.0
142
0.0
142
0.0
142
0.0
142
0.0008202099737533
142
0.0
142
0.0
142
0.0
142
0.0
142
1.0
142
0.0
142
0.0
142
0.0
142
0.0
142
1.0
179
     0
144
0.0008202099737533
144
0.0
144
0.0
144
0.0
144
0.0
144
0.0008202099737533
144
0.0
144
0.0
144
0.0
144
0.0
144
1.0
144
0.0
144
0.0
144
0.0
144
0.0
144
1.0
147
0.0008202099737533
147
0.0
147
0.0
147
0.0
147
0.0
147
0.0008202099737533
147
0.0
147
0.0
147
0.0
147
0.0
147
1.0
147
0.0
147
0.0
147
0.0
147
0.0
147
1.0
  0
MATERIAL
  5
47F
102
{ACAD_XDICTIONARY
360
480
102
}
102
{ACAD_REACTORS
330
47E
102
}
330
47E
100
AcDbMaterial
  1
ByLayer
 72
     0
 43
0.0008202099737533
 43
0.0
 43
0.0
 43
0.0
 43
0.0
 43
0.0008202099737533
 43
0.0
 43
0.0
 43
0.0
 43
0.0
 43
1.0
 43
0.0
 43
0.0
 43
0.0
 43
0.0
 43
1.0
 77
     0
 47
0.0008202099737533
 47
0.0
 47
0.0
 47
0.0
 47
0.0
 47
0.0008202099737533
 47
0.0
 47
0.0
 47
0.0
 47
0.0
 47
1.0
 47
0.0
 47
0.0
 47
0.0
 47
0.0
 47
1.0
171
     0
 49
0.0008202099737533
 49
0.0
 49
0.0
 49
0.0
 49
0.0
 49
0.0008202099737533
 49
0.0
 49
0.0
 49
0.0
 49
0.0
 49
1.0
 49
0.0
 49
0.0
 49
0.0
 49
0.0
 49
1.0
175
     0
142
0.0008202099737533
142
0.0
142
0.0
142
0.0
142
0.0
142
0.0008202099737533
142
0.0
142
0.0
142
0.0
142
0.0
142
1.0
142
0.0
142
0.0
142
0.0
142
0.0
142
1.0
179
     0
144
0.0008202099737533
144
0.0
144
0.0
144
0.0
144
0.0
144
0.0008202099737533
144
0.0
144
0.0
144
0.0
144
0.0
144
1.0
144
0.0
144
0.0
144
0.0
144
0.0
144
1.0
147
0.0008202099737533
147
0.0
147
0.0
147
0.0
147
0.0
147
0.0008202099737533
147
0.0
147
0.0
147
0.0
147
0.0
147
1.0
147
0.0
147
0.0
147
0.0
147
0.0
147
1.0
  0
MATERIAL
  5
48F
102
{ACAD_XDICTIONARY
360
490
102
}
102
{ACAD_REACTORS
330
47E
102
}
330
47E
100
AcDbMaterial
  1
Global
 72
     0
 43
0.0008202099737533
 43
0.0
 43
0.0
 43
0.0
 43
0.0
 43
0.0008202099737533
 43
0.0
 43
0.0
 43
0.0
 43
0.0
 43
1.0
 43
0.0
 43
0.0
 43
0.0
 43
0.0
 43
1.0
 77
     0
 47
0.0008202099737533
 47
0.0
 47
0.0
 47
0.0
 47
0.0
 47
0.0008202099737533
 47
0.0
 47
0.0
 47
0.0
 47
0.0
 47
1.0
 47
0.0
 47
0.0
 47
0.0
 47
0.0
 47
1.0
171
     0
 49
0.0008202099737533
 49
0.0
 49
0.0
 49
0.0
 49
0.0
 49
0.0008202099737533
 49
0.0
 49
0.0
 49
0.0
 49
0.0
 49
1.0
 49
0.0
 49
0.0
 49
0.0
 49
0.0
 49
1.0
175
     0
142
0.0008202099737533
142
0.0
142
0.0
142
0.0
142
0.0
142
0.0008202099737533
142
0.0
142
0.0
142
0.0
142
0.0
142
1.0
142
0.0
142
0.0
142
0.0
142
0.0
142
1.0
179
     0
144
0.0008202099737533
144
0.0
144
0.0
144
0.0
144
0.0
144
0.0008202099737533
144
0.0
144
0.0
144
0.0
144
0.0
144
1.0
144
0.0
144
0.0
144
0.0
144
0.0
144
1.0
147
0.0008202099737533
147
0.0
147
0.0
147
0.0
147
0.0
147
0.0008202099737533
147
0.0
147
0.0
147
0.0
147
0.0
147
1.0
147
0.0
147
0.0
147
0.0
147
0.0
147
1.0
  0
MLEADERSTYLE
  5
4B4
102
{ACAD_REACTORS
330
4B3
102
}
330
4B3
100
AcDbMLeaderStyle
179
     2
170
     2
171
     1
172
     0
 90
        2
 40
0.0
 41
0.0
173
     1
 91
-1056964608
340
14
 92
       -2
290
     1
 42
2.0
291
     1
 43
0.36
  3
Standard
 44
4.0
300

342
11
174
     1
178
     6
175
     1
176
     0
 93
-1056964608
 45
4.0
292
     0
297
     0
 46
4.0
 94
-1056964608
 47
1.0
 49
1.0
140
1.0
293
     1
141
0.0
294
     1
177
     0
142
1.0
295
     0
296
     0
143
0.125
271
     0
272
     9
273
     9
298
     0
  0
MLINESTYLE
  5
18
102
{ACAD_REACTORS
330
17
102
}
330
17
100
AcDbMlineStyle
  2
STANDARD
 70
     0
  3

 62
   256
 51
90.0
 52
90.0
 71
     2
 49
0.5
 62
   256
  6
BYLAYER
 49
-0.5
 62
   256
  6
BYLAYER
  0
ACDBPLACEHOLDER
  5
F
102
{ACAD_REACTORS
330
E
102
}
330
E
  0
SCALE
  5
48
102
{ACAD_REACTORS
330
47
102
}
330
47
100
AcDbScale
 70
     0
300
1:1
140
1.0
141
1.0
290
     1
  0
SCALE
  5
49
102
{ACAD_REACTORS
330
47
102
}
330
47
100
AcDbScale
 70
     0
300
1:2
140
1.0
141
2.0
290
     0
  0
SCALE
  5
4A
102
{ACAD_REACTORS
330
47
102
}
330
47
100
AcDbScale
 70
     0
300
1:4
140
1.0
141
4.0
290
     0
  0
SCALE
  5
4B
102
{ACAD_REACTORS
330
47
102
}
330
47
100
AcDbScale
 70
     0
300
1:5
140
1.0
141
5.0
290
     0
  0
SCALE
  5
4C
102
{ACAD_REACTORS
330
47
102
}
330
47
100
AcDbScale
 70
     0
300
1:8
140
1.0
141
8.0
290
     0
  0
SCALE
  5
4D
102
{ACAD_REACTORS
330
47
102
}
330
47
100
AcDbScale
 70
     0
300
1:10
140
1.0
141
10.0
290
     0
  0
SCALE
  5
4E
102
{ACAD_REACTORS
330
47
102
}
330
47
100
AcDbScale
 70
     0
300
1:16
140
1.0
141
16.0
290
     0
  0
SCALE
  5
4F
102
{ACAD_REACTORS
330
47
102
}
330
47
100
AcDbScale
 70
     0
300
1:20
140
1.0
141
20.0
290
     0
  0
SCALE
  5
50
102
{ACAD_REACTORS
330
47
102
}
330
47
100
AcDbScale
 70
     0
300
1:30
140
1.0
141
30.0
290
     0
  0
SCALE
  5
51
102
{ACAD_REACTORS
330
47
102
}
330
47
100
AcDbScale
 70
     0
300
1:40
140
1.0
141
40.0
290
     0
  0
SCALE
  5
52
102
{ACAD_REACTORS
330
47
102
}
330
47
100
AcDbScale
 70
     0
300
1:50
140
1.0
141
50.0
290
     0
  0
SCALE
  5
53
102
{ACAD_REACTORS
330
47
102
}
330
47
100
AcDbScale
 70
     0
300
1:100
140
1.0
141
100.0
290
     0
  0
SCALE
  5
54
102
{ACAD_REACTORS
330
47
102
}
330
47
100
AcDbScale
 70
     0
300
2:1
140
2.0
141
1.0
290
     0
  0
SCALE
  5
55
102
{ACAD_REACTORS
330
47
102
}
330
47
100
AcDbScale
 70
     0
300
4:1
140
4.0
141
1.0
290
     0
  0
SCALE
  5
56
102
{ACAD_REACTORS
330
47
102
}
330
47
100
AcDbScale
 70
     0
300
8:1
140
8.0
141
1.0
290
     0
  0
SCALE
  5
57
102
{ACAD_REACTORS
330
47
102
}
330
47
100
AcDbScale
 70
     0
300
10:1
140
10.0
141
1.0
290
     0
  0
SCALE
  5
58
102
{ACAD_REACTORS
330
47
102
}
330
47
100
AcDbScale
 70
     0
300
100:1
140
100.0
141
1.0
290
     0
  0
SCALE
  5
59
102
{ACAD_REACTORS
330
47
102
}
330
47
100
AcDbScale
 70
     0
300
1/128" = 1'-0"
140
0.0078125
141
12.0
290
     0
  0
SCALE
  5
5A
102
{ACAD_REACTORS
330
47
102
}
330
47
100
AcDbScale
 70
     0
300
1/64" = 1'-0"
140
0.015625
141
12.0
290
     0
  0
SCALE
  5
5B
102
{ACAD_REACTORS
330
47
102
}
330
47
100
AcDbScale
 70
     0
300
1/32" = 1'-0"
140
0.03125
141
12.0
290
     0
  0
SCALE
  5
5C
102
{ACAD_REACTORS
330
47
102
}
330
47
100
AcDbScale
 70
     0
300
1/16" = 1'-0"
140
0.0625
141
12.0
290
     0
  0
SCALE
  5
5D
102
{ACAD_REACTORS
330
47
102
}
330
47
100
AcDbScale
 70
     0
300
3/32" = 1'-0"
140
0.09375
141
12.0
290
     0
  0
SCALE
  5
5E
102
{ACAD_REACTORS
330
47
102
}
330
47
100
AcDbScale
 70
     0
300
1/8" = 1'-0"
140
0.125
141
12.0
290
     0
  0
SCALE
  5
5F
102
{ACAD_REACTORS
330
47
102
}
330
47
100
AcDbScale
 70
     0
300
3/16" = 1'-0"
140
0.1875
141
12.0
290
     0
  0
SCALE
  5
60
102
{ACAD_REACTORS
330
47
102
}
330
47
100
AcDbScale
 70
     0
300
1/4" = 1'-0"
140
0.25
141
12.0
290
     0
  0
SCALE
  5
61
102
{ACAD_REACTORS
330
47
102
}
330
47
100
AcDbScale
 70
     0
300
3/8" = 1'-0"
140
0.375
141
12.0
290
     0
  0
SCALE
  5
62
102
{ACAD_REACTORS
330
47
102
}
330
47
100
AcDbScale
 70
     0
300
1/2" = 1'-0"
140
0.5
141
12.0
290
     0
  0
SCALE
  5
63
102
{ACAD_REACTORS
330
47
102
}
330
47
100
AcDbScale
 70
     0
300
3/4" = 1'-0"
140
0.75
141
12.0
290
     0
  0
SCALE
  5
64
102
{ACAD_REACTORS
330
47
102
}
330
47
100
AcDbScale
 70
     0
300
1" = 1'-0"
140
1.0
141
12.0
290
     0
  0
SCALE
  5
65
102
{ACAD_REACTORS
330
47
102
}
330
47
100
AcDbScale
 70
     0
300
1-1/2" = 1'-0"
140
1.5
141
12.0
290
     0
  0
SCALE
  5
66
102
{ACAD_REACTORS
330
47
102
}
330
47
100
AcDbScale
 70
     0
300
3" = 1'-0"
140
3.0
141
12.0
290
     0
  0
SCALE
  5
67
102
{ACAD_REACTORS
330
47
102
}
330
47
100
AcDbScale
 70
     0
300
6" = 1'-0"
140
6.0
141
12.0
290
     0
  0
SCALE
  5
68
102
{ACAD_REACTORS
330
47
102
}
330
47
100
AcDbScale
 70
     0
300
1'-0" = 1'-0"
140
12.0
141
12.0
290
     0
  0
ACDBSECTIONVIEWSTYLE
  5
4B6
102
{ACAD_XDICTIONARY
360
4E0
102
}
102
{ACAD_REACTORS
330
4B5
102
}
330
4B5
100
AcDbModelDocViewStyle
 70
     0
  3
Metric50
290
     0
100
AcDbSectionViewStyle
 70
     0
 71
     0
 90
      102
 71
     1
340
11
 62
   256
 40
5.0
340
0
340
0
 62
   256
 40
5.0
300
I, O, Q, S, X, Z
 40
10.0
 90
        0
 40
2.5
 90
        0
 71
     2
340
16
 90
       25
 62
   256
340
16
 90
       50
 62
   256
 40
5.0
 40
2.5
 40
5.0
 71
     3
340
11
 62
   256
 40
5.0
 90
        0
 40
15.0
 90
        1
300
%<\AcVar ViewSectionStartId>%-%<\AcVar ViewSectionEndId>% (%<\AcVar ViewScale \f "%sn">%)
 71
     4
 62
   256
 62
   257
300
ANSI31
 40
1.0
 90
        0
290
     0
290
     0
 90
        6
 40
0.0
 40
1.570796326794896
 40
0.2617993877991494
 40
1.308996938995747
 40
-0.2617993877991494
 40
1.832595714594046
  0
TABLESTYLE
  5
4B2
102
{ACAD_XDICTIONARY
360
4DE
102
}
102
{ACAD_REACTORS
330
4B1
102
}
330
4B1
100
AcDbTableStyle
280
     0
  3
Standard
 70
     0
 71
     0
 40
1.5
 41
1.5
280
     0
281
     0
  7
Standard
140
4.5
170
     2
 62
     0
 63
     7
283
     0
 90
      512
 91
        0
  1

274
    -2
284
     1
 64
     0
275
    -2
285
     1
 65
     0
276
    -2
286
     1
 66
     0
277
    -2
287
     1
 67
     0
278
    -2
288
     1
 68
     0
279
    -2
289
     1
 69
     0
  7
Standard
140
6.0
170
     5
 62
     0
 63
     7
283
     0
 90
      512
 91
        0
  1

274
    -2
284
     1
 64
     0
275
    -2
285
     1
 65
     0
276
    -2
286
     1
 66
     0
277
    -2
287
     1
 67
     0
278
    -2
288
     1
 68
     0
279
    -2
289
     1
 69
     0
  7
Standard
140
4.5
170
     5
 62
     0
 63
     7
283
     0
 90
      512
 91
        0
  1

274
    -2
284
     1
 64
     0
275
    -2
285
     1
 65
     0
276
    -2
286
     1
 66
     0
277
    -2
287
     1
 67
     0
278
    -2
288
     1
 68
     0
279
    -2
289
     1
 69
     0
  0
VISUALSTYLE
  5
49D
102
{ACAD_REACTORS
330
497
102
}
330
497
100
AcDbVisualStyle
  2
2dWireframe
 70
     4
177
     3
291
     0
 70
    58
 90
        0
176
     1
 90
        2
176
     1
 90
        0
176
     1
 90
        0
176
     1
 40
0.6
176
     1
 40
30.0
176
     1
 62
     7
420
 16777215
176
     1
 90
        1
176
     1
 90
        4
176
     1
 62
     7
176
     1
 62
   257
176
     1
 90
        1
176
     1
 90
        1
176
     1
 40
1.0
176
     1
 90
        0
176
     1
 62
   257
176
     1
 40
1.0
176
     1
 90
        1
176
     1
 90
        6
176
     1
 90
        2
176
     1
 62
     7
176
     1
 90
        5
176
     1
 90
        0
176
     1
 90
        0
176
     1
290
     0
176
     1
 90
        1
176
     1
 40
0.0
176
     1
 90
        0
176
     1
290
     1
176
     1
290
     1
176
     1
290
     0
176
     1
290
     0
176
     1
290
     0
176
     1
290
     0
176
     1
290
     0
176
     1
290
     0
176
     1
290
     0
176
     1
 90
       50
176
     1
 40
0.0
176
     1
 40
1.0
176
     1
 90
        0
176
     1
 62
    18
420
        0
176
     1
 90
       50
176
     1
 90
        3
176
     1
 62
     5
420
      255
176
     1
290
     0
176
     1
 90
       50
176
     1
 90
       50
176
     1
 90
       50
176
     1
290
     0
176
     1
 90
       50
176
     1
 62
   256
176
     0
 40
1.0
176
     0
 90
        2
176
     1
  1
strokes_ogs.tif
176
     1
290
     0
176
     1
 40
1.0
176
     1
 40
1.0
176
     1
  0
VISUALSTYLE
  5
49C
102
{ACAD_REACTORS
330
497
102
}
330
497
100
AcDbVisualStyle
  2
Basic
 70
     7
177
     3
291
     1
 70
    58
 90
        1
176
     1
 90
        0
176
     1
 90
        1
176
     1
 90
        0
176
     1
 40
0.6
176
     1
 40
30.0
176
     1
 62
     7
420
 16777215
176
     1
 90
        0
176
     1
 90
        4
176
     1
 62
     7
176
     1
 62
   257
176
     1
 90
        1
176
     1
 90
        1
176
     1
 40
1.0
176
     1
 90
        8
176
     1
 62
     7
176
     1
 40
1.0
176
     1
 90
        1
176
     1
 90
        6
176
     1
 90
        2
176
     1
 62
     7
176
     1
 90
        5
176
     1
 90
        0
176
     1
 90
        0
176
     1
290
     0
176
     1
 90
        1
176
     1
 40
0.0
176
     1
 90
        0
176
     1
290
     0
176
     1
290
     1
176
     1
290
     1
176
     1
290
     0
176
     1
290
     0
176
     1
290
     0
176
     1
290
     0
176
     1
290
     0
176
     1
290
     0
176
     1
 90
       50
176
     1
 40
0.0
176
     1
 40
1.0
176
     1
 90
        0
176
     1
 62
    18
420
        0
176
     1
 90
       50
176
     1
 90
        3
176
     1
 62
     5
420
      255
176
     1
290
     0
176
     1
 90
       50
176
     1
 90
       50
176
     1
 90
       50
176
     1
290
     0
176
     1
 90
       50
176
     1
 62
   256
176
     0
 40
1.0
176
     0
 90
        2
176
     1
  1
strokes_ogs.tif
176
     1
290
     0
176
     1
 40
1.0
176
     1
 40
1.0
176
     1
  0
VISUALSTYLE
  5
4A3
102
{ACAD_REACTORS
330
497
102
}
330
497
100
AcDbVisualStyle
  2
Brighten
 70
    12
177
     3
291
     1
 70
    58
 90
        2
176
     1
 90
        2
176
     1
 90
        0
176
     1
 90
        0
176
     1
 40
0.6
176
     1
 40
30.0
176
     1
 62
     7
420
 16777215
176
     1
 90
        1
176
     1
 90
        4
176
     1
 62
     7
176
     1
 62
   257
176
     1
 90
        1
176
     1
 90
        1
176
     1
 40
1.0
176
     1
 90
        8
176
     1
 62
     7
176
     1
 40
1.0
176
     1
 90
        1
176
     1
 90
        6
176
     1
 90
        2
176
     1
 62
     7
176
     1
 90
        5
176
     1
 90
        0
176
     1
 90
        0
176
     1
290
     0
176
     1
 90
        1
176
     1
 40
50.0
176
     1
 90
        0
176
     1
290
     0
176
     1
290
     1
176
     1
290
     1
176
     1
290
     0
176
     1
290
     0
176
     1
290
     0
176
     1
290
     0
176
     1
290
     0
176
     1
290
     0
176
     1
 90
       50
176
     1
 40
0.0
176
     1
 40
1.0
176
     1
 90
        0
176
     1
 62
    18
420
        0
176
     1
 90
       50
176
     1
 90
        3
176
     1
 62
     5
420
      255
176
     1
290
     0
176
     1
 90
       50
176
     1
 90
       50
176
     1
 90
       50
176
     1
290
     0
176
     1
 90
       50
176
     1
 62
   256
176
     0
 40
1.0
176
     0
 90
        2
176
     1
  1
strokes_ogs.tif
176
     1
290
     0
176
     1
 40
1.0
176
     1
 40
1.0
176
     1
  0
VISUALSTYLE
  5
4A7
102
{ACAD_REACTORS
330
497
102
}
330
497
100
AcDbVisualStyle
  2
ColorChange
 70
    16
177
     3
291
     1
 70
    58
 90
        2
176
     1
 90
        2
176
     1
 90
        3
176
     1
 90
        0
176
     1
 40
0.6
176
     1
 40
30.0
176
     1
 62
     8
420
  8421504
176
     1
 90
        1
176
     1
 90
        4
176
     1
 62
     7
176
     1
 62
   257
176
     1
 90
        1
176
     1
 90
        1
176
     1
 40
1.0
176
     1
 90
        8
176
     1
 62
     8
420
  8421504
176
     1
 40
1.0
176
     1
 90
        1
176
     1
 90
        6
176
     1
 90
        2
176
     1
 62
     7
176
     1
 90
        5
176
     1
 90
        0
176
     1
 90
        0
176
     1
290
     0
176
     1
 90
        1
176
     1
 40
0.0
176
     1
 90
        0
176
     1
290
     0
176
     1
290
     1
176
     1
290
     1
176
     1
290
     0
176
     1
290
     0
176
     1
290
     0
176
     1
290
     0
176
     1
290
     0
176
     1
290
     0
176
     1
 90
       50
176
     1
 40
0.0
176
     1
 40
1.0
176
     1
 90
        0
176
     1
 62
    18
420
        0
176
     1
 90
       50
176
     1
 90
        3
176
     1
 62
     5
420
      255
176
     1
290
     0
176
     1
 90
       50
176
     1
 90
       50
176
     1
 90
       50
176
     1
290
     0
176
     1
 90
       50
176
     1
 62
   256
176
     0
 40
1.0
176
     0
 90
        2
176
     1
  1
strokes_ogs.tif
176
     1
290
     0
176
     1
 40
1.0
176
     1
 40
1.0
176
     1
  0
VISUALSTYLE
  5
4A0
102
{ACAD_REACTORS
330
497
102
}
330
497
100
AcDbVisualStyle
  2
Conceptual
 70
     9
177
     3
291
     0
 70
    58
 90
        3
176
     1
 90
        2
176
     1
 90
        0
176
     1
 90
        0
176
     1
 40
0.6
176
     1
 40
30.0
176
     1
 62
     7
420
 16777215
176
     1
 90
        2
176
     1
 90
        2
176
     1
 62
     7
176
     1
 62
   257
176
     1
 90
        1
176
     1
 90
        1
176
     1
 40
179.0
176
     1
 90
        8
176
     1
 62
     7
176
     1
 40
1.0
176
     1
 90
        1
176
     1
 90
        6
176
     1
 90
        2
176
     1
 62
     7
176
     1
 90
        3
176
     1
 90
        0
176
     1
 90
        0
176
     1
290
     0
176
     1
 90
        1
176
     1
 40
0.0
176
     1
 90
        0
176
     1
290
     0
176
     1
290
     1
176
     1
290
     1
176
     1
290
     0
176
     1
290
     0
176
     1
290
     0
176
     1
290
     0
176
     1
290
     0
176
     1
290
     0
176
     1
 90
       50
176
     1
 40
0.0
176
     1
 40
1.0
176
     1
 90
        0
176
     1
 62
    18
420
        0
176
     1
 90
       50
176
     1
 90
        3
176
     1
 62
     5
420
      255
176
     1
290
     0
176
     1
 90
       50
176
     1
 90
       50
176
     1
 90
       50
176
     1
290
     0
176
     1
 90
       50
176
     1
 62
   256
176
     0
 40
1.0
176
     0
 90
        2
176
     1
  1
strokes_ogs.tif
176
     1
290
     0
176
     1
 40
1.0
176
     1
 40
1.0
176
     1
  0
VISUALSTYLE
  5
4A2
102
{ACAD_REACTORS
330
497
102
}
330
497
100
AcDbVisualStyle
  2
Dim
 70
    11
177
     3
291
     1
 70
    58
 90
        2
176
     1
 90
        2
176
     1
 90
        0
176
     1
 90
        0
176
     1
 40
0.6
176
     1
 40
30.0
176
     1
 62
     7
420
 16777215
176
     1
 90
        1
176
     1
 90
        4
176
     1
 62
     7
176
     1
 62
   257
176
     1
 90
        1
176
     1
 90
        1
176
     1
 40
1.0
176
     1
 90
        8
176
     1
 62
     7
176
     1
 40
1.0
176
     1
 90
        1
176
     1
 90
        6
176
     1
 90
        2
176
     1
 62
     7
176
     1
 90
        5
176
     1
 90
        0
176
     1
 90
        0
176
     1
290
     0
176
     1
 90
        1
176
     1
 40
-50.0
176
     1
 90
        0
176
     1
290
     0
176
     1
290
     1
176
     1
290
     1
176
     1
290
     0
176
     1
290
     0
176
     1
290
     0
176
     1
290
     0
176
     1
290
     0
176
     1
290
     0
176
     1
 90
       50
176
     1
 40
0.0
176
     1
 40
1.0
176
     1
 90
        0
176
     1
 62
    18
420
        0
176
     1
 90
       50
176
     1
 90
        3
176
     1
 62
     5
420
      255
176
     1
290
     0
176
     1
 90
       50
176
     1
 90
       50
176
     1
 90
       50
176
     1
290
     0
176
     1
 90
       50
176
     1
 62
   256
176
     0
 40
1.0
176
     0
 90
        2
176
     1
  1
strokes_ogs.tif
176
     1
290
     0
176
     1
 40
1.0
176
     1
 40
1.0
176
     1
  0
VISUALSTYLE
  5
4AF
102
{ACAD_REACTORS
330
497
102
}
330
497
100
AcDbVisualStyle
  2
EdgeColorOff
 70
    22
177
     3
291
     1
 70
    58
 90
        2
176
     0
 90
        2
176
     0
 90
        0
176
     0
 90
        0
176
     0
 40
0.6
176
     0
 40
30.0
176
     0
 62
     7
420
 16777215
176
     0
 90
        1
176
     0
 90
        4
176
     0
 62
     7
176
     0
 62
   257
176
     0
 90
        1
176
     0
 90
        1
176
     0
 40
1.0
176
     0
 90
        8
176
     2
 62
     7
176
     0
 40
1.0
176
     0
 90
        1
176
     0
 90
        6
176
     0
 90
        2
176
     0
 62
     7
176
     0
 90
        5
176
     0
 90
        0
176
     0
 90
        0
176
     0
290
     0
176
     0
 90
        1
176
     0
 40
0.0
176
     0
 90
        0
176
     0
290
     0
176
     1
290
     1
176
     1
290
     1
176
     1
290
     0
176
     1
290
     0
176
     1
290
     0
176
     1
290
     0
176
     1
290
     0
176
     1
290
     0
176
     1
 90
       50
176
     0
 40
0.0
176
     0
 40
1.0
176
     0
 90
        0
176
     0
 62
    18
420
        0
176
     0
 90
       50
176
     0
 90
        3
176
     0
 62
     5
420
      255
176
     0
290
     0
176
     1
 90
       50
176
     0
 90
       50
176
     0
 90
       50
176
     0
290
     0
176
     1
 90
       50
176
     0
 62
   256
176
     0
 40
1.0
176
     0
 90
        2
176
     0
  1
strokes_ogs.tif
176
     0
290
     0
176
     1
 40
1.0
176
     0
 40
1.0
176
     0
  0
VISUALSTYLE
  5
4A6
102
{ACAD_REACTORS
330
497
102
}
330
497
100
AcDbVisualStyle
  2
Facepattern
 70
    15
177
     3
291
     1
 70
    58
 90
        2
176
     1
 90
        2
176
     1
 90
        0
176
     1
 90
        0
176
     1
 40
0.6
176
     1
 40
30.0
176
     1
 62
     7
420
 16777215
176
     1
 90
        1
176
     1
 90
        4
176
     1
 62
     7
176
     1
 62
   257
176
     1
 90
        1
176
     1
 90
        1
176
     1
 40
1.0
176
     1
 90
        8
176
     1
 62
     7
176
     1
 40
1.0
176
     1
 90
        1
176
     1
 90
        6
176
     1
 90
        2
176
     1
 62
     7
176
     1
 90
        5
176
     1
 90
        0
176
     1
 90
        0
176
     1
290
     0
176
     1
 90
        1
176
     1
 40
0.0
176
     1
 90
        0
176
     1
290
     0
176
     1
290
     1
176
     1
290
     1
176
     1
290
     0
176
     1
290
     0
176
     1
290
     0
176
     1
290
     0
176
     1
290
     0
176
     1
290
     0
176
     1
 90
       50
176
     1
 40
0.0
176
     1
 40
1.0
176
     1
 90
        0
176
     1
 62
    18
420
        0
176
     1
 90
       50
176
     1
 90
        3
176
     1
 62
     5
420
      255
176
     1
290
     0
176
     1
 90
       50
176
     1
 90
       50
176
     1
 90
       50
176
     1
290
     0
176
     1
 90
       50
176
     1
 62
   256
176
     0
 40
1.0
176
     0
 90
        2
176
     1
  1
strokes_ogs.tif
176
     1
290
     0
176
     1
 40
1.0
176
     1
 40
1.0
176
     1
  0
VISUALSTYLE
  5
498
102
{ACAD_REACTORS
330
497
102
}
330
497
100
AcDbVisualStyle
  2
Flat
 70
     0
177
     3
291
     1
 70
    58
 90
        2
176
     1
 90
        1
176
     1
 90
        1
176
     1
 90
        2
176
     1
 40
0.6
176
     1
 40
30.0
176
     1
 62
     7
420
 16777215
176
     1
 90
        0
176
     1
 90
        0
176
     1
 62
     7
176
     1
 62
   257
176
     1
 90
        1
176
     1
 90
        1
176
     1
 40
1.0
176
     1
 90
        8
176
     1
 62
     7
176
     1
 40
1.0
176
     1
 90
        1
176
     1
 90
        6
176
     1
 90
        2
176
     1
 62
     7
176
     1
 90
        5
176
     1
 90
        0
176
     1
 90
        0
176
     1
290
     0
176
     1
 90
       13
176
     1
 40
0.0
176
     1
 90
        0
176
     1
290
     0
176
     1
290
     1
176
     1
290
     1
176
     1
290
     0
176
     1
290
     0
176
     1
290
     0
176
     1
290
     0
176
     1
290
     0
176
     1
290
     0
176
     1
 90
       50
176
     1
 40
0.0
176
     1
 40
1.0
176
     1
 90
        0
176
     1
 62
    18
420
        0
176
     1
 90
       50
176
     1
 90
        3
176
     1
 62
     5
420
      255
176
     1
290
     0
176
     1
 90
       50
176
     1
 90
       50
176
     1
 90
       50
176
     1
290
     0
176
     1
 90
       50
176
     1
 62
   256
176
     0
 40
1.0
176
     0
 90
        2
176
     1
  1
strokes_ogs.tif
176
     1
290
     0
176
     1
 40
1.0
176
     1
 40
1.0
176
     1
  0
VISUALSTYLE
  5
499
102
{ACAD_REACTORS
330
497
102
}
330
497
100
AcDbVisualStyle
  2
FlatWithEdges
 70
     1
177
     3
291
     1
 70
    58
 90
        2
176
     1
 90
        1
176
     1
 90
        1
176
     1
 90
        2
176
     1
 40
0.6
176
     1
 40
30.0
176
     1
 62
     7
420
 16777215
176
     1
 90
        1
176
     1
 90
        0
176
     1
 62
     7
176
     1
 62
   257
176
     1
 90
        1
176
     1
 90
        1
176
     1
 40
1.0
176
     1
 90
        0
176
     1
 62
   257
176
     1
 40
1.0
176
     1
 90
        1
176
     1
 90
        6
176
     1
 90
        2
176
     1
 62
     7
176
     1
 90
        5
176
     1
 90
        0
176
     1
 90
        0
176
     1
290
     0
176
     1
 90
       13
176
     1
 40
0.0
176
     1
 90
        0
176
     1
290
     0
176
     1
290
     1
176
     1
290
     1
176
     1
290
     0
176
     1
290
     0
176
     1
290
     0
176
     1
290
     0
176
     1
290
     0
176
     1
290
     0
176
     1
 90
       50
176
     1
 40
0.0
176
     1
 40
1.0
176
     1
 90
        0
176
     1
 62
    18
420
        0
176
     1
 90
       50
176
     1
 90
        3
176
     1
 62
     5
420
      255
176
     1
290
     0
176
     1
 90
       50
176
     1
 90
       50
176
     1
 90
       50
176
     1
290
     0
176
     1
 90
       50
176
     1
 62
   256
176
     0
 40
1.0
176
     0
 90
        2
176
     1
  1
strokes_ogs.tif
176
     1
290
     0
176
     1
 40
1.0
176
     1
 40
1.0
176
     1
  0
VISUALSTYLE
  5
49A
102
{ACAD_REACTORS
330
497
102
}
330
497
100
AcDbVisualStyle
  2
Gouraud
 70
     2
177
     3
291
     1
 70
    58
 90
        2
176
     1
 90
        2
176
     1
 90
        1
176
     1
 90
        2
176
     1
 40
0.6
176
     1
 40
30.0
176
     1
 62
     7
420
 16777215
176
     1
 90
        0
176
     1
 90
        0
176
     1
 62
     7
176
     1
 62
   257
176
     1
 90
        1
176
     1
 90
        1
176
     1
 40
1.0
176
     1
 90
        0
176
     1
 62
     7
176
     1
 40
1.0
176
     1
 90
        1
176
     1
 90
        6
176
     1
 90
        2
176
     1
 62
     7
176
     1
 90
        5
176
     1
 90
        0
176
     1
 90
        0
176
     1
290
     0
176
     1
 90
       13
176
     1
 40
0.0
176
     1
 90
        0
176
     1
290
     0
176
     1
290
     1
176
     1
290
     1
176
     1
290
     0
176
     1
290
     0
176
     1
290
     0
176
     1
290
     0
176
     1
290
     0
176
     1
290
     0
176
     1
 90
       50
176
     1
 40
0.0
176
     1
 40
1.0
176
     1
 90
        0
176
     1
 62
    18
420
        0
176
     1
 90
       50
176
     1
 90
        3
176
     1
 62
     5
420
      255
176
     1
290
     0
176
     1
 90
       50
176
     1
 90
       50
176
     1
 90
       50
176
     1
290
     0
176
     1
 90
       50
176
     1
 62
   256
176
     0
 40
1.0
176
     0
 90
        2
176
     1
  1
strokes_ogs.tif
176
     1
290
     0
176
     1
 40
1.0
176
     1
 40
1.0
176
     1
  0
VISUALSTYLE
  5
49B
102
{ACAD_REACTORS
330
497
102
}
330
497
100
AcDbVisualStyle
  2
GouraudWithEdges
 70
     3
177
     3
291
     1
 70
    58
 90
        2
176
     1
 90
        2
176
     1
 90
        1
176
     1
 90
        2
176
     1
 40
0.6
176
     1
 40
30.0
176
     1
 62
     7
420
 16777215
176
     1
 90
        1
176
     1
 90
        0
176
     1
 62
     7
176
     1
 62
   257
176
     1
 90
        1
176
     1
 90
        1
176
     1
 40
1.0
176
     1
 90
        0
176
     1
 62
   257
176
     1
 40
1.0
176
     1
 90
        1
176
     1
 90
        6
176
     1
 90
        2
176
     1
 62
     7
176
     1
 90
        5
176
     1
 90
        0
176
     1
 90
        0
176
     1
290
     0
176
     1
 90
       13
176
     1
 40
0.0
176
     1
 90
        0
176
     1
290
     0
176
     1
290
     1
176
     1
290
     1
176
     1
290
     0
176
     1
290
     0
176
     1
290
     0
176
     1
290
     0
176
     1
290
     0
176
     1
290
     0
176
     1
 90
       50
176
     1
 40
0.0
176
     1
 40
1.0
176
     1
 90
        0
176
     1
 62
    18
420
        0
176
     1
 90
       50
176
     1
 90
        3
176
     1
 62
     5
420
      255
176
     1
290
     0
176
     1
 90
       50
176
     1
 90
       50
176
     1
 90
       50
176
     1
290
     0
176
     1
 90
       50
176
     1
 62
   256
176
     0
 40
1.0
176
     0
 90
        2
176
     1
  1
strokes_ogs.tif
176
     1
290
     0
176
     1
 40
1.0
176
     1
 40
1.0
176
     1
  0
VISUALSTYLE
  5
49F
102
{ACAD_REACTORS
330
497
102
}
330
497
100
AcDbVisualStyle
  2
Hidden
 70
     6
177
     3
291
     0
 70
    58
 90
        1
176
     1
 90
        2
176
     1
 90
        2
176
     1
 90
        0
176
     1
 40
0.6
176
     1
 40
30.0
176
     1
 62
     7
420
 16777215
176
     1
 90
        2
176
     1
 90
        2
176
     1
 62
     7
176
     1
 62
   257
176
     1
 90
        2
176
     1
 90
        1
176
     1
 40
40.0
176
     1
 90
        0
176
     1
 62
   257
176
     1
 40
1.0
176
     1
 90
        1
176
     1
 90
        6
176
     1
 90
        2
176
     1
 62
     7
176
     1
 90
        3
176
     1
 90
        0
176
     1
 90
        0
176
     1
290
     0
176
     1
 90
        1
176
     1
 40
0.0
176
     1
 90
        0
176
     1
290
     0
176
     1
290
     1
176
     1
290
     1
176
     1
290
     0
176
     1
290
     0
176
     1
290
     0
176
     1
290
     0
176
     1
290
     0
176
     1
290
     0
176
     1
 90
       50
176
     1
 40
0.0
176
     1
 40
1.0
176
     1
 90
        0
176
     1
 62
    18
420
        0
176
     1
 90
       50
176
     1
 90
        3
176
     1
 62
     5
420
      255
176
     1
290
     0
176
     1
 90
       50
176
     1
 90
       50
176
     1
 90
       50
176
     1
290
     0
176
     1
 90
       50
176
     1
 62
   256
176
     0
 40
1.0
176
     0
 90
        2
176
     1
  1
strokes_ogs.tif
176
     1
290
     0
176
     1
 40
1.0
176
     1
 40
1.0
176
     1
  0
VISUALSTYLE
  5
4AD
102
{ACAD_REACTORS
330
497
102
}
330
497
100
AcDbVisualStyle
  2
JitterOff
 70
    20
177
     3
291
     1
 70
    58
 90
        2
176
     0
 90
        2
176
     0
 90
        0
176
     0
 90
        0
176
     0
 40
0.6
176
     0
 40
30.0
176
     0
 62
     7
420
 16777215
176
     0
 90
        1
176
     0
 90
        4
176
     0
 62
     7
176
     0
 62
   257
176
     0
 90
        1
176
     0
 90
        1
176
     0
 40
1.0
176
     0
 90
       10
176
     2
 62
     7
176
     0
 40
1.0
176
     0
 90
        1
176
     0
 90
        6
176
     0
 90
        2
176
     0
 62
     7
176
     0
 90
        5
176
     0
 90
        0
176
     0
 90
        0
176
     0
290
     0
176
     0
 90
        1
176
     0
 40
0.0
176
     0
 90
        0
176
     0
290
     0
176
     1
290
     1
176
     1
290
     1
176
     1
290
     0
176
     1
290
     0
176
     1
290
     0
176
     1
290
     0
176
     1
290
     0
176
     1
290
     0
176
     1
 90
       50
176
     0
 40
0.0
176
     0
 40
1.0
176
     0
 90
        0
176
     0
 62
    18
420
        0
176
     0
 90
       50
176
     0
 90
        3
176
     0
 62
     5
420
      255
176
     0
290
     0
176
     1
 90
       50
176
     0
 90
       50
176
     0
 90
       50
176
     0
290
     0
176
     1
 90
       50
176
     0
 62
   256
176
     0
 40
1.0
176
     0
 90
        2
176
     0
  1
strokes_ogs.tif
176
     0
290
     0
176
     1
 40
1.0
176
     0
 40
1.0
176
     0
  0
VISUALSTYLE
  5
4A5
102
{ACAD_REACTORS
330
497
102
}
330
497
100
AcDbVisualStyle
  2
Linepattern
 70
    14
177
     3
291
     1
 70
    58
 90
        2
176
     1
 90
        2
176
     1
 90
        0
176
     1
 90
        0
176
     1
 40
0.6
176
     1
 40
30.0
176
     1
 62
     7
420
 16777215
176
     1
 90
        1
176
     1
 90
        4
176
     1
 62
     7
176
     1
 62
   257
176
     1
 90
        7
176
     1
 90
        7
176
     1
 40
1.0
176
     1
 90
        8
176
     1
 62
     7
176
     1
 40
1.0
176
     1
 90
        1
176
     1
 90
        6
176
     1
 90
        2
176
     1
 62
     7
176
     1
 90
        5
176
     1
 90
        0
176
     1
 90
        0
176
     1
290
     0
176
     1
 90
        1
176
     1
 40
0.0
176
     1
 90
        0
176
     1
290
     0
176
     1
290
     1
176
     1
290
     1
176
     1
290
     0
176
     1
290
     0
176
     1
290
     0
176
     1
290
     0
176
     1
290
     0
176
     1
290
     0
176
     1
 90
       50
176
     1
 40
0.0
176
     1
 40
1.0
176
     1
 90
        0
176
     1
 62
    18
420
        0
176
     1
 90
       50
176
     1
 90
        3
176
     1
 62
     5
420
      255
176
     1
290
     0
176
     1
 90
       50
176
     1
 90
       50
176
     1
 90
       50
176
     1
290
     0
176
     1
 90
       50
176
     1
 62
   256
176
     0
 40
1.0
176
     0
 90
        2
176
     1
  1
strokes_ogs.tif
176
     1
290
     0
176
     1
 40
1.0
176
     1
 40
1.0
176
     1
  0
VISUALSTYLE
  5
4AE
102
{ACAD_REACTORS
330
497
102
}
330
497
100
AcDbVisualStyle
  2
OverhangOff
 70
    21
177
     3
291
     1
 70
    58
 90
        2
176
     0
 90
        2
176
     0
 90
        0
176
     0
 90
        0
176
     0
 40
0.6
176
     0
 40
30.0
176
     0
 62
     7
420
 16777215
176
     0
 90
        1
176
     0
 90
        4
176
     0
 62
     7
176
     0
 62
   257
176
     0
 90
        1
176
     0
 90
        1
176
     0
 40
1.0
176
     0
 90
        9
176
     2
 62
     7
176
     0
 40
1.0
176
     0
 90
        1
176
     0
 90
        6
176
     0
 90
        2
176
     0
 62
     7
176
     0
 90
        5
176
     0
 90
        0
176
     0
 90
        0
176
     0
290
     0
176
     0
 90
        1
176
     0
 40
0.0
176
     0
 90
        0
176
     0
290
     0
176
     1
290
     1
176
     1
290
     1
176
     1
290
     0
176
     1
290
     0
176
     1
290
     0
176
     1
290
     0
176
     1
290
     0
176
     1
290
     0
176
     1
 90
       50
176
     0
 40
0.0
176
     0
 40
1.0
176
     0
 90
        0
176
     0
 62
    18
420
        0
176
     0
 90
       50
176
     0
 90
        3
176
     0
 62
     5
420
      255
176
     0
290
     0
176
     1
 90
       50
176
     0
 90
       50
176
     0
 90
       50
176
     0
290
     0
176
     1
 90
       50
176
     0
 62
   256
176
     0
 40
1.0
176
     0
 90
        2
176
     0
  1
strokes_ogs.tif
176
     0
290
     0
176
     1
 40
1.0
176
     0
 40
1.0
176
     0
  0
VISUALSTYLE
  5
4A1
102
{ACAD_REACTORS
330
497
102
}
330
497
100
AcDbVisualStyle
  2
Realistic
 70
     8
177
     3
291
     0
 70
    58
 90
        2
176
     1
 90
        3
176
     1
 90
        0
176
     1
 90
        2
176
     1
 40
0.6
176
     1
 40
30.0
176
     1
 62
     7
420
 16777215
176
     1
 90
        0
176
     1
 90
        0
176
     1
 62
     7
176
     1
 62
   257
176
     1
 90
        1
176
     1
 90
        1
176
     1
 40
1.0
176
     1
 90
        8
176
     1
 62
   257
176
     1
 40
1.0
176
     1
 90
        1
176
     1
 90
        6
176
     1
 90
        2
176
     1
 62
     7
176
     1
 90
        3
176
     1
 90
        0
176
     1
 90
        0
176
     1
290
     0
176
     1
 90
       13
176
     1
 40
0.0
176
     1
 90
        0
176
     1
290
     0
176
     1
290
     1
176
     1
290
     1
176
     1
290
     0
176
     1
290
     0
176
     1
290
     0
176
     1
290
     0
176
     1
290
     0
176
     1
290
     0
176
     1
 90
       50
176
     1
 40
0.0
176
     1
 40
1.0
176
     1
 90
        0
176
     1
 62
    18
420
        0
176
     1
 90
       50
176
     1
 90
        3
176
     1
 62
     5
420
      255
176
     1
290
     0
176
     1
 90
       50
176
     1
 90
       50
176
     1
 90
       50
176
     1
290
     0
176
     1
 90
       50
176
     1
 62
   256
176
     0
 40
1.0
176
     0
 90
        2
176
     1
  1
strokes_ogs.tif
176
     1
290
     0
176
     1
 40
1.0
176
     1
 40
1.0
176
     1
  0
VISUALSTYLE
  5
4AC
102
{ACAD_REACTORS
330
497
102
}
330
497
100
AcDbVisualStyle
  2
Shaded
 70
    27
177
     3
291
     0
 70
    58
 90
        2
176
     1
 90
        2
176
     1
 90
        1
176
     1
 90
        2
176
     1
 40
0.6
176
     1
 40
30.0
176
     1
 62
     7
420
 16777215
176
     1
 90
        0
176
     1
 90
        4
176
     1
 62
     7
176
     1
 62
   257
176
     1
 90
        1
176
     1
 90
        1
176
     1
 40
1.0
176
     1
 90
        8
176
     1
 62
   257
176
     1
 40
1.0
176
     1
 90
        1
176
     1
 90
        6
176
     1
 90
        2
176
     1
 62
     8
420
  7895160
176
     1
 90
        3
176
     1
 90
        0
176
     1
 90
        0
176
     1
290
     0
176
     1
 90
        5
176
     1
 40
0.0
176
     1
 90
        0
176
     1
290
     0
176
     1
290
     1
176
     1
290
     1
176
     1
290
     0
176
     1
290
     0
176
     1
290
     0
176
     1
290
     0
176
     1
290
     0
176
     1
290
     0
176
     1
 90
       50
176
     1
 40
0.0
176
     1
 40
1.0
176
     1
 90
        0
176
     1
 62
    18
420
        0
176
     1
 90
       50
176
     1
 90
        3
176
     1
 62
     5
420
      255
176
     1
290
     0
176
     1
 90
       50
176
     1
 90
       50
176
     1
 90
       50
176
     1
290
     0
176
     1
 90
       50
176
     1
 62
   256
176
     0
 40
1.0
176
     0
 90
        2
176
     1
  1
strokes_ogs.tif
176
     1
290
     0
176
     1
 40
1.0
176
     1
 40
1.0
176
     1
  0
VISUALSTYLE
  5
4AB
102
{ACAD_REACTORS
330
497
102
}
330
497
100
AcDbVisualStyle
  2
Shaded with edges
 70
    26
177
     3
291
     0
 70
    58
 90
        2
176
     1
 90
        2
176
     1
 90
        1
176
     1
 90
        2
176
     1
 40
0.6
176
     1
 40
30.0
176
     1
 62
     7
420
 16777215
176
     1
 90
        1
176
     1
 90
        2
176
     1
 62
     7
176
     1
 62
   257
176
     1
 90
        2
176
     1
 90
        1
176
     1
 40
1.0
176
     1
 90
        8
176
     1
 62
   257
176
     1
 40
1.0
176
     1
 90
        1
176
     1
 90
        6
176
     1
 90
        2
176
     1
 62
     7
176
     1
 90
        3
176
     1
 90
        0
176
     1
 90
        0
176
     1
290
     0
176
     1
 90
        5
176
     1
 40
0.0
176
     1
 90
        0
176
     1
290
     0
176
     1
290
     1
176
     1
290
     1
176
     1
290
     0
176
     1
290
     0
176
     1
290
     0
176
     1
290
     0
176
     1
290
     0
176
     1
290
     0
176
     1
 90
       50
176
     1
 40
0.0
176
     1
 40
1.0
176
     1
 90
        0
176
     1
 62
    18
420
        0
176
     1
 90
       50
176
     1
 90
        3
176
     1
 62
     5
420
      255
176
     1
290
     0
176
     1
 90
       50
176
     1
 90
       50
176
     1
 90
       50
176
     1
290
     0
176
     1
 90
       50
176
     1
 62
   256
176
     0
 40
1.0
176
     0
 90
        2
176
     1
  1
strokes_ogs.tif
176
     1
290
     0
176
     1
 40
1.0
176
     1
 40
1.0
176
     1
  0
VISUALSTYLE
  5
4A8
102
{ACAD_REACTORS
330
497
102
}
330
497
100
AcDbVisualStyle
  2
Shades of Gray
 70
    23
177
     3
291
     0
 70
    58
 90
        2
176
     1
 90
        2
176
     1
 90
        3
176
     1
 90
        0
176
     1
 40
0.6
176
     1
 40
30.0
176
     1
 62
     7
420
 16777215
176
     1
 90
        2
176
     1
 90
        2
176
     1
 62
     7
176
     1
 62
     7
176
     1
 90
        1
176
     1
 90
        1
176
     1
 40
40.0
176
     1
 90
        8
176
     1
 62
     7
176
     1
 40
1.0
176
     1
 90
        1
176
     1
 90
        6
176
     1
 90
        2
176
     1
 62
     7
176
     1
 90
        3
176
     1
 90
        0
176
     1
 90
        0
176
     1
290
     0
176
     1
 90
        1
176
     1
 40
0.0
176
     1
 90
        0
176
     1
290
     0
176
     1
290
     1
176
     1
290
     1
176
     1
290
     0
176
     1
290
     0
176
     1
290
     0
176
     1
290
     0
176
     1
290
     0
176
     1
290
     0
176
     1
 90
       50
176
     1
 40
0.0
176
     1
 40
1.0
176
     1
 90
        0
176
     1
 62
    18
420
        0
176
     1
 90
       50
176
     1
 90
        3
176
     1
 62
     5
420
      255
176
     1
290
     0
176
     1
 90
       50
176
     1
 90
       50
176
     1
 90
       50
176
     1
290
     0
176
     1
 90
       50
176
     1
 62
   256
176
     0
 40
1.0
176
     0
 90
        2
176
     1
  1
strokes_ogs.tif
176
     1
290
     0
176
     1
 40
1.0
176
     1
 40
1.0
176
     1
  0
VISUALSTYLE
  5
4A9
102
{ACAD_REACTORS
330
497
102
}
330
497
100
AcDbVisualStyle
  2
Sketchy
 70
    24
177
     3
291
     0
 70
    58
 90
        1
176
     1
 90
        2
176
     1
 90
        2
176
     1
 90
        0
176
     1
 40
0.6
176
     1
 40
30.0
176
     1
 62
     7
420
 16777215
176
     1
 90
        2
176
     1
 90
        2
176
     1
 62
     7
176
     1
 62
     7
176
     1
 90
        1
176
     1
 90
        1
176
     1
 40
40.0
176
     1
 90
       11
176
     1
 62
     7
176
     1
 40
1.0
176
     1
 90
        1
176
     1
 90
        6
176
     1
 90
        2
176
     1
 62
     7
176
     1
 90
        6
176
     1
 90
        0
176
     1
 90
        0
176
     1
290
     0
176
     1
 90
        1
176
     1
 40
0.0
176
     1
 90
        0
176
     1
290
     0
176
     1
290
     1
176
     1
290
     1
176
     1
290
     0
176
     1
290
     0
176
     1
290
     0
176
     1
290
     0
176
     1
290
     0
176
     1
290
     0
176
     1
 90
       50
176
     1
 40
0.0
176
     1
 40
1.0
176
     1
 90
        0
176
     1
 62
    18
420
        0
176
     1
 90
       50
176
     1
 90
        3
176
     1
 62
     5
420
      255
176
     1
290
     0
176
     1
 90
       50
176
     1
 90
       50
176
     1
 90
       50
176
     1
290
     0
176
     1
 90
       50
176
     1
 62
   256
176
     0
 40
1.0
176
     0
 90
        2
176
     1
  1
strokes_ogs.tif
176
     1
290
     0
176
     1
 40
1.0
176
     1
 40
1.0
176
     1
  0
VISUALSTYLE
  5
4A4
102
{ACAD_REACTORS
330
497
102
}
330
497
100
AcDbVisualStyle
  2
Thicken
 70
    13
177
     3
291
     1
 70
    58
 90
        2
176
     1
 90
        2
176
     1
 90
        0
176
     1
 90
        0
176
     1
 40
0.6
176
     1
 40
30.0
176
     1
 62
     7
420
 16777215
176
     1
 90
        1
176
     1
 90
        4
176
     1
 62
     7
176
     1
 62
   257
176
     1
 90
        1
176
     1
 90
        1
176
     1
 40
1.0
176
     1
 90
       12
176
     1
 62
     7
176
     1
 40
1.0
176
     1
 90
        1
176
     1
 90
        6
176
     1
 90
        2
176
     1
 62
     7
176
     1
 90
        5
176
     1
 90
        0
176
     1
 90
        0
176
     1
290
     0
176
     1
 90
        1
176
     1
 40
0.0
176
     1
 90
        0
176
     1
290
     0
176
     1
290
     1
176
     1
290
     1
176
     1
290
     0
176
     1
290
     0
176
     1
290
     0
176
     1
290
     0
176
     1
290
     0
176
     1
290
     0
176
     1
 90
       50
176
     1
 40
0.0
176
     1
 40
1.0
176
     1
 90
        0
176
     1
 62
    18
420
        0
176
     1
 90
       50
176
     1
 90
        3
176
     1
 62
     5
420
      255
176
     1
290
     0
176
     1
 90
       50
176
     1
 90
       50
176
     1
 90
       50
176
     1
290
     0
176
     1
 90
       50
176
     1
 62
   256
176
     0
 40
1.0
176
     0
 90
        2
176
     1
  1
strokes_ogs.tif
176
     1
290
     0
176
     1
 40
1.0
176
     1
 40
1.0
176
     1
  0
VISUALSTYLE
  5
49E
102
{ACAD_REACTORS
330
497
102
}
330
497
100
AcDbVisualStyle
  2
Wireframe
 70
     5
177
     3
291
     0
 70
    58
 90
        0
176
     1
 90
        2
176
     1
 90
        0
176
     1
 90
        0
176
     1
 40
0.6
176
     1
 40
30.0
176
     1
 62
     7
420
 16777215
176
     1
 90
        1
176
     1
 90
        4
176
     1
 62
     7
176
     1
 62
   257
176
     1
 90
        1
176
     1
 90
        1
176
     1
 40
1.0
176
     1
 90
        0
176
     1
 62
   257
176
     1
 40
1.0
176
     1
 90
        1
176
     1
 90
        6
176
     1
 90
        2
176
     1
 62
     7
176
     1
 90
        3
176
     1
 90
        0
176
     1
 90
        0
176
     1
290
     0
176
     1
 90
        1
176
     1
 40
0.0
176
     1
 90
        0
176
     1
290
     0
176
     1
290
     1
176
     1
290
     1
176
     1
290
     0
176
     1
290
     0
176
     1
290
     0
176
     1
290
     0
176
     1
290
     0
176
     1
290
     0
176
     1
 90
       50
176
     1
 40
0.0
176
     1
 40
1.0
176
     1
 90
        0
176
     1
 62
    18
420
        0
176
     1
 90
       50
176
     1
 90
        3
176
     1
 62
     5
420
      255
176
     1
290
     0
176
     1
 90
       50
176
     1
 90
       50
176
     1
 90
       50
176
     1
290
     0
176
     1
 90
       50
176
     1
 62
   256
176
     0
 40
1.0
176
     0
 90
        2
176
     1
  1
strokes_ogs.tif
176
     1
290
     0
176
     1
 40
1.0
176
     1
 40
1.0
176
     1
  0
VISUALSTYLE
  5
4AA
102
{ACAD_REACTORS
330
497
102
}
330
497
100
AcDbVisualStyle
  2
X-Ray
 70
    25
177
     3
291
     0
 70
    58
 90
        2
176
     1
 90
        2
176
     1
 90
        1
176
     1
 90
        1
176
     1
 40
0.5
176
     1
 40
30.0
176
     1
 62
     7
420
 16777215
176
     1
 90
        1
176
     1
 90
        0
176
     1
 62
     7
176
     1
 62
   257
176
     1
 90
        1
176
     1
 90
        1
176
     1
 40
1.0
176
     1
 90
        8
176
     1
 62
     7
176
     1
 40
1.0
176
     1
 90
        1
176
     1
 90
        6
176
     1
 90
        2
176
     1
 62
     7
176
     1
 90
        3
176
     1
 90
        0
176
     1
 90
        0
176
     1
290
     0
176
     1
 90
       13
176
     1
 40
0.0
176
     1
 90
        0
176
     1
290
     0
176
     1
290
     1
176
     1
290
     1
176
     1
290
     0
176
     1
290
     0
176
     1
290
     0
176
     1
290
     0
176
     1
290
     0
176
     1
290
     0
176
     1
 90
       50
176
     1
 40
0.0
176
     1
 40
1.0
176
     1
 90
        0
176
     1
 62
    18
420
        0
176
     1
 90
       50
176
     1
 90
        3
176
     1
 62
     5
420
      255
176
     1
290
     0
176
     1
 90
       50
176
     1
 90
       50
176
     1
 90
       50
176
     1
290
     0
176
     1
 90
       50
176
     1
 62
   256
176
     0
 40
1.0
176
     0
 90
        2
176
     1
  1
strokes_ogs.tif
176
     1
290
     0
176
     1
 40
1.0
176
     1
 40
1.0
176
     1
  0
DICTIONARYVAR
  5
4DA
102
{ACAD_REACTORS
330
4D4
102
}
330
4D4
100
DictionaryVariables
280
     0
  1
1:1
  0
DICTIONARYVAR
  5
4D6
102
{ACAD_REACTORS
330
4D4
102
}
330
4D4
100
DictionaryVariables
280
     0
  1
STANDARD
  0
DICTIONARYVAR
  5
4D5
102
{ACAD_REACTORS
330
4D4
102
}
330
4D4
100
DictionaryVariables
280
     0
  1
STANDARD
  0
DICTIONARYVAR
  5
4D7
102
{ACAD_REACTORS
330
4D4
102
}
330
4D4
100
DictionaryVariables
280
     0
  1
Metric50
  0
DICTIONARYVAR
  5
4D8
102
{ACAD_REACTORS
330
4D4
102
}
330
4D4
100
DictionaryVariables
280
     0
  1
Metric50
  0
DICTIONARYVAR
  5
4DC
102
{ACAD_REACTORS
330
4D4
102
}
330
4D4
100
DictionaryVariables
280
     0
  1
1
  0
DICTIONARYVAR
  5
4DD
102
{ACAD_REACTORS
330
4D4
102
}
330
4D4
100
DictionaryVariables
280
     0
  1
15
  0
DICTIONARYVAR
  5
4DB
102
{ACAD_REACTORS
330
4D4
102
}
330
4D4
100
DictionaryVariables
280
     0
  1
0
  0
DICTIONARYVAR
  5
4D9
102
{ACAD_REACTORS
330
4D4
102
}
330
4D4
100
DictionaryVariables
280
     0
  1
0
  0
DICTIONARY
  5
4E2
330
4B8
100
AcDbDictionary
280
     1
281
     1
  3
ACAD_XREC_ROUNDTRIP
360
4E3
  0
DICTIONARY
  5
488
330
487
100
AcDbDictionary
280
     1
281
     1
  3
BUMPTILE
360
48A
  3
DIFFUSETILE
360
489
  3
OPACITYTILE
360
48D
  3
REFLECTIONTILE
360
48C
  3
REFRACTIONTILE
360
48E
  3
SPECULARTILE
360
48B
  0
DICTIONARY
  5
480
330
47F
100
AcDbDictionary
280
     1
281
     1
  3
BUMPTILE
360
482
  3
DIFFUSETILE
360
481
  3
OPACITYTILE
360
485
  3
REFLECTIONTILE
360
484
  3
REFRACTIONTILE
360
486
  3
SPECULARTILE
360
483
  0
DICTIONARY
  5
490
330
48F
100
AcDbDictionary
280
     1
281
     1
  3
BUMPTILE
360
492
  3
DIFFUSETILE
360
491
  3
OPACITYTILE
360
495
  3
REFLECTIONTILE
360
494
  3
REFRACTIONTILE
360
496
  3
SPECULARTILE
360
493
  0
DICTIONARY
  5
4E0
330
4B6
100
AcDbDictionary
280
     1
281
     1
  3
ACAD_XREC_ROUNDTRIP
360
4E1
  0
DICTIONARY
  5
4DE
330
4B2
100
AcDbDictionary
280
     1
281
     1
  3
ACAD_ROUNDTRIP_2008_TABLESTYLE_CELLSTYLEMAP
360
4DF
  0
XRECORD
  5
4E3
102
{ACAD_REACTORS
330
4E2
102
}
330
4E2
100
AcDbXrecord
280
     1
102
DISPLAYNAME
  1
Metric50
102
FLAGS
 90
        0
  0
XRECORD
  5
48A
102
{ACAD_REACTORS
330
488
102
}
330
488
100
AcDbXrecord
280
     1
270
     1
271
     1
  0
XRECORD
  5
489
102
{ACAD_REACTORS
330
488
102
}
330
488
100
AcDbXrecord
280
     1
270
     1
271
     1
  0
XRECORD
  5
48D
102
{ACAD_REACTORS
330
488
102
}
330
488
100
AcDbXrecord
280
     1
270
     1
271
     1
  0
XRECORD
  5
48C
102
{ACAD_REACTORS
330
488
102
}
330
488
100
AcDbXrecord
280
     1
270
     1
271
     1
  0
XRECORD
  5
48E
102
{ACAD_REACTORS
330
488
102
}
330
488
100
AcDbXrecord
280
     1
270
     1
271
     1
  0
XRECORD
  5
48B
102
{ACAD_REACTORS
330
488
102
}
330
488
100
AcDbXrecord
280
     1
270
     1
271
     1
  0
XRECORD
  5
482
102
{ACAD_REACTORS
330
480
102
}
330
480
100
AcDbXrecord
280
     1
270
     1
271
     1
  0
XRECORD
  5
481
102
{ACAD_REACTORS
330
480
102
}
330
480
100
AcDbXrecord
280
     1
270
     1
271
     1
  0
XRECORD
  5
485
102
{ACAD_REACTORS
330
480
102
}
330
480
100
AcDbXrecord
280
     1
270
     1
271
     1
  0
XRECORD
  5
484
102
{ACAD_REACTORS
330
480
102
}
330
480
100
AcDbXrecord
280
     1
270
     1
271
     1
  0
XRECORD
  5
486
102
{ACAD_REACTORS
330
480
102
}
330
480
100
AcDbXrecord
280
     1
270
     1
271
     1
  0
XRECORD
  5
483
102
{ACAD_REACTORS
330
480
102
}
330
480
100
AcDbXrecord
280
     1
270
     1
271
     1
  0
XRECORD
  5
492
102
{ACAD_REACTORS
330
490
102
}
330
490
100
AcDbXrecord
280
     1
270
     1
271
     1
  0
XRECORD
  5
491
102
{ACAD_REACTORS
330
490
102
}
330
490
100
AcDbXrecord
280
     1
270
     1
271
     1
  0
XRECORD
  5
495
102
{ACAD_REACTORS
330
490
102
}
330
490
100
AcDbXrecord
280
     1
270
     1
271
     1
  0
XRECORD
  5
494
102
{ACAD_REACTORS
330
490
102
}
330
490
100
AcDbXrecord
280
     1
270
     1
271
     1
  0
XRECORD
  5
496
102
{ACAD_REACTORS
330
490
102
}
330
490
100
AcDbXrecord
280
     1
270
     1
271
     1
  0
XRECORD
  5
493
102
{ACAD_REACTORS
330
490
102
}
330
490
100
AcDbXrecord
280
     1
270
     1
271
     1
  0
XRECORD
  5
4E1
102
{ACAD_REACTORS
330
4E0
102
}
330
4E0
100
AcDbXrecord
280
     1
102
DISPLAYNAME
  1
Metric50
102
FLAGS
 90
        0
  0
CELLSTYLEMAP
  5
4DF
102
{ACAD_REACTORS
330
4DE
102
}
330
4DE
100
AcDbCellStyleMap
 90
        3
300
CELLSTYLE
  1
TABLEFORMAT_BEGIN
 90
        5
170
     1
 91
        0
 92
    32768
 62
   257
 93
        1
300
CONTENTFORMAT
  1
CONTENTFORMAT_BEGIN
 90
        0
 91
        0
 92
      512
 93
        0
300

 40
0.0
140
1.0
 94
        5
 62
     0
340
11
144
6.0
309
CONTENTFORMAT_END
171
     1
301
MARGIN
  1
CELLMARGIN_BEGIN
 40
1.5
 40
1.5
 40
1.5
 40
1.5
 40
4.5
 40
4.5
309
CELLMARGIN_END
 94
        6
 95
        1
302
GRIDFORMAT
  1
GRIDFORMAT_BEGIN
 90
        0
 91
        1
 62
     0
 92
       -2
340
0
 93
        0
 40
1.125
309
GRIDFORMAT_END
 95
        2
302
GRIDFORMAT
  1
GRIDFORMAT_BEGIN
 90
        0
 91
        1
 62
     0
 92
       -2
340
0
 93
        0
 40
1.125
309
GRIDFORMAT_END
 95
        4
302
GRIDFORMAT
  1
GRIDFORMAT_BEGIN
 90
        0
 91
        1
 62
     0
 92
       -2
340
0
 93
        0
 40
1.125
309
GRIDFORMAT_END
 95
        8
302
GRIDFORMAT
  1
GRIDFORMAT_BEGIN
 90
        0
 91
        1
 62
     0
 92
       -2
340
0
 93
        0
 40
1.125
309
GRIDFORMAT_END
 95
       16
302
GRIDFORMAT
  1
GRIDFORMAT_BEGIN
 90
        0
 91
        1
 62
     0
 92
       -2
340
0
 93
        0
 40
1.125
309
GRIDFORMAT_END
 95
       32
302
GRIDFORMAT
  1
GRIDFORMAT_BEGIN
 90
        0
 91
        1
 62
     0
 92
       -2
340
0
 93
        0
 40
1.125
309
GRIDFORMAT_END
309
TABLEFORMAT_END
  1
CELLSTYLE_BEGIN
 90
        1
 91
        1
300
_TITLE
309
CELLSTYLE_END
300
CELLSTYLE
  1
TABLEFORMAT_BEGIN
 90
        5
170
     1
 91
        0
 92
        0
 62
   257
 93
        1
300
CONTENTFORMAT
  1
CONTENTFORMAT_BEGIN
 90
        0
 91
        0
 92
      512
 93
        0
300

 40
0.0
140
1.0
 94
        5
 62
     0
340
11
144
4.5
309
CONTENTFORMAT_END
171
     1
301
MARGIN
  1
CELLMARGIN_BEGIN
 40
1.5
 40
1.5
 40
1.5
 40
1.5
 40
4.5
 40
4.5
309
CELLMARGIN_END
 94
        6
 95
        1
302
GRIDFORMAT
  1
GRIDFORMAT_BEGIN
 90
        0
 91
        1
 62
     0
 92
       -2
340
0
 93
        0
 40
1.125
309
GRIDFORMAT_END
 95
        2
302
GRIDFORMAT
  1
GRIDFORMAT_BEGIN
 90
        0
 91
        1
 62
     0
 92
       -2
340
0
 93
        0
 40
1.125
309
GRIDFORMAT_END
 95
        4
302
GRIDFORMAT
  1
GRIDFORMAT_BEGIN
 90
        0
 91
        1
 62
     0
 92
       -2
340
0
 93
        0
 40
1.125
309
GRIDFORMAT_END
 95
        8
302
GRIDFORMAT
  1
GRIDFORMAT_BEGIN
 90
        0
 91
        1
 62
     0
 92
       -2
340
0
 93
        0
 40
1.125
309
GRIDFORMAT_END
 95
       16
302
GRIDFORMAT
  1
GRIDFORMAT_BEGIN
 90
        0
 91
        1
 62
     0
 92
       -2
340
0
 93
        0
 40
1.125
309
GRIDFORMAT_END
 95
       32
302
GRIDFORMAT
  1
GRIDFORMAT_BEGIN
 90
        0
 91
        1
 62
     0
 92
       -2
340
0
 93
        0
 40
1.125
309
GRIDFORMAT_END
309
TABLEFORMAT_END
  1
CELLSTYLE_BEGIN
 90
        2
 91
        1
300
_HEADER
309
CELLSTYLE_END
300
CELLSTYLE
  1
TABLEFORMAT_BEGIN
 90
        5
170
     1
 91
        0
 92
        0
 62
   257
 93
        1
300
CONTENTFORMAT
  1
CONTENTFORMAT_BEGIN
 90
        0
 91
        0
 92
      512
 93
        0
300

 40
0.0
140
1.0
 94
        2
 62
     0
340
11
144
4.5
309
CONTENTFORMAT_END
171
     1
301
MARGIN
  1
CELLMARGIN_BEGIN
 40
1.5
 40
1.5
 40
1.5
 40
1.5
 40
4.5
 40
4.5
309
CELLMARGIN_END
 94
        6
 95
        1
302
GRIDFORMAT
  1
GRIDFORMAT_BEGIN
 90
        0
 91
        1
 62
     0
 92
       -2
340
0
 93
        0
 40
1.125
309
GRIDFORMAT_END
 95
        2
302
GRIDFORMAT
  1
GRIDFORMAT_BEGIN
 90
        0
 91
        1
 62
     0
 92
       -2
340
0
 93
        0
 40
1.125
309
GRIDFORMAT_END
 95
        4
302
GRIDFORMAT
  1
GRIDFORMAT_BEGIN
 90
        0
 91
        1
 62
     0
 92
       -2
340
0
 93
        0
 40
1.125
309
GRIDFORMAT_END
 95
        8
302
GRIDFORMAT
  1
GRIDFORMAT_BEGIN
 90
        0
 91
        1
 62
     0
 92
       -2
340
0
 93
        0
 40
1.125
309
GRIDFORMAT_END
 95
       16
302
GRIDFORMAT
  1
GRIDFORMAT_BEGIN
 90
        0
 91
        1
 62
     0
 92
       -2
340
0
 93
        0
 40
1.125
309
GRIDFORMAT_END
 95
       32
302
GRIDFORMAT
  1
GRIDFORMAT_BEGIN
 90
        0
 91
        1
 62
     0
 92
       -2
340
0
 93
        0
 40
1.125
309
GRIDFORMAT_END
309
TABLEFORMAT_END
  1
CELLSTYLE_BEGIN
 90
        3
 91
        2
300
_DATA
309
CELLSTYLE_END
  0
ENDSEC
  0
EOF
