  0
SECTION
  2
HEADER
  9
$ACADVER
  1
AC1027
  9
$ACADMAINTVER
 70
   125
  9
$DWGCODEPAGE
  3
ANSI_1252
  9
$LASTSAVEDBY
  1
fleminab
  9
$REQUIREDVERSIONS
160
                 0
  9
$INSBASE
 10
0.0
 20
0.0
 30
0.0
  9
$EXTMIN
 10
10.51870401175075
 20
0.6110230035393372
 30
-0.0015258207003583
  9
$EXTMAX
 10
36.66136757599581
 20
34.8217301088522
 30
0.0000000349246037
  9
$LIMMIN
 10
0.0
 20
0.0
  9
$LIMMAX
 10
12.0
 20
9.0
  9
$ORTHOMODE
 70
     0
  9
$REGENMODE
 70
     1
  9
$FILLMODE
 70
     1
  9
$QTEXTMODE
 70
     0
  9
$MIRRTEXT
 70
     0
  9
$LTSCALE
 40
1.0
  9
$ATTMODE
 70
     1
  9
$TEXTSIZE
 40
0.2
  9
$TRACEWID
 40
0.05
  9
$TEXTSTYLE
  7
Standard
  9
$CLAYER
  8
0
  9
$CELTYPE
  6
ByLayer
  9
$CECOLOR
 62
   256
  9
$CELTSCALE
 40
1.0
  9
$DISPSILH
 70
     0
  9
$DIMSCALE
 40
1.0
  9
$DIMASZ
 40
0.18
  9
$DIMEXO
 40
0.0625
  9
$DIMDLI
 40
0.38
  9
$DIMRND
 40
0.0
  9
$DIMDLE
 40
0.0
  9
$DIMEXE
 40
0.18
  9
$DIMTP
 40
0.0
  9
$DIMTM
 40
0.0
  9
$DIMTXT
 40
0.18
  9
$DIMCEN
 40
0.09
  9
$DIMTSZ
 40
0.0
  9
$DIMTOL
 70
     0
  9
$DIMLIM
 70
     0
  9
$DIMTIH
 70
     1
  9
$DIMTOH
 70
     1
  9
$DIMSE1
 70
     0
  9
$DIMSE2
 70
     0
  9
$DIMTAD
 70
     0
  9
$DIMZIN
 70
     0
  9
$DIMBLK
  1

  9
$DIMASO
 70
     1
  9
$DIMSHO
 70
     1
  9
$DIMPOST
  1

  9
$DIMAPOST
  1

  9
$DIMALT
 70
     0
  9
$DIMALTD
 70
     2
  9
$DIMALTF
 40
25.4
  9
$DIMLFAC
 40
1.0
  9
$DIMTOFL
 70
     0
  9
$DIMTVP
 40
0.0
  9
$DIMTIX
 70
     0
  9
$DIMSOXD
 70
     0
  9
$DIMSAH
 70
     0
  9
$DIMBLK1
  1

  9
$DIMBLK2
  1

  9
$DIMSTYLE
  2
Standard
  9
$DIMCLRD
 70
     0
  9
$DIMCLRE
 70
     0
  9
$DIMCLRT
 70
     0
  9
$DIMTFAC
 40
1.0
  9
$DIMGAP
 40
0.09
  9
$DIMJUST
 70
     0
  9
$DIMSD1
 70
     0
  9
$DIMSD2
 70
     0
  9
$DIMTOLJ
 70
     1
  9
$DIMTZIN
 70
     0
  9
$DIMALTZ
 70
     0
  9
$DIMALTTZ
 70
     0
  9
$DIMUPT
 70
     0
  9
$DIMDEC
 70
     4
  9
$DIMTDEC
 70
     4
  9
$DIMALTU
 70
     2
  9
$DIMALTTD
 70
     2
  9
$DIMTXSTY
  7
Standard
  9
$DIMAUNIT
 70
     0
  9
$DIMADEC
 70
     0
  9
$DIMALTRND
 40
0.0
  9
$DIMAZIN
 70
     0
  9
$DIMDSEP
 70
    46
  9
$DIMATFIT
 70
     3
  9
$DIMFRAC
 70
     0
  9
$DIMLDRBLK
  1

  9
$DIMLUNIT
 70
     2
  9
$DIMLWD
 70
    -2
  9
$DIMLWE
 70
    -2
  9
$DIMTMOVE
 70
     0
  9
$DIMFXL
 40
1.0
  9
$DIMFXLON
 70
     0
  9
$DIMJOGANG
 40
0.7853981633974483
  9
$DIMTFILL
 70
     0
  9
$DIMTFILLCLR
 70
     0
  9
$DIMARCSYM
 70
     0
  9
$DIMLTYPE
  6

  9
$DIMLTEX1
  6

  9
$DIMLTEX2
  6

  9
$DIMTXTDIRECTION
 70
     0
  9
$LUNITS
 70
     2
  9
$LUPREC
 70
     4
  9
$SKETCHINC
 40
0.1
  9
$FILLETRAD
 40
0.0
  9
$AUNITS
 70
     0
  9
$AUPREC
 70
     0
  9
$MENU
  1
.
  9
$ELEVATION
 40
0.0
  9
$PELEVATION
 40
0.0
  9
$THICKNESS
 40
0.0
  9
$LIMCHECK
 70
     0
  9
$CHAMFERA
 40
0.0
  9
$CHAMFERB
 40
0.0
  9
$CHAMFERC
 40
0.0
  9
$CHAMFERD
 40
0.0
  9
$SKPOLY
 70
     0
  9
$TDCREATE
 40
2458191.327523148
  9
$TDUCREATE
 40
2458190.869189815
  9
$TDUPDATE
 40
2458191.328865741
  9
$TDUUPDATE
 40
2458190.870532408
  9
$TDINDWG
 40
0.0013425926
  9
$TDUSRTIMER
 40
0.0013425926
  9
$USRTIMER
 70
     1
  9
$ANGBASE
 50
0.0
  9
$ANGDIR
 70
     0
  9
$PDMODE
 70
     0
  9
$PDSIZE
 40
0.0
  9
$PLINEWID
 40
0.0
  9
$SPLFRAME
 70
     0
  9
$SPLINETYPE
 70
     6
  9
$SPLINESEGS
 70
     8
  9
$HANDSEED
  5
36F
  9
$SURFTAB1
 70
     6
  9
$SURFTAB2
 70
     6
  9
$SURFTYPE
 70
     6
  9
$SURFU
 70
     6
  9
$SURFV
 70
     6
  9
$UCSBASE
  2

  9
$UCSNAME
  2

  9
$UCSORG
 10
0.0
 20
0.0
 30
0.0
  9
$UCSXDIR
 10
1.0
 20
0.0
 30
0.0
  9
$UCSYDIR
 10
0.0
 20
1.0
 30
0.0
  9
$UCSORTHOREF
  2

  9
$UCSORTHOVIEW
 70
     0
  9
$UCSORGTOP
 10
0.0
 20
0.0
 30
0.0
  9
$UCSORGBOTTOM
 10
0.0
 20
0.0
 30
0.0
  9
$UCSORGLEFT
 10
0.0
 20
0.0
 30
0.0
  9
$UCSORGRIGHT
 10
0.0
 20
0.0
 30
0.0
  9
$UCSORGFRONT
 10
0.0
 20
0.0
 30
0.0
  9
$UCSORGBACK
 10
0.0
 20
0.0
 30
0.0
  9
$PUCSBASE
  2

  9
$PUCSNAME
  2

  9
$PUCSORG
 10
0.0
 20
0.0
 30
0.0
  9
$PUCSXDIR
 10
1.0
 20
0.0
 30
0.0
  9
$PUCSYDIR
 10
0.0
 20
1.0
 30
0.0
  9
$PUCSORTHOREF
  2

  9
$PUCSORTHOVIEW
 70
     0
  9
$PUCSORGTOP
 10
0.0
 20
0.0
 30
0.0
  9
$PUCSORGBOTTOM
 10
0.0
 20
0.0
 30
0.0
  9
$PUCSORGLEFT
 10
0.0
 20
0.0
 30
0.0
  9
$PUCSORGRIGHT
 10
0.0
 20
0.0
 30
0.0
  9
$PUCSORGFRONT
 10
0.0
 20
0.0
 30
0.0
  9
$PUCSORGBACK
 10
0.0
 20
0.0
 30
0.0
  9
$USERI1
 70
     0
  9
$USERI2
 70
     0
  9
$USERI3
 70
     0
  9
$USERI4
 70
     0
  9
$USERI5
 70
     0
  9
$USERR1
 40
0.0
  9
$USERR2
 40
0.0
  9
$USERR3
 40
0.0
  9
$USERR4
 40
0.0
  9
$USERR5
 40
0.0
  9
$WORLDVIEW
 70
     1
  9
$SHADEDGE
 70
     3
  9
$SHADEDIF
 70
    70
  9
$TILEMODE
 70
     1
  9
$MAXACTVP
 70
    64
  9
$PINSBASE
 10
0.0
 20
0.0
 30
0.0
  9
$PLIMCHECK
 70
     0
  9
$PEXTMIN
 10
1.000000000000000E+20
 20
1.000000000000000E+20
 30
1.000000000000000E+20
  9
$PEXTMAX
 10
-1.000000000000000E+20
 20
-1.000000000000000E+20
 30
-1.000000000000000E+20
  9
$PLIMMIN
 10
-0.7524054877282309
 20
-0.5025428238148726
  9
$PLIMMAX
 10
35.24759547345533
 20
23.49745621500156
  9
$UNITMODE
 70
     0
  9
$VISRETAIN
 70
     1
  9
$PLINEGEN
 70
     0
  9
$PSLTSCALE
 70
     1
  9
$TREEDEPTH
 70
  3020
  9
$CMLSTYLE
  2
Standard
  9
$CMLJUST
 70
     0
  9
$CMLSCALE
 40
1.0
  9
$PROXYGRAPHICS
 70
     1
  9
$MEASUREMENT
 70
     0
  9
$CELWEIGHT
370
    -1
  9
$ENDCAPS
280
     0
  9
$JOINSTYLE
280
     0
  9
$LWDISPLAY
290
     0
  9
$INSUNITS
 70
     1
  9
$HYPERLINKBASE
  1

  9
$STYLESHEET
  1

  9
$XEDIT
290
     1
  9
$CEPSNTYPE
380
     0
  9
$PSTYLEMODE
290
     1
  9
$FINGERPRINTGUID
  2
{6F1D09D1-1E77-F147-B060-0588D7594630}
  9
$VERSIONGUID
  2
{56559F19-5815-A242-9071-68DD2C9DB7E5}
  9
$EXTNAMES
290
     1
  9
$PSVPSCALE
 40
0.0
  9
$OLESTARTUP
290
     0
  9
$SORTENTS
280
   127
  9
$INDEXCTL
280
     0
  9
$HIDETEXT
280
     0
  9
$XCLIPFRAME
280
     0
  9
$HALOGAP
280
     0
  9
$OBSCOLOR
 70
   257
  9
$OBSLTYPE
280
     0
  9
$INTERSECTIONDISPLAY
280
     0
  9
$INTERSECTIONCOLOR
 70
   257
  9
$DIMASSOC
280
     1
  9
$PROJECTNAME
  1

  9
$CAMERADISPLAY
290
     0
  9
$LENSLENGTH
 40
50.0
  9
$CAMERAHEIGHT
 40
0.0
  9
$STEPSPERSEC
 40
2.0
  9
$STEPSIZE
 40
6.0
  9
$3DDWFPREC
 40
2.0
  9
$PSOLWIDTH
 40
0.25
  9
$PSOLHEIGHT
 40
4.0
  9
$LOFTANG1
 40
1.570796326794896
  9
$LOFTANG2
 40
1.570796326794896
  9
$LOFTMAG1
 40
0.0
  9
$LOFTMAG2
 40
0.0
  9
$LOFTPARAM
 70
     7
  9
$LOFTNORMALS
280
     1
  9
$LATITUDE
 40
37.795
  9
$LONGITUDE
 40
-122.394
  9
$NORTHDIRECTION
 40
0.0
  9
$TIMEZONE
 70
 -8000
  9
$LIGHTGLYPHDISPLAY
280
     1
  9
$TILEMODELIGHTSYNCH
280
     1
  9
$CMATERIAL
347
7F
  9
$SOLIDHIST
280
     1
  9
$SHOWHIST
280
     1
  9
$DWFFRAME
280
     2
  9
$DGNFRAME
280
     0
  9
$REALWORLDSCALE
290
     1
  9
$INTERFERECOLOR
 62
     1
  9
$INTERFEREOBJVS
345
8C
  9
$INTERFEREVPVS
346
A5
  9
$CSHADOW
280
     0
  9
$SHADOWPLANELOCATION
 40
0.0
  0
ENDSEC
  0
SECTION
  2
CLASSES
  0
CLASS
  1
ACDBDICTIONARYWDFLT
  2
AcDbDictionaryWithDefault
  3
ObjectDBX Classes
 90
        0
 91
        1
280
     0
281
     0
  0
CLASS
  1
PLOTSETTINGS
  2
AcDbPlotSettings
  3
ObjectDBX Classes
 90
        0
 91
        0
280
     0
281
     0
  0
CLASS
  1
MATERIAL
  2
AcDbMaterial
  3
ObjectDBX Classes
 90
     1153
 91
        3
280
     0
281
     0
  0
CLASS
  1
VISUALSTYLE
  2
AcDbVisualStyle
  3
ObjectDBX Classes
 90
     4095
 91
       26
280
     0
281
     0
  0
CLASS
  1
TABLESTYLE
  2
AcDbTableStyle
  3
ObjectDBX Classes
 90
     4095
 91
        1
280
     0
281
     0
  0
CLASS
  1
DICTIONARYVAR
  2
AcDbDictionaryVar
  3
ObjectDBX Classes
 90
        0
 91
       17
280
     0
281
     0
  0
CLASS
  1
SCALE
  2
AcDbScale
  3
ObjectDBX Classes
 90
     1153
 91
       17
280
     0
281
     0
  0
CLASS
  1
MLEADERSTYLE
  2
AcDbMLeaderStyle
  3
ACDB_MLEADERSTYLE_CLASS
 90
     4095
 91
        1
280
     0
281
     0
  0
CLASS
  1
ACDBSECTIONVIEWSTYLE
  2
AcDbSectionViewStyle
  3
ObjectDBX Classes
 90
     1025
 91
        1
280
     0
281
     0
  0
CLASS
  1
ACDBDETAILVIEWSTYLE
  2
AcDbDetailViewStyle
  3
ObjectDBX Classes
 90
     1025
 91
        1
280
     0
281
     0
  0
CLASS
  1
CELLSTYLEMAP
  2
AcDbCellStyleMap
  3
ObjectDBX Classes
 90
     1152
 91
        1
280
     0
281
     0
  0
ENDSEC
  0
SECTION
  2
TABLES
  0
TABLE
  2
VPORT
  5
19
330
0
100
AcDbSymbolTable
 70
     1
1001
ACAD
1000
DbSaveVer
1071
        5
  0
VPORT
  5
7D
330
19
100
AcDbSymbolTableRecord
100
AcDbViewportTableRecord
  2
*Active
 70
     0
 10
0.0
 20
0.0
 11
1.0
 21
1.0
 12
23.59003579387328
 22
17.71637655619577
 13
0.0
 23
0.0
 14
0.5
 24
0.5
 15
0.5
 25
0.5
 16
0.0
 26
0.0
 36
1.0
 17
0.0
 27
0.0
 37
0.0
 40
34.45565250224829
 41
2.292712066905615
 42
50.0
 43
0.0
 44
0.0
 50
0.0
 51
0.0
 71
     0
 72
  1000
 73
     1
 74
     3
 75
     0
 76
     0
 77
     0
 78
     0
281
     0
 65
     1
110
0.0
120
0.0
130
0.0
111
1.0
121
0.0
131
0.0
112
0.0
122
1.0
132
0.0
 79
     0
146
0.0
348
88
 60
     3
 61
     5
292
     1
282
     1
141
0.0
142
0.0
 63
   250
421
  3355443
1001
ACAD_NAV_VCDISPLAY
1070
     3
  0
ENDTAB
  0
TABLE
  2
LTYPE
  5
14
330
0
100
AcDbSymbolTable
 70
     1
  0
LTYPE
  5
15
330
14
100
AcDbSymbolTableRecord
100
AcDbLinetypeTableRecord
  2
ByBlock
 70
     0
  3

 72
    65
 73
     0
 40
0.0
  0
LTYPE
  5
16
330
14
100
AcDbSymbolTableRecord
100
AcDbLinetypeTableRecord
  2
ByLayer
 70
     0
  3

 72
    65
 73
     0
 40
0.0
  0
LTYPE
  5
8
330
14
100
AcDbSymbolTableRecord
100
AcDbLinetypeTableRecord
  2
Continuous
 70
     0
  3
Solid line
 72
    65
 73
     0
 40
0.0
  0
ENDTAB
  0
TABLE
  2
LAYER
  5
10
330
0
100
AcDbSymbolTable
 70
     4
  0
LAYER
  5
4
102
{ACAD_XDICTIONARY
360
34A
102
}
330
10
100
AcDbSymbolTableRecord
100
AcDbLayerTableRecord
  2
0
 70
     0
 62
     7
  6
Continuous
370
    -3
390
5
347
81
348
0
  0
LAYER
  5
25
102
{ACAD_XDICTIONARY
360
34C
102
}
330
10
100
AcDbSymbolTableRecord
100
AcDbLayerTableRecord
  2
Title Block
 70
     0
 62
     7
  6
Continuous
370
    -3
390
5
347
81
348
0
  0
LAYER
  5
CE
102
{ACAD_XDICTIONARY
360
34E
102
}
330
10
100
AcDbSymbolTableRecord
100
AcDbLayerTableRecord
  2
PDF_Layer 1
 70
     0
 62
   250
420
  2301728
  6
Continuous
370
    -3
390
5
347
81
348
0
  0
LAYER
  5
E9
102
{ACAD_XDICTIONARY
360
350
102
}
330
10
100
AcDbSymbolTableRecord
100
AcDbLayerTableRecord
  2
PDF_Text
 70
     0
 62
   250
420
  2301728
  6
Continuous
370
    -3
390
5
347
81
348
0
  0
ENDTAB
  0
TABLE
  2
STYLE
  5
11
330
0
100
AcDbSymbolTable
 70
     3
  0
STYLE
  5
12
330
11
100
AcDbSymbolTableRecord
100
AcDbTextStyleTableRecord
  2
Standard
 70
     0
 40
0.0
 41
1.0
 50
0.0
 71
     0
 42
0.2
  3
txt
  4

  0
STYLE
  5
27
330
11
100
AcDbSymbolTableRecord
100
AcDbTextStyleTableRecord
  2
Roman
 70
     0
 40
0.0
 41
1.0
 50
0.0
 71
     0
 42
0.2
  3
ROMANS.SHX
  4

  0
STYLE
  5
E8
330
11
100
AcDbSymbolTableRecord
100
AcDbTextStyleTableRecord
  2
PDF Arial
 70
     0
 40
0.0
 41
1.0
 50
0.0
 71
     0
 42
0.2
  3
arial.ttf
  4

1001
ACAD
1000
Arial
1071
       34
  0
ENDTAB
  0
TABLE
  2
VIEW
  5
17
330
0
100
AcDbSymbolTable
 70
     0
  0
ENDTAB
  0
TABLE
  2
UCS
  5
18
330
0
100
AcDbSymbolTable
 70
     0
  0
ENDTAB
  0
TABLE
  2
APPID
  5
1B
330
0
100
AcDbSymbolTable
 70
     2
  0
APPID
  5
1C
330
1B
100
AcDbSymbolTableRecord
100
AcDbRegAppTableRecord
  2
ACAD
 70
     0
  0
APPID
  5
352
330
1B
100
AcDbSymbolTableRecord
100
AcDbRegAppTableRecord
  2
ACAD_NAV_VCDISPLAY
 70
     0
  0
ENDTAB
  0
TABLE
  2
DIMSTYLE
  5
1D
330
0
100
AcDbSymbolTable
 70
     1
100
AcDbDimStyleTable
 71
     0
  0
DIMSTYLE
105
23
330
1D
100
AcDbSymbolTableRecord
100
AcDbDimStyleTableRecord
  2
Standard
 70
     0
340
12
  0
ENDTAB
  0
TABLE
  2
BLOCK_RECORD
  5
1
330
0
100
AcDbSymbolTable
 70
     0
  0
BLOCK_RECORD
  5
2
330
1
100
AcDbSymbolTableRecord
100
AcDbBlockTableRecord
  2
*Model_Space
340
A
 70
     0
280
     1
281
     0
  0
BLOCK_RECORD
  5
C
330
1
100
AcDbSymbolTableRecord
100
AcDbBlockTableRecord
  2
*Paper_Space
340
F
 70
     0
280
     1
281
     0
  0
ENDTAB
  0
ENDSEC
  0
SECTION
  2
BLOCKS
  0
BLOCK
  5
3
330
2
100
AcDbEntity
  8
0
100
AcDbBlockBegin
  2
*Model_Space
 70
     2
 10
0.0
 20
0.0
 30
0.0
  3
*Model_Space
  1

  0
ENDBLK
  5
9
330
2
100
AcDbEntity
  8
0
100
AcDbBlockEnd
  0
BLOCK
  5
D
330
C
100
AcDbEntity
 67
     1
  8
0
100
AcDbBlockBegin
  2
*Paper_Space
 70
     0
 10
0.0
 20
0.0
 30
0.0
  3
*Paper_Space
  1

  0
ENDBLK
  5
E
330
C
100
AcDbEntity
 67
     1
  8
0
100
AcDbBlockEnd
  0
ENDSEC
  0
SECTION
  2
ENTITIES
  0
SOLID
  5
CF
330
2
100
AcDbEntity
  8
PDF_Layer 1
 62
     7
420
 16777215
440
 33554559
370
    35
100
AcDbTrace
 10
29.37045694444444
 20
13.06635555555555
 30
0.0
 11
29.41415138888889
 21
12.96349444444444
 31
0.0
 12
29.61430416666667
 22
12.96349444444444
 32
0.0
 13
29.37045694444444
 23
12.86061944444444
 33
0.0
  0
SOLID
  5
D0
330
2
100
AcDbEntity
  8
PDF_Layer 1
 62
     7
420
 16777215
440
 33554559
370
    35
100
AcDbTrace
 10
27.65557222222222
 20
13.06635555555555
 30
0.0
 11
27.61187777777778
 21
12.96349444444444
 31
0.0
 12
27.411725
 22
12.96349444444444
 32
0.0
 13
27.65557222222222
 23
12.86061944444444
 33
0.0
  0
SOLID
  5
D1
330
2
100
AcDbEntity
  8
PDF_Layer 1
 62
     7
420
 16777215
440
 33554559
370
    35
100
AcDbTrace
 10
25.62874305555556
 20
1.718048611111111
 30
0.0
 11
25.6225625
 21
1.829645833333333
 31
0.0
 12
25.43429861111111
 22
1.897590277777777
 32
0.0
 13
25.69857638888889
 23
1.911576388888888
 33
0.0
  0
SOLID
  5
D2
330
2
100
AcDbEntity
  8
PDF_Layer 1
 62
     7
420
 16777215
440
 33554559
370
    35
100
AcDbTrace
 10
26.11172083333333
 20
1.543745833333333
 30
0.0
 11
26.18774861111111
 21
1.625662499999999
 31
0.0
 12
26.37599861111111
 22
1.557731944444444
 32
0.0
 13
26.18155416666666
 23
1.737259722222221
 33
0.0
  0
SOLID
  5
D3
330
2
100
AcDbEntity
  8
PDF_Layer 1
 62
     7
420
 16777215
440
 33554559
370
    35
100
AcDbTrace
 10
28.06087222222222
 20
23.8487875
 30
0.0
 11
28.01717777777778
 21
23.95164861111111
 31
0.0
 12
27.817025
 22
23.95164861111111
 32
0.0
 13
28.06087222222222
 23
24.05452361111111
 33
0.0
  0
SOLID
  5
D4
330
2
100
AcDbEntity
  8
PDF_Layer 1
 62
     7
420
 16777215
440
 33554559
370
    35
100
AcDbTrace
 10
28.96518333333334
 20
23.8487875
 30
0.0
 11
29.00887777777778
 21
23.95164861111111
 31
0.0
 12
29.20903055555556
 22
23.95164861111111
 32
0.0
 13
28.96518333333334
 23
24.05452361111111
 33
0.0
  0
SOLID
  5
D5
330
2
100
AcDbEntity
  8
PDF_Layer 1
 62
     7
420
 16777215
440
 33554559
370
    35
100
AcDbTrace
 10
11.4909125
 20
10.81238194444444
 30
0.0
 11
11.38805138888889
 21
10.7686875
 31
0.0
 12
11.38805138888889
 22
10.56853472222222
 32
0.0
 13
11.28517638888888
 23
10.81238194444444
 33
0.0
  0
SOLID
  5
D6
330
2
100
AcDbEntity
  8
PDF_Layer 1
 62
     7
420
 16777215
440
 33554559
370
    35
100
AcDbTrace
 10
11.4909125
 20
34.57725972222223
 30
0.0
 11
11.38805138888889
 21
34.62095416666667
 31
0.0
 12
11.38805138888889
 22
34.82110694444445
 32
0.0
 13
11.28517638888888
 23
34.57725972222223
 33
0.0
  0
SOLID
  5
D7
330
2
100
AcDbEntity
  8
PDF_Layer 1
 62
     7
420
 16777215
440
 33554559
370
    35
100
AcDbTrace
 10
13.37315555555555
 20
22.3486375
 30
0.0
 11
13.47601666666666
 21
22.39233194444445
 31
0.0
 12
13.47601666666666
 22
22.59248472222222
 32
0.0
 13
13.57889166666666
 23
22.3486375
 33
0.0
  0
SOLID
  5
D8
330
2
100
AcDbEntity
  8
PDF_Layer 1
 62
     7
420
 16777215
440
 33554559
370
    35
100
AcDbTrace
 10
13.37315555555555
 20
10.81245
 30
0.0
 11
13.47601666666666
 21
10.76875555555555
 31
0.0
 12
13.47601666666666
 22
10.56860277777778
 32
0.0
 13
13.57889166666666
 23
10.81245
 33
0.0
  0
SOLID
  5
D9
330
2
100
AcDbEntity
  8
PDF_Layer 1
 62
     7
420
 16777215
440
 33554559
370
    35
100
AcDbTrace
 10
15.80770555555555
 20
8.549727777777778
 30
0.0
 11
15.76401111111111
 21
8.652588888888889
 31
0.0
 12
15.56385833333333
 22
8.652588888888889
 32
0.0
 13
15.80770555555555
 23
8.75546388888889
 33
0.0
  0
SOLID
  5
DA
330
2
100
AcDbEntity
  8
PDF_Layer 1
 62
     7
420
 16777215
440
 33554559
370
    35
100
AcDbTrace
 10
28.26909722222222
 20
8.549727777777778
 30
0.0
 11
28.31279166666666
 21
8.652588888888889
 31
0.0
 12
28.51294444444445
 22
8.652588888888889
 32
0.0
 13
28.26909722222222
 23
8.75546388888889
 33
0.0
  0
SOLID
  5
DB
330
2
100
AcDbEntity
  8
PDF_Layer 1
 62
     7
420
 16777215
440
 33554559
370
    35
100
AcDbTrace
 10
25.85652638888888
 20
10.81234166666666
 30
0.0
 11
25.75366527777778
 21
10.76864722222222
 31
0.0
 12
25.75366527777778
 22
10.56849444444444
 32
0.0
 13
25.65079027777777
 23
10.81234166666666
 33
0.0
  0
SOLID
  5
DC
330
2
100
AcDbEntity
  8
PDF_Layer 1
 62
     7
420
 16777215
440
 33554559
370
    35
100
AcDbTrace
 10
25.85652638888888
 20
16.82178194444444
 30
0.0
 11
25.75366527777778
 21
16.86547638888888
 31
0.0
 12
25.75366527777778
 22
17.06562916666666
 32
0.0
 13
25.65079027777777
 23
16.82178194444444
 33
0.0
  0
SOLID
  5
DD
330
2
100
AcDbEntity
  8
PDF_Layer 1
 62
     7
420
 16777215
440
 33554559
370
    35
100
AcDbTrace
 10
36.64406944444445
 20
3.259063888888888
 30
0.0
 11
36.54120833333334
 21
3.215369444444444
 31
0.0
 12
36.54120833333334
 22
3.015216666666666
 32
0.0
 13
36.43833333333334
 23
3.259063888888888
 33
0.0
  0
SOLID
  5
DE
330
2
100
AcDbEntity
  8
PDF_Layer 1
 62
     7
420
 16777215
440
 33554559
370
    35
100
AcDbTrace
 10
36.64406944444445
 20
10.32469722222222
 30
0.0
 11
36.54120833333334
 21
10.36839166666666
 31
0.0
 12
36.54120833333334
 22
10.56854444444444
 32
0.0
 13
36.43833333333334
 23
10.32469722222222
 33
0.0
  0
SOLID
  5
DF
330
2
100
AcDbEntity
  8
PDF_Layer 1
 62
     7
420
 16777215
440
 33554559
370
    35
100
AcDbTrace
 10
33.37307361111112
 20
8.478777777777777
 30
0.0
 11
33.27021250000001
 21
8.435083333333333
 31
0.0
 12
33.27021250000001
 22
8.234930555555555
 32
0.0
 13
33.16733750000001
 23
8.478777777777777
 33
0.0
  0
SOLID
  5
E0
330
2
100
AcDbEntity
  8
PDF_Layer 1
 62
     7
420
 16777215
440
 33554559
370
    35
100
AcDbTrace
 10
33.37307361111112
 20
10.32465694444444
 30
0.0
 11
33.27021250000001
 21
10.36835138888889
 31
0.0
 12
33.27021250000001
 22
10.56850416666666
 32
0.0
 13
33.16733750000001
 23
10.32465694444444
 33
0.0
  0
SOLID
  5
E1
330
2
100
AcDbEntity
  8
PDF_Layer 1
 62
     7
420
 16777215
440
 33554559
370
    35
100
AcDbTrace
 10
36.43836805555555
 20
19.29044444444444
 30
0.0
 11
36.54122916666666
 21
19.33413888888889
 31
0.0
 12
36.54122916666666
 22
19.53429166666666
 32
0.0
 13
36.64410416666666
 23
19.29044444444444
 33
0.0
  0
SOLID
  5
E2
330
2
100
AcDbEntity
  8
PDF_Layer 1
 62
     7
420
 16777215
440
 33554559
370
    35
100
AcDbTrace
 10
36.43836805555555
 20
10.81239583333333
 30
0.0
 11
36.54122916666666
 21
10.76870138888889
 31
0.0
 12
36.54122916666666
 22
10.56854861111111
 32
0.0
 13
36.64410416666666
 23
10.81239583333333
 33
0.0
  0
SOLID
  5
E3
330
2
100
AcDbEntity
  8
PDF_Layer 1
 62
     7
420
 16777215
440
 33554559
370
    35
100
AcDbTrace
 10
34.82644305555556
 20
14.95954583333333
 30
0.0
 11
34.72358194444445
 21
14.91585138888888
 31
0.0
 12
34.72358194444445
 22
14.71569861111111
 32
0.0
 13
34.62070694444445
 23
14.95954583333333
 33
0.0
  0
SOLID
  5
E4
330
2
100
AcDbEntity
  8
PDF_Layer 1
 62
     7
420
 16777215
440
 33554559
370
    35
100
AcDbTrace
 10
34.82644305555556
 20
16.44515416666666
 30
0.0
 11
34.72358194444445
 21
16.48884861111111
 31
0.0
 12
34.72358194444445
 22
16.68900138888888
 32
0.0
 13
34.62070694444445
 23
16.44515416666666
 33
0.0
  0
SOLID
  5
E5
330
2
100
AcDbEntity
  8
PDF_Layer 1
 62
     7
420
 16777215
440
 33554559
370
    35
100
AcDbTrace
 10
27.31576944444444
 20
11.15758333333333
 30
0.0
 11
27.272075
 21
11.26044444444444
 31
0.0
 12
27.07192222222222
 22
11.26044444444444
 32
0.0
 13
27.31576944444444
 23
11.36331944444444
 33
0.0
  0
SOLID
  5
E6
330
2
100
AcDbEntity
  8
PDF_Layer 1
 62
     7
420
 16777215
440
 33554559
370
    35
100
AcDbTrace
 10
29.71021805555556
 20
11.15758333333333
 30
0.0
 11
29.7539125
 21
11.26044444444444
 31
0.0
 12
29.95406527777778
 22
11.26044444444444
 32
0.0
 13
29.71021805555556
 23
11.36331944444444
 33
0.0
  0
LWPOLYLINE
  5
EA
330
2
100
AcDbEntity
  8
PDF_Layer 1
 62
     7
420
 16777215
370
    35
100
AcDbPolyline
 90
        2
 70
     0
 43
0.0
 10
29.44847222222222
 20
12.96349166666666
 10
27.57755555555556
 20
12.96349166666666
  0
LWPOLYLINE
  5
EB
330
2
100
AcDbEntity
  8
PDF_Layer 1
 62
     7
420
 16777215
370
    35
100
AcDbPolyline
 90
        2
 70
     0
 43
0.0
 10
29.95406111111111
 20
10.91653472222222
 10
29.95406111111111
 20
11.37914583333333
  0
LWPOLYLINE
  5
EC
330
2
100
AcDbEntity
  8
PDF_Layer 1
 62
     7
420
 16777215
370
    35
100
AcDbPolyline
 90
        2
 70
     0
 43
0.0
 10
29.209025
 20
23.95165138888889
 10
31.21526111111111
 20
23.95165138888889
  0
LWPOLYLINE
  5
ED
330
2
100
AcDbEntity
  8
PDF_Layer 1
 62
     7
420
 16777215
370
    35
100
AcDbPolyline
 90
        2
 70
     0
 43
0.0
 10
30.07282222222222
 20
10.56849861111111
 10
33.38890555555555
 20
10.56849861111111
  0
LWPOLYLINE
  5
EE
330
2
100
AcDbEntity
  8
PDF_Layer 1
 62
     7
420
 16777215
370
    35
100
AcDbPolyline
 90
        2
 70
     0
 43
0.0
 10
27.23569722222222
 20
10.56849861111111
 10
25.634975
 20
10.56849861111111
  0
LWPOLYLINE
  5
EF
330
2
100
AcDbEntity
  8
PDF_Layer 1
 62
     7
420
 16777215
370
    35
100
AcDbPolyline
 90
        2
 70
     0
 43
0.0
 10
27.29301666666666
 20
17.0656236111111
 10
25.634975
 20
17.0656236111111
  0
LWPOLYLINE
  5
F0
330
2
100
AcDbEntity
  8
PDF_Layer 1
 62
     7
420
 16777215
370
    35
100
AcDbPolyline
 90
        2
 70
     0
 43
0.0
 10
30.07276805555556
 20
10.56855416666666
 10
36.65992083333333
 20
10.56855416666666
  0
LWPOLYLINE
  5
F1
330
2
100
AcDbEntity
  8
PDF_Layer 1
 62
     7
420
 16777215
370
    35
100
AcDbPolyline
 90
        2
 70
     0
 43
0.0
 10
28.5129388888889
 20
10.09365972222222
 10
28.5129388888889
 20
8.537951388888888
  0
LWPOLYLINE
  5
F2
330
2
100
AcDbEntity
  8
PDF_Layer 1
 62
     7
420
 16777215
370
    35
100
AcDbPolyline
 90
        2
 70
     0
 43
0.0
 10
30.07274027777778
 20
10.56854027777777
 10
36.66003194444444
 20
10.56854027777777
  0
LWPOLYLINE
  5
F3
330
2
100
AcDbEntity
  8
PDF_Layer 1
 62
     7
420
 16777215
370
    35
100
AcDbPolyline
 90
        2
 70
     0
 43
0.0
 10
25.59027777777778
 20
1.84128611111111
 10
26.22002777777778
 20
1.614022222222222
  0
LWPOLYLINE
  5
F4
330
2
100
AcDbEntity
  8
PDF_Layer 1
 62
     7
420
 16777215
370
    35
100
AcDbPolyline
 90
        2
 70
     0
 43
0.0
 10
28.51299305555556
 20
10.56854027777777
 10
28.51299305555556
 20
10.20827638888889
  0
LWPOLYLINE
  5
F5
330
2
100
AcDbEntity
  8
PDF_Layer 1
 62
     7
420
 16777215
370
    35
100
AcDbPolyline
 90
        3
 70
     0
 43
0.0
 10
15.18310416666667
 20
22.59241527777778
 10
15.56392361111112
 20
22.59241527777778
 10
15.56392361111112
 20
22.27310972222222
  0
LWPOLYLINE
  5
F7
330
2
100
AcDbEntity
  8
PDF_Layer 1
 62
     7
420
 16777215
370
    35
100
AcDbPolyline
 90
        2
 70
     0
 43
0.0
 10
22.13050694444445
 20
34.82110972222222
 10
21.24221527777779
 20
34.82110972222222
  0
LWPOLYLINE
  5
F8
330
2
100
AcDbEntity
  8
PDF_Layer 1
 62
     7
420
 16777215
370
    35
100
AcDbPolyline
 90
        2
 70
     0
 43
0.0
 10
25.90514583333334
 20
3.203540277777775
 10
25.86822916666668
 20
3.1052625
  0
LWPOLYLINE
  5
F9
330
2
100
AcDbEntity
  8
PDF_Layer 1
 62
     7
420
 16777215
370
    35
100
AcDbPolyline
 90
        2
 70
     0
 43
0.0
 10
26.8467013888889
 20
2.86787361111111
 10
26.80589583333334
 20
2.753234722222221
  0
LWPOLYLINE
  5
FA
330
2
100
AcDbEntity
  8
PDF_Layer 1
 62
     7
420
 16777215
370
    35
100
AcDbPolyline
 90
        2
 70
     0
 43
0.0
 10
30.86696527777779
 20
3.015220833333333
 10
31.23954861111112
 20
3.015220833333333
  0
LWPOLYLINE
  5
FB
330
2
100
AcDbEntity
  8
PDF_Layer 1
 62
     7
420
 16777215
370
   211
100
AcDbPolyline
 90
      100
 70
     0
 43
0.0
 10
30.932525
 20
3.842094444444445
 10
30.94483055555555
 20
3.846302777777778
 10
30.95306666666667
 20
3.850344444444445
 10
30.96117777777778
 20
3.858594444444444
 10
30.96523333333333
 20
3.866705555555555
 10
30.96928888888889
 20
3.879011111111111
 10
30.97348333333333
 20
3.887247222222222
 10
30.97348333333333
 20
3.899413888888889
 10
30.97348333333333
 20
3.907677777777778
 10
30.96523333333333
 20
3.928080555555556
 10
30.96117777777778
 20
3.944566666666667
 10
30.95712222222222
 20
3.964997222222222
 10
30.94888611111111
 20
3.9854
 10
30.94063611111111
 20
4.001886111111111
 10
30.932525
 20
4.018261111111111
 10
30.92021944444444
 20
4.038663888888889
 10
30.91210833333333
 20
4.055163888888889
 10
30.90791388888888
 20
4.055163888888889
 10
30.90791388888888
 20
4.059219444444444
 10
30.90385833333333
 20
4.063261111111111
 10
30.90385833333333
 20
4.067316666666666
 10
30.89980277777778
 20
4.067316666666666
 10
30.89574722222222
 20
4.063261111111111
 10
30.88751111111111
 20
4.063261111111111
 10
30.71149722222222
 20
4.554525
 10
30.71555277777778
 20
4.554525
 10
30.72366388888889
 20
4.558580555555556
 10
30.72784444444444
 20
4.558580555555556
 10
30.71149722222222
 20
4.603594444444444
 10
30.71149722222222
 20
4.607788888888888
 10
30.70744166666667
 20
4.607788888888888
 10
30.70744166666667
 20
4.611844444444445
 10
30.70744166666667
 20
4.6159
 10
30.70744166666667
 20
4.619941666666667
 10
30.70744166666667
 20
4.62415
 10
30.70744166666667
 20
4.632261111111111
 10
30.70744166666667
 20
4.640511111111111
 10
30.70744166666667
 20
4.648761111111111
 10
30.70324722222222
 20
4.652802777777778
 10
30.70324722222222
 20
4.660913888888889
 10
30.70324722222222
 20
4.669163888888888
 10
30.69919166666667
 20
4.677261111111111
 10
30.69499722222222
 20
4.685525
 10
30.62133055555555
 20
4.890191666666667
 10
30.61321944444444
 20
4.890191666666667
 10
30.58035833333333
 20
4.877872222222222
 10
30.53549722222222
 20
4.861538888888889
 10
30.46991388888889
 20
4.836927777777778
 10
30.39623333333333
 20
4.812469444444444
 10
30.31431666666666
 20
4.779747222222222
 10
30.2324
 20
4.751094444444444
 10
30.15466388888889
 20
4.722427777777777
 10
30.08503888888889
 20
4.697830555555555
 10
30.02771944444444
 20
4.677261111111111
 10
29.99096944444444
 20
4.665108333333334
 10
29.9704
 20
4.656858333333333
 10
29.96635833333333
 20
4.656858333333333
 10
30.040025
 20
4.448136111111111
 10
30.04423333333333
 20
4.439886111111111
 10
30.04828888888889
 20
4.435830555555556
 10
30.05233055555555
 20
4.427594444444444
 10
30.05638611111111
 20
4.419483333333333
 10
30.06044166666666
 20
4.415288888888889
 10
30.06463611111111
 20
4.407177777777778
 10
30.06867777777778
 20
4.403122222222222
 10
30.07273333333333
 20
4.394872222222222
 10
30.07694166666667
 20
4.390816666666666
 10
30.07694166666667
 20
4.386622222222222
 10
30.08099722222222
 20
4.386622222222222
 10
30.08099722222222
 20
4.382566666666667
 10
30.08099722222222
 20
4.378511111111111
 10
30.09734444444444
 20
4.333497222222222
 10
30.1014
 20
4.333497222222222
 10
30.10966388888889
 20
4.337552777777778
 10
30.11370555555555
 20
4.341608333333333
 10
30.28985833333333
 20
3.846302777777778
 10
30.28566388888889
 20
3.846302777777778
 10
30.27756666666667
 20
3.842094444444445
 10
30.27335833333333
 20
3.842094444444445
 10
30.27756666666667
 20
3.842094444444445
 10
30.27756666666667
 20
3.838038888888889
 10
30.27756666666667
 20
3.833983333333333
 10
30.27756666666667
 20
3.829927777777778
 10
30.27756666666667
 20
3.825747222222222
 10
30.28160833333333
 20
3.805330555555555
 10
30.28566388888889
 20
3.788983333333333
 10
30.28985833333333
 20
3.768552777777778
 10
30.29391388888889
 20
3.748011111111111
 10
30.30201111111111
 20
3.731663888888889
 10
30.30606666666666
 20
3.711108333333333
 10
30.31431666666666
 20
3.694747222222222
 10
30.32256666666667
 20
3.674330555555556
 10
30.33067777777778
 20
3.666233333333333
 10
30.33892777777778
 20
3.657983333333334
 10
30.34703888888889
 20
3.653788888888889
 10
30.355275
 20
3.649733333333333
 10
30.36353888888889
 20
3.645677777777778
 10
30.37569166666667
 20
3.645677777777778
 10
30.38394166666666
 20
3.645677777777778
 10
30.39623333333333
 20
3.649733333333333
  0
LWPOLYLINE
  5
10A
330
2
100
AcDbEntity
  8
PDF_Layer 1
 62
     7
420
 16777215
370
   211
100
AcDbPolyline
 90
        2
 70
     0
 43
0.0
 10
30.90385833333333
 20
4.067316666666666
 10
30.90385833333333
 20
4.067316666666666
  0
LWPOLYLINE
  5
10B
330
2
100
AcDbEntity
  8
PDF_Layer 1
 62
     7
420
 16777215
370
   211
100
AcDbPolyline
 90
       24
 70
     0
 43
0.0
 10
31.26413611111111
 20
3.866705555555555
 10
31.20276111111111
 20
3.874969444444444
 10
31.19870555555555
 20
3.874969444444444
 10
31.19045555555555
 20
3.870913888888889
 10
31.17003888888889
 20
3.86265
 10
31.14138611111111
 20
3.8544
 10
31.10448333333333
 20
3.842094444444445
 10
31.09217777777777
 20
3.838038888888889
 10
31.01444166666667
 20
3.793025
 10
30.94483055555555
 20
3.731663888888889
 10
31.14949722222222
 20
3.170775
 10
31.01444166666667
 20
3.084788888888889
 10
30.86695555555555
 20
3.015177777777778
 10
30.93658055555555
 20
3.039788888888889
 10
31.00213611111111
 20
3.064386111111111
 10
31.06770555555555
 20
3.088844444444445
 10
31.13313611111111
 20
3.1094
 10
31.19045555555555
 20
3.134011111111111
 10
31.247775
 20
3.154427777777778
 10
31.29684444444444
 20
3.170775
 10
31.34199722222222
 20
3.187136111111111
 10
31.32955277777778
 20
3.183080555555556
 10
31.24371944444444
 20
3.166719444444444
 10
31.14949722222222
 20
3.170775
  0
LWPOLYLINE
  5
10C
330
2
100
AcDbEntity
  8
PDF_Layer 1
 62
     7
420
 16777215
370
   211
100
AcDbPolyline
 90
        9
 70
     1
 43
0.0
 10
31.34199722222222
 20
3.187136111111111
 10
31.37471944444444
 20
3.199441666666666
 10
31.40337222222222
 20
3.207538888888889
 10
31.42378888888889
 20
3.215802777777778
 10
31.43609444444444
 20
3.219858333333333
 10
31.44015
 20
3.219858333333333
 10
31.47705277777778
 20
3.269066666666667
 10
31.49746944444444
 20
3.293511111111111
 10
31.42378888888889
 20
3.232136111111111
  0
LWPOLYLINE
  5
10D
330
2
100
AcDbEntity
  8
PDF_Layer 1
 62
     7
420
 16777215
370
   211
100
AcDbPolyline
 90
       15
 70
     0
 43
0.0
 10
30.98578888888889
 20
3.797080555555556
 10
30.96523333333333
 20
3.8544
 10
30.95306666666667
 20
3.850344444444445
 10
30.92441388888889
 20
3.838038888888889
 10
30.87520555555555
 20
3.821691666666667
 10
30.81383055555555
 20
3.797080555555556
 10
30.74420555555555
 20
3.772608333333333
 10
30.66648333333333
 20
3.743955555555555
 10
30.58860833333333
 20
3.715302777777778
 10
30.51492777777778
 20
3.690705555555556
 10
30.45355277777778
 20
3.670288888888889
 10
30.40434444444444
 20
3.649733333333333
 10
30.37569166666667
 20
3.641636111111111
 10
30.36353888888889
 20
3.637441666666667
 10
30.38394166666666
 20
3.580122222222222
  0
LWPOLYLINE
  5
10F
330
2
100
AcDbEntity
  8
PDF_Layer 1
 62
     7
420
 16777215
370
   211
100
AcDbPolyline
 90
        6
 70
     0
 43
0.0
 10
30.56819166666667
 20
4.873830555555556
 10
30.318525
 20
5.578025
 10
30.07694166666667
 20
6.290302777777777
 10
29.83941388888889
 20
7.002733333333333
 10
29.61434444444444
 20
7.715011111111111
 10
29.56513611111111
 20
7.874663888888889
  0
LWPOLYLINE
  5
110
330
2
100
AcDbEntity
  8
PDF_Layer 1
 62
     7
420
 16777215
370
   211
100
AcDbPolyline
 90
        3
 70
     0
 43
0.0
 10
29.42183055555555
 20
8.353761111111111
 10
29.39737222222222
 20
8.435552777777777
 10
29.37681666666666
 20
8.492872222222223
  0
LWPOLYLINE
  5
111
330
2
100
AcDbEntity
  8
PDF_Layer 1
 62
     7
420
 16777215
370
   211
100
AcDbPolyline
 90
        3
 70
     0
 43
0.0
 10
28.23059444444444
 20
10.42938611111111
 10
28.34928888888889
 20
9.987205555555554
 10
28.46796944444444
 20
10.42938611111111
  0
LWPOLYLINE
  5
112
330
2
100
AcDbEntity
  8
PDF_Layer 1
 62
     7
420
 16777215
370
   211
100
AcDbPolyline
 90
        2
 70
     0
 43
0.0
 10
28.648025
 20
8.914497222222221
 10
28.73820555555555
 20
8.60751111111111
  0
LWPOLYLINE
  5
113
330
2
100
AcDbEntity
  8
PDF_Layer 1
 62
     7
420
 16777215
370
   211
100
AcDbPolyline
 90
        3
 70
     0
 43
0.0
 10
29.4874
 20
6.216622222222222
 10
29.51199722222222
 20
6.13888611111111
 10
29.53241388888889
 20
6.089677777777778
  0
LWPOLYLINE
  5
114
330
2
100
AcDbEntity
  8
PDF_Layer 1
 62
     7
420
 16777215
370
   211
100
AcDbPolyline
 90
        3
 70
     0
 43
0.0
 10
29.55283055555555
 20
6.028316666666666
 10
29.76169166666667
 20
5.406066666666666
 10
30.02366388888889
 20
4.677261111111111
  0
LWPOLYLINE
  5
115
330
2
100
AcDbEntity
  8
PDF_Layer 1
 62
     7
420
 16777215
370
   211
100
AcDbPolyline
 90
       22
 70
     0
 43
0.0
 10
30.33892777777778
 20
2.859580555555556
 10
30.40028888888889
 20
2.847413888888889
 10
30.4084
 20
2.851469444444444
 10
30.4249
 20
2.855525
 10
30.44531666666666
 20
2.863775
 10
30.478025
 20
2.875941666666667
 10
30.51898333333333
 20
2.892427777777778
 10
30.56415
 20
2.908788888888889
 10
30.617275
 20
2.92515
 10
30.67458055555555
 20
2.945566666666667
 10
30.73595555555555
 20
2.970163888888889
 10
30.801525
 20
2.990719444444445
 10
30.86695555555555
 20
3.015177777777778
 10
30.84653888888889
 20
3.007066666666667
 10
30.70324722222222
 20
2.974219444444445
 10
30.55170555555556
 20
2.953802777777778
 10
30.35121944444445
 20
3.518747222222222
 10
30.478025
 20
3.600677777777778
 10
30.60916388888889
 20
3.662038888888889
 10
30.63362222222222
 20
3.670288888888889
 10
30.78921944444444
 20
3.711108333333333
 10
30.94483055555555
 20
3.731663888888889
  0
LWPOLYLINE
  5
116
330
2
100
AcDbEntity
  8
PDF_Layer 1
 62
     7
420
 16777215
370
   211
100
AcDbPolyline
 90
        7
 70
     0
 43
0.0
 10
30.35121944444445
 20
3.518747222222222
 10
30.27756666666667
 20
3.531038888888889
 10
30.21198333333333
 20
3.518747222222222
 10
30.18737222222222
 20
3.510483333333334
 10
30.171025
 20
3.506427777777778
 10
30.16696944444444
 20
3.502372222222222
 10
30.12599722222222
 20
3.457372222222222
  0
LWPOLYLINE
  5
117
330
2
100
AcDbEntity
  8
PDF_Layer 1
 62
     7
420
 16777215
370
   211
100
AcDbPolyline
 90
       98
 70
     0
 43
0.0
 10
26.90415
 20
3.649733333333333
 10
26.91226111111111
 20
3.645677777777778
 10
26.92456666666667
 20
3.645677777777778
 10
26.93281666666667
 20
3.645677777777778
 10
26.94496944444444
 20
3.649733333333333
 10
26.95321944444444
 20
3.653788888888889
 10
26.96148333333333
 20
3.657983333333334
 10
26.96958055555555
 20
3.666233333333333
 10
26.97363611111111
 20
3.674330555555556
 10
26.98187222222222
 20
3.694747222222222
 10
26.98998333333333
 20
3.711108333333333
 10
26.99823333333333
 20
3.731663888888889
 10
27.00648333333333
 20
3.748011111111111
 10
27.01053888888889
 20
3.768552777777778
 10
27.01459444444444
 20
3.788983333333333
 10
27.01865
 20
3.805330555555555
 10
27.01865
 20
3.825747222222222
 10
27.01865
 20
3.829927777777778
 10
27.01865
 20
3.833983333333333
 10
27.02284444444444
 20
3.833983333333333
 10
27.02284444444444
 20
3.838038888888889
 10
27.02284444444444
 20
3.842094444444445
 10
27.01865
 20
3.842094444444445
 10
27.01459444444444
 20
3.846302777777778
 10
27.00648333333333
 20
3.846302777777778
 10
27.18249722222222
 20
4.341608333333333
 10
27.19074722222222
 20
4.337552777777778
 10
27.19480277777778
 20
4.333497222222222
 10
27.19885833333333
 20
4.333497222222222
 10
27.21520555555555
 20
4.378511111111111
 10
27.2194
 20
4.382566666666667
 10
27.2194
 20
4.386622222222222
 10
27.22345555555556
 20
4.390816666666666
 10
27.22345555555556
 20
4.394872222222222
 10
27.22751111111111
 20
4.394872222222222
 10
27.23156666666667
 20
4.403122222222222
 10
27.23562222222222
 20
4.407177777777778
 10
27.23981666666666
 20
4.415288888888889
 10
27.24387222222222
 20
4.419483333333333
 10
27.24792777777778
 20
4.427594444444444
 10
27.25212222222222
 20
4.435830555555556
 10
27.25212222222222
 20
4.439886111111111
 10
27.25617777777778
 20
4.448136111111111
 10
27.32984444444444
 20
4.656858333333333
 10
27.30942777777777
 20
4.665108333333334
 10
27.26846944444444
 20
4.677261111111111
 10
27.21115
 20
4.697830555555555
 10
27.14153888888889
 20
4.722427777777777
 10
27.06380277777778
 20
4.751094444444444
 10
26.98187222222222
 20
4.779747222222222
 10
26.90415
 20
4.812469444444444
 10
26.826275
 20
4.836927777777778
 10
26.7649
 20
4.861538888888889
 10
26.71584444444444
 20
4.877872222222222
 10
26.68719166666666
 20
4.890191666666667
 10
26.67488611111111
 20
4.890191666666667
 10
26.60106666666667
 20
4.685525
 10
26.60106666666667
 20
4.677261111111111
 10
26.59701111111111
 20
4.669163888888888
 10
26.59701111111111
 20
4.660913888888889
 10
26.59295555555555
 20
4.652802777777778
 10
26.59295555555555
 20
4.648761111111111
 10
26.59295555555555
 20
4.640511111111111
 10
26.59295555555555
 20
4.632261111111111
 10
26.59295555555555
 20
4.62415
 10
26.59295555555555
 20
4.619941666666667
 10
26.59295555555555
 20
4.6159
 10
26.58876111111111
 20
4.611844444444445
 10
26.58876111111111
 20
4.607788888888888
 10
26.58876111111111
 20
4.603594444444444
 10
26.57255277777777
 20
4.558580555555556
 10
26.57659444444445
 20
4.558580555555556
 10
26.58065
 20
4.554525
 10
26.58876111111111
 20
4.554525
 10
26.4129
 20
4.063261111111111
 10
26.40465
 20
4.063261111111111
 10
26.40059444444445
 20
4.067316666666666
 10
26.39638611111111
 20
4.067316666666666
 10
26.39233055555556
 20
4.063261111111111
 10
26.39233055555556
 20
4.059219444444444
 10
26.39233055555556
 20
4.055163888888889
 10
26.38828888888889
 20
4.055163888888889
 10
26.37598333333333
 20
4.038663888888889
 10
26.36773333333333
 20
4.018261111111111
 10
26.35963611111111
 20
4.001886111111111
 10
26.35137222222222
 20
3.9854
 10
26.34312222222222
 20
3.964997222222222
 10
26.335025
 20
3.944566666666667
 10
26.33096944444444
 20
3.928080555555556
 10
26.32691388888888
 20
3.907677777777778
 10
26.32691388888888
 20
3.899413888888889
 10
26.32691388888888
 20
3.887247222222222
 10
26.33096944444444
 20
3.879011111111111
 10
26.335025
 20
3.866705555555555
 10
26.33906666666666
 20
3.858594444444444
 10
26.34733055555555
 20
3.850344444444445
 10
26.35542777777778
 20
3.846302777777778
 10
26.36367777777778
 20
3.842094444444445
  0
LWPOLYLINE
  5
123
330
2
100
AcDbEntity
  8
PDF_Layer 1
 62
     7
420
 16777215
370
   211
100
AcDbPolyline
 90
        2
 70
     0
 43
0.0
 10
26.39638611111111
 20
4.067316666666666
 10
26.39638611111111
 20
4.067316666666666
  0
LWPOLYLINE
  5
126
330
2
100
AcDbEntity
  8
PDF_Layer 1
 62
     7
420
 16777215
370
   211
100
AcDbPolyline
 90
        2
 70
     0
 43
0.0
 10
27.02284444444444
 20
3.842094444444445
 10
27.02284444444444
 20
3.842094444444445
  0
LWPOLYLINE
  5
127
330
2
100
AcDbEntity
  8
PDF_Layer 1
 62
     7
420
 16777215
370
   211
100
AcDbPolyline
 90
        8
 70
     1
 43
0.0
 10
26.79762222222222
 20
2.884191666666667
 10
26.83453888888889
 20
2.871886111111111
 10
26.86319166666667
 20
2.859580555555556
 10
26.88359444444444
 20
2.851469444444444
 10
26.8959
 20
2.847413888888889
 10
26.957275
 20
2.859580555555556
 10
26.98998333333333
 20
2.867830555555555
 10
26.89184444444444
 20
2.863775
  0
LWPOLYLINE
  5
128
330
2
100
AcDbEntity
  8
PDF_Layer 1
 62
     7
420
 16777215
370
   211
100
AcDbPolyline
 90
       23
 70
     0
 43
0.0
 10
27.17424722222222
 20
3.457372222222222
 10
27.13328888888889
 20
3.502372222222222
 10
27.12923333333333
 20
3.506427777777778
 10
27.11692777777777
 20
3.510483333333334
 10
27.10056666666667
 20
3.514691666666667
 10
27.07191388888889
 20
3.526997222222222
 10
27.03513611111111
 20
3.53915
 10
27.02284444444444
 20
3.543358333333333
 10
26.93685833333333
 20
3.559691666666667
 10
26.84263611111111
 20
3.55565
 10
26.70758055555555
 20
3.641636111111111
 10
26.56009444444444
 20
3.707052777777778
 10
26.62971944444444
 20
3.68665
 10
26.69528888888889
 20
3.662038888888889
 10
26.7649
 20
3.637441666666667
 10
26.826275
 20
3.612969444444444
 10
26.88765
 20
3.592413888888889
 10
26.94091388888889
 20
3.572011111111111
 10
26.98998333333333
 20
3.55565
 10
27.03513611111111
 20
3.53915
 10
27.12098333333333
 20
3.494136111111111
 10
27.19480277777778
 20
3.428719444444444
 10
26.98998333333333
 20
2.867830555555555
  0
LWPOLYLINE
  5
129
330
2
100
AcDbEntity
  8
PDF_Layer 1
 62
     7
420
 16777215
370
   211
100
AcDbPolyline
 90
       15
 70
     0
 43
0.0
 10
26.91631666666666
 20
3.580122222222222
 10
26.93281666666667
 20
3.637441666666667
 10
26.92456666666667
 20
3.641636111111111
 10
26.8959
 20
3.649733333333333
 10
26.84669166666667
 20
3.670288888888889
 10
26.78531666666666
 20
3.690705555555556
 10
26.71163611111111
 20
3.715302777777778
 10
26.63392777777778
 20
3.743955555555555
 10
26.55603888888889
 20
3.772608333333333
 10
26.48237222222222
 20
3.797080555555556
 10
26.42099722222222
 20
3.821691666666667
 10
26.37192777777777
 20
3.838038888888889
 10
26.34312222222222
 20
3.850344444444445
 10
26.335025
 20
3.8544
 10
26.31446944444444
 20
3.797080555555556
  0
LWPOLYLINE
  5
12C
330
2
100
AcDbEntity
  8
PDF_Layer 1
 62
     7
420
 16777215
370
   211
100
AcDbPolyline
 90
        3
 70
     0
 43
0.0
 10
28.05442777777777
 20
8.943177777777778
 10
27.90303888888889
 20
8.435552777777777
 10
27.87842777777778
 20
8.353761111111111
  0
LWPOLYLINE
  5
12D
330
2
100
AcDbEntity
  8
PDF_Layer 1
 62
     7
420
 16777215
370
   211
100
AcDbPolyline
 90
        6
 70
     0
 43
0.0
 10
27.75553888888889
 20
7.944288888888888
 10
27.68606666666667
 20
7.715011111111111
 10
27.45678888888889
 20
7.002733333333333
 10
27.22345555555556
 20
6.290302777777777
 10
26.98187222222222
 20
5.578025
 10
26.73205277777777
 20
4.873830555555556
  0
LWPOLYLINE
  5
12E
330
2
100
AcDbEntity
  8
PDF_Layer 1
 62
     7
420
 16777215
370
   211
100
AcDbPolyline
 90
        6
 70
     0
 43
0.0
 10
27.27658055555556
 20
4.677261111111111
 10
27.534525
 20
5.406066666666666
 10
27.78434444444445
 20
6.13888611111111
 10
28.025775
 20
6.875788888888888
 10
28.25909444444445
 20
7.616872222222222
 10
28.36144166666667
 20
7.944288888888888
  0
LWPOLYLINE
  5
12F
330
2
100
AcDbEntity
  8
PDF_Layer 1
 62
     7
420
 16777215
370
   211
100
AcDbPolyline
 90
        3
 70
     0
 43
0.0
 10
28.48431666666666
 20
8.353761111111111
 10
28.48431666666666
 20
8.357816666666666
 10
28.656275
 20
8.943177777777778
  0
LWPOLYLINE
  5
130
330
2
100
AcDbEntity
  8
PDF_Layer 1
 62
     7
420
 16777215
370
   211
100
AcDbPolyline
 90
        2
 70
     0
 43
0.0
 10
28.95112222222222
 20
9.987205555555554
 10
29.06981666666667
 20
10.42938611111111
  0
LWPOLYLINE
  5
131
330
2
100
AcDbEntity
  8
PDF_Layer 1
 62
     7
420
 16777215
370
   211
100
AcDbPolyline
 90
        8
 70
     0
 43
0.0
 10
26.24905277777778
 20
3.768552777777778
 10
26.19983055555556
 20
3.825747222222222
 10
26.14266388888889
 20
3.858594444444444
 10
26.11805277777778
 20
3.866705555555555
 10
26.10169166666667
 20
3.874969444444444
 10
26.09749722222222
 20
3.874969444444444
 10
26.09344166666666
 20
3.874969444444444
 10
26.03208055555555
 20
3.866705555555555
  0
LWPOLYLINE
  5
132
330
2
100
AcDbEntity
  8
PDF_Layer 1
 62
     7
420
 16777215
370
   211
100
AcDbPolyline
 90
        7
 70
     0
 43
0.0
 10
25.81916388888889
 20
3.269066666666667
 10
25.86012222222222
 20
3.219858333333333
 10
25.86837222222222
 20
3.219858333333333
 10
25.88066388888889
 20
3.211747222222222
 10
25.90513611111111
 20
3.203483333333333
 10
25.97070555555556
 20
3.195386111111111
 10
26.04437222222222
 20
3.207538888888889
  0
LWPOLYLINE
  5
133
330
2
100
AcDbEntity
  8
PDF_Layer 1
 62
     7
420
 16777215
370
   211
100
AcDbPolyline
 90
       17
 70
     0
 43
0.0
 10
28.98788611111111
 20
1.840288888888888
 10
28.98788611111111
 20
1.827997222222222
 10
28.98788611111111
 20
1.819733333333333
 10
28.98383055555555
 20
1.811636111111111
 10
28.98383055555555
 20
1.803386111111112
 10
28.98383055555555
 20
1.795122222222222
 10
28.98383055555555
 20
1.787025
 10
28.98383055555555
 20
1.778775
 10
28.98383055555555
 20
1.770677777777778
 10
28.98383055555555
 20
1.762427777777777
 10
28.98383055555555
 20
1.754316666666667
 10
28.98383055555555
 20
1.746066666666667
 10
28.98383055555555
 20
1.737816666666667
 10
28.98383055555555
 20
1.729719444444445
 10
28.98788611111111
 20
1.721608333333333
 10
28.98788611111111
 20
1.713358333333333
 10
28.98788611111111
 20
1.705108333333333
  0
LWPOLYLINE
  5
135
330
2
100
AcDbEntity
  8
PDF_Layer 1
 62
     7
420
 16777215
370
   211
100
AcDbPolyline
 90
       27
 70
     1
 43
0.0
 10
29.17215
 20
2.004011111111111
 10
29.13523333333333
 20
2.004011111111111
 10
29.110775
 20
1.999955555555555
 10
29.06981666666667
 20
1.983594444444445
 10
29.0329
 20
1.946691666666667
 10
29.00844166666666
 20
1.897608333333333
 10
28.98788611111111
 20
1.840288888888888
 10
28.98383055555555
 20
1.782969444444445
 10
28.98383055555555
 20
1.774733333333333
 10
28.98788611111111
 20
1.70915
 10
29.00424722222222
 20
1.651830555555555
 10
29.0329
 20
1.598719444444445
 10
29.06981666666667
 20
1.561816666666667
 10
29.110775
 20
1.5414
 10
29.13523333333333
 20
1.5414
 10
29.17215
 20
1.5414
 10
29.18849722222222
 20
1.5414
 10
29.22946944444444
 20
1.557761111111112
 10
29.26637222222222
 20
1.590469444444444
 10
29.295025
 20
1.635469444444445
 10
29.31544166666667
 20
1.692802777777778
 10
29.32355277777777
 20
1.758372222222222
 10
29.31949722222222
 20
1.823941666666667
 10
29.30313611111111
 20
1.885316666666667
 10
29.27853888888888
 20
1.938427777777778
 10
29.24176111111111
 20
1.979386111111111
 10
29.20485833333333
 20
1.999955555555555
  0
LWPOLYLINE
  5
147
330
2
100
AcDbEntity
  8
PDF_Layer 1
 62
     7
420
 16777215
370
   211
100
AcDbPolyline
 90
       36
 70
     1
 43
0.0
 10
28.57853888888889
 20
4.963872222222223
 10
28.58259444444444
 20
4.963872222222223
 10
28.60720555555555
 20
4.963872222222223
 10
28.65221944444444
 20
4.963872222222223
 10
28.71359444444444
 20
4.963872222222223
 10
28.79133055555556
 20
4.963872222222223
 10
28.88149722222222
 20
4.963872222222223
 10
28.979775
 20
4.963872222222223
 10
29.07792777777777
 20
4.963872222222223
 10
29.17620555555556
 20
4.963872222222223
 10
29.27042777777778
 20
4.963872222222223
 10
29.3564
 20
4.963872222222223
 10
29.43008055555555
 20
4.963872222222223
 10
29.48334444444444
 20
4.963872222222223
 10
29.52010833333333
 20
4.963872222222223
 10
29.54066388888889
 20
4.963872222222223
 10
29.55283055555555
 20
4.976163888888889
 10
29.55283055555555
 20
6.077524999999999
 10
29.54066388888889
 20
6.089677777777778
 10
29.52010833333333
 20
6.089677777777778
 10
29.48334444444444
 20
6.089677777777778
 10
29.43008055555555
 20
6.089677777777778
 10
29.3564
 20
6.089677777777778
 10
29.27042777777778
 20
6.089677777777778
 10
29.17620555555556
 20
6.089677777777778
 10
29.07792777777777
 20
6.089677777777778
 10
28.979775
 20
6.089677777777778
 10
28.88149722222222
 20
6.089677777777778
 10
28.79133055555556
 20
6.089677777777778
 10
28.71359444444444
 20
6.089677777777778
 10
28.65221944444444
 20
6.089677777777778
 10
28.60720555555555
 20
6.089677777777778
 10
28.58259444444444
 20
6.089677777777778
 10
28.57853888888889
 20
6.089677777777778
 10
28.56624722222222
 20
6.077524999999999
 10
28.56624722222222
 20
4.976163888888889
  0
LWPOLYLINE
  5
14D
330
2
100
AcDbEntity
  8
PDF_Layer 1
 62
     7
420
 16777215
370
   211
100
AcDbPolyline
 90
       17
 70
     0
 43
0.0
 10
29.46684444444444
 20
6.544177777777778
 10
29.46278888888889
 20
6.552427777777777
 10
29.45455277777778
 20
6.552427777777777
 10
29.42183055555555
 20
6.552427777777777
 10
29.37276111111111
 20
6.552427777777777
 10
29.30719166666666
 20
6.552427777777777
 10
29.22946944444444
 20
6.552427777777777
 10
29.13928888888889
 20
6.552427777777777
 10
29.04520555555555
 20
6.552427777777777
 10
28.95517777777778
 20
6.552427777777777
 10
28.86513611111111
 20
6.552427777777777
 10
28.79133055555556
 20
6.552427777777777
 10
28.72995555555555
 20
6.552427777777777
 10
28.68494166666666
 20
6.552427777777777
 10
28.66048333333333
 20
6.552427777777777
 10
28.656275
 20
6.552427777777777
 10
28.648025
 20
6.544177777777778
  0
LWPOLYLINE
  5
14F
330
2
100
AcDbEntity
  8
PDF_Layer 1
 62
     7
420
 16777215
370
   211
100
AcDbPolyline
 90
       29
 70
     0
 43
0.0
 10
28.63181666666667
 20
6.687483333333333
 10
28.65221944444444
 20
6.671122222222223
 10
28.66048333333333
 20
6.671122222222223
 10
28.67669166666667
 20
6.671122222222223
 10
28.69723333333333
 20
6.671122222222223
 10
28.7259
 20
6.671122222222223
 10
28.75860833333333
 20
6.671122222222223
 10
28.67669166666667
 20
6.687483333333333
 10
28.59895555555555
 20
6.732497222222223
 10
28.59895555555555
 20
7.477622222222221
 10
28.66858055555555
 20
7.518594444444444
 10
28.73820555555555
 20
7.538997222222222
 10
28.75860833333333
 20
7.538997222222222
 10
28.84053888888889
 20
7.522636111111111
 10
28.91826111111111
 20
7.477622222222221
 10
28.91826111111111
 20
6.732497222222223
 10
28.85283055555555
 20
6.691525
 10
28.779025
 20
6.671122222222223
 10
28.75860833333333
 20
6.671122222222223
 10
28.79958055555555
 20
6.671122222222223
 10
28.84053888888889
 20
6.671122222222223
 10
28.88555277777778
 20
6.671122222222223
 10
28.93462222222222
 20
6.671122222222223
 10
28.98788611111111
 20
6.671122222222223
 10
29.04115
 20
6.671122222222223
 10
29.09441388888889
 20
6.671122222222223
 10
29.14753888888889
 20
6.671122222222223
 10
29.00019166666666
 20
6.695719444444444
 10
28.91826111111111
 20
6.732497222222223
  0
LWPOLYLINE
  5
150
330
2
100
AcDbEntity
  8
PDF_Layer 1
 62
     7
420
 16777215
370
   211
100
AcDbPolyline
 90
       18
 70
     0
 43
0.0
 10
28.91826111111111
 20
7.477622222222221
 10
29.00019166666666
 20
7.514538888888889
 10
29.14753888888889
 20
7.538997222222222
 10
29.09441388888889
 20
7.538997222222222
 10
29.04115
 20
7.538997222222222
 10
28.98788611111111
 20
7.538997222222222
 10
28.93462222222222
 20
7.538997222222222
 10
28.88555277777778
 20
7.538997222222222
 10
28.84053888888889
 20
7.538997222222222
 10
28.79958055555555
 20
7.538997222222222
 10
28.75860833333333
 20
7.538997222222222
 10
28.7259
 20
7.538997222222222
 10
28.69723333333333
 20
7.538997222222222
 10
28.67669166666667
 20
7.538997222222222
 10
28.66048333333333
 20
7.538997222222222
 10
28.65221944444444
 20
7.538997222222222
 10
28.63181666666667
 20
7.518594444444444
 10
28.59895555555555
 20
7.477622222222221
  0
LWPOLYLINE
  5
151
330
2
100
AcDbEntity
  8
PDF_Layer 1
 62
     7
420
 16777215
370
   211
100
AcDbPolyline
 90
        6
 70
     0
 43
0.0
 10
29.37681666666666
 20
6.732497222222223
 10
29.40953888888889
 20
6.687483333333333
 10
29.44644166666666
 20
6.671122222222223
 10
29.45873333333333
 20
6.671122222222223
 10
29.46278888888889
 20
6.671122222222223
 10
29.48334444444444
 20
6.687483333333333
  0
LWPOLYLINE
  5
152
330
2
100
AcDbEntity
  8
PDF_Layer 1
 62
     7
420
 16777215
370
   211
100
AcDbPolyline
 90
        7
 70
     0
 43
0.0
 10
29.48334444444444
 20
7.518594444444444
 10
29.46278888888889
 20
7.538997222222222
 10
29.45873333333333
 20
7.538997222222222
 10
29.44644166666666
 20
7.538997222222222
 10
29.43819166666667
 20
7.538997222222222
 10
29.40548333333333
 20
7.518594444444444
 10
29.37681666666666
 20
7.477622222222221
  0
LWPOLYLINE
  5
156
330
2
100
AcDbEntity
  8
PDF_Layer 1
 62
     7
420
 16777215
370
   211
100
AcDbPolyline
 90
       18
 70
     0
 43
0.0
 10
27.47720555555555
 20
8.234927777777778
 10
27.46909444444444
 20
8.234927777777778
 10
27.46084444444444
 20
8.230886111111111
 10
27.45273333333333
 20
8.230886111111111
 10
27.44853888888889
 20
8.222636111111111
 10
27.44042777777778
 20
8.218580555555556
 10
27.43637222222222
 20
8.210469444444443
 10
27.43637222222222
 20
8.202219444444445
 10
27.43637222222222
 20
8.193969444444444
 10
27.43637222222222
 20
7.985247222222222
 10
27.43637222222222
 20
7.976997222222221
 10
27.43637222222222
 20
7.96888611111111
 10
27.44042777777778
 20
7.964830555555556
 10
27.44853888888889
 20
7.956580555555555
 10
27.45273333333333
 20
7.952524999999999
 10
27.46084444444444
 20
7.948344444444444
 10
27.46909444444444
 20
7.948344444444444
 10
27.47720555555555
 20
7.944288888888888
  0
LWPOLYLINE
  5
159
330
2
100
AcDbEntity
  8
PDF_Layer 1
 62
     7
420
 16777215
370
   211
100
AcDbPolyline
 90
       18
 70
     0
 43
0.0
 10
28.5499
 20
7.944288888888888
 10
28.5499
 20
7.82965
 10
28.56624722222222
 20
7.82965
 10
28.59895555555555
 20
7.82965
 10
28.65221944444444
 20
7.82965
 10
28.72185833333333
 20
7.82965
 10
28.80363611111111
 20
7.82965
 10
28.89785833333333
 20
7.82965
 10
29.00019166666666
 20
7.82965
 10
29.102525
 20
7.82965
 10
29.20485833333333
 20
7.82965
 10
29.29908055555555
 20
7.82965
 10
29.38491388888889
 20
7.82965
 10
29.45455277777778
 20
7.82965
 10
29.51199722222222
 20
7.82965
 10
29.548775
 20
7.82965
 10
29.56513611111111
 20
7.82965
 10
29.56513611111111
 20
7.944288888888888
  0
LWPOLYLINE
  5
15B
330
2
100
AcDbEntity
  8
PDF_Layer 1
 62
     7
420
 16777215
370
   211
100
AcDbPolyline
 90
       72
 70
     0
 43
0.0
 10
26.98592777777778
 20
8.234927777777778
 10
26.97769166666667
 20
8.234927777777778
 10
26.96958055555555
 20
8.230886111111111
 10
26.965525
 20
8.230886111111111
 10
26.957275
 20
8.222636111111111
 10
26.95321944444444
 20
8.218580555555556
 10
26.949025
 20
8.210469444444443
 10
26.94496944444444
 20
8.202219444444445
 10
26.94496944444444
 20
8.193969444444444
 10
26.94496944444444
 20
7.985247222222222
 10
26.94496944444444
 20
7.976997222222221
 10
26.949025
 20
7.96888611111111
 10
26.95321944444444
 20
7.964830555555556
 10
26.957275
 20
7.956580555555555
 10
26.965525
 20
7.952524999999999
 10
26.96958055555555
 20
7.948344444444444
 10
26.97769166666667
 20
7.948344444444444
 10
26.98592777777778
 20
7.944288888888888
 10
26.98998333333333
 20
7.944288888888888
 10
26.99417777777778
 20
7.944288888888888
 10
27.00228888888889
 20
7.944288888888888
 10
27.01053888888889
 20
7.944288888888888
 10
27.02284444444444
 20
7.944288888888888
 10
27.17844166666667
 20
7.944288888888888
 10
27.19074722222222
 20
7.944288888888888
 10
27.20291388888889
 20
7.944288888888888
 10
27.21520555555555
 20
7.944288888888888
 10
27.23156666666667
 20
7.944288888888888
 10
27.24387222222222
 20
7.944288888888888
 10
27.25617777777778
 20
7.944288888888888
 10
27.26846944444444
 20
7.944288888888888
 10
27.27658055555556
 20
7.944288888888888
 10
27.37485833333333
 20
7.944288888888888
 10
27.47720555555555
 20
7.944288888888888
 10
27.48544166666667
 20
7.944288888888888
 10
27.49369166666666
 20
7.944288888888888
 10
27.50180277777778
 20
7.944288888888888
 10
27.51410833333333
 20
7.944288888888888
 10
27.67376111111111
 20
7.944288888888888
 10
27.83746944444444
 20
7.944288888888888
 10
28.00537222222222
 20
7.944288888888888
 10
28.18137222222222
 20
7.944288888888888
 10
28.35333055555555
 20
7.944288888888888
 10
28.525275
 20
7.944288888888888
 10
28.69317777777778
 20
7.944288888888888
 10
28.85283055555555
 20
7.944288888888888
 10
29.00424722222222
 20
7.944288888888888
 10
29.14348333333333
 20
7.944288888888888
 10
29.27042777777778
 20
7.944288888888888
 10
29.38491388888889
 20
7.944288888888888
 10
29.47915
 20
7.944288888888888
 10
29.55687222222222
 20
7.944288888888888
 10
29.6184
 20
7.944288888888888
 10
29.65935833333333
 20
7.944288888888888
 10
29.679775
 20
7.944288888888888
 10
29.68801111111111
 20
7.948344444444444
 10
29.69610833333333
 20
7.948344444444444
 10
29.70437222222222
 20
7.952524999999999
 10
29.70842777777777
 20
7.956580555555555
 10
29.71246944444444
 20
7.964830555555556
 10
29.71667777777778
 20
7.96888611111111
 10
29.72073333333333
 20
7.976997222222221
 10
29.72073333333333
 20
7.985247222222222
 10
29.72073333333333
 20
8.193969444444444
 10
29.72073333333333
 20
8.202219444444445
 10
29.71667777777778
 20
8.210469444444443
 10
29.71246944444444
 20
8.218580555555556
 10
29.70842777777777
 20
8.222636111111111
 10
29.70437222222222
 20
8.230886111111111
 10
29.69610833333333
 20
8.230886111111111
 10
29.68801111111111
 20
8.234927777777778
 10
29.679775
 20
8.234927777777778
  0
LWPOLYLINE
  5
15E
330
2
100
AcDbEntity
  8
PDF_Layer 1
 62
     7
420
 16777215
370
   211
100
AcDbPolyline
 90
       44
 70
     1
 43
0.0
 10
27.04744166666666
 20
8.234927777777778
 10
27.17019166666667
 20
8.234927777777778
 10
27.30524722222222
 20
8.234927777777778
 10
27.45678888888889
 20
8.234927777777778
 10
27.61644166666667
 20
8.234927777777778
 10
27.78434444444445
 20
8.234927777777778
 10
27.96035833333333
 20
8.234927777777778
 10
28.13635833333333
 20
8.234927777777778
 10
28.31656666666667
 20
8.234927777777778
 10
28.49258055555555
 20
8.234927777777778
 10
28.66858055555555
 20
8.234927777777778
 10
28.83228888888888
 20
8.234927777777778
 10
28.99208055555556
 20
8.234927777777778
 10
29.13928888888889
 20
8.234927777777778
 10
29.27853888888888
 20
8.234927777777778
 10
29.39737222222222
 20
8.234927777777778
 10
29.50376111111111
 20
8.234927777777778
 10
29.59378888888889
 20
8.234927777777778
 10
29.65935833333333
 20
8.234927777777778
 10
29.71246944444444
 20
8.234927777777778
 10
29.74113611111111
 20
8.234927777777778
 10
29.74938611111111
 20
8.234927777777778
 10
29.74938611111111
 20
8.353761111111111
 10
29.74113611111111
 20
8.353761111111111
 10
29.71246944444444
 20
8.353761111111111
 10
29.65935833333333
 20
8.353761111111111
 10
29.59378888888889
 20
8.353761111111111
 10
29.50376111111111
 20
8.353761111111111
 10
29.39737222222222
 20
8.353761111111111
 10
29.27853888888888
 20
8.353761111111111
 10
29.13928888888889
 20
8.353761111111111
 10
28.99208055555556
 20
8.353761111111111
 10
28.83228888888888
 20
8.353761111111111
 10
28.66858055555555
 20
8.353761111111111
 10
28.49258055555555
 20
8.353761111111111
 10
28.31656666666667
 20
8.353761111111111
 10
28.13635833333333
 20
8.353761111111111
 10
27.96035833333333
 20
8.353761111111111
 10
27.78434444444445
 20
8.353761111111111
 10
27.61644166666667
 20
8.353761111111111
 10
27.45678888888889
 20
8.353761111111111
 10
27.30524722222222
 20
8.353761111111111
 10
27.17019166666667
 20
8.353761111111111
 10
27.04744166666666
 20
8.353761111111111
  0
LWPOLYLINE
  5
161
330
2
100
AcDbEntity
  8
PDF_Layer 1
 62
     7
420
 16777215
370
   211
100
AcDbPolyline
 90
       28
 70
     0
 43
0.0
 10
27.26428888888889
 20
9.405913888888889
 10
27.26428888888889
 20
8.943177777777778
 10
27.272525
 20
8.943177777777778
 10
27.29713611111111
 20
8.943177777777778
 10
27.34215
 20
8.943177777777778
 10
27.40758055555556
 20
8.943177777777778
 10
27.48949722222222
 20
8.943177777777778
 10
27.587775
 20
8.943177777777778
 10
27.70241388888889
 20
8.943177777777778
 10
27.83341388888889
 20
8.943177777777778
 10
27.97251111111111
 20
8.943177777777778
 10
28.12001111111111
 20
8.943177777777778
 10
28.27560833333333
 20
8.943177777777778
 10
28.43105277777778
 20
8.943177777777778
 10
28.5949
 20
8.943177777777778
 10
28.75037222222222
 20
8.943177777777778
 10
28.90610833333333
 20
8.943177777777778
 10
29.05345555555555
 20
8.943177777777778
 10
29.19255277777777
 20
8.943177777777778
 10
29.32355277777777
 20
8.943177777777778
 10
29.43819166666667
 20
8.943177777777778
 10
29.53646944444444
 20
8.943177777777778
 10
29.6184
 20
8.943177777777778
 10
29.68395555555555
 20
8.943177777777778
 10
29.72898333333333
 20
8.943177777777778
 10
29.75344166666666
 20
8.943177777777778
 10
29.76169166666667
 20
8.943177777777778
 10
29.76169166666667
 20
9.405913888888889
  0
LWPOLYLINE
  5
163
330
2
100
AcDbEntity
  8
PDF_Layer 1
 62
     7
420
 16777215
370
   211
100
AcDbPolyline
 90
       29
 70
     0
 43
0.0
 10
29.84766388888889
 20
9.95853888888889
 10
29.84766388888889
 20
9.987205555555554
 10
29.84346944444444
 20
9.987205555555554
 10
29.82305277777778
 20
9.987205555555554
 10
29.78210833333333
 20
9.987205555555554
 10
29.71667777777778
 20
9.987205555555554
 10
29.63474722222222
 20
9.987205555555554
 10
29.53646944444444
 20
9.987205555555554
 10
29.42183055555555
 20
9.987205555555554
 10
29.29084444444444
 20
9.987205555555554
 10
29.15173333333333
 20
9.987205555555554
 10
29.00019166666666
 20
9.987205555555554
 10
28.84053888888889
 20
9.987205555555554
 10
28.67263611111111
 20
9.987205555555554
 10
28.50892777777778
 20
9.987205555555554
 10
28.341025
 20
9.987205555555554
 10
28.17733055555555
 20
9.987205555555554
 10
28.01767777777778
 20
9.987205555555554
 10
27.86613611111111
 20
9.987205555555554
 10
27.72283055555555
 20
9.987205555555554
 10
27.596025
 20
9.987205555555554
 10
27.48124722222222
 20
9.987205555555554
 10
27.38310833333333
 20
9.987205555555554
 10
27.30119166666666
 20
9.987205555555554
 10
27.24387222222222
 20
9.987205555555554
 10
27.20291388888889
 20
9.987205555555554
 10
27.18249722222222
 20
9.987205555555554
 10
27.17844166666667
 20
9.987205555555554
 10
27.17844166666667
 20
9.95853888888889
  0
LWPOLYLINE
  5
165
330
2
100
AcDbEntity
  8
PDF_Layer 1
 62
     7
420
 16777215
370
   211
100
AcDbPolyline
 90
       28
 70
     0
 43
0.0
 10
27.18249722222222
 20
10.56848333333333
 10
27.18249722222222
 20
10.53983055555555
 10
27.19480277777778
 20
10.53983055555555
 10
27.22345555555556
 20
10.53983055555555
 10
27.272525
 20
10.53983055555555
 10
27.34215
 20
10.53983055555555
 10
27.42812222222222
 20
10.53983055555555
 10
27.534525
 20
10.53983055555555
 10
27.65319166666666
 20
10.53983055555555
 10
27.7884
 20
10.53983055555555
 10
27.93169166666667
 20
10.53983055555555
 10
28.08728888888889
 20
10.53983055555555
 10
28.24694166666667
 20
10.53983055555555
 10
28.41470555555556
 20
10.53983055555555
 10
28.57853888888889
 20
10.53983055555555
 10
28.74631666666667
 20
10.53983055555555
 10
28.91015
 20
10.53983055555555
 10
29.06562222222222
 20
10.53983055555555
 10
29.21310833333333
 20
10.53983055555555
 10
29.34816388888889
 20
10.53983055555555
 10
29.47103888888889
 20
10.53983055555555
 10
29.57742777777778
 20
10.53983055555555
 10
29.67151111111111
 20
10.53983055555555
 10
29.74113611111111
 20
10.53983055555555
 10
29.7944
 20
10.53983055555555
 10
29.82710833333333
 20
10.53983055555555
 10
29.84346944444444
 20
10.53983055555555
 10
29.84346944444444
 20
10.56848333333333
  0
LWPOLYLINE
  5
167
330
2
100
AcDbEntity
  8
PDF_Layer 1
 62
     7
420
 16777215
370
   211
100
AcDbPolyline
 90
       70
 70
     1
 43
0.0
 10
27.07191388888889
 20
10.80181666666667
 10
27.07191388888889
 20
10.56848333333333
 10
27.088275
 20
10.56848333333333
 10
27.12098333333333
 20
10.56848333333333
 10
27.17844166666667
 20
10.56848333333333
 10
27.25617777777778
 20
10.56848333333333
 10
27.3504
 20
10.56848333333333
 10
27.46084444444444
 20
10.56848333333333
 10
27.587775
 20
10.56848333333333
 10
27.72687222222222
 20
10.56848333333333
 10
27.87842777777778
 20
10.56848333333333
 10
28.03806666666666
 20
10.56848333333333
 10
28.20598333333333
 20
10.56848333333333
 10
28.37794166666667
 20
10.56848333333333
 10
28.55394166666667
 20
10.56848333333333
 10
28.7259
 20
10.56848333333333
 10
28.89785833333333
 20
10.56848333333333
 10
29.06156666666666
 20
10.56848333333333
 10
29.21716388888889
 20
10.56848333333333
 10
29.36451111111111
 20
10.56848333333333
 10
29.49970555555556
 20
10.56848333333333
 10
29.6184
 20
10.56848333333333
 10
29.72073333333333
 20
10.56848333333333
 10
29.80670555555555
 20
10.56848333333333
 10
29.87633055555555
 20
10.56848333333333
 10
29.92134444444444
 20
10.56848333333333
 10
29.95001111111111
 20
10.56848333333333
 10
29.95405277777777
 20
10.56848333333333
 10
29.95405277777777
 20
10.80181666666667
 10
29.95405277777777
 20
10.806025
 10
29.95405277777777
 20
10.81006666666666
 10
29.95001111111111
 20
10.81831666666666
 10
29.94580277777778
 20
10.82237222222222
 10
29.94174722222222
 20
10.82642777777778
 10
29.93770555555555
 20
10.82642777777778
 10
29.92959444444444
 20
10.83062222222222
 10
29.92538611111111
 20
10.83062222222222
 10
29.92134444444444
 20
10.83062222222222
 10
29.89269166666666
 20
10.83062222222222
 10
29.84766388888889
 20
10.83062222222222
 10
29.78210833333333
 20
10.83062222222222
 10
29.69610833333333
 20
10.83062222222222
 10
29.59783055555556
 20
10.83062222222222
 10
29.47915
 20
10.83062222222222
 10
29.34816388888889
 20
10.83062222222222
 10
29.20485833333333
 20
10.83062222222222
 10
29.04926111111111
 20
10.83062222222222
 10
28.88960833333333
 20
10.83062222222222
 10
28.72185833333333
 20
10.83062222222222
 10
28.55394166666667
 20
10.83062222222222
 10
28.38198333333333
 20
10.83062222222222
 10
28.21423333333333
 20
10.83062222222222
 10
28.05038611111111
 20
10.83062222222222
 10
27.89073333333333
 20
10.83062222222222
 10
27.74338611111111
 20
10.83062222222222
 10
27.60413611111111
 20
10.83062222222222
 10
27.48124722222222
 20
10.83062222222222
 10
27.37080277777778
 20
10.83062222222222
 10
27.280775
 20
10.83062222222222
 10
27.20709444444445
 20
10.83062222222222
 10
27.149775
 20
10.83062222222222
 10
27.11692777777777
 20
10.83062222222222
 10
27.10056666666667
 20
10.83062222222222
 10
27.09233055555555
 20
10.83062222222222
 10
27.088275
 20
10.82642777777778
 10
27.08421944444444
 20
10.82642777777778
 10
27.08016388888889
 20
10.82237222222222
 10
27.07610833333333
 20
10.81831666666666
 10
27.07191388888889
 20
10.81006666666666
 10
27.07191388888889
 20
10.806025
  0
LWPOLYLINE
  5
16B
330
2
100
AcDbEntity
  8
PDF_Layer 1
 62
     7
420
 16777215
370
   211
100
AcDbPolyline
 90
       27
 70
     0
 43
0.0
 10
27.54276111111111
 20
10.53983055555555
 10
27.54276111111111
 20
10.42938611111111
 10
27.54681666666666
 20
10.42519166666666
 10
27.55506666666667
 20
10.42519166666666
 10
27.58373333333333
 20
10.42519166666666
 10
27.63280277777778
 20
10.42519166666666
 10
27.70241388888889
 20
10.42519166666666
 10
27.7884
 20
10.42519166666666
 10
27.88667777777778
 20
10.42519166666666
 10
28.00116388888889
 20
10.42519166666666
 10
28.12826111111111
 20
10.42519166666666
 10
28.25909444444445
 20
10.42519166666666
 10
28.39834444444444
 20
10.42519166666666
 10
28.54163611111111
 20
10.42519166666666
 10
28.68088611111111
 20
10.42519166666666
 10
28.81592777777778
 20
10.42519166666666
 10
28.94692777777777
 20
10.42519166666666
 10
29.06981666666667
 20
10.42519166666666
 10
29.17620555555556
 20
10.42519166666666
 10
29.27042777777778
 20
10.42519166666666
 10
29.35221944444444
 20
10.42519166666666
 10
29.41358055555555
 20
10.42519166666666
 10
29.45455277777778
 20
10.42519166666666
 10
29.47509444444444
 20
10.42519166666666
 10
29.47915
 20
10.42519166666666
 10
29.48334444444444
 20
10.42938611111111
 10
29.48334444444444
 20
10.53983055555555
  0
LWPOLYLINE
  5
16F
330
2
100
AcDbEntity
  8
PDF_Layer 1
 62
     7
420
 16777215
370
   211
100
AcDbPolyline
 90
        2
 70
     0
 43
0.0
 10
28.73820555555555
 20
8.943177777777778
 10
28.73820555555555
 20
8.353761111111111
  0
LWPOLYLINE
  5
170
330
2
100
AcDbEntity
  8
PDF_Layer 1
 62
     7
420
 16777215
370
   211
100
AcDbPolyline
 90
        2
 70
     0
 43
0.0
 10
28.73820555555555
 20
7.82965
 10
28.73820555555555
 20
7.538997222222222
  0
LWPOLYLINE
  5
171
330
2
100
AcDbEntity
  8
PDF_Layer 1
 62
     7
420
 16777215
370
   211
100
AcDbPolyline
 90
        2
 70
     0
 43
0.0
 10
28.73820555555555
 20
6.671122222222223
 10
28.73820555555555
 20
6.552427777777777
  0
LWPOLYLINE
  5
172
330
2
100
AcDbEntity
  8
PDF_Layer 1
 62
     7
420
 16777215
370
   211
100
AcDbPolyline
 90
        2
 70
     0
 43
0.0
 10
29.37681666666666
 20
6.552427777777777
 10
29.37681666666666
 20
6.671122222222223
  0
LWPOLYLINE
  5
173
330
2
100
AcDbEntity
  8
PDF_Layer 1
 62
     7
420
 16777215
370
   211
100
AcDbPolyline
 90
        2
 70
     0
 43
0.0
 10
29.37681666666666
 20
7.538997222222222
 10
29.37681666666666
 20
7.82965
  0
LWPOLYLINE
  5
174
330
2
100
AcDbEntity
  8
PDF_Layer 1
 62
     7
420
 16777215
370
   211
100
AcDbPolyline
 90
        2
 70
     0
 43
0.0
 10
29.37681666666666
 20
8.353761111111111
 10
29.37681666666666
 20
8.943177777777778
  0
LWPOLYLINE
  5
175
330
2
100
AcDbEntity
  8
PDF_Layer 1
 62
     7
420
 16777215
370
   211
100
AcDbPolyline
 90
        2
 70
     0
 43
0.0
 10
29.37681666666666
 20
9.987205555555554
 10
29.37681666666666
 20
10.42519166666666
  0
LWPOLYLINE
  5
177
330
2
100
AcDbEntity
  8
PDF_Layer 1
 62
     7
420
 16777215
370
   211
100
AcDbPolyline
 90
       48
 70
     1
 43
0.0
 10
16.25983055555555
 20
22.56791388888889
 10
16.37852499999999
 20
26.02728888888889
 10
16.37041388888889
 20
26.02728888888889
 10
16.33756666666666
 20
26.03133055555556
 10
16.28849722222222
 20
26.03133055555556
 10
16.21887222222222
 20
26.03538611111111
 10
16.1329
 20
26.03538611111111
 10
16.03055277777778
 20
26.03959444444444
 10
15.924025
 20
26.04365
 10
15.80548333333333
 20
26.04769166666667
 10
15.68259444444444
 20
26.05188611111111
 10
15.5639
 20
26.05594166666667
 10
15.44521944444444
 20
26.05999722222222
 10
15.33867777777777
 20
26.06405277777778
 10
15.23634444444444
 20
26.06824722222222
 10
15.15037222222222
 20
26.07230277777778
 10
15.08074722222222
 20
26.07230277777778
 10
15.03167777777777
 20
26.07635833333333
 10
14.99896944444444
 20
26.07635833333333
 10
14.99071944444444
 20
26.07635833333333
 10
14.95801111111111
 20
25.17576111111111
 10
14.95801111111111
 20
25.17156666666667
 10
14.95801111111111
 20
25.15115
 10
14.96206666666666
 20
25.13074722222222
 10
14.96206666666666
 20
25.10208055555556
 10
14.95801111111111
 20
25.07342777777778
 10
14.95801111111111
 20
25.044775
 10
14.95380277777777
 20
25.02420555555556
 10
14.95380277777777
 20
25.00785833333333
 10
14.94976111111111
 20
25.00380277777778
 10
14.86783055555555
 20
22.61696944444445
 10
14.88013611111111
 20
22.61291388888889
 10
14.90878888888889
 20
22.61291388888889
 10
14.96206666666666
 20
22.61291388888889
 10
15.03167777777777
 20
22.60885833333333
 10
15.11766388888888
 20
22.60467777777777
 10
15.21594166666666
 20
22.60467777777777
 10
15.32638611111111
 20
22.60062222222222
 10
15.441025
 20
22.59656666666666
 10
15.5639
 20
22.59251111111111
 10
15.68259444444444
 20
22.58831666666667
 10
15.80128888888889
 20
22.58426111111111
 10
15.91187222222222
 20
22.58020555555555
 10
16.01015
 20
22.57601111111111
 10
16.09613611111111
 20
22.57195555555556
 10
16.16574722222222
 20
22.56791388888889
 10
16.21887222222222
 20
22.56791388888889
 10
16.24752499999999
 20
22.56791388888889
  0
LWPOLYLINE
  5
179
330
2
100
AcDbEntity
  8
PDF_Layer 1
 62
     7
420
 16777215
370
   211
100
AcDbPolyline
 90
        2
 70
     0
 43
0.0
 10
15.01112222222222
 20
26.13366388888889
 10
15.00708055555555
 20
26.07635833333333
  0
LWPOLYLINE
  5
17A
330
2
100
AcDbEntity
  8
PDF_Layer 1
 62
     7
420
 16777215
370
   211
100
AcDbPolyline
 90
        2
 70
     0
 43
0.0
 10
16.36216388888889
 20
26.02728888888889
 10
16.36216388888889
 20
26.08865
  0
LWPOLYLINE
  5
17C
330
2
100
AcDbEntity
  8
PDF_Layer 1
 62
     7
420
 16777215
370
   211
100
AcDbPolyline
 90
        2
 70
     0
 43
0.0
 10
14.95801111111111
 20
25.17981666666667
 10
14.92934444444444
 20
25.17981666666667
  0
LWPOLYLINE
  5
17D
330
2
100
AcDbEntity
  8
PDF_Layer 1
 62
     7
420
 16777215
370
   211
100
AcDbPolyline
 90
        2
 70
     0
 43
0.0
 10
14.92110833333333
 20
25.00380277777778
 10
14.94976111111111
 20
25.00380277777778
  0
LWPOLYLINE
  5
17E
330
2
100
AcDbEntity
  8
PDF_Layer 1
 62
     7
420
 16777215
370
   211
100
AcDbPolyline
 90
       26
 70
     0
 43
0.0
 10
28.62356666666667
 20
4.963872222222223
 10
28.62356666666667
 20
4.558580555555556
 10
28.62762222222222
 20
4.558580555555556
 10
28.63991388888889
 20
4.558580555555556
 10
28.656275
 20
4.558580555555556
 10
28.68494166666666
 20
4.558580555555556
 10
28.71765
 20
4.558580555555556
 10
28.75455277777778
 20
4.558580555555556
 10
28.795525
 20
4.558580555555556
 10
28.84459444444444
 20
4.558580555555556
 10
28.89366388888889
 20
4.558580555555556
 10
28.95112222222222
 20
4.558580555555556
 10
29.00424722222222
 20
4.558580555555556
 10
29.06156666666666
 20
4.558580555555556
 10
29.11888611111111
 20
4.558580555555556
 10
29.17620555555556
 20
4.558580555555556
 10
29.22946944444444
 20
4.558580555555556
 10
29.27853888888888
 20
4.558580555555556
 10
29.32774722222222
 20
4.558580555555556
 10
29.36870555555556
 20
4.558580555555556
 10
29.40548333333333
 20
4.558580555555556
 10
29.43819166666667
 20
4.558580555555556
 10
29.46278888888889
 20
4.558580555555556
 10
29.47915
 20
4.558580555555556
 10
29.49145555555555
 20
4.558580555555556
 10
29.49145555555555
 20
4.963872222222223
  0
LWPOLYLINE
  5
180
330
2
100
AcDbEntity
  8
PDF_Layer 1
 62
     7
420
 16777215
370
   211
100
AcDbPolyline
 90
       15
 70
     0
 43
0.0
 10
28.70953888888889
 20
4.267927777777778
 10
28.70953888888889
 20
4.034608333333333
 10
28.7259
 20
4.034608333333333
 10
28.75860833333333
 20
4.034608333333333
 10
28.81592777777778
 20
4.034608333333333
 10
28.88555277777778
 20
4.034608333333333
 10
28.96328888888889
 20
4.034608333333333
 10
29.04926111111111
 20
4.034608333333333
 10
29.13928888888889
 20
4.034608333333333
 10
29.22121944444445
 20
4.034608333333333
 10
29.29084444444444
 20
4.034608333333333
 10
29.34816388888889
 20
4.034608333333333
 10
29.38491388888889
 20
4.034608333333333
 10
29.40548333333333
 20
4.034608333333333
 10
29.40548333333333
 20
4.267927777777778
  0
LWPOLYLINE
  5
182
330
2
100
AcDbEntity
  8
PDF_Layer 1
 62
     7
420
 16777215
370
   211
100
AcDbPolyline
 90
       26
 70
     1
 43
0.0
 10
28.81592777777778
 20
3.105219444444444
 10
28.88555277777778
 20
3.105219444444444
 10
28.96328888888889
 20
3.105219444444444
 10
29.04926111111111
 20
3.105219444444444
 10
29.13928888888889
 20
3.105219444444444
 10
29.22121944444445
 20
3.105219444444444
 10
29.29084444444444
 20
3.105219444444444
 10
29.34816388888889
 20
3.105219444444444
 10
29.38491388888889
 20
3.105219444444444
 10
29.40548333333333
 20
3.105219444444444
 10
29.40548333333333
 20
3.281358333333333
 10
29.38491388888889
 20
3.281358333333333
 10
29.34816388888889
 20
3.281358333333333
 10
29.29084444444444
 20
3.281358333333333
 10
29.22121944444445
 20
3.281358333333333
 10
29.13928888888889
 20
3.281358333333333
 10
29.04926111111111
 20
3.281358333333333
 10
28.96328888888889
 20
3.281358333333333
 10
28.88555277777778
 20
3.281358333333333
 10
28.81592777777778
 20
3.281358333333333
 10
28.75860833333333
 20
3.281358333333333
 10
28.7259
 20
3.281358333333333
 10
28.70953888888889
 20
3.281358333333333
 10
28.70953888888889
 20
3.105219444444444
 10
28.7259
 20
3.105219444444444
 10
28.75860833333333
 20
3.105219444444444
  0
LWPOLYLINE
  5
184
330
2
100
AcDbEntity
  8
PDF_Layer 1
 62
     7
420
 16777215
370
   211
100
AcDbPolyline
 90
        2
 70
     0
 43
0.0
 10
28.76685833333333
 20
3.105219444444444
 10
28.76685833333333
 20
2.933261111111111
  0
LWPOLYLINE
  5
185
330
2
100
AcDbEntity
  8
PDF_Layer 1
 62
     7
420
 16777215
370
   211
100
AcDbPolyline
 90
        2
 70
     0
 43
0.0
 10
29.34816388888889
 20
2.933261111111111
 10
29.34816388888889
 20
3.105219444444444
  0
LWPOLYLINE
  5
18B
330
2
100
AcDbEntity
  8
PDF_Layer 1
 62
     7
420
 16777215
370
   211
100
AcDbPolyline
 90
       86
 70
     1
 43
0.0
 10
15.05628888888888
 20
27.99233055555556
 10
14.99071944444444
 20
26.13366388888889
 10
15.003025
 20
26.13366388888889
 10
15.03167777777777
 20
26.13366388888889
 10
15.08480277777777
 20
26.13366388888889
 10
15.15442777777777
 20
26.12962222222222
 10
15.2404
 20
26.12556666666666
 10
15.33867777777777
 20
26.12137222222222
 10
15.44926111111111
 20
26.11731666666667
 10
15.5639
 20
26.11326111111111
 10
15.68665
 20
26.10906666666667
 10
15.80953888888889
 20
26.10501111111111
 10
15.924025
 20
26.10096944444445
 10
16.03460833333333
 20
26.09691388888889
 10
16.1329
 20
26.09691388888889
 10
16.21887222222222
 20
26.09270555555556
 10
16.28849722222222
 20
26.08865
 10
16.34176111111111
 20
26.08865
 10
16.37041388888889
 20
26.08865
 10
16.38271944444444
 20
26.08459444444445
 10
16.44815
 20
27.94326111111111
 42
-0.9829556667625475
 10
27.81705277777778
 20
27.74265
 10
27.81705277777778
 20
17.12698333333333
 10
27.82530277777778
 20
17.12698333333333
 10
27.858025
 20
17.12698333333333
 10
27.91113611111111
 20
17.12698333333333
 10
27.98074722222222
 20
17.12698333333333
 10
28.06673333333333
 20
17.12698333333333
 10
28.165025
 20
17.12698333333333
 10
28.27560833333333
 20
17.12698333333333
 10
28.39009444444445
 20
17.12698333333333
 10
28.51298333333333
 20
17.12698333333333
 10
28.63585833333333
 20
17.12698333333333
 10
28.75037222222222
 20
17.12698333333333
 10
28.86094166666667
 20
17.12698333333333
 10
28.95923333333333
 20
17.12698333333333
 10
29.04520555555555
 20
17.12698333333333
 10
29.11483055555555
 20
17.12698333333333
 10
29.16794166666667
 20
17.12698333333333
 10
29.19674722222222
 20
17.12698333333333
 10
29.20891388888889
 20
17.12698333333333
 10
29.20891388888889
 20
17.38491388888889
 10
29.23770555555556
 20
17.38491388888889
 10
29.24176111111111
 20
17.38491388888889
 10
29.24581666666666
 20
17.38896944444444
 10
29.24987222222222
 20
17.38896944444444
 10
29.25406666666667
 20
17.38896944444444
 10
29.25812222222222
 20
17.39316388888889
 10
29.25812222222222
 20
17.39721944444444
 10
29.26217777777777
 20
17.39721944444444
 10
29.26637222222222
 20
17.401275
 10
29.26637222222222
 20
17.409525
 10
29.27042777777778
 20
17.41763611111111
 10
29.27448333333333
 20
17.42588611111111
 10
29.27853888888888
 20
17.43412222222222
 10
29.28259444444444
 20
17.43817777777778
 10
29.28259444444444
 20
17.44628888888889
 10
29.28678888888889
 20
17.45453888888889
 10
29.28678888888889
 20
17.46278888888889
 10
29.28678888888889
 20
17.4709
 10
29.28678888888889
 20
17.48320555555556
 10
29.28678888888889
 20
17.50360833333333
 10
29.28678888888889
 20
17.532275
 10
29.28678888888889
 20
17.55687222222222
 10
29.28678888888889
 20
17.57728888888889
 10
29.28678888888889
 20
17.593775
 10
29.28678888888889
 20
17.59783055555556
 10
29.28678888888889
 20
17.60594166666666
 10
29.28259444444444
 20
17.61417777777777
 10
29.28259444444444
 20
17.62244166666667
 10
29.27853888888888
 20
17.63055277777777
 10
29.27448333333333
 20
17.63880277777778
 10
29.27042777777778
 20
17.6469
 10
29.26637222222222
 20
17.65515
 10
29.26637222222222
 20
17.65920555555555
 10
29.26217777777777
 20
17.66326111111111
 10
29.25812222222222
 20
17.66745555555555
 10
29.25812222222222
 20
17.67151111111111
 10
29.25406666666667
 20
17.67151111111111
 10
29.24987222222222
 20
17.67555277777778
 10
29.24581666666666
 20
17.67555277777778
 10
29.24176111111111
 20
17.67555277777778
 10
29.23770555555556
 20
17.67555277777778
 10
29.20891388888889
 20
17.67555277777778
 10
29.20891388888889
 20
27.74265
 42
0.4140683715142495
 10
22.13049722222222
 20
34.82105277777778
 42
0.4040092091667689
  0
LWPOLYLINE
  5
194
330
2
100
AcDbEntity
  8
PDF_Layer 1
 62
     7
420
 16777215
370
   211
100
AcDbPolyline
 90
        4
 70
     0
 43
0.0
 10
29.19674722222222
 20
17.06560833333333
 10
29.20485833333333
 20
17.07385833333333
 10
29.20485833333333
 20
17.11887222222222
 10
29.19674722222222
 20
17.12698333333333
  0
LWPOLYLINE
  5
195
330
2
100
AcDbEntity
  8
PDF_Layer 1
 62
     7
420
 16777215
370
   211
100
AcDbPolyline
 90
        4
 70
     0
 43
0.0
 10
27.82935833333333
 20
17.12698333333333
 10
27.82110833333333
 20
17.11887222222222
 10
27.82110833333333
 20
17.07385833333333
 10
27.82935833333333
 20
17.06560833333333
  0
LWPOLYLINE
  5
19A
330
2
100
AcDbEntity
  8
PDF_Layer 1
 62
     7
420
 16777215
370
   211
100
AcDbPolyline
 90
       32
 70
     0
 43
0.0
 10
29.78628888888889
 20
16.69303888888889
 10
29.77384444444444
 20
16.68898333333333
 10
29.72898333333333
 20
16.70130277777778
 10
29.68395555555555
 20
16.72574722222222
 10
29.64299722222222
 20
16.77089999999999
 10
29.62245555555556
 20
16.81594166666666
 10
29.61434444444444
 20
16.85688611111111
 10
29.61434444444444
 20
16.86499722222222
 10
29.61434444444444
 20
17.06560833333333
 10
29.59378888888889
 20
17.06560833333333
 10
29.55283055555555
 20
17.06560833333333
 10
29.49145555555555
 20
17.06560833333333
 10
29.41358055555555
 20
17.06560833333333
 10
29.31949722222222
 20
17.06560833333333
 10
29.20891388888889
 20
17.06560833333333
 10
29.08616388888889
 20
17.06560833333333
 10
28.95112222222222
 20
17.06560833333333
 10
28.81187222222222
 20
17.06560833333333
 10
28.664525
 20
17.06560833333333
 10
28.51298333333333
 20
17.06560833333333
 10
28.36144166666667
 20
17.06560833333333
 10
28.21423333333333
 20
17.06560833333333
 10
28.07499722222222
 20
17.06560833333333
 10
27.93978888888889
 20
17.06560833333333
 10
27.81705277777778
 20
17.06560833333333
 10
27.70646944444444
 20
17.06560833333333
 10
27.61223333333334
 20
17.06560833333333
 10
27.534525
 20
17.06560833333333
 10
27.47315
 20
17.06560833333333
 10
27.43217777777778
 20
17.06560833333333
 10
27.411775
 20
17.06560833333333
 10
27.411775
 20
10.83062222222222
  0
LWPOLYLINE
  5
19C
330
2
100
AcDbEntity
  8
PDF_Layer 1
 62
     7
420
 16777215
370
   211
100
AcDbPolyline
 90
        2
 70
     0
 43
0.0
 10
29.61434444444444
 20
10.83062222222222
 10
29.61434444444444
 20
14.54374722222222
  0
LWPOLYLINE
  5
19D
330
2
100
AcDbEntity
  8
PDF_Layer 1
 62
     7
420
 16777215
370
   211
100
AcDbPolyline
 90
       32
 70
     0
 43
0.0
 10
29.6184
 20
14.54374722222222
 10
29.61434444444444
 20
14.56009444444444
 10
29.62663611111111
 20
14.60510833333333
 10
29.65110833333333
 20
14.65012222222222
 10
29.69206666666666
 20
14.68703888888889
 10
29.73708055555555
 20
14.70744166666667
 10
29.77805277777778
 20
14.71570555555556
 10
29.78628888888889
 20
14.71570555555556
 10
31.41567777777777
 20
14.71570555555556
 10
31.41567777777777
 20
14.72395555555555
 10
31.41567777777777
 20
14.7484
 10
31.41567777777777
 20
14.79760833333333
 10
31.41567777777777
 20
14.86303888888889
 10
31.41567777777777
 20
14.94496944444444
 10
31.41567777777777
 20
15.04731666666666
 10
31.41567777777777
 20
15.15788611111111
 10
31.41567777777777
 20
15.28469166666666
 10
31.41567777777777
 20
15.41987222222222
 10
31.41567777777777
 20
15.55898333333333
 10
31.41567777777777
 20
15.70226111111111
 10
31.41567777777777
 20
15.84555277777777
 10
31.41567777777777
 20
15.98887222222222
 10
31.41567777777777
 20
16.12405277777778
 10
31.41567777777777
 20
16.24680277777778
 10
31.41567777777777
 20
16.36142777777777
 10
31.41567777777777
 20
16.46376111111111
 10
31.41567777777777
 20
16.54570555555556
 10
31.41567777777777
 20
16.61112222222222
 10
31.41567777777777
 20
16.656275
 10
31.41567777777777
 20
16.68492777777778
 10
31.41567777777777
 20
16.68898333333333
 10
29.78628888888889
 20
16.68898333333333
  0
LWPOLYLINE
  5
1A1
330
2
100
AcDbEntity
  8
PDF_Layer 1
 62
     7
420
 16777215
370
   211
100
AcDbPolyline
 90
        8
 70
     0
 43
0.0
 10
31.41567777777777
 20
14.77706666666666
 10
31.46474722222222
 20
14.78937222222222
 10
31.53437222222222
 20
14.809775
 10
31.59978888888888
 20
14.83438611111111
 10
31.66535833333333
 20
14.86709444444444
 10
31.72671944444444
 20
14.89995555555555
 10
31.78403888888889
 20
14.94091388888889
 10
31.825025
 20
14.97362222222222
  0
LWPOLYLINE
  5
1A2
330
2
100
AcDbEntity
  8
PDF_Layer 1
 62
     7
420
 16777215
370
   211
100
AcDbPolyline
 90
        3
 70
     0
 43
0.0
 10
31.53031666666667
 20
16.59896944444444
 10
31.46474722222222
 20
16.61935833333333
 10
31.41567777777777
 20
16.62762222222222
  0
LWPOLYLINE
  5
1A4
330
2
100
AcDbEntity
  8
PDF_Layer 1
 62
     7
420
 16777215
370
   211
100
AcDbPolyline
 90
       25
 70
     0
 43
0.0
 10
31.55896944444445
 20
16.66842777777778
 10
31.53842777777778
 20
16.67263611111111
 10
31.53031666666667
 20
16.67263611111111
 10
31.53031666666667
 20
16.63167777777777
 10
31.53031666666667
 20
16.57030277777778
 10
31.53031666666667
 20
16.48838611111111
 10
31.53031666666667
 20
16.386025
 10
31.53031666666667
 20
16.27141388888889
 10
31.53031666666667
 20
16.14041388888889
 10
31.53031666666667
 20
16.00116388888889
 10
31.53031666666667
 20
15.85787222222222
 10
31.53031666666667
 20
15.70646944444444
 10
31.53031666666667
 20
15.70226111111111
 10
31.58763611111111
 20
15.56316388888889
 10
31.64480277777778
 20
15.42392777777778
 10
31.69806666666666
 20
15.29292777777778
 10
31.74713611111111
 20
15.17019166666666
 10
31.79230277777778
 20
15.05555277777778
 10
31.83326111111111
 20
14.957275
 10
31.86598333333333
 20
14.87534444444444
 10
31.89463611111111
 20
14.80571944444444
 10
31.91098333333333
 20
14.75666388888889
 10
31.92330277777778
 20
14.72799722222222
 10
31.92734444444444
 20
14.71570555555556
 10
32.14026111111111
 20
14.71570555555556
  0
LWPOLYLINE
  5
1AF
330
2
100
AcDbEntity
  8
PDF_Layer 1
 62
     7
420
 16777215
370
   211
100
AcDbPolyline
 90
       29
 70
     0
 43
0.0
 10
30.55170555555556
 20
2.953802777777778
 10
30.50681666666667
 20
2.900538888888889
 10
30.44531666666666
 20
2.863775
 10
30.43706666666667
 20
2.863775
 10
30.37569166666667
 20
2.855525
 10
30.30606666666666
 20
2.867830555555555
 10
30.10560833333333
 20
3.428719444444444
 10
30.15060833333333
 20
3.481983333333333
 10
30.20373333333334
 20
3.514691666666667
 10
30.21198333333333
 20
3.518747222222222
 10
30.24469166666666
 20
3.531038888888889
 10
30.28160833333333
 20
3.547413888888889
 10
30.32662222222222
 20
3.563747222222222
 10
30.37988611111111
 20
3.580122222222222
 10
30.43706666666667
 20
3.600677777777778
 10
30.49858055555555
 20
3.625275
 10
30.56415
 20
3.645677777777778
 10
30.63362222222222
 20
3.670288888888889
 10
30.69919166666667
 20
3.694747222222222
 10
30.76881666666666
 20
3.719344444444444
 10
30.83424722222222
 20
3.743955555555555
 10
30.89574722222222
 20
3.768552777777778
 10
30.95712222222222
 20
3.788983333333333
 10
31.01024722222222
 20
3.809386111111111
 10
31.06351111111111
 20
3.825747222222222
 10
31.10448333333333
 20
3.842094444444445
 10
31.19870555555555
 20
3.86265
 10
31.29684444444444
 20
3.858594444444444
 10
31.49746944444444
 20
3.293511111111111
  0
LWPOLYLINE
  5
1C1
330
2
100
AcDbEntity
  8
PDF_Layer 1
 62
     7
420
 16777215
370
   211
100
AcDbPolyline
 90
       18
 70
     1
 43
0.0
 10
30.51087222222222
 20
4.480858333333333
 10
30.486275
 20
4.472608333333333
 10
30.46166388888889
 20
4.464497222222222
 10
30.43706666666667
 20
4.456247222222222
 10
30.41259444444444
 20
4.448136111111111
 10
30.38799722222222
 20
4.435830555555556
 10
30.36353888888889
 20
4.427594444444444
 10
30.33892777777778
 20
4.419483333333333
 10
30.31431666666666
 20
4.411233333333333
 10
30.49033055555555
 20
3.919969444444444
 10
30.51492777777778
 20
3.928080555555556
 10
30.53953888888889
 20
3.936330555555556
 10
30.56415
 20
3.944566666666667
 10
30.58860833333333
 20
3.956733333333333
 10
30.61321944444444
 20
3.964997222222222
 10
30.64187222222222
 20
3.973233333333333
 10
30.66648333333333
 20
3.981344444444444
 10
30.69094166666666
 20
3.989594444444445
  0
LWPOLYLINE
  5
1C5
330
2
100
AcDbEntity
  8
PDF_Layer 1
 62
     7
420
 16777215
370
   211
100
AcDbPolyline
 90
       18
 70
     1
 43
0.0
 10
30.27335833333333
 20
4.394872222222222
 10
30.2489
 20
4.386622222222222
 10
30.22834444444444
 20
4.382566666666667
 10
30.20794166666667
 20
4.374330555555555
 10
30.19142777777778
 20
4.366219444444444
 10
30.17521944444444
 20
4.362163888888889
 10
30.15871944444445
 20
4.353913888888889
 10
30.14235833333333
 20
4.349858333333333
 10
30.13005277777777
 20
4.34565
 10
30.30606666666666
 20
3.8544
 10
30.318525
 20
3.858594444444444
 10
30.33473333333333
 20
3.86265
 10
30.35121944444445
 20
3.870913888888889
 10
30.36758055555556
 20
3.874969444444444
 10
30.38394166666666
 20
3.883066666666667
 10
30.40434444444444
 20
3.891302777777778
 10
30.42895555555555
 20
3.895358333333333
 10
30.44937222222222
 20
3.903622222222222
  0
LWPOLYLINE
  5
1C9
330
2
100
AcDbEntity
  8
PDF_Layer 1
 62
     7
420
 16777215
370
   211
100
AcDbPolyline
 90
       18
 70
     1
 43
0.0
 10
30.69499722222222
 20
4.546413888888888
 10
30.68283055555556
 20
4.542233333333333
 10
30.66648333333333
 20
4.538177777777778
 10
30.65012222222222
 20
4.533983333333333
 10
30.63362222222222
 20
4.525872222222222
 10
30.617275
 20
4.521816666666667
 10
30.59685833333333
 20
4.513566666666667
 10
30.57630277777778
 20
4.505455555555555
 10
30.55170555555556
 20
4.497205555555556
 10
30.72784444444444
 20
4.005941666666666
 10
30.75245555555556
 20
4.014205555555555
 10
30.77287222222222
 20
4.022302777777778
 10
30.793275
 20
4.026358333333333
 10
30.809775
 20
4.034608333333333
 10
30.83019166666666
 20
4.042719444444444
 10
30.84248333333333
 20
4.0469
 10
30.85884444444444
 20
4.050955555555556
 10
30.87115
 20
4.055163888888889
  0
LWPOLYLINE
  5
1CD
330
2
100
AcDbEntity
  8
PDF_Layer 1
 62
     7
420
 16777215
370
   211
100
AcDbPolyline
 90
        2
 70
     0
 43
0.0
 10
31.26413611111111
 20
3.86265
 10
31.29684444444444
 20
3.858594444444444
  0
LWPOLYLINE
  5
1D7
330
2
100
AcDbEntity
  8
PDF_Layer 1
 62
     7
420
 16777215
370
   211
100
AcDbPolyline
 90
       45
 70
     0
 43
0.0
 10
26.84263611111111
 20
3.55565
 10
26.642025
 20
2.994775
 10
26.48237222222222
 20
3.011122222222222
 10
26.32691388888888
 20
3.052080555555555
 10
26.30637222222222
 20
3.060177777777778
 10
26.17116388888889
 20
3.125761111111111
 10
26.04437222222222
 20
3.207538888888889
 10
26.24905277777778
 20
3.768552777777778
 10
26.39638611111111
 20
3.752066666666667
 10
26.53969166666666
 20
3.715302777777778
 10
26.56009444444444
 20
3.707052777777778
 10
26.49466388888889
 20
3.731663888888889
 10
26.42924722222222
 20
3.756122222222222
 10
26.36773333333333
 20
3.776663888888889
 10
26.31041388888889
 20
3.797080555555556
 10
26.25730277777778
 20
3.81765
 10
26.21213611111111
 20
3.833983333333333
 10
26.17116388888889
 20
3.850344444444445
 10
26.14266388888889
 20
3.858594444444444
 10
26.13035833333333
 20
3.86265
 10
26.06883055555555
 20
3.870913888888889
 10
26.00341388888889
 20
3.858594444444444
 10
25.79874722222222
 20
3.293511111111111
 10
25.84376111111111
 20
3.244455555555556
 10
25.897025
 20
3.207538888888889
 10
25.90513611111111
 20
3.203483333333333
 10
25.93798333333333
 20
3.195386111111111
 10
25.97476111111111
 20
3.178872222222222
 10
26.02396944444445
 20
3.162538888888889
 10
26.07709444444444
 20
3.142122222222222
 10
26.13441388888889
 20
3.121552777777778
 10
26.195775
 20
3.101163888888889
 10
26.25730277777778
 20
3.076552777777778
 10
26.32691388888888
 20
3.052080555555555
 10
26.39233055555556
 20
3.027483333333333
 10
26.46196944444444
 20
3.007066666666667
 10
26.52738611111111
 20
2.982469444444444
 10
26.59295555555555
 20
2.957858333333333
 10
26.650275
 20
2.937455555555556
 10
26.70758055555555
 20
2.9169
 10
26.75666388888889
 20
2.900538888888889
 10
26.79762222222222
 20
2.884191666666667
 10
26.78531666666666
 20
2.888372222222222
 10
26.71163611111111
 20
2.933261111111111
 10
26.642025
 20
2.994775
  0
LWPOLYLINE
  5
1EC
330
2
100
AcDbEntity
  8
PDF_Layer 1
 62
     7
420
 16777215
370
   211
100
AcDbPolyline
 90
       18
 70
     1
 43
0.0
 10
26.98592777777778
 20
4.411233333333333
 10
26.96148333333333
 20
4.419483333333333
 10
26.93685833333333
 20
4.427594444444444
 10
26.91226111111111
 20
4.435830555555556
 10
26.88765
 20
4.448136111111111
 10
26.85915
 20
4.456247222222222
 10
26.83453888888889
 20
4.464497222222222
 10
26.80992777777778
 20
4.472608333333333
 10
26.78531666666666
 20
4.480858333333333
 10
26.60930277777778
 20
3.989594444444445
 10
26.63392777777778
 20
3.981344444444444
 10
26.658525
 20
3.973233333333333
 10
26.68298333333333
 20
3.964997222222222
 10
26.70758055555555
 20
3.956733333333333
 10
26.73624722222222
 20
3.944566666666667
 10
26.76085833333333
 20
3.936330555555556
 10
26.78531666666666
 20
3.928080555555556
 10
26.80992777777778
 20
3.919969444444444
  0
LWPOLYLINE
  5
1F3
330
2
100
AcDbEntity
  8
PDF_Layer 1
 62
     7
420
 16777215
370
   211
100
AcDbPolyline
 90
       18
 70
     1
 43
0.0
 10
26.74435833333333
 20
4.497205555555556
 10
26.72394166666667
 20
4.505455555555555
 10
26.7034
 20
4.513566666666667
 10
26.68298333333333
 20
4.521816666666667
 10
26.66258055555556
 20
4.525872222222222
 10
26.64623333333333
 20
4.533983333333333
 10
26.62971944444444
 20
4.538177777777778
 10
26.61756666666667
 20
4.542233333333333
 10
26.60526111111111
 20
4.546413888888888
 10
26.42924722222222
 20
4.055163888888889
 10
26.44155277777778
 20
4.050955555555556
 10
26.45370555555556
 20
4.0469
 10
26.47021944444444
 20
4.042719444444444
 10
26.48642777777778
 20
4.034608333333333
 10
26.50696944444444
 20
4.026358333333333
 10
26.52738611111111
 20
4.022302777777778
 10
26.54792777777777
 20
4.014205555555555
 10
26.56834444444444
 20
4.005941666666666
  0
LWPOLYLINE
  5
1F7
330
2
100
AcDbEntity
  8
PDF_Layer 1
 62
     7
420
 16777215
370
   211
100
AcDbPolyline
 90
       18
 70
     1
 43
0.0
 10
27.16613611111111
 20
4.34565
 10
27.15383055555556
 20
4.349858333333333
 10
27.14153888888889
 20
4.353913888888889
 10
27.12517777777778
 20
4.362163888888889
 10
27.10881666666667
 20
4.366219444444444
 10
27.088275
 20
4.374330555555555
 10
27.06785833333333
 20
4.382566666666667
 10
27.04744166666666
 20
4.386622222222222
 10
27.0269
 20
4.394872222222222
 10
26.85088611111111
 20
3.903622222222222
 10
26.87130277777777
 20
3.895358333333333
 10
26.89184444444444
 20
3.891302777777778
 10
26.91226111111111
 20
3.883066666666667
 10
26.93281666666667
 20
3.874969444444444
 10
26.949025
 20
3.870913888888889
 10
26.965525
 20
3.86265
 10
26.97769166666667
 20
3.858594444444444
 10
26.98998333333333
 20
3.8544
  0
LWPOLYLINE
  5
1FD
330
2
100
AcDbEntity
  8
PDF_Layer 1
 62
     7
420
 16777215
370
   211
100
AcDbPolyline
 90
        2
 70
     0
 43
0.0
 10
27.17019166666667
 20
3.453163888888889
 10
27.19480277777778
 20
3.428719444444444
  0
LWPOLYLINE
  5
202
330
2
100
AcDbEntity
  8
PDF_Layer 1
 62
     7
420
 16777215
370
   211
100
AcDbPolyline
 90
      134
 70
     1
 43
0.0
 10
29.02466388888889
 20
1.799330555555556
 10
29.02884444444444
 20
1.803386111111112
 10
29.0329
 20
1.807427777777778
 10
29.03695555555556
 20
1.815691666666667
 10
29.04115
 20
1.823941666666667
 10
29.04115
 20
1.832038888888889
 10
29.04520555555555
 20
1.836094444444444
 10
29.04520555555555
 20
1.840288888888888
 10
29.04520555555555
 20
1.848386111111111
 10
29.04520555555555
 20
1.852441666666667
 10
29.04926111111111
 20
1.860691666666667
 10
29.04926111111111
 20
1.8649
 10
29.04926111111111
 20
1.868955555555555
 10
29.05345555555555
 20
1.877052777777778
 10
29.05345555555555
 20
1.881108333333333
 10
29.05345555555555
 20
1.885316666666667
 10
29.05751111111111
 20
1.885316666666667
 10
29.06156666666666
 20
1.889372222222222
 10
29.06562222222222
 20
1.889372222222222
 10
29.06981666666667
 20
1.889372222222222
 10
29.07387222222222
 20
1.889372222222222
 10
29.07792777777777
 20
1.889372222222222
 10
29.08210833333333
 20
1.889372222222222
 10
29.08616388888889
 20
1.889372222222222
 10
29.08616388888889
 20
1.885316666666667
 10
29.08616388888889
 20
1.881108333333333
 10
29.08616388888889
 20
1.877052777777778
 10
29.08616388888889
 20
1.868955555555555
 10
29.08616388888889
 20
1.8649
 10
29.08210833333333
 20
1.860691666666667
 10
29.08210833333333
 20
1.852441666666667
 10
29.08210833333333
 20
1.848386111111111
 10
29.07792777777777
 20
1.840288888888888
 10
29.07792777777777
 20
1.836094444444444
 10
29.07792777777777
 20
1.832038888888889
 10
29.07792777777777
 20
1.819733333333333
 10
29.08210833333333
 20
1.811636111111111
 10
29.08616388888889
 20
1.807427777777778
 10
29.09021944444445
 20
1.803386111111112
 10
29.09441388888889
 20
1.799330555555556
 10
29.09846944444444
 20
1.799330555555556
 10
29.10658055555555
 20
1.799330555555556
 10
29.110775
 20
1.799330555555556
 10
29.11483055555555
 20
1.799330555555556
 10
29.11888611111111
 20
1.799330555555556
 10
29.12308055555556
 20
1.799330555555556
 10
29.12713611111111
 20
1.799330555555556
 10
29.13117777777778
 20
1.799330555555556
 10
29.13523333333333
 20
1.799330555555556
 10
29.13928888888889
 20
1.799330555555556
 10
29.13928888888889
 20
1.795122222222222
 10
29.14348333333333
 20
1.791066666666667
 10
29.14348333333333
 20
1.787025
 10
29.14348333333333
 20
1.778775
 10
29.14348333333333
 20
1.774733333333333
 10
29.14348333333333
 20
1.770677777777778
 10
29.14348333333333
 20
1.766469444444445
 10
29.14348333333333
 20
1.762427777777777
 10
29.14348333333333
 20
1.758372222222222
 10
29.14348333333333
 20
1.754316666666667
 10
29.14348333333333
 20
1.750122222222223
 10
29.13928888888889
 20
1.746066666666667
 10
29.13523333333333
 20
1.742011111111111
 10
29.13117777777778
 20
1.742011111111111
 10
29.12713611111111
 20
1.742011111111111
 10
29.12308055555556
 20
1.742011111111111
 10
29.11888611111111
 20
1.742011111111111
 10
29.11483055555555
 20
1.742011111111111
 10
29.110775
 20
1.742011111111111
 10
29.10658055555555
 20
1.742011111111111
 10
29.09846944444444
 20
1.742011111111111
 10
29.09441388888889
 20
1.742011111111111
 10
29.09021944444445
 20
1.742011111111111
 10
29.08210833333333
 20
1.737816666666667
 10
29.07792777777777
 20
1.729719444444445
 10
29.07792777777777
 20
1.721608333333333
 10
29.07792777777777
 20
1.713358333333333
 10
29.07792777777777
 20
1.70915
 10
29.07792777777777
 20
1.701052777777778
 10
29.08210833333333
 20
1.696997222222222
 10
29.08210833333333
 20
1.688747222222223
 10
29.08210833333333
 20
1.684691666666667
 10
29.08616388888889
 20
1.680636111111111
 10
29.08616388888889
 20
1.6724
 10
29.08616388888889
 20
1.668344444444445
 10
29.08616388888889
 20
1.66415
 10
29.08616388888889
 20
1.660094444444444
 10
29.08616388888889
 20
1.656038888888889
 10
29.08210833333333
 20
1.656038888888889
 10
29.07792777777777
 20
1.656038888888889
 10
29.07387222222222
 20
1.656038888888889
 10
29.06981666666667
 20
1.656038888888889
 10
29.06562222222222
 20
1.656038888888889
 10
29.06156666666666
 20
1.656038888888889
 10
29.05751111111111
 20
1.656038888888889
 10
29.05751111111111
 20
1.660094444444444
 10
29.05345555555555
 20
1.660094444444444
 10
29.05345555555555
 20
1.66415
 10
29.05345555555555
 20
1.668344444444445
 10
29.04926111111111
 20
1.6724
 10
29.04926111111111
 20
1.680636111111111
 10
29.04926111111111
 20
1.684691666666667
 10
29.04520555555555
 20
1.688747222222223
 10
29.04520555555555
 20
1.696997222222222
 10
29.04520555555555
 20
1.701052777777778
 10
29.04520555555555
 20
1.70915
 10
29.04115
 20
1.713358333333333
 10
29.04115
 20
1.721608333333333
 10
29.03695555555556
 20
1.733775
 10
29.0329
 20
1.737816666666667
 10
29.02884444444444
 20
1.742011111111111
 10
29.02466388888889
 20
1.742011111111111
 10
29.02060833333333
 20
1.742011111111111
 10
29.01655277777777
 20
1.742011111111111
 10
29.01249722222222
 20
1.742011111111111
 10
29.00844166666666
 20
1.742011111111111
 10
29.00424722222222
 20
1.742011111111111
 10
29.00424722222222
 20
1.746066666666667
 10
29.00019166666666
 20
1.750122222222223
 10
29.00019166666666
 20
1.754316666666667
 10
29.00019166666666
 20
1.758372222222222
 10
29.00019166666666
 20
1.762427777777777
 10
29.00019166666666
 20
1.766469444444445
 10
29.00019166666666
 20
1.770677777777778
 10
29.00019166666666
 20
1.774733333333333
 10
29.00019166666666
 20
1.778775
 10
29.00019166666666
 20
1.787025
 10
29.00019166666666
 20
1.791066666666667
 10
29.00019166666666
 20
1.795122222222222
 10
29.00424722222222
 20
1.799330555555556
 10
29.00844166666666
 20
1.799330555555556
 10
29.01249722222222
 20
1.799330555555556
 10
29.01655277777777
 20
1.799330555555556
 10
29.02060833333333
 20
1.799330555555556
  0
LWPOLYLINE
  5
21A
330
2
100
AcDbEntity
  8
PDF_Layer 1
 62
     7
420
 16777215
370
   211
100
AcDbPolyline
 90
        9
 70
     0
 43
0.0
 10
29.08210833333333
 20
1.799330555555556
 10
29.07792777777777
 20
1.799330555555556
 10
29.07792777777777
 20
1.795122222222222
 10
29.07792777777777
 20
1.791066666666667
 10
29.07792777777777
 20
1.754316666666667
 10
29.07792777777777
 20
1.750122222222223
 10
29.07792777777777
 20
1.746066666666667
 10
29.08210833333333
 20
1.746066666666667
 10
29.08210833333333
 20
1.742011111111111
  0
LWPOLYLINE
  5
21D
330
2
100
AcDbEntity
  8
PDF_Layer 1
 62
     7
420
 16777215
370
   211
100
AcDbPolyline
 90
        2
 70
     0
 43
0.0
 10
29.09441388888889
 20
1.799330555555556
 10
29.02466388888889
 20
1.799330555555556
  0
LWPOLYLINE
  5
21E
330
2
100
AcDbEntity
  8
PDF_Layer 1
 62
     7
420
 16777215
370
   211
100
AcDbPolyline
 90
        2
 70
     0
 43
0.0
 10
29.09441388888889
 20
1.742011111111111
 10
29.02466388888889
 20
1.742011111111111
  0
LWPOLYLINE
  5
220
330
2
100
AcDbEntity
  8
PDF_Layer 1
 62
     7
420
 16777215
370
   211
100
AcDbPolyline
 90
       18
 70
     1
 43
0.0
 10
29.49145555555555
 20
2.892427777777778
 10
29.4874
 20
2.900538888888889
 10
29.48334444444444
 20
2.908788888888889
 10
29.47915
 20
2.912844444444445
 10
29.47509444444444
 20
2.921094444444444
 10
29.47103888888889
 20
2.92515
 10
29.46684444444444
 20
2.929205555555555
 10
29.46278888888889
 20
2.933261111111111
 10
29.45455277777778
 20
2.933261111111111
 10
29.46278888888889
 20
2.933261111111111
 10
29.46684444444444
 20
2.929205555555555
 10
29.47103888888889
 20
2.92515
 10
29.47509444444444
 20
2.921094444444444
 10
29.47915
 20
2.912844444444445
 10
29.48334444444444
 20
2.908788888888889
 10
29.4874
 20
2.900538888888889
 10
29.49145555555555
 20
2.892427777777778
 10
29.63878888888889
 20
2.028608333333334
  0
LWPOLYLINE
  5
222
330
2
100
AcDbEntity
  8
PDF_Layer 1
 62
     7
420
 16777215
370
   211
100
AcDbPolyline
 90
       12
 70
     1
 43
0.0
 10
29.64299722222222
 20
1.529094444444444
 10
29.64299722222222
 20
2.012247222222222
 10
29.64299722222222
 20
2.016302777777778
 10
29.64299722222222
 20
2.020358333333333
 10
29.63878888888889
 20
2.020358333333333
 10
29.63878888888889
 20
2.0244
 10
29.63878888888889
 20
2.028608333333334
 10
29.63878888888889
 20
2.0244
 10
29.63878888888889
 20
2.020358333333333
 10
29.64299722222222
 20
2.020358333333333
 10
29.64299722222222
 20
2.016302777777778
 10
29.64299722222222
 20
2.012247222222222
  0
LWPOLYLINE
  5
225
330
2
100
AcDbEntity
  8
PDF_Layer 1
 62
     7
420
 16777215
370
   211
100
AcDbPolyline
 90
      115
 70
     1
 43
0.0
 10
28.09959444444444
 20
2.012247222222222
 10
28.10365
 20
1.999955555555555
 10
28.11174722222222
 20
1.954927777777778
 10
28.12001111111111
 20
1.889372222222222
 10
28.12405277777778
 20
1.811636111111111
 10
28.12405277777778
 20
1.733775
 10
28.12001111111111
 20
1.66415
 10
28.11174722222222
 20
1.602775
 10
28.10365
 20
1.557761111111112
 10
28.09959444444444
 20
1.533136111111111
 10
28.09959444444444
 20
1.529094444444444
 10
28.09959444444444
 20
1.525038888888889
 10
28.09959444444444
 20
1.520830555555555
 10
28.10365
 20
1.520830555555555
 10
28.10365
 20
1.516788888888889
 10
28.10365
 20
1.512733333333333
 10
28.34928888888889
 20
0.6529555555555562
 10
28.35333055555555
 20
0.6448444444444453
 10
28.35738611111111
 20
0.6365944444444449
 10
28.36562222222222
 20
0.6283583333333343
 10
28.36967777777778
 20
0.6243027777777788
 10
28.37794166666667
 20
0.616191666666667
 10
28.38603888888889
 20
0.616191666666667
 10
28.39430277777778
 20
0.611997222222223
 10
28.40660833333333
 20
0.611997222222223
 10
28.4189
 20
0.611997222222223
 10
28.45160833333333
 20
0.611997222222223
 10
28.50473333333333
 20
0.611997222222223
 10
28.57853888888889
 20
0.611997222222223
 10
28.66858055555555
 20
0.611997222222223
 10
28.77091388888889
 20
0.611997222222223
 10
28.88555277777778
 20
0.611997222222223
 10
29.00424722222222
 20
0.611997222222223
 10
29.12308055555556
 20
0.611997222222223
 10
29.24176111111111
 20
0.611997222222223
 10
29.35221944444444
 20
0.611997222222223
 10
29.45455277777778
 20
0.611997222222223
 10
29.46278888888889
 20
0.611997222222223
 10
29.46684444444444
 20
0.616191666666667
 10
29.47103888888889
 20
0.616191666666667
 10
29.47509444444444
 20
0.6243027777777788
 10
29.47915
 20
0.6283583333333343
 10
29.48334444444444
 20
0.6365944444444449
 10
29.4874
 20
0.6448444444444453
 10
29.49145555555555
 20
0.6529555555555562
 10
29.4874
 20
0.6448444444444453
 10
29.48334444444444
 20
0.6365944444444449
 10
29.47915
 20
0.6283583333333343
 10
29.47509444444444
 20
0.6243027777777788
 10
29.47103888888889
 20
0.616191666666667
 10
29.46684444444444
 20
0.616191666666667
 10
29.46278888888889
 20
0.611997222222223
 10
29.45455277777778
 20
0.611997222222223
 10
29.54471944444444
 20
0.611997222222223
 10
29.61434444444444
 20
0.611997222222223
 10
29.66745555555555
 20
0.611997222222223
 10
29.70016388888889
 20
0.611997222222223
 10
29.71246944444444
 20
0.611997222222223
 10
29.72073333333333
 20
0.611997222222223
 10
29.72898333333333
 20
0.616191666666667
 10
29.73708055555555
 20
0.616191666666667
 10
29.74533055555556
 20
0.6243027777777788
 10
29.75344166666666
 20
0.6283583333333343
 10
29.75763611111111
 20
0.6365944444444449
 10
29.76169166666667
 20
0.6448444444444453
 10
29.76574722222222
 20
0.6529555555555562
 10
30.01137222222222
 20
1.512733333333333
 10
30.01556666666667
 20
1.516788888888889
 10
30.01556666666667
 20
1.520830555555555
 10
30.01556666666667
 20
1.525038888888889
 10
30.01556666666667
 20
1.529094444444444
 10
30.01556666666667
 20
2.012247222222222
 10
30.01556666666667
 20
2.016302777777778
 10
30.01556666666667
 20
2.020358333333333
 10
30.01556666666667
 20
2.0244
 10
30.01556666666667
 20
2.028608333333334
 10
30.01137222222222
 20
2.028608333333334
 10
29.76574722222222
 20
2.892427777777778
 10
29.76169166666667
 20
2.900538888888889
 10
29.75763611111111
 20
2.908788888888889
 10
29.75344166666666
 20
2.912844444444445
 10
29.74533055555556
 20
2.921094444444444
 10
29.73708055555555
 20
2.92515
 10
29.72898333333333
 20
2.929205555555555
 10
29.72073333333333
 20
2.933261111111111
 10
29.71246944444444
 20
2.933261111111111
 10
29.70016388888889
 20
2.933261111111111
 10
29.66745555555555
 20
2.933261111111111
 10
29.61434444444444
 20
2.933261111111111
 10
29.54471944444444
 20
2.933261111111111
 10
29.45455277777778
 20
2.933261111111111
 10
29.35221944444444
 20
2.933261111111111
 10
29.24176111111111
 20
2.933261111111111
 10
29.12308055555556
 20
2.933261111111111
 10
29.00424722222222
 20
2.933261111111111
 10
28.88555277777778
 20
2.933261111111111
 10
28.77091388888889
 20
2.933261111111111
 10
28.66858055555555
 20
2.933261111111111
 10
28.57853888888889
 20
2.933261111111111
 10
28.50473333333333
 20
2.933261111111111
 10
28.45160833333333
 20
2.933261111111111
 10
28.4189
 20
2.933261111111111
 10
28.40660833333333
 20
2.933261111111111
 10
28.39430277777778
 20
2.933261111111111
 10
28.38603888888889
 20
2.929205555555555
 10
28.37794166666667
 20
2.92515
 10
28.36967777777778
 20
2.921094444444444
 10
28.36562222222222
 20
2.912844444444445
 10
28.35738611111111
 20
2.908788888888889
 10
28.35333055555555
 20
2.900538888888889
 10
28.34928888888889
 20
2.892427777777778
 10
28.10365
 20
2.028608333333334
 10
28.10365
 20
2.0244
 10
28.09959444444444
 20
2.020358333333333
 10
28.09959444444444
 20
2.016302777777778
  0
LWPOLYLINE
  5
229
330
2
100
AcDbEntity
  8
PDF_Layer 1
 62
     7
420
 16777215
370
   211
100
AcDbPolyline
 90
       23
 70
     1
 43
0.0
 10
28.81998333333333
 20
2.012247222222222
 10
28.88149722222222
 20
2.020358333333333
 10
28.93881666666667
 20
2.020358333333333
 10
29.00019166666666
 20
2.020358333333333
 10
29.06156666666666
 20
2.020358333333333
 10
29.11888611111111
 20
2.020358333333333
 10
29.18026111111111
 20
2.020358333333333
 10
29.23770555555556
 20
2.020358333333333
 10
29.29908055555555
 20
2.020358333333333
 10
29.3564
 20
2.020358333333333
 10
29.3564
 20
2.016302777777778
 10
29.3564
 20
2.012247222222222
 10
29.3564
 20
1.529094444444444
 10
29.3564
 20
1.525038888888889
 10
29.29908055555555
 20
1.525038888888889
 10
29.23770555555556
 20
1.525038888888889
 10
29.18026111111111
 20
1.525038888888889
 10
29.11888611111111
 20
1.525038888888889
 10
29.06156666666666
 20
1.525038888888889
 10
29.00019166666666
 20
1.525038888888889
 10
28.93881666666667
 20
1.525038888888889
 10
28.88149722222222
 20
1.525038888888889
 10
28.81998333333333
 20
1.529094444444444
 42
-0.8976597773872089
  0
LWPOLYLINE
  5
22F
330
2
100
AcDbEntity
  8
PDF_Layer 1
 62
     7
420
 16777215
370
   211
100
AcDbPolyline
 90
       10
 70
     1
 43
0.0
 10
29.49145555555555
 20
0.6529555555555562
 10
29.63878888888889
 20
1.512733333333333
 10
29.63878888888889
 20
1.516788888888889
 10
29.63878888888889
 20
1.520830555555555
 10
29.64299722222222
 20
1.525038888888889
 10
29.64299722222222
 20
1.529094444444444
 10
29.64299722222222
 20
1.525038888888889
 10
29.63878888888889
 20
1.520830555555555
 10
29.63878888888889
 20
1.516788888888889
 10
29.63878888888889
 20
1.512733333333333
  0
LWPOLYLINE
  5
234
330
2
100
AcDbEntity
  8
PDF_Layer 1
 62
     7
420
 16777215
370
   211
100
AcDbPolyline
 90
        3
 70
     0
 43
0.0
 10
29.18026111111111
 20
2.016302777777778
 10
29.14753888888889
 20
2.008052777777778
 10
29.14348333333333
 20
2.004011111111111
  0
LWPOLYLINE
  5
235
330
2
100
AcDbEntity
  8
PDF_Layer 1
 62
     7
420
 16777215
370
   211
100
AcDbPolyline
 90
        3
 70
     0
 43
0.0
 10
29.14348333333333
 20
1.5414
 10
29.14753888888889
 20
1.537344444444445
 10
29.17620555555556
 20
1.525038888888889
  0
LWPOLYLINE
  5
23D
330
2
100
AcDbEntity
  8
PDF_Layer 1
 62
     7
420
 16777215
370
   211
100
AcDbPolyline
 90
       17
 70
     0
 43
0.0
 10
29.55283055555555
 20
6.077524999999999
 10
29.548775
 20
6.077524999999999
 10
29.53241388888889
 20
6.077524999999999
 10
29.49549722222222
 20
6.077524999999999
 10
29.43819166666667
 20
6.077524999999999
 10
29.36451111111111
 20
6.077524999999999
 10
29.27853888888888
 20
6.077524999999999
 10
29.18026111111111
 20
6.077524999999999
 10
29.07792777777777
 20
6.077524999999999
 10
28.97558055555555
 20
6.077524999999999
 10
28.87745555555556
 20
6.077524999999999
 10
28.78321944444444
 20
6.077524999999999
 10
28.70549722222222
 20
6.077524999999999
 10
28.63991388888889
 20
6.077524999999999
 10
28.5949
 20
6.077524999999999
 10
28.57030277777777
 20
6.077524999999999
 10
28.56624722222222
 20
6.077524999999999
  0
LWPOLYLINE
  5
23F
330
2
100
AcDbEntity
  8
PDF_Layer 1
 62
     7
420
 16777215
370
   211
100
AcDbPolyline
 90
       17
 70
     0
 43
0.0
 10
28.56624722222222
 20
4.976163888888889
 10
28.57030277777777
 20
4.976163888888889
 10
28.5949
 20
4.976163888888889
 10
28.63991388888889
 20
4.976163888888889
 10
28.70549722222222
 20
4.976163888888889
 10
28.78321944444444
 20
4.976163888888889
 10
28.87745555555556
 20
4.976163888888889
 10
28.97558055555555
 20
4.976163888888889
 10
29.07792777777777
 20
4.976163888888889
 10
29.18026111111111
 20
4.976163888888889
 10
29.27853888888888
 20
4.976163888888889
 10
29.36451111111111
 20
4.976163888888889
 10
29.43819166666667
 20
4.976163888888889
 10
29.49549722222222
 20
4.976163888888889
 10
29.53241388888889
 20
4.976163888888889
 10
29.548775
 20
4.976163888888889
 10
29.55283055555555
 20
4.976163888888889
  0
LWPOLYLINE
  5
242
330
2
100
AcDbEntity
  8
PDF_Layer 1
 62
     7
420
 16777215
370
   211
100
AcDbPolyline
 90
       38
 70
     0
 43
0.0
 10
28.62762222222222
 20
6.089677777777778
 10
28.62762222222222
 20
6.507274999999999
 10
28.63181666666667
 20
6.515525
 10
28.656275
 20
6.548233333333334
 10
28.67669166666667
 20
6.523761111111111
 10
28.68494166666666
 20
6.507274999999999
 10
28.68899722222222
 20
6.507274999999999
 10
28.69317777777778
 20
6.507274999999999
 10
28.70128888888889
 20
6.507274999999999
 10
28.70549722222222
 20
6.507274999999999
 10
28.70953888888889
 20
6.507274999999999
 10
28.71765
 20
6.507274999999999
 10
28.72185833333333
 20
6.507274999999999
 10
28.72995555555555
 20
6.507274999999999
 10
28.80781666666667
 20
6.535913888888888
 10
28.89366388888889
 20
6.548233333333334
 10
29.04926111111111
 20
6.523761111111111
 10
29.08616388888889
 20
6.507274999999999
 10
29.09846944444444
 20
6.507274999999999
 10
29.10658055555555
 20
6.507274999999999
 10
29.11483055555555
 20
6.507274999999999
 10
29.12308055555556
 20
6.507274999999999
 10
29.13117777777778
 20
6.507274999999999
 10
29.14348333333333
 20
6.507274999999999
 10
29.15173333333333
 20
6.507274999999999
 10
29.15984444444444
 20
6.507274999999999
 10
29.22541388888889
 20
6.535913888888888
 10
29.29908055555555
 20
6.548233333333334
 10
29.43008055555555
 20
6.523761111111111
 10
29.46278888888889
 20
6.507274999999999
 10
29.46684444444444
 20
6.507274999999999
 10
29.47103888888889
 20
6.507274999999999
 10
29.47509444444444
 20
6.507274999999999
 10
29.47915
 20
6.507274999999999
 10
29.48334444444444
 20
6.507274999999999
 10
29.4874
 20
6.507274999999999
 10
29.48334444444444
 20
6.523761111111111
 10
29.46684444444444
 20
6.540122222222223
  0
LWPOLYLINE
  5
24A
330
2
100
AcDbEntity
  8
PDF_Layer 1
 62
     7
420
 16777215
370
   211
100
AcDbPolyline
 90
        2
 70
     0
 43
0.0
 10
29.08616388888889
 20
6.507274999999999
 10
29.08616388888889
 20
6.089677777777778
  0
LWPOLYLINE
  5
24B
330
2
100
AcDbEntity
  8
PDF_Layer 1
 62
     7
420
 16777215
370
   211
100
AcDbPolyline
 90
        2
 70
     0
 43
0.0
 10
28.72995555555555
 20
6.089677777777778
 10
28.72995555555555
 20
6.507274999999999
  0
LWPOLYLINE
  5
24C
330
2
100
AcDbEntity
  8
PDF_Layer 1
 62
     7
420
 16777215
370
   211
100
AcDbPolyline
 90
        2
 70
     0
 43
0.0
 10
29.46278888888889
 20
6.507274999999999
 10
29.46278888888889
 20
6.089677777777778
  0
LWPOLYLINE
  5
24D
330
2
100
AcDbEntity
  8
PDF_Layer 1
 62
     7
420
 16777215
370
   211
100
AcDbPolyline
 90
        2
 70
     0
 43
0.0
 10
29.15984444444444
 20
6.089677777777778
 10
29.15984444444444
 20
6.507274999999999
  0
LWPOLYLINE
  5
24E
330
2
100
AcDbEntity
  8
PDF_Layer 1
 62
     7
420
 16777215
370
   211
100
AcDbPolyline
 90
        2
 70
     0
 43
0.0
 10
28.68494166666666
 20
6.507274999999999
 10
28.68494166666666
 20
6.089677777777778
  0
LWPOLYLINE
  5
250
330
2
100
AcDbEntity
  8
PDF_Layer 1
 62
     7
420
 16777215
370
   211
100
AcDbPolyline
 90
        2
 70
     0
 43
0.0
 10
29.4874
 20
6.089677777777778
 10
29.4874
 20
6.507274999999999
  0
LWPOLYLINE
  5
25B
330
2
100
AcDbEntity
  8
PDF_Layer 1
 62
     7
420
 16777215
370
   211
100
AcDbPolyline
 90
       31
 70
     1
 43
0.0
 10
29.44644166666666
 20
6.671122222222223
 10
29.45455277777778
 20
6.671122222222223
 10
29.4874
 20
6.691525
 10
29.51605277777778
 20
6.732497222222223
 10
29.51605277777778
 20
7.477622222222221
 10
29.48334444444444
 20
7.522636111111111
 10
29.44644166666666
 20
7.538997222222222
 10
29.42588611111111
 20
7.538997222222222
 10
29.40142777777778
 20
7.538997222222222
 10
29.36870555555556
 20
7.538997222222222
 10
29.33180277777778
 20
7.538997222222222
 10
29.29084444444444
 20
7.538997222222222
 10
29.24581666666666
 20
7.538997222222222
 10
29.19674722222222
 20
7.538997222222222
 10
29.14753888888889
 20
7.538997222222222
 10
29.15984444444444
 20
7.538997222222222
 10
29.24581666666666
 20
7.526691666666667
 10
29.33180277777778
 20
7.498038888888888
 10
29.37681666666666
 20
7.477622222222221
 10
29.37681666666666
 20
6.732497222222223
 10
29.33180277777778
 20
6.712080555555555
 10
29.24987222222222
 20
6.683427777777778
 10
29.15984444444444
 20
6.671122222222223
 10
29.14753888888889
 20
6.671122222222223
 10
29.19674722222222
 20
6.671122222222223
 10
29.24581666666666
 20
6.671122222222223
 10
29.29084444444444
 20
6.671122222222223
 10
29.33180277777778
 20
6.671122222222223
 10
29.36870555555556
 20
6.671122222222223
 10
29.40142777777778
 20
6.671122222222223
 10
29.42588611111111
 20
6.671122222222223
  0
LWPOLYLINE
  5
265
330
2
100
AcDbEntity
  8
PDF_Layer 1
 62
     7
420
 16777215
370
   211
100
AcDbPolyline
 90
        2
 70
     0
 43
0.0
 10
28.59895555555555
 20
6.732497222222223
 10
28.63181666666667
 20
6.691525
  0
LWPOLYLINE
  5
273
330
2
100
AcDbEntity
  8
PDF_Layer 1
 62
     7
420
 16777215
370
   211
100
AcDbPolyline
 90
        4
 70
     0
 43
0.0
 10
27.04744166666666
 20
8.234927777777778
 10
26.71584444444444
 20
8.234927777777778
 10
26.71584444444444
 20
8.353761111111111
 10
27.04744166666666
 20
8.353761111111111
  0
LWPOLYLINE
  5
27A
330
2
100
AcDbEntity
  8
PDF_Layer 1
 62
     7
420
 16777215
370
   211
100
AcDbPolyline
 90
       32
 70
     1
 43
0.0
 10
31.06770555555555
 20
9.95853888888889
 10
31.05945555555555
 20
9.95853888888889
 10
31.03080277777778
 20
9.95853888888889
 10
30.97753888888889
 20
9.95853888888889
 10
30.89980277777778
 20
9.95853888888889
 10
30.809775
 20
9.95853888888889
 10
30.71149722222222
 20
9.95853888888889
 10
30.60496944444444
 20
9.95853888888889
 10
26.42099722222222
 20
9.95853888888889
 10
26.31446944444444
 20
9.95853888888889
 10
26.21213611111111
 20
9.95853888888889
 10
26.12210833333333
 20
9.95853888888889
 10
26.04842777777778
 20
9.95853888888889
 10
25.99516388888889
 20
9.95853888888889
 10
25.96649722222222
 20
9.95853888888889
 10
25.9584
 20
9.95853888888889
 10
25.9584
 20
9.66788611111111
 10
25.96649722222222
 20
9.66788611111111
 10
25.99516388888889
 20
9.66788611111111
 10
26.04842777777778
 20
9.66788611111111
 10
26.12210833333333
 20
9.66788611111111
 10
26.21213611111111
 20
9.66788611111111
 10
26.31446944444444
 20
9.66788611111111
 10
26.42099722222222
 20
9.66788611111111
 10
30.60496944444444
 20
9.66788611111111
 10
30.71149722222222
 20
9.66788611111111
 10
30.809775
 20
9.66788611111111
 10
30.89980277777778
 20
9.66788611111111
 10
30.97753888888889
 20
9.66788611111111
 10
31.03080277777778
 20
9.66788611111111
 10
31.05945555555555
 20
9.66788611111111
 10
31.06770555555555
 20
9.66788611111111
  0
LWPOLYLINE
  5
27F
330
2
100
AcDbEntity
  8
PDF_Layer 1
 62
     7
420
 16777215
370
   211
100
AcDbPolyline
 90
        3
 70
     0
 43
0.0
 10
30.72366388888889
 20
9.66788611111111
 10
29.54066388888889
 20
9.377261111111112
 10
29.54066388888889
 20
9.66788611111111
  0
LWPOLYLINE
  5
281
330
2
100
AcDbEntity
  8
PDF_Layer 1
 62
     7
420
 16777215
370
   211
100
AcDbPolyline
 90
        5
 70
     0
 43
0.0
 10
30.82599722222222
 20
9.66788611111111
 10
29.63878888888889
 20
9.377261111111112
 10
29.61015
 20
9.377261111111112
 10
29.57742777777778
 20
9.377261111111112
 10
29.54066388888889
 20
9.377261111111112
  0
LWPOLYLINE
  5
283
330
2
100
AcDbEntity
  8
PDF_Layer 1
 62
     7
420
 16777215
370
   211
100
AcDbPolyline
 90
        6
 70
     0
 43
0.0
 10
26.19983055555556
 20
9.66788611111111
 10
27.38716388888889
 20
9.377261111111112
 10
27.41583055555555
 20
9.377261111111112
 10
27.44853888888889
 20
9.377261111111112
 10
27.48544166666667
 20
9.377261111111112
 10
26.30231666666666
 20
9.66788611111111
  0
LWPOLYLINE
  5
286
330
2
100
AcDbEntity
  8
PDF_Layer 1
 62
     7
420
 16777215
370
   211
100
AcDbPolyline
 90
        2
 70
     0
 43
0.0
 10
27.48544166666667
 20
9.66788611111111
 10
27.48544166666667
 20
9.377261111111112
  0
LWPOLYLINE
  5
291
330
2
100
AcDbEntity
  8
PDF_Layer 1
 62
     7
420
 16777215
370
   211
100
AcDbPolyline
 90
       22
 70
     0
 43
0.0
 10
27.54276111111111
 20
10.42938611111111
 10
27.55087222222222
 20
10.42938611111111
 10
27.579525
 20
10.42938611111111
 10
27.62874722222222
 20
10.42938611111111
 10
27.69835833333333
 20
10.42938611111111
 10
27.78434444444445
 20
10.42938611111111
 10
27.88667777777778
 20
10.42938611111111
 10
28.00116388888889
 20
10.42938611111111
 10
28.12405277777778
 20
10.42938611111111
 10
28.25909444444445
 20
10.42938611111111
 10
28.39834444444444
 20
10.42938611111111
 10
28.54163611111111
 20
10.42938611111111
 10
28.68088611111111
 20
10.42938611111111
 10
28.81998333333333
 20
10.42938611111111
 10
28.95112222222222
 20
10.42938611111111
 10
29.06981666666667
 20
10.42938611111111
 10
29.18026111111111
 20
10.42938611111111
 10
29.27853888888888
 20
10.42938611111111
 10
29.3564
 20
10.42938611111111
 10
29.417775
 20
10.42938611111111
 10
29.45873333333333
 20
10.42938611111111
 10
29.48334444444444
 20
10.42938611111111
  0
LWPOLYLINE
  5
296
330
2
100
AcDbEntity
  8
PDF_Layer 1
 62
     7
420
 16777215
370
   211
100
AcDbPolyline
 90
       13
 70
     1
 43
0.0
 10
14.93745555555555
 20
25.40083055555556
 10
14.93745555555555
 20
25.38853888888889
 10
14.9334
 20
25.35987222222222
 10
14.9334
 20
25.31080277777778
 10
14.92934444444444
 20
25.24537222222222
 10
14.92934444444444
 20
25.17156666666667
 10
14.92515
 20
25.09383055555556
 10
14.92110833333333
 20
25.0119
 10
14.92110833333333
 20
24.93823333333333
 10
14.91705277777777
 20
24.87685833333333
 10
14.91705277777777
 20
24.82778888888889
 10
14.91299722222222
 20
24.79494166666666
 10
14.91299722222222
 20
24.78683055555555
 42
-0.6536557255769788
  0
LWPOLYLINE
  5
297
330
2
100
AcDbEntity
  8
PDF_Layer 1
 62
     7
420
 16777215
370
   211
100
AcDbPolyline
 90
        5
 70
     0
 43
0.0
 10
28.63991388888889
 20
4.267927777777778
 10
28.95112222222222
 20
4.267927777777778
 10
29.36870555555556
 20
4.267927777777778
 10
29.47915
 20
4.267927777777778
 10
29.47915
 20
4.558580555555556
  0
LWPOLYLINE
  5
299
330
2
100
AcDbEntity
  8
PDF_Layer 1
 62
     7
420
 16777215
370
   211
100
AcDbPolyline
 90
        2
 70
     1
 43
0.0
 10
29.36870555555556
 20
4.558580555555556
 10
29.36870555555556
 20
4.267927777777778
  0
LWPOLYLINE
  5
29A
330
2
100
AcDbEntity
  8
PDF_Layer 1
 62
     7
420
 16777215
370
   211
100
AcDbPolyline
 90
        2
 70
     0
 43
0.0
 10
29.36870555555556
 20
4.267927777777778
 10
29.36870555555556
 20
4.267927777777778
  0
LWPOLYLINE
  5
29D
330
2
100
AcDbEntity
  8
PDF_Layer 1
 62
     7
420
 16777215
370
   211
100
AcDbPolyline
 90
        2
 70
     1
 43
0.0
 10
28.95112222222222
 20
4.558580555555556
 10
28.95112222222222
 20
4.267927777777778
  0
LWPOLYLINE
  5
29E
330
2
100
AcDbEntity
  8
PDF_Layer 1
 62
     7
420
 16777215
370
   211
100
AcDbPolyline
 90
        2
 70
     0
 43
0.0
 10
28.95112222222222
 20
4.267927777777778
 10
28.95112222222222
 20
4.267927777777778
  0
LWPOLYLINE
  5
2A1
330
2
100
AcDbEntity
  8
PDF_Layer 1
 62
     7
420
 16777215
370
   211
100
AcDbPolyline
 90
        2
 70
     1
 43
0.0
 10
28.63991388888889
 20
4.558580555555556
 10
28.63991388888889
 20
4.267927777777778
  0
LWPOLYLINE
  5
2A2
330
2
100
AcDbEntity
  8
PDF_Layer 1
 62
     7
420
 16777215
370
   211
100
AcDbPolyline
 90
        2
 70
     0
 43
0.0
 10
28.63991388888889
 20
4.267927777777778
 10
28.63991388888889
 20
4.267927777777778
  0
LWPOLYLINE
  5
2AC
330
2
100
AcDbEntity
  8
PDF_Layer 1
 62
     7
420
 16777215
370
   211
100
AcDbPolyline
 90
        2
 70
     0
 43
0.0
 10
28.93056666666666
 20
4.034608333333333
 10
28.93056666666666
 20
3.281358333333333
  0
LWPOLYLINE
  5
2AD
330
2
100
AcDbEntity
  8
PDF_Layer 1
 62
     7
420
 16777215
370
   211
100
AcDbPolyline
 90
        2
 70
     0
 43
0.0
 10
29.19255277777777
 20
4.034608333333333
 10
29.19255277777777
 20
3.281358333333333
  0
LWPOLYLINE
  5
2AF
330
2
100
AcDbEntity
  8
PDF_Layer 1
 62
     7
420
 16777215
370
   211
100
AcDbPolyline
 90
        2
 70
     0
 43
0.0
 10
28.74226111111111
 20
4.034608333333333
 10
28.74226111111111
 20
3.281358333333333
  0
LWPOLYLINE
  5
2B0
330
2
100
AcDbEntity
  8
PDF_Layer 1
 62
     7
420
 16777215
370
   211
100
AcDbPolyline
 90
        2
 70
     0
 43
0.0
 10
29.37681666666666
 20
4.034608333333333
 10
29.37681666666666
 20
3.281358333333333
  0
LWPOLYLINE
  5
2B2
330
2
100
AcDbEntity
  8
PDF_Layer 1
 62
     7
420
 16777215
370
   211
100
AcDbPolyline
 90
        2
 70
     0
 43
0.0
 10
28.73820555555555
 20
4.034608333333333
 10
28.73820555555555
 20
3.281358333333333
  0
LWPOLYLINE
  5
2B6
330
2
100
AcDbEntity
  8
PDF_Layer 1
 62
     7
420
 16777215
370
   211
100
AcDbPolyline
 90
        9
 70
     0
 43
0.0
 10
29.20891388888889
 20
17.38491388888889
 10
29.20891388888889
 20
17.39721944444444
 10
29.20891388888889
 20
17.42994166666667
 10
29.20891388888889
 20
17.47495555555555
 10
29.20891388888889
 20
17.532275
 10
29.20891388888889
 20
17.585525
 10
29.20891388888889
 20
17.63460833333333
 10
29.20891388888889
 20
17.66745555555555
 10
29.20891388888889
 20
17.67555277777778
  0
LWPOLYLINE
  5
2BA
330
2
100
AcDbEntity
  8
PDF_Layer 1
 62
     7
420
 16777215
370
   211
100
AcDbPolyline
 90
       20
 70
     0
 43
0.0
 10
29.20485833333333
 20
17.11887222222222
 10
29.20080277777778
 20
17.11887222222222
 10
29.18444166666667
 20
17.11887222222222
 10
29.14753888888889
 20
17.11887222222222
 10
29.09021944444445
 20
17.11887222222222
 10
29.01655277777777
 20
17.11887222222222
 10
28.92651111111111
 20
17.11887222222222
 10
28.82417777777778
 20
17.11887222222222
 10
28.71359444444444
 20
17.11887222222222
 10
28.5949
 20
17.11887222222222
 10
28.47621944444444
 20
17.11887222222222
 10
28.35738611111111
 20
17.11887222222222
 10
28.24288611111111
 20
17.11887222222222
 10
28.13635833333333
 20
17.11887222222222
 10
28.04212222222222
 20
17.11887222222222
 10
27.96035833333333
 20
17.11887222222222
 10
27.89883055555555
 20
17.11887222222222
 10
27.85396944444444
 20
17.11887222222222
 10
27.82935833333333
 20
17.11887222222222
 10
27.82110833333333
 20
17.11887222222222
  0
LWPOLYLINE
  5
2BB
330
2
100
AcDbEntity
  8
PDF_Layer 1
 62
     7
420
 16777215
370
   211
100
AcDbPolyline
 90
       20
 70
     0
 43
0.0
 10
27.82110833333333
 20
17.07385833333333
 10
27.82935833333333
 20
17.07385833333333
 10
27.85396944444444
 20
17.07385833333333
 10
27.89883055555555
 20
17.07385833333333
 10
27.96035833333333
 20
17.07385833333333
 10
28.04212222222222
 20
17.07385833333333
 10
28.13635833333333
 20
17.07385833333333
 10
28.24288611111111
 20
17.07385833333333
 10
28.35738611111111
 20
17.07385833333333
 10
28.47621944444444
 20
17.07385833333333
 10
28.5949
 20
17.07385833333333
 10
28.71359444444444
 20
17.07385833333333
 10
28.82417777777778
 20
17.07385833333333
 10
28.92651111111111
 20
17.07385833333333
 10
29.01655277777777
 20
17.07385833333333
 10
29.09021944444445
 20
17.07385833333333
 10
29.14753888888889
 20
17.07385833333333
 10
29.18444166666667
 20
17.07385833333333
 10
29.20080277777778
 20
17.07385833333333
 10
29.20485833333333
 20
17.07385833333333
  0
LWPOLYLINE
  5
2C0
330
2
100
AcDbEntity
  8
PDF_Layer 1
 62
     7
420
 16777215
370
   211
100
AcDbPolyline
 90
        7
 70
     0
 43
0.0
 10
29.18026111111111
 20
15.29698333333333
 10
29.18026111111111
 20
15.30117777777777
 10
29.18026111111111
 20
15.30523333333333
 10
29.18026111111111
 20
15.30928888888889
 10
29.18026111111111
 20
15.31334444444444
 10
29.18026111111111
 20
15.31755277777778
 10
29.18026111111111
 20
15.32159444444444
  0
LWPOLYLINE
  5
2C7
330
2
100
AcDbEntity
  8
PDF_Layer 1
 62
     7
420
 16777215
370
   211
100
AcDbPolyline
 90
       63
 70
     0
 43
0.0
 10
31.53031666666667
 20
16.67263611111111
 10
31.53031666666667
 20
16.67667777777777
 10
31.53031666666667
 20
16.68898333333333
 10
31.53031666666667
 20
16.7094
 10
31.53031666666667
 20
19.35820555555556
 10
31.53437222222222
 20
19.39512222222222
 10
31.54246944444444
 20
19.42783055555555
 10
31.55896944444445
 20
19.45649722222222
 10
31.57938611111111
 20
19.48109444444444
 10
31.60803888888889
 20
19.50555277777778
 10
31.63670555555555
 20
19.52191388888889
 10
31.66941388888889
 20
19.53016388888889
 10
31.70633055555555
 20
19.53421944444444
 10
32.68884444444444
 20
19.53421944444444
 10
32.72574722222222
 20
19.53016388888889
 10
32.75846944444444
 20
19.52191388888889
 10
32.78712222222222
 20
19.50555277777778
 10
32.81578888888889
 20
19.48109444444444
 10
32.83619166666666
 20
19.45649722222222
 10
32.85255277777777
 20
19.42783055555555
 10
32.86080277777778
 20
19.39512222222222
 10
32.86485833333333
 20
19.35820555555556
 10
32.86485833333333
 20
16.648025
 10
32.86485833333333
 20
16.61935833333333
 10
32.86485833333333
 20
16.57030277777778
 10
32.86485833333333
 20
16.50066388888889
 10
32.86485833333333
 20
16.41469166666666
 10
32.86485833333333
 20
16.31237222222222
 10
32.86485833333333
 20
16.19773333333333
 10
32.86485833333333
 20
16.07484444444444
 10
32.86485833333333
 20
15.94385833333333
 10
32.86485833333333
 20
15.80474722222222
 10
32.86485833333333
 20
15.66551111111111
 10
32.86485833333333
 20
15.52626111111111
 10
32.86485833333333
 20
15.39121944444444
 10
32.86485833333333
 20
15.264275
 10
32.86485833333333
 20
15.14558055555555
 10
32.86485833333333
 20
15.03905277777777
 10
32.86485833333333
 20
14.94496944444444
 10
32.86485833333333
 20
14.86709444444444
 10
32.86485833333333
 20
14.809775
 10
32.86485833333333
 20
14.76896944444444
 10
32.86485833333333
 20
14.7484
 10
32.86485833333333
 20
14.74435833333333
 10
32.86485833333333
 20
14.74030277777777
 10
32.86080277777778
 20
14.73610833333333
 10
32.86080277777778
 20
14.73205277777777
 10
32.85674722222222
 20
14.72395555555555
 10
32.85255277777777
 20
14.72395555555555
 10
32.84849722222222
 20
14.71974722222222
 10
32.84038611111111
 20
14.71974722222222
 10
32.83619166666666
 20
14.71570555555556
 10
32.54553888888889
 20
14.71570555555556
 10
32.53324722222223
 20
14.71974722222222
 10
32.49634444444444
 20
14.72799722222222
 10
32.44726111111111
 20
14.73205277777777
 10
32.38588611111111
 20
14.73610833333333
 10
32.316275
 20
14.73610833333333
 10
32.25070555555556
 20
14.73205277777777
 10
32.19758055555555
 20
14.72799722222222
 10
32.15662222222222
 20
14.71974722222222
 10
32.14026111111111
 20
14.71570555555556
 10
32.14026111111111
 20
14.71974722222222
  0
LWPOLYLINE
  5
2CD
330
2
100
AcDbEntity
  8
PDF_Layer 1
 62
     7
420
 16777215
370
   211
100
AcDbPolyline
 90
        7
 70
     0
 43
0.0
 10
32.20569166666667
 20
14.72799722222222
 10
32.23028888888889
 20
14.72799722222222
 10
32.28355277777777
 20
14.72799722222222
 10
32.34898333333333
 20
14.72799722222222
 10
32.41049722222222
 20
14.72799722222222
 10
32.46362222222222
 20
14.72799722222222
 10
32.48013611111111
 20
14.72799722222222
  0
LWPOLYLINE
  5
2CE
330
2
100
AcDbEntity
  8
PDF_Layer 1
 62
     7
420
 16777215
370
    35
100
AcDbPolyline
 90
       14
 70
     0
 43
0.0
 10
30.32645694444444
 20
3.677115277777777
 10
30.32905416666666
 20
3.677976388888888
 10
30.34917916666666
 20
3.685351388888888
 10
30.38824861111111
 20
3.699393055555554
 10
30.44369305555556
 20
3.719226388888888
 10
30.51230416666666
 20
3.743976388888888
 10
30.58945694444445
 20
3.771629166666666
 10
30.67035972222222
 20
3.800712499999999
 10
30.75010972222222
 20
3.829379166666666
 10
30.82349861111111
 20
3.855712499999999
 10
30.88602638888889
 20
3.878295833333332
 10
30.93380416666667
 20
3.895393055555555
 10
30.96360972222222
 20
3.906087499999999
 10
30.97373472222222
 20
3.909851388888888
  0
LWPOLYLINE
  5
2CF
330
2
100
AcDbEntity
  8
PDF_Layer 1
 62
     7
420
 16777215
370
    35
100
AcDbPolyline
 90
       14
 70
     0
 43
0.0
 10
30.28091111111111
 20
3.828726388888888
 10
30.28350833333333
 20
3.829587499999999
 10
30.30306388888889
 20
3.836684722222221
 10
30.34127222222222
 20
3.850295833333333
 10
30.39539722222222
 20
3.8698375
 10
30.46228611111111
 20
3.893851388888888
 10
30.53755
 20
3.920934722222222
 10
30.616425
 20
3.949295833333333
 10
30.69416111111111
 20
3.977226388888888
 10
30.7658
 20
4.003004166666666
 10
30.82674444444444
 20
4.024851388888889
 10
30.87334166666666
 20
4.041490277777777
 10
30.90243888888889
 20
4.052059722222222
 10
30.91243888888888
 20
4.055684722222221
  0
LWPOLYLINE
  5
2D0
330
2
100
AcDbEntity
  8
PDF_Layer 1
 62
     7
420
 16777215
370
    35
100
AcDbPolyline
 90
       14
 70
     0
 43
0.0
 10
30.07449027777779
 20
4.397722222222221
 10
30.07708750000001
 20
4.398583333333332
 10
30.09678194444445
 20
4.405680555555555
 10
30.13514305555557
 20
4.419416666666665
 10
30.18955972222223
 20
4.439097222222222
 10
30.2567263888889
 20
4.463277777777777
 10
30.33242083333334
 20
4.490347222222221
 10
30.41174027777779
 20
4.518874999999999
 10
30.48990694444445
 20
4.546944444444443
 10
30.56199027777779
 20
4.572847222222222
 10
30.6232125
 20
4.59486111111111
 10
30.66997638888889
 20
4.611791666666666
 10
30.6993513888889
 20
4.622208333333333
 10
30.70919861111112
 20
4.625833333333332
  0
LWPOLYLINE
  5
2D1
330
2
100
AcDbEntity
  8
PDF_Layer 1
 62
     7
420
 16777215
370
   211
100
AcDbPolyline
 90
       14
 70
     0
 43
0.0
 10
30.04379583333334
 20
4.478818055555555
 10
30.04639305555556
 20
4.479679166666666
 10
30.06680972222223
 20
4.487068055555555
 10
30.10632361111112
 20
4.50124861111111
 10
30.16262916666667
 20
4.5215125
 10
30.23196250000001
 20
4.546415277777777
 10
30.30997638888889
 20
4.574498611111111
 10
30.39204583333334
 20
4.604026388888888
 10
30.47267083333334
 20
4.632970833333333
 10
30.54693472222222
 20
4.65974861111111
 10
30.61017083333334
 20
4.682470833333333
 10
30.65851805555556
 20
4.699693055555555
 10
30.68876805555556
 20
4.710554166666666
 10
30.69904583333334
 20
4.714318055555555
  0
LWPOLYLINE
  5
2D2
330
2
100
AcDbEntity
  8
PDF_Layer 1
 62
     7
420
 16777215
370
    35
100
AcDbPolyline
 90
       14
 70
     0
 43
0.0
 10
30.08477083333334
 20
4.379927777777778
 10
30.08722916666667
 20
4.380788888888889
 10
30.10677083333333
 20
4.387886111111112
 10
30.1446875
 20
4.401497222222222
 10
30.19853472222223
 20
4.420886111111111
 10
30.26497916666667
 20
4.444775
 10
30.33979861111111
 20
4.471691666666667
 10
30.41839583333334
 20
4.499927777777778
 10
30.49570138888889
 20
4.527566666666666
 10
30.56690972222222
 20
4.553191666666667
 10
30.6275625
 20
4.575038888888889
 10
30.67388194444445
 20
4.591677777777778
 10
30.70282638888889
 20
4.602108333333333
 10
30.71267361111111
 20
4.605580555555556
  0
LWPOLYLINE
  5
2D3
330
2
100
AcDbEntity
  8
PDF_Layer 1
 62
     7
420
 16777215
370
    35
100
AcDbPolyline
 90
       14
 70
     0
 43
0.0
 10
30.27776388888889
 20
3.842940277777777
 10
30.28022222222223
 20
3.843801388888888
 10
30.29976388888889
 20
3.85089861111111
 10
30.33766666666667
 20
3.864356944444443
 10
30.39166666666667
 20
3.88389861111111
 10
30.45809722222223
 20
3.907787499999999
 10
30.53294444444445
 20
3.934704166666666
 10
30.61138888888889
 20
3.962940277777777
 10
30.68868055555556
 20
3.990579166666666
 10
30.76004166666667
 20
4.016204166666666
 10
30.82054166666667
 20
4.038051388888888
 10
30.86686111111112
 20
4.054690277777777
 10
30.89580555555556
 20
4.065120833333332
 10
30.90565277777778
 20
4.068593055555554
  0
LWPOLYLINE
  5
2D4
330
2
100
AcDbEntity
  8
PDF_Layer 1
 62
     7
420
 16777215
370
    35
100
AcDbPolyline
 90
       14
 70
     0
 43
0.0
 10
26.32897916666667
 20
3.909808333333332
 10
26.33910416666667
 20
3.906183333333332
 10
26.36907638888889
 20
3.895322222222221
 10
26.4166875
 20
3.878252777777777
 10
26.47922916666667
 20
3.855808333333333
 10
26.55261805555556
 20
3.82946111111111
 10
26.63236805555556
 20
3.800794444444444
 10
26.71328472222223
 20
3.77171111111111
 10
26.7904375
 20
3.743919444444443
 10
26.85888194444445
 20
3.719308333333332
 10
26.91446527777778
 20
3.699349999999999
 10
26.9535625
 20
3.685308333333332
 10
26.97367361111111
 20
3.678058333333332
 10
26.97627083333334
 20
3.677044444444443
  0
LWPOLYLINE
  5
2D5
330
2
100
AcDbEntity
  8
PDF_Layer 1
 62
     7
420
 16777215
370
    35
100
AcDbPolyline
 90
       14
 70
     0
 43
0.0
 10
26.39038055555555
 20
4.055654166666665
 10
26.40022777777778
 20
4.052029166666665
 10
26.42946388888889
 20
4.04159861111111
 10
26.47592222222222
 20
4.024959722222221
 10
26.53686666666667
 20
4.002959722222221
 10
26.60850555555555
 20
3.977195833333332
 10
26.68624166666667
 20
3.949251388888887
 10
26.76526944444444
 20
3.920890277777777
 10
26.84053333333333
 20
3.893820833333332
 10
26.90726944444444
 20
3.869793055555554
 10
26.96154722222222
 20
3.850404166666665
 10
26.99960277777778
 20
3.836640277777776
 10
27.01929722222222
 20
3.829556944444443
 10
27.02175555555555
 20
3.828681944444443
  0
LWPOLYLINE
  5
2D6
330
2
100
AcDbEntity
  8
PDF_Layer 1
 62
     7
420
 16777215
370
   211
100
AcDbPolyline
 90
       14
 70
     0
 43
0.0
 10
26.60367777777778
 20
4.714319444444442
 10
26.61395555555555
 20
4.710555555555553
 10
26.64420555555556
 20
4.69984722222222
 10
26.69241388888889
 20
4.68247222222222
 10
26.75580277777778
 20
4.659611111111109
 10
26.83006666666666
 20
4.632986111111109
 10
26.91067777777778
 20
4.604027777777775
 10
26.99274722222222
 20
4.574499999999998
 10
27.070775
 20
4.546416666666664
 10
27.14009444444445
 20
4.521513888888887
 10
27.19641388888889
 20
4.501249999999997
 10
27.23591388888889
 20
4.487083333333331
 10
27.25633055555555
 20
4.479833333333331
 10
27.25894166666666
 20
4.478819444444442
  0
LWPOLYLINE
  5
2D7
330
2
100
AcDbEntity
  8
PDF_Layer 1
 62
     7
420
 16777215
370
    35
100
AcDbPolyline
 90
       14
 70
     0
 43
0.0
 10
26.59345138888889
 20
4.625858333333333
 10
26.6034375
 20
4.622233333333332
 10
26.63267361111111
 20
4.611677777777777
 10
26.67942361111111
 20
4.594872222222222
 10
26.74078472222222
 20
4.572872222222222
 10
26.81272916666667
 20
4.547108333333333
 10
26.89089583333334
 20
4.519025
 10
26.97036805555556
 20
4.490372222222222
 10
27.0460625
 20
4.463149999999999
 10
27.11307638888889
 20
4.43913611111111
 10
27.16764583333334
 20
4.419455555555555
 10
27.20600694444445
 20
4.405677777777778
 10
27.22568750000001
 20
4.398608333333333
 10
27.22814583333334
 20
4.397719444444444
  0
LWPOLYLINE
  5
2D8
330
2
100
AcDbEntity
  8
PDF_Layer 1
 62
     7
420
 16777215
370
    35
100
AcDbPolyline
 90
       14
 70
     0
 43
0.0
 10
26.59000694444444
 20
4.605608333333333
 10
26.59984027777778
 20
4.601983333333333
 10
26.62879861111111
 20
4.591719444444444
 10
26.67511805555556
 20
4.575066666666667
 10
26.73575694444445
 20
4.553219444444444
 10
26.80696527777778
 20
4.527594444444444
 10
26.88427083333333
 20
4.499802777777778
 10
26.96286805555555
 20
4.471719444444445
 10
27.0376875
 20
4.44465
 10
27.10413194444444
 20
4.420761111111111
 10
27.15797916666667
 20
4.401525
 10
27.19589583333333
 20
4.387913888888888
 10
27.2154375
 20
4.380816666666667
 10
27.21804861111111
 20
4.379955555555556
  0
LWPOLYLINE
  5
2D9
330
2
100
AcDbEntity
  8
PDF_Layer 1
 62
     7
420
 16777215
370
    35
100
AcDbPolyline
 90
       14
 70
     0
 43
0.0
 10
26.39702638888889
 20
4.06864861111111
 10
26.40687361111111
 20
4.06502361111111
 10
26.43581805555556
 20
4.054745833333332
 10
26.4821375
 20
4.038093055555554
 10
26.54279027777778
 20
4.016245833333332
 10
26.61399861111111
 20
3.990634722222221
 10
26.69129027777778
 20
3.962843055555555
 10
26.76974861111111
 20
3.934745833333332
 10
26.84472083333333
 20
3.907676388888888
 10
26.91116527777778
 20
3.883801388888888
 10
26.9650125
 20
3.864412499999999
 10
27.00292916666667
 20
3.850940277777777
 10
27.02247083333333
 20
3.843843055555554
 10
27.02492916666667
 20
3.842981944444444
  0
LWPOLYLINE
  5
2DA
330
2
100
AcDbEntity
  8
PDF_Layer 1
 62
     7
420
 16777215
370
    35
100
AcDbPolyline
 90
       16
 70
     0
 43
0.0
 10
29.11953333333333
 20
1.995324999999999
 10
29.16121388888888
 20
1.984463888888888
 10
29.19869999999999
 20
1.953047222222221
 10
29.22853333333332
 20
1.904130555555555
 10
29.24763055555555
 20
1.842463888888888
 10
29.25428333333332
 20
1.774144444444444
 10
29.24763055555555
 20
1.705686111111111
 10
29.22853333333332
 20
1.644019444444444
 10
29.19869999999999
 20
1.595102777777777
 10
29.16121388888888
 20
1.563547222222222
 10
29.11953333333333
 20
1.552838888888888
 10
29.07783888888888
 20
1.563547222222222
 10
29.04021388888888
 20
1.595102777777777
 10
29.01053333333333
 20
1.644019444444444
 10
28.99142222222222
 20
1.705686111111111
 10
28.99085277777777
 20
1.707852777777777
  0
LWPOLYLINE
  5
2DB
330
2
100
AcDbEntity
  8
PDF_Layer 1
 62
     7
420
 16777215
370
    35
100
AcDbPolyline
 90
        6
 70
     0
 43
0.0
 10
28.99095277777778
 20
1.840241666666667
 10
28.99138333333333
 20
1.842408333333333
 10
29.01049444444444
 20
1.904213888888889
 10
29.04031388888889
 20
1.953144444444444
 10
29.07795277777778
 20
1.984547222222222
 10
29.11948055555555
 20
1.995255555555555
  0
LWPOLYLINE
  5
2DC
330
2
100
AcDbEntity
  8
PDF_Layer 1
 62
     7
420
 16777215
370
    35
100
AcDbPolyline
 90
       12
 70
     0
 43
0.0
 10
29.13745138888889
 20
2.006162499999999
 10
29.17913194444445
 20
1.995884722222221
 10
29.21704861111111
 20
1.96577361111111
 10
29.24788194444445
 20
1.918731944444443
 10
29.26903472222223
 20
1.858815277777777
 10
29.27842361111111
 20
1.791356944444443
 10
29.27524305555556
 20
1.722454166666666
 10
29.25989583333334
 20
1.658051388888888
 10
29.2335625
 20
1.603912499999999
 10
29.1988263888889
 20
1.564981944444443
 10
29.15857638888889
 20
1.544579166666665
 10
29.13729861111111
 20
1.541968055555555
  0
LWPOLYLINE
  5
2DD
330
2
100
AcDbEntity
  8
PDF_Layer 1
 62
     7
420
 16777215
370
    35
100
AcDbPolyline
 90
       12
 70
     0
 43
0.0
 10
29.17275694444445
 20
2.006162499999999
 10
29.2144375
 20
1.995884722222221
 10
29.25235416666667
 20
1.96577361111111
 10
29.2831875
 20
1.918731944444443
 10
29.30432638888889
 20
1.858815277777777
 10
29.31372916666667
 20
1.791356944444443
 10
29.31054861111111
 20
1.722454166666666
 10
29.29520138888889
 20
1.658051388888888
 10
29.26886805555556
 20
1.603912499999999
 10
29.23413194444444
 20
1.564981944444443
 10
29.19388194444445
 20
1.544579166666665
 10
29.17275694444445
 20
1.541968055555555
  0
LWPOLYLINE
  5
2DE
330
2
100
AcDbEntity
  8
PDF_Layer 1
 62
     7
420
 16777215
370
    35
100
AcDbPolyline
 90
        2
 70
     0
 43
0.0
 10
29.08888055555556
 20
1.878504166666666
 10
29.05356111111112
 20
1.878504166666666
  0
LWPOLYLINE
  5
2DF
330
2
100
AcDbEntity
  8
PDF_Layer 1
 62
     7
420
 16777215
370
    35
100
AcDbPolyline
 90
        2
 70
     0
 43
0.0
 10
29.08888055555556
 20
1.669601388888889
 10
29.05356111111112
 20
1.669601388888889
  0
LWPOLYLINE
  5
2E0
330
2
100
AcDbEntity
  8
PDF_Layer 1
 62
     7
420
 16777215
370
    35
100
AcDbPolyline
 90
        2
 70
     0
 43
0.0
 10
29.08011944444444
 20
1.832090277777777
 10
29.04479999999999
 20
1.832090277777777
  0
LWPOLYLINE
  5
2E1
330
2
100
AcDbEntity
  8
PDF_Layer 1
 62
     7
420
 16777215
370
    35
100
AcDbPolyline
 90
        2
 70
     0
 43
0.0
 10
29.08011944444444
 20
1.716027777777777
 10
29.04479999999999
 20
1.716027777777777
  0
LWPOLYLINE
  5
2E2
330
2
100
AcDbEntity
  8
PDF_Layer 1
 62
     7
420
 16777215
370
    35
100
AcDbPolyline
 90
        2
 70
     0
 43
0.0
 10
29.079075
 20
1.7566375
 10
29.00295
 20
1.7566375
  0
LWPOLYLINE
  5
2E3
330
2
100
AcDbEntity
  8
PDF_Layer 1
 62
     7
420
 16777215
370
    35
100
AcDbPolyline
 90
        2
 70
     0
 43
0.0
 10
29.079075
 20
1.791468055555555
 10
29.00295
 20
1.791468055555555
  0
LWPOLYLINE
  5
2E4
330
2
100
AcDbEntity
  8
PDF_Layer 1
 62
     7
420
 16777215
370
    35
100
AcDbPolyline
 90
        8
 70
     0
 43
0.0
 10
30.01760555555555
 20
1.532312499999999
 10
30.01746666666666
 20
1.532312499999999
 10
30.00414722222222
 20
1.532312499999999
 10
29.96970277777777
 20
1.532312499999999
 10
29.91498055555555
 20
1.532312499999999
 10
29.8411611111111
 20
1.532312499999999
 10
29.74996666666666
 20
1.532312499999999
 10
29.6431611111111
 20
1.532312499999999
  0
LWPOLYLINE
  5
2E5
330
2
100
AcDbEntity
  8
PDF_Layer 1
 62
     7
420
 16777215
370
   211
100
AcDbPolyline
 90
        8
 70
     0
 43
0.0
 10
30.01536666666666
 20
1.516320833333333
 10
30.01521388888888
 20
1.516320833333333
 10
30.00190833333333
 20
1.516320833333333
 10
29.96760277777778
 20
1.516320833333333
 10
29.91303333333333
 20
1.516320833333333
 10
29.83935277777777
 20
1.516320833333333
 10
29.74831111111111
 20
1.516320833333333
 10
29.64192222222222
 20
1.516320833333333
  0
LWPOLYLINE
  5
2E6
330
2
100
AcDbEntity
  8
PDF_Layer 1
 62
     7
420
 16777215
370
    35
100
AcDbPolyline
 90
        8
 70
     0
 43
0.0
 10
30.01536666666666
 20
2.031783333333333
 10
30.01521388888888
 20
2.031783333333333
 10
30.00190833333333
 20
2.031783333333333
 10
29.96760277777778
 20
2.031783333333333
 10
29.91303333333333
 20
2.031783333333333
 10
29.83935277777777
 20
2.031783333333333
 10
29.74831111111111
 20
2.031783333333333
 10
29.64192222222222
 20
2.031783333333333
  0
LWPOLYLINE
  5
2E7
330
2
100
AcDbEntity
  8
PDF_Layer 1
 62
     7
420
 16777215
370
   211
100
AcDbPolyline
 90
        8
 70
     0
 43
0.0
 10
30.01760555555555
 20
2.015791666666666
 10
30.01746666666666
 20
2.015791666666666
 10
30.00414722222222
 20
2.015791666666666
 10
29.96970277777777
 20
2.015791666666666
 10
29.91498055555555
 20
2.015791666666666
 10
29.8411611111111
 20
2.015791666666666
 10
29.74996666666666
 20
2.015791666666666
 10
29.6431611111111
 20
2.015791666666666
  0
LWPOLYLINE
  5
2E8
330
2
100
AcDbEntity
  8
PDF_Layer 1
 62
     7
420
 16777215
370
    35
100
AcDbPolyline
 90
        7
 70
     0
 43
0.0
 10
29.76858194444445
 20
2.892513888888888
 10
29.76784583333334
 20
2.892513888888888
 10
29.75179027777778
 20
2.892513888888888
 10
29.71473472222223
 20
2.892513888888888
 10
29.65770694444445
 20
2.892513888888888
 10
29.58258194444445
 20
2.892513888888888
 10
29.49154027777778
 20
2.892513888888888
  0
LWPOLYLINE
  5
2E9
330
2
100
AcDbEntity
  8
PDF_Layer 1
 62
     7
420
 16777215
370
    35
100
AcDbPolyline
 90
        7
 70
     0
 43
0.0
 10
29.76858194444445
 20
0.6556027777777778
 10
29.76784583333334
 20
0.6556027777777778
 10
29.75179027777778
 20
0.6556027777777778
 10
29.71473472222223
 20
0.6556027777777778
 10
29.65770694444445
 20
0.6556027777777778
 10
29.58258194444445
 20
0.6556027777777778
 10
29.49154027777778
 20
0.6556027777777778
  0
LWPOLYLINE
  5
2EA
330
2
100
AcDbEntity
  8
PDF_Layer 1
 62
     7
420
 16777215
370
   211
100
AcDbPolyline
 90
        9
 70
     0
 43
0.0
 10
29.64322916666667
 20
2.015791666666666
 10
29.61038194444445
 20
2.015791666666666
 10
29.57664583333334
 20
2.015791666666666
 10
29.5420625
 20
2.015791666666666
 10
29.50643750000001
 20
2.015791666666666
 10
29.47011805555556
 20
2.015791666666666
 10
29.43290972222223
 20
2.015791666666666
 10
29.39514583333334
 20
2.015791666666666
 10
29.35678472222223
 20
2.015791666666666
  0
LWPOLYLINE
  5
2EB
330
2
100
AcDbEntity
  8
PDF_Layer 1
 62
     7
420
 16777215
370
   211
100
AcDbPolyline
 90
       10
 70
     0
 43
0.0
 10
28.82084166666667
 20
2.015791666666666
 10
28.68724444444444
 20
2.015791666666666
 10
28.56174444444444
 20
2.015791666666666
 10
28.44725833333333
 20
2.015791666666666
 10
28.34578611111111
 20
2.015791666666666
 10
28.25995277777778
 20
2.015791666666666
 10
28.19149444444444
 20
2.015791666666666
 10
28.14184166666667
 20
2.015791666666666
 10
28.11203611111111
 20
2.015791666666666
 10
28.10291111111111
 20
2.015791666666666
  0
LWPOLYLINE
  5
2EC
330
2
100
AcDbEntity
  8
PDF_Layer 1
 62
     7
420
 16777215
370
   211
100
AcDbPolyline
 90
       10
 70
     0
 43
0.0
 10
28.82084166666667
 20
1.532312499999999
 10
28.68724444444444
 20
1.532312499999999
 10
28.56174444444444
 20
1.532312499999999
 10
28.44725833333333
 20
1.532312499999999
 10
28.34578611111111
 20
1.532312499999999
 10
28.25995277777778
 20
1.532312499999999
 10
28.19149444444444
 20
1.532312499999999
 10
28.14184166666667
 20
1.532312499999999
 10
28.11203611111111
 20
1.532312499999999
 10
28.10291111111111
 20
1.532312499999999
  0
LWPOLYLINE
  5
2ED
330
2
100
AcDbEntity
  8
PDF_Layer 1
 62
     7
420
 16777215
370
   211
100
AcDbPolyline
 90
        9
 70
     0
 43
0.0
 10
29.64322916666667
 20
1.532312499999999
 10
29.61038194444445
 20
1.532312499999999
 10
29.57664583333334
 20
1.532312499999999
 10
29.5420625
 20
1.532312499999999
 10
29.50643750000001
 20
1.532312499999999
 10
29.47011805555556
 20
1.532312499999999
 10
29.43290972222223
 20
1.532312499999999
 10
29.39514583333334
 20
1.532312499999999
 10
29.35678472222223
 20
1.532312499999999
  0
LWPOLYLINE
  5
2EE
330
2
100
AcDbEntity
  8
PDF_Layer 1
 62
     7
420
 16777215
370
    35
100
AcDbPolyline
 90
       14
 70
     0
 43
0.0
 10
29.49157777777778
 20
2.892513888888888
 10
29.38750833333334
 20
2.892513888888888
 10
29.27345277777778
 20
2.892513888888888
 10
29.15286944444445
 20
2.892513888888888
 10
29.02955
 20
2.892513888888888
 10
28.90710555555556
 20
2.892513888888888
 10
28.78928611111112
 20
2.892513888888888
 10
28.67985555555556
 20
2.892513888888888
 10
28.58171666666667
 20
2.892513888888888
 10
28.49834166666667
 20
2.892513888888888
 10
28.43191111111111
 20
2.892513888888888
 10
28.38473055555556
 20
2.892513888888888
 10
28.35795277777778
 20
2.892513888888888
 10
28.35185555555556
 20
2.892513888888888
  0
LWPOLYLINE
  5
2EF
330
2
100
AcDbEntity
  8
PDF_Layer 1
 62
     7
420
 16777215
370
    35
100
AcDbPolyline
 90
       27
 70
     0
 43
0.0
 10
27.51743194444444
 20
7.947794444444444
 10
27.51366805555556
 20
7.948669444444444
 10
27.51004305555555
 20
7.950975
 10
27.50672361111111
 20
7.954738888888889
 10
27.50382083333333
 20
7.959669444444444
 10
27.5013625
 20
7.965891666666666
 10
27.49962638888888
 20
7.972974999999999
 10
27.4986125
 20
7.980502777777777
 10
27.49818194444444
 20
7.988475
 10
27.65972361111111
 20
7.988475
 10
27.82905694444444
 20
7.988475
 10
28.00376527777777
 20
7.988475
 10
28.1812375
 20
7.988475
 10
28.35940416666666
 20
7.988475
 10
28.53541805555555
 20
7.988475
 10
28.70693194444444
 20
7.988475
 10
28.87166805555555
 20
7.988475
 10
29.02726527777777
 20
7.988475
 10
29.17143194444444
 20
7.988475
 10
29.30227916666666
 20
7.988475
 10
29.41805694444444
 20
7.988475
 10
29.51693194444444
 20
7.988475
 10
29.59754305555555
 20
7.988475
 10
29.65905694444444
 20
7.988475
 10
29.70032083333333
 20
7.988475
 10
29.7208625
 20
7.988475
 10
29.72318194444444
 20
7.988475
  0
LWPOLYLINE
  5
2F0
330
2
100
AcDbEntity
  8
PDF_Layer 1
 62
     7
420
 16777215
370
   211
100
AcDbPolyline
 90
        2
 70
     0
 43
0.0
 10
27.47040416666667
 20
8.197377777777777
 10
27.47040416666667
 20
7.988502777777777
  0
LWPOLYLINE
  5
2F1
330
2
100
AcDbEntity
  8
PDF_Layer 1
 62
     7
420
 16777215
370
    35
100
AcDbPolyline
 90
       19
 70
     0
 43
0.0
 10
29.72322638888889
 20
8.197377777777777
 10
29.72076805555556
 20
8.197377777777777
 10
29.70036527777778
 20
8.197377777777777
 10
29.6589625
 20
8.197377777777777
 10
29.5975875
 20
8.197377777777777
 10
29.51682361111111
 20
8.197377777777777
 10
29.4179625
 20
8.197377777777777
 10
29.30230972222222
 20
8.197377777777777
 10
29.1714625
 20
8.197377777777777
 10
29.02730972222223
 20
8.197377777777777
 10
28.87169861111111
 20
8.197377777777777
 10
28.70697638888889
 20
8.197377777777777
 10
28.53544861111111
 20
8.197377777777777
 10
28.35930972222222
 20
8.197377777777777
 10
28.18126805555556
 20
8.197377777777777
 10
28.00367083333334
 20
8.197377777777777
 10
27.8289625
 20
8.197377777777777
 10
27.65976805555556
 20
8.197377777777777
 10
27.49822638888889
 20
8.197377777777777
  0
LWPOLYLINE
  5
2F2
330
2
100
AcDbEntity
  8
PDF_Layer 1
 62
     7
420
 16777215
370
    35
100
AcDbPolyline
 90
        9
 70
     0
 43
0.0
 10
27.51746944444445
 20
8.237987499999999
 10
27.51370555555556
 20
8.237126388888887
 10
27.51008055555555
 20
8.234945833333332
 10
27.50676111111111
 20
8.231181944444443
 10
27.50385833333333
 20
8.226126388888888
 10
27.5014
 20
8.219890277777777
 10
27.49966388888889
 20
8.212945833333332
 10
27.49849722222223
 20
8.205279166666665
 10
27.49820555555555
 20
8.197320833333332
  0
LWPOLYLINE
  5
2F4
330
2
100
AcDbEntity
  8
PDF_Layer 1
 62
     7
420
 16777215
370
    35
100
AcDbPolyline
 90
        7
 70
     0
 43
0.0
 10
27.43725555555555
 20
7.988475
 10
27.43740833333333
 20
7.988475
 10
27.44088055555555
 20
7.988475
 10
27.44911666666667
 20
7.988475
 10
27.46172777777778
 20
7.988475
 10
27.47836666666666
 20
7.988475
 10
27.4982
 20
7.988475
  0
LWPOLYLINE
  5
2F5
330
2
100
AcDbEntity
  8
PDF_Layer 1
 62
     7
420
 16777215
370
    35
100
AcDbPolyline
 90
        7
 70
     0
 43
0.0
 10
27.49818194444444
 20
8.197377777777777
 10
27.4783486111111
 20
8.197377777777777
 10
27.46184861111111
 20
8.197377777777777
 10
27.44911249999999
 20
8.197377777777777
 10
27.4408625
 20
8.197377777777777
 10
27.43739027777778
 20
8.197377777777777
 10
27.4372375
 20
8.197377777777777
  0
LWPOLYLINE
  5
2F6
330
2
100
AcDbEntity
  8
PDF_Layer 1
 62
     7
420
 16777215
370
    35
100
AcDbPolyline
 90
       17
 70
     0
 43
0.0
 10
27.31091527777778
 20
7.988475
 10
27.29702638888889
 20
7.988475
 10
27.2805125
 20
7.988475
 10
27.26184583333334
 20
7.988475
 10
27.24144305555555
 20
7.988475
 10
27.22030416666667
 20
7.988475
 10
27.19887361111111
 20
7.988475
 10
27.17817916666666
 20
7.988475
 10
27.1586375
 20
7.988475
 10
27.15906805555555
 20
7.980502777777777
 10
27.16008194444444
 20
7.972974999999999
 10
27.16197083333333
 20
7.965891666666666
 10
27.16458194444444
 20
7.959669444444444
 10
27.16760972222222
 20
7.954738888888889
 10
27.17094305555555
 20
7.950975
 10
27.17470694444444
 20
7.948669444444444
 10
27.17860972222222
 20
7.947794444444444
  0
LWPOLYLINE
  5
2F8
330
2
100
AcDbEntity
  8
PDF_Layer 1
 62
     7
420
 16777215
370
    35
100
AcDbPolyline
 90
        9
 70
     0
 43
0.0
 10
27.277575
 20
7.947852777777777
 10
27.28410277777778
 20
7.948713888888888
 10
27.29031111111111
 20
7.950894444444443
 10
27.29610277777778
 20
7.954644444444443
 10
27.30117222222222
 20
7.959713888888888
 10
27.30522777777778
 20
7.965949999999999
 10
27.30826944444445
 20
7.972894444444444
 10
27.31028333333333
 20
7.980547222222221
 10
27.31086666666667
 20
7.988519444444444
  0
LWPOLYLINE
  5
2F9
330
2
100
AcDbEntity
  8
PDF_Layer 1
 62
     7
420
 16777215
370
   211
100
AcDbPolyline
 90
        2
 70
     0
 43
0.0
 10
27.13085972222222
 20
7.988475
 10
27.13085972222222
 20
8.197336111111111
  0
LWPOLYLINE
  5
2FA
330
2
100
AcDbEntity
  8
PDF_Layer 1
 62
     7
420
 16777215
370
    35
100
AcDbPolyline
 90
       17
 70
     0
 43
0.0
 10
27.27759444444444
 20
8.238044444444444
 10
27.28410833333333
 20
8.237169444444443
 10
27.29033055555555
 20
8.234863888888888
 10
27.29612222222222
 20
8.231099999999999
 10
27.30119166666666
 20
8.226183333333333
 10
27.30524722222222
 20
8.219947222222222
 10
27.30828888888888
 20
8.212863888888888
 10
27.31016388888888
 20
8.20533611111111
 10
27.31088611111111
 20
8.197377777777777
 10
27.2971361111111
 20
8.197377777777777
 10
27.28049722222222
 20
8.197377777777777
 10
27.26181666666666
 20
8.197377777777777
 10
27.2414
 20
8.197377777777777
 10
27.22027499999999
 20
8.197377777777777
 10
27.19899722222222
 20
8.197377777777777
 10
27.17815
 20
8.197377777777777
 10
27.15860833333333
 20
8.197377777777777
  0
LWPOLYLINE
  5
2FB
330
2
100
AcDbEntity
  8
PDF_Layer 1
 62
     7
420
 16777215
370
   211
100
AcDbPolyline
 90
        2
 70
     0
 43
0.0
 10
27.28310833333333
 20
8.197377777777777
 10
27.28310833333333
 20
7.988502777777777
  0
LWPOLYLINE
  5
2FD
330
2
100
AcDbEntity
  8
PDF_Layer 1
 62
     7
420
 16777215
370
    35
100
AcDbPolyline
 90
        9
 70
     0
 43
0.0
 10
27.17862916666666
 20
8.237987499999999
 10
27.17472638888889
 20
8.237126388888887
 10
27.17094861111111
 20
8.234945833333332
 10
27.16747638888889
 20
8.231181944444443
 10
27.16444861111111
 20
8.226126388888888
 10
27.16199027777778
 20
8.219890277777777
 10
27.16025416666667
 20
8.212945833333332
 10
27.1590875
 20
8.205279166666665
 10
27.15865694444444
 20
8.197320833333332
  0
LWPOLYLINE
  5
2FE
330
2
100
AcDbEntity
  8
PDF_Layer 1
 62
     7
420
 16777215
370
    35
100
AcDbPolyline
 90
        2
 70
     0
 43
0.0
 10
27.1586375
 20
8.197377777777777
 10
27.0065125
 20
8.197377777777777
  0
LWPOLYLINE
  5
2FF
330
2
100
AcDbEntity
  8
PDF_Layer 1
 62
     7
420
 16777215
370
    35
100
AcDbPolyline
 90
        9
 70
     0
 43
0.0
 10
27.02650277777778
 20
8.237987499999999
 10
27.0226
 20
8.237126388888887
 10
27.01883611111111
 20
8.234945833333332
 10
27.01535
 20
8.231181944444443
 10
27.01232222222222
 20
8.226126388888888
 10
27.00986388888889
 20
8.219890277777777
 10
27.007975
 20
8.212945833333332
 10
27.006975
 20
8.205279166666665
 10
27.00654444444444
 20
8.197320833333332
  0
LWPOLYLINE
  5
300
330
2
100
AcDbEntity
  8
PDF_Layer 1
 62
     7
420
 16777215
370
    35
100
AcDbPolyline
 90
       10
 70
     0
 43
0.0
 10
27.02648194444444
 20
7.947794444444444
 10
27.02257916666667
 20
7.948669444444444
 10
27.01882916666667
 20
7.950975
 10
27.01534305555556
 20
7.954738888888889
 10
27.01230138888889
 20
7.959669444444444
 10
27.00984305555556
 20
7.965891666666666
 10
27.00796805555556
 20
7.972974999999999
 10
27.00695416666667
 20
7.980502777777777
 10
27.00652361111111
 20
7.988475
 10
27.15863472222222
 20
7.988475
  0
LWPOLYLINE
  5
302
330
2
100
AcDbEntity
  8
PDF_Layer 1
 62
     7
420
 16777215
370
   211
100
AcDbPolyline
 90
        2
 70
     0
 43
0.0
 10
26.97874583333334
 20
8.197377777777777
 10
26.97874583333334
 20
7.988502777777777
  0
LWPOLYLINE
  5
303
330
2
100
AcDbEntity
  8
PDF_Layer 1
 62
     7
420
 16777215
370
    35
100
AcDbPolyline
 90
        3
 70
     0
 43
0.0
 10
27.31088611111111
 20
7.988475
 10
27.40496944444444
 20
7.988475
 10
27.43724722222222
 20
7.988475
  0
LWPOLYLINE
  5
304
330
2
100
AcDbEntity
  8
PDF_Layer 1
 62
     7
420
 16777215
370
    35
100
AcDbPolyline
 90
        3
 70
     0
 43
0.0
 10
27.43725555555555
 20
8.197377777777777
 10
27.41279722222222
 20
8.197377777777777
 10
27.31089444444444
 20
8.197377777777777
  0
LWPOLYLINE
  5
305
330
2
100
AcDbEntity
  8
PDF_Layer 1
 62
     7
420
 16777215
370
    35
100
AcDbPolyline
 90
        6
 70
     0
 43
0.0
 10
27.00652361111111
 20
8.197377777777777
 10
26.98698194444445
 20
8.197377777777777
 10
26.97077361111111
 20
8.197377777777777
 10
26.95846805555556
 20
8.197377777777777
 10
26.95064861111111
 20
8.197377777777777
 10
26.94760694444445
 20
8.197377777777777
  0
LWPOLYLINE
  5
306
330
2
100
AcDbEntity
  8
PDF_Layer 1
 62
     7
420
 16777215
370
    35
100
AcDbPolyline
 90
        6
 70
     0
 43
0.0
 10
26.94759166666667
 20
7.988475
 10
26.95063333333334
 20
7.988475
 10
26.95843888888889
 20
7.988475
 10
26.97074444444444
 20
7.988475
 10
26.98696666666667
 20
7.988475
 10
27.00649444444445
 20
7.988475
  0
LWPOLYLINE
  5
307
330
2
100
AcDbEntity
  8
PDF_Layer 1
 62
     7
420
 16777215
370
   211
100
AcDbPolyline
 90
        2
 70
     0
 43
0.0
 10
26.42453333333333
 20
9.96133472222222
 10
26.42453333333333
 20
9.671112499999997
  0
LWPOLYLINE
  5
308
330
2
100
AcDbEntity
  8
PDF_Layer 1
 62
     7
420
 16777215
370
   211
100
AcDbPolyline
 90
        2
 70
     0
 43
0.0
 10
30.6053875
 20
9.96133472222222
 10
30.6053875
 20
9.671112499999997
  0
LWPOLYLINE
  5
309
330
2
100
AcDbEntity
  8
PDF_Layer 1
 62
     7
420
 16777215
370
    35
100
AcDbPolyline
 90
       15
 70
     0
 43
0.0
 10
28.55490416666667
 20
10.80267083333333
 10
28.38091805555556
 20
10.80267083333333
 10
28.20882083333334
 20
10.80267083333333
 10
28.04120972222223
 20
10.80267083333333
 10
27.88052916666667
 20
10.80267083333333
 10
27.72914027777778
 20
10.80267083333333
 10
27.58902916666667
 20
10.80267083333333
 10
27.46265416666668
 20
10.80267083333333
 10
27.35148750000001
 20
10.80267083333333
 10
27.25726527777779
 20
10.80267083333333
 10
27.18141805555556
 20
10.80267083333333
 10
27.12497361111112
 20
10.80267083333333
 10
27.08893194444445
 20
10.80267083333333
 10
27.07359861111112
 20
10.80267083333333
 10
27.07301527777778
 20
10.80267083333333
  0
LWPOLYLINE
  5
30A
330
2
100
AcDbEntity
  8
PDF_Layer 1
 62
     7
420
 16777215
370
    35
100
AcDbPolyline
 90
       14
 70
     0
 43
0.0
 10
29.95686805555556
 20
10.80267083333333
 10
29.95064583333334
 20
10.80267083333333
 10
29.92402083333334
 20
10.80267083333333
 10
29.8768263888889
 20
10.80267083333333
 10
29.80981250000001
 20
10.80267083333333
 10
29.72384027777778
 20
10.80267083333333
 10
29.62035416666667
 20
10.80267083333333
 10
29.50063194444445
 20
10.80267083333333
 10
29.36660416666667
 20
10.80267083333333
 10
29.22011805555556
 20
10.80267083333333
 10
29.06336805555556
 20
10.80267083333333
 10
28.89865972222223
 20
10.80267083333333
 10
28.72843750000001
 20
10.80267083333333
 10
28.55489583333334
 20
10.80267083333333
  0
LWPOLYLINE
  5
30B
330
2
100
AcDbEntity
  8
PDF_Layer 1
 62
     7
420
 16777215
370
    35
100
AcDbPolyline
 90
        5
 70
     0
 43
0.0
 10
29.24075
 20
17.53347916666667
 10
29.24075
 20
17.5890625
 10
29.24075
 20
17.63595138888889
 10
29.24075
 20
17.66750694444445
 10
29.24075
 20
17.67850694444445
  0
LWPOLYLINE
  5
30C
330
2
100
AcDbEntity
  8
PDF_Layer 1
 62
     7
420
 16777215
370
    35
100
AcDbPolyline
 90
        5
 70
     0
 43
0.0
 10
29.24075
 20
17.38841944444444
 10
29.24075
 20
17.39941944444444
 10
29.24075
 20
17.43096111111111
 10
29.24075
 20
17.47801666666666
 10
29.24075
 20
17.53344722222222
  0
LWPOLYLINE
  5
30D
330
2
100
AcDbEntity
  8
PDF_Layer 1
 62
     7
420
 16777215
370
    35
100
AcDbPolyline
 90
        5
 70
     0
 43
0.0
 10
29.26646527777778
 20
17.53347916666667
 10
29.26646527777778
 20
17.58311805555556
 10
29.26646527777778
 20
17.62511805555555
 10
29.26646527777778
 20
17.65303472222222
 10
29.26646527777778
 20
17.66302083333334
  0
LWPOLYLINE
  5
30E
330
2
100
AcDbEntity
  8
PDF_Layer 1
 62
     7
420
 16777215
370
    35
100
AcDbPolyline
 90
        5
 70
     0
 43
0.0
 10
29.26646527777778
 20
17.40399027777777
 10
29.26646527777778
 20
17.4138375
 10
29.26646527777778
 20
17.44190694444444
 10
29.26646527777778
 20
17.48387916666666
 10
29.26646527777778
 20
17.53353194444444
  0
LWPOLYLINE
  5
30F
330
2
100
AcDbEntity
  8
PDF_Layer 1
 62
     7
420
 16777215
370
   211
100
AcDbPolyline
 90
       13
 70
     0
 43
0.0
 10
28.97425694444444
 20
15.70572083333333
 10
28.99409027777778
 20
15.86334583333333
 10
29.0324375
 20
15.98159583333333
 10
29.08425694444444
 20
16.09522083333333
 10
29.19499305555556
 20
16.28644305555555
 10
29.31424305555555
 20
16.46316527777777
 10
29.40935416666667
 20
16.59444305555555
 10
29.49663194444444
 20
16.71038749999999
 10
29.54872916666666
 20
16.77813749999999
 10
29.58927083333333
 20
16.83008194444444
 10
29.60909027777777
 20
16.85556805555555
 10
29.61735416666666
 20
16.8661375
 10
29.61720138888889
 20
16.86583194444444
  0
LWPOLYLINE
  5
310
330
2
100
AcDbEntity
  8
PDF_Layer 1
 62
     7
420
 16777215
370
   211
100
AcDbPolyline
 90
       14
 70
     0
 43
0.0
 10
29.61732361111112
 20
14.5453875
 10
29.6174625
 20
14.54523472222222
 10
29.61630972222223
 20
14.54654027777778
 10
29.60372638888889
 20
14.56274861111111
 10
29.57693472222223
 20
14.59706805555556
 10
29.53771250000001
 20
14.64756805555555
 10
29.48778194444445
 20
14.71270694444444
 10
29.39933750000001
 20
14.83052638888889
 10
29.29844861111112
 20
14.9706375
 10
29.19105972222223
 20
15.13131805555555
 10
29.08697638888889
 20
15.31108194444444
 10
29.00636527777778
 20
15.50342916666666
 10
28.97479583333334
 20
15.68148472222222
 10
28.97422638888889
 20
15.70579027777777
  0
LWPOLYLINE
  5
311
330
2
100
AcDbEntity
  8
PDF_Layer 1
 62
     7
420
 16777215
370
   211
100
AcDbPolyline
 90
       14
 70
     0
 43
0.0
 10
29.04676666666667
 20
15.70572083333333
 10
29.04735
 20
15.68516527777777
 10
29.08093333333333
 20
15.54101249999999
 10
29.083975
 20
15.53391527777777
 10
29.17718333333333
 20
15.37035972222222
 10
29.297475
 20
15.21720694444444
 10
29.42223888888889
 20
15.0810125
 10
29.53787777777778
 20
14.96290138888888
 10
29.64151666666667
 20
14.86158194444444
 10
29.69868333333334
 20
14.80685972222222
 10
29.74457222222222
 20
14.76329027777777
 10
29.77526666666667
 20
14.73448472222222
 10
29.79032222222222
 20
14.72045694444444
 10
29.78958611111111
 20
14.72102638888888
  0
LWPOLYLINE
  5
312
330
2
100
AcDbEntity
  8
PDF_Layer 1
 62
     7
420
 16777215
370
   211
100
AcDbPolyline
 90
       13
 70
     0
 43
0.0
 10
29.78975416666667
 20
16.69052916666666
 10
29.78817083333334
 20
16.68908472222222
 10
29.77137916666667
 20
16.67330694444444
 10
29.75878194444445
 20
16.66141805555556
 10
29.71275416666667
 20
16.61800138888889
 10
29.65167083333334
 20
16.55966805555555
 10
29.55236527777778
 20
16.46283472222222
 10
29.44049027777778
 20
16.34965416666666
 10
29.30500416666667
 20
16.20316805555556
 10
29.17415694444445
 20
16.0368625
 10
29.11525416666667
 20
15.94262638888889
 10
29.06964305555556
 20
15.83970972222222
 10
29.04678194444445
 20
15.70569583333333
  0
LWPOLYLINE
  5
313
330
2
100
AcDbEntity
  8
PDF_Layer 1
 62
     7
420
 16777215
370
    35
100
AcDbPolyline
 90
       21
 70
     0
 43
0.0
 10
32.83778194444444
 20
14.719325
 10
32.83778194444444
 20
14.72989444444444
 10
32.83778194444444
 20
14.76158888888889
 10
32.83778194444444
 20
14.81368611111111
 10
32.83778194444444
 20
14.88504722222222
 10
32.83778194444444
 20
14.97406111111111
 10
32.83778194444444
 20
15.07885277777777
 10
32.83778194444444
 20
15.19710277777777
 10
32.83778194444444
 20
15.32636666666666
 10
32.83778194444444
 20
15.46386666666666
 10
32.83778194444444
 20
15.60658888888888
 10
32.83778194444444
 20
15.75133888888889
 10
32.83778194444444
 20
15.89521388888888
 10
32.83778194444444
 20
16.03503333333333
 10
32.83778194444444
 20
16.16761666666666
 10
32.83778194444444
 20
16.29035277777777
 10
32.83778194444444
 20
16.40036666666666
 10
32.83778194444444
 20
16.49547777777777
 10
32.83778194444444
 20
16.57363055555555
 10
32.83778194444444
 20
16.63296388888889
 10
32.83778194444444
 20
16.67218611111111
  0
LWPOLYLINE
  5
314
330
2
100
AcDbEntity
  8
PDF_Layer 1
 62
     7
420
 16777215
370
    35
100
AcDbPolyline
 90
        9
 70
     0
 43
0.0
 10
32.86682083333334
 20
16.65206388888889
 10
32.86682083333334
 20
16.65221666666667
 10
32.8645013888889
 20
16.66002222222222
 10
32.86233472222223
 20
16.66306388888889
 10
32.85566805555556
 20
16.66798055555555
 10
32.84829305555557
 20
16.67086944444444
 10
32.8452513888889
 20
16.67160555555555
 10
32.83945972222223
 20
16.67218888888889
 10
32.83772361111112
 20
16.67218888888889
  0
LWPOLYLINE
  5
315
330
2
100
AcDbEntity
  8
PDF_Layer 1
 62
     7
420
 16777215
370
    35
100
AcDbPolyline
 90
        6
 70
     0
 43
0.0
 10
31.53224027777778
 20
16.71073888888888
 10
31.5331013888889
 20
16.7087111111111
 10
31.53686527777779
 20
16.70566944444444
 10
31.54339305555556
 20
16.70305833333333
 10
31.55178194444445
 20
16.70132222222221
 10
31.56133750000001
 20
16.70061388888888
  0
LWPOLYLINE
  5
316
330
2
100
AcDbEntity
  8
PDF_Layer 1
 62
     7
420
 16777215
370
    35
100
AcDbPolyline
 90
        9
 70
     0
 43
0.0
 10
31.56127916666668
 20
16.70064861111111
 10
31.56127916666668
 20
16.69573194444445
 10
31.56127916666668
 20
16.69095416666667
 10
31.56127916666668
 20
16.68646805555556
 10
31.56127916666668
 20
16.68227361111111
 10
31.56127916666668
 20
16.67880138888889
 10
31.56127916666668
 20
16.67574583333333
 10
31.56127916666668
 20
16.67359305555556
 10
31.56127916666668
 20
16.67227361111111
  0
LWPOLYLINE
  5
317
330
2
100
AcDbEntity
  8
PDF_Layer 1
 62
     7
420
 16777215
370
    35
100
AcDbPolyline
 90
       17
 70
     0
 43
0.0
 10
32.83778194444444
 20
16.67227361111111
 10
32.83778194444444
 20
16.67359305555556
 10
32.83778194444444
 20
16.67574583333333
 10
32.83778194444444
 20
16.67880138888889
 10
32.83778194444444
 20
16.68227361111111
 10
32.83778194444444
 20
16.68646805555556
 10
32.83778194444444
 20
16.69095416666667
 10
32.83778194444444
 20
16.69573194444445
 10
32.83778194444444
 20
16.70064861111111
 10
32.83936527777778
 20
16.70049583333333
 10
32.84515694444445
 20
16.69905138888889
 10
32.84835138888889
 20
16.69732916666667
 10
32.85572638888889
 20
16.69052361111111
 10
32.86225416666667
 20
16.67835694444444
 10
32.86455972222223
 20
16.67112083333333
 10
32.86687916666667
 20
16.65244027777777
 10
32.86687916666667
 20
16.6521625
  0
LWPOLYLINE
  5
319
330
2
100
AcDbEntity
  8
PDF_Layer 1
 62
     7
420
 16777215
370
    35
100
AcDbPolyline
 90
       17
 70
     0
 43
0.0
 10
31.7063263888889
 20
19.53541666666667
 10
31.7063263888889
 20
19.53483333333333
 10
31.7063263888889
 20
19.53309722222222
 10
31.7063263888889
 20
19.53048611111111
 10
31.7063263888889
 20
19.52686111111111
 10
31.7063263888889
 20
19.522375
 10
31.7063263888889
 20
19.51745833333333
 10
31.7063263888889
 20
19.51195833333333
 10
31.7063263888889
 20
19.50631944444445
 10
31.67810416666668
 20
19.50355555555556
 10
31.65074305555557
 20
19.49531944444444
 10
31.62568750000001
 20
19.48186111111111
 10
31.60368750000001
 20
19.46376388888889
 10
31.58574305555557
 20
19.44190277777778
 10
31.57229861111112
 20
19.41672222222222
 10
31.56403472222223
 20
19.38951388888889
 10
31.56129861111112
 20
19.36129166666667
  0
LWPOLYLINE
  5
31A
330
2
100
AcDbEntity
  8
PDF_Layer 1
 62
     7
420
 16777215
370
    35
100
AcDbPolyline
 90
       10
 70
     0
 43
0.0
 10
32.69273611111112
 20
19.53541666666667
 10
32.69273611111112
 20
19.53483333333333
 10
32.69273611111112
 20
19.53309722222222
 10
32.69273611111112
 20
19.53048611111111
 10
32.69273611111112
 20
19.52686111111111
 10
32.69273611111112
 20
19.522375
 10
32.69273611111112
 20
19.51745833333333
 10
32.69273611111112
 20
19.51195833333333
 10
32.69273611111112
 20
19.50631944444445
 10
31.70631944444445
 20
19.50631944444445
  0
LWPOLYLINE
  5
31B
330
2
100
AcDbEntity
  8
PDF_Layer 1
 62
     7
420
 16777215
370
    35
100
AcDbPolyline
 90
       17
 70
     0
 43
0.0
 10
32.86687916666667
 20
19.36127222222222
 10
32.86629583333333
 20
19.36127222222222
 10
32.86455972222223
 20
19.36127222222222
 10
32.86194861111111
 20
19.36127222222222
 10
32.8583375
 20
19.36127222222222
 10
32.85385138888889
 20
19.36127222222222
 10
32.84893472222222
 20
19.36127222222222
 10
32.84342083333334
 20
19.36127222222222
 10
32.83778194444444
 20
19.36127222222222
 10
32.83503194444445
 20
19.38949444444444
 10
32.82662916666666
 20
19.41685555555556
 10
32.81332361111111
 20
19.44188333333333
 10
32.79524027777778
 20
19.46389722222222
 10
32.77336527777778
 20
19.48184166666667
 10
32.74818472222222
 20
19.4953
 10
32.72097638888889
 20
19.50355
 10
32.69275416666667
 20
19.5063
  0
LWPOLYLINE
  5
31C
330
2
100
AcDbEntity
  8
PDF_Layer 1
 62
     7
420
 16777215
370
    35
100
AcDbPolyline
 90
        2
 70
     0
 43
0.0
 10
32.83778194444444
 20
16.70064861111111
 10
32.83778194444444
 20
19.36132916666666
  0
LWPOLYLINE
  5
31D
330
2
100
AcDbEntity
  8
PDF_Layer 1
 62
     7
420
 16777215
370
    35
100
AcDbPolyline
 90
       10
 70
     0
 43
0.0
 10
31.53218194444445
 20
19.36127222222222
 10
31.53275138888889
 20
19.36127222222222
 10
31.53448750000001
 20
19.36127222222222
 10
31.53709861111112
 20
19.36127222222222
 10
31.54072361111112
 20
19.36127222222222
 10
31.54505694444445
 20
19.36127222222222
 10
31.55012638888889
 20
19.36127222222222
 10
31.55562638888889
 20
19.36127222222222
 10
31.56127916666668
 20
19.36127222222222
 10
31.56127916666668
 20
16.70059166666667
  0
LWPOLYLINE
  5
322
330
2
100
AcDbEntity
  8
PDF_Layer 1
 62
     7
420
 16777215
370
    35
100
AcDbPolyline
 90
        2
 70
     0
 43
0.0
 10
27.98285555555556
 20
23.95165138888889
 10
29.04320277777778
 20
23.95165138888889
  0
LWPOLYLINE
  5
323
330
2
100
AcDbEntity
  8
PDF_Layer 1
 62
     7
420
 16777215
370
    35
100
AcDbPolyline
 90
        2
 70
     0
 43
0.0
 10
21.12351527777777
 20
34.82110277777778
 10
11.2693486111111
 20
34.82110277777778
  0
LWPOLYLINE
  5
324
330
2
100
AcDbEntity
  8
PDF_Layer 1
 62
     7
420
 16777215
370
    35
100
AcDbPolyline
 90
        2
 70
     0
 43
0.0
 10
11.38804861111111
 20
10.73436527777777
 10
11.38804861111111
 20
34.65528194444445
  0
LWPOLYLINE
  5
325
330
2
100
AcDbEntity
  8
PDF_Layer 1
 62
     7
420
 16777215
370
    35
100
AcDbPolyline
 90
        2
 70
     0
 43
0.0
 10
13.47601944444444
 20
22.42665416666667
 10
13.47601944444444
 20
10.73443194444444
  0
LWPOLYLINE
  5
326
330
2
100
AcDbEntity
  8
PDF_Layer 1
 62
     7
420
 16777215
370
    35
100
AcDbPolyline
 90
        2
 70
     0
 43
0.0
 10
15.06848888888889
 20
22.59248055555556
 10
13.36137777777778
 20
22.59248055555556
  0
LWPOLYLINE
  5
327
330
2
100
AcDbEntity
  8
PDF_Layer 1
 62
     7
420
 16777215
370
    35
100
AcDbPolyline
 90
        2
 70
     0
 43
0.0
 10
26.95321944444444
 20
10.56854027777777
 10
11.26935833333333
 20
10.56854027777777
  0
LWPOLYLINE
  5
328
330
2
100
AcDbEntity
  8
PDF_Layer 1
 62
     7
420
 16777215
370
    35
100
AcDbPolyline
 90
        2
 70
     0
 43
0.0
 10
15.5638625
 20
22.15850694444444
 10
15.5638625
 20
8.537951388888888
  0
LWPOLYLINE
  5
329
330
2
100
AcDbEntity
  8
PDF_Layer 1
 62
     7
420
 16777215
370
    35
100
AcDbPolyline
 90
        2
 70
     0
 43
0.0
 10
15.72968888888889
 20
8.652591666666666
 10
28.34711944444445
 20
8.652591666666666
  0
LWPOLYLINE
  5
32A
330
2
100
AcDbEntity
  8
PDF_Layer 1
 62
     7
420
 16777215
370
    35
100
AcDbPolyline
 90
        2
 70
     0
 43
0.0
 10
25.7536625
 20
10.734325
 10
25.7536625
 20
16.89979722222222
  0
LWPOLYLINE
  5
32B
330
2
100
AcDbEntity
  8
PDF_Layer 1
 62
     7
420
 16777215
370
    35
100
AcDbPolyline
 90
        2
 70
     0
 43
0.0
 10
25.43429861111111
 20
1.8975875
 10
23.43399305555555
 20
2.6159625
  0
LWPOLYLINE
  5
32C
330
2
100
AcDbEntity
  8
PDF_Layer 1
 62
     7
420
 16777215
370
    35
100
AcDbPolyline
 90
        2
 70
     0
 43
0.0
 10
26.768975
 20
2.642731944444443
 10
26.33908611111111
 20
1.447287499999999
  0
LWPOLYLINE
  5
32D
330
2
100
AcDbEntity
  8
PDF_Layer 1
 62
     7
420
 16777215
370
    35
100
AcDbPolyline
 90
        2
 70
     0
 43
0.0
 10
25.831475
 20
2.994741666666666
 10
25.39753055555555
 20
1.787005555555555
  0
LWPOLYLINE
  5
32E
330
2
100
AcDbEntity
  8
PDF_Layer 1
 62
     7
420
 16777215
370
    35
100
AcDbPolyline
 90
        2
 70
     0
 43
0.0
 10
31.35835833333334
 20
3.015222222222222
 10
36.66003888888889
 20
3.015222222222222
  0
LWPOLYLINE
  5
32F
330
2
100
AcDbEntity
  8
PDF_Layer 1
 62
     7
420
 16777215
370
    35
100
AcDbPolyline
 90
        2
 70
     0
 43
0.0
 10
36.54120555555555
 20
3.18104861111111
 10
36.54120555555555
 20
10.40271527777777
  0
LWPOLYLINE
  5
330
330
2
100
AcDbEntity
  8
PDF_Layer 1
 62
     7
420
 16777215
370
    35
100
AcDbPolyline
 90
        2
 70
     0
 43
0.0
 10
33.27020972222223
 20
8.234934722222222
 10
33.27020972222223
 20
5.252531944444445
  0
LWPOLYLINE
  5
331
330
2
100
AcDbEntity
  8
PDF_Layer 1
 62
     7
420
 16777215
370
    35
100
AcDbPolyline
 90
        2
 70
     0
 43
0.0
 10
29.86814999999999
 20
8.234934722222222
 10
33.38889999999999
 20
8.234934722222222
  0
LWPOLYLINE
  5
332
330
2
100
AcDbEntity
  8
PDF_Layer 1
 62
     7
420
 16777215
370
    35
100
AcDbPolyline
 90
        2
 70
     0
 43
0.0
 10
33.27020972222223
 20
8.40076111111111
 10
33.27020972222223
 20
10.40267777777778
  0
LWPOLYLINE
  5
333
330
2
100
AcDbEntity
  8
PDF_Layer 1
 62
     7
420
 16777215
370
    35
100
AcDbPolyline
 90
        2
 70
     0
 43
0.0
 10
36.54123333333333
 20
19.36846111111111
 10
36.54123333333333
 20
10.73437777777777
  0
LWPOLYLINE
  5
334
330
2
100
AcDbEntity
  8
PDF_Layer 1
 62
     7
420
 16777215
370
    35
100
AcDbPolyline
 90
        2
 70
     0
 43
0.0
 10
32.8075625
 20
19.53428611111111
 10
36.6599236111111
 20
19.53428611111111
  0
LWPOLYLINE
  5
335
330
2
100
AcDbEntity
  8
PDF_Layer 1
 62
     7
420
 16777215
370
    35
100
AcDbPolyline
 90
        2
 70
     0
 43
0.0
 10
34.72357916666667
 20
16.68899722222222
 10
34.72357916666667
 20
18.57891388888888
  0
LWPOLYLINE
  5
336
330
2
100
AcDbEntity
  8
PDF_Layer 1
 62
     7
420
 16777215
370
    35
100
AcDbPolyline
 90
        2
 70
     0
 43
0.0
 10
34.72357916666667
 20
14.88152916666666
 10
34.72357916666667
 20
16.52316805555555
  0
LWPOLYLINE
  5
337
330
2
100
AcDbEntity
  8
PDF_Layer 1
 62
     7
420
 16777215
370
    35
100
AcDbPolyline
 90
        2
 70
     0
 43
0.0
 10
31.53024583333334
 20
16.68899722222222
 10
34.83821805555556
 20
16.68899722222222
  0
LWPOLYLINE
  5
338
330
2
100
AcDbEntity
  8
PDF_Layer 1
 62
     7
420
 16777215
370
    35
100
AcDbPolyline
 90
        2
 70
     0
 43
0.0
 10
31.53024583333334
 20
14.71570277777778
 10
34.83821805555556
 20
14.71570277777778
  0
LWPOLYLINE
  5
339
330
2
100
AcDbEntity
  8
PDF_Layer 1
 62
     7
420
 16777215
370
    35
100
AcDbPolyline
 90
        2
 70
     0
 43
0.0
 10
29.61429861111111
 20
12.96349166666666
 10
31.53024305555556
 20
12.96349166666666
  0
LWPOLYLINE
  5
33A
330
2
100
AcDbEntity
  8
PDF_Layer 1
 62
     7
420
 16777215
370
    35
100
AcDbPolyline
 90
        2
 70
     0
 43
0.0
 10
27.23775277777777
 20
11.26044861111111
 10
29.78823888888888
 20
11.26044861111111
  0
LWPOLYLINE
  5
33B
330
2
100
AcDbEntity
  8
PDF_Layer 1
 62
     7
420
 16777215
370
    35
100
AcDbPolyline
 90
        2
 70
     0
 43
0.0
 10
29.95406111111111
 20
11.26044861111111
 10
32.395825
 20
11.26044861111111
  0
LWPOLYLINE
  5
33C
330
2
100
AcDbEntity
  8
PDF_Layer 1
 62
     7
420
 16777215
370
    35
100
AcDbPolyline
 90
        2
 70
     0
 43
0.0
 10
27.07185833333333
 20
10.91653472222222
 10
27.07185833333333
 20
11.37914583333333
  0
MTEXT
  5
33D
330
2
100
AcDbEntity
  8
PDF_Text
 62
     7
420
 16777215
100
AcDbMText
 10
29.40970833333333
 20
24.04043472222222
 30
0.0
 40
0.5965169270833333
 41
0.0
 46
0.0
 71
     7
 72
     5
  1
Ø24
  7
PDF Arial
 73
     1
 44
1.0
  0
MTEXT
  5
33E
330
2
100
AcDbEntity
  8
PDF_Text
 62
     7
420
 16777215
100
AcDbMText
 10
29.85248472222222
 20
13.01947916666666
 30
0.0
 40
0.5965169270833333
 41
0.0
 46
0.0
 71
     7
 72
     5
  1
Ø38
  7
PDF Arial
 73
     1
 44
1.0
  0
MTEXT
  5
33F
330
2
100
AcDbEntity
  8
PDF_Text
 62
     7
420
 16777215
100
AcDbMText
 10
30.02331805555556
 20
11.36364583333333
 30
0.0
 40
0.5965169270833333
 41
0.0
 46
0.0
 71
     7
 72
     5
  1
Ø49.5
  7
PDF Arial
 73
     1
 44
1.0
  0
MTEXT
  5
340
330
2
100
AcDbEntity
  8
PDF_Text
 62
     7
420
 16777215
100
AcDbMText
 10
21.21581805555555
 20
8.761145833333333
 30
0.0
 40
0.5965169270833333
 41
0.0
 46
0.0
 71
     7
 72
     5
  1
224
  7
PDF Arial
 73
     1
 44
1.0
  0
MTEXT
  5
341
330
2
100
AcDbEntity
  8
PDF_Text
 62
     7
420
 16777215
100
AcDbMText
 10
11.28579583333333
 20
22.15789722222222
 30
0.0
 40
0.5965169270833333
 41
0.0
 46
0.0
 71
     7
 72
     5
  1
418
  7
PDF Arial
 11
0.0000000000000001
 21
1.0
 31
0.0
 73
     1
 44
1.0
  0
MTEXT
  5
342
330
2
100
AcDbEntity
  8
PDF_Text
 62
     7
420
 16777215
100
AcDbMText
 10
13.3774625
 20
15.95539722222222
 30
0.0
 40
0.5965169270833333
 41
0.0
 46
0.0
 71
     7
 72
     5
  1
207
  7
PDF Arial
 11
0.0000000000000001
 21
1.0
 31
0.0
 73
     1
 44
1.0
  0
MTEXT
  5
343
330
2
100
AcDbEntity
  8
PDF_Text
 62
     7
420
 16777215
100
AcDbMText
 10
25.6349625
 20
13.30289722222222
 30
0.0
 40
0.5965169270833333
 41
0.0
 46
0.0
 71
     7
 72
     5
  1
112
  7
PDF Arial
 11
0.0000000000000001
 21
1.0
 31
0.0
 73
     1
 44
1.0
  0
MTEXT
  5
344
330
2
100
AcDbEntity
  8
PDF_Text
 62
     7
420
 16777215
100
AcDbMText
 10
33.15632916666667
 20
5.352391666666665
 30
0.0
 40
0.5965169270833333
 41
0.0
 46
0.0
 71
     7
 72
     5
  1
max 45
  7
PDF Arial
 11
0.0000000000000001
 21
1.0
 31
0.0
 73
     1
 44
1.0
  0
MTEXT
  5
345
330
2
100
AcDbEntity
  8
PDF_Text
 62
     7
420
 16777215
100
AcDbMText
 10
34.64220277777777
 20
16.88696249999999
 30
0.0
 40
0.5965169270833333
 41
0.0
 46
0.0
 71
     7
 72
     5
  1
Ø34
  7
PDF Arial
 11
0.0000000000000001
 21
1.0
 31
0.0
 73
     1
 44
1.0
  0
MTEXT
  5
346
330
2
100
AcDbEntity
  8
PDF_Text
 62
     7
420
 16777215
100
AcDbMText
 10
36.4621625
 20
5.874891666666665
 30
0.0
 40
0.5965169270833333
 41
0.0
 46
0.0
 71
     7
 72
     5
  1
350
  7
PDF Arial
 11
0.0000000000000001
 21
1.0
 31
0.0
 73
     1
 44
1.0
  0
MTEXT
  5
347
330
2
100
AcDbEntity
  8
PDF_Text
 62
     7
420
 16777215
100
AcDbMText
 10
36.46215694444445
 20
14.17016666666666
 30
0.0
 40
0.5965169270833333
 41
0.0
 46
0.0
 71
     7
 72
     5
  1
155
  7
PDF Arial
 11
0.0000000000000001
 21
1.0
 31
0.0
 73
     1
 44
1.0
  0
MTEXT
  5
348
330
2
100
AcDbEntity
  8
PDF_Text
 62
     7
420
 16777215
100
AcDbMText
 10
23.60340692222222
 20
2.690906025
 30
0.0
 40
0.5965169270833333
 41
0.0
 46
0.0
 71
     7
 72
     5
  1
G1/2
  7
PDF Arial
 11
0.943827327792661
 21
-0.3304390644457233
 31
0.0
 73
     1
 44
1.0
  0
VIEWPORT
  5
4A
330
C
100
AcDbEntity
 67
     1
  8
0
100
AcDbViewport
 10
17.24759499286355
 20
11.49745669559334
 30
0.0
 40
36.33732196730226
 41
27.12504315869042
 68
     1
 69
     1
 12
17.24759499286355
 22
11.49745669559334
 13
0.0
 23
0.0
 14
0.5
 24
0.5
 15
0.5
 25
0.5
 16
0.0
 26
0.0
 36
1.0
 17
0.0
 27
0.0
 37
0.0
 42
50.0
 43
0.0
 44
0.0
 45
27.12504315869042
 50
0.0
 51
0.0
 72
  1000
 90
    32864
  1

281
     0
 71
     1
 74
     0
110
0.0
120
0.0
130
0.0
111
1.0
121
0.0
131
0.0
112
0.0
122
1.0
132
0.0
 79
     0
146
0.0
170
     0
 61
     5
348
88
292
     1
282
     1
141
0.0
142
0.0
 63
   250
421
  3355443
  0
ENDSEC
  0
SECTION
  2
OBJECTS
  0
DICTIONARY
  5
7
330
0
100
AcDbDictionary
281
     1
  3
ACAD_CIP_PREVIOUS_PRODUCT_INFO
350
CD
  3
ACAD_COLOR
350
55
  3
ACAD_DETAILVIEWSTYLE
350
C5
  3
ACAD_GROUP
350
1F
  3
ACAD_LAYOUT
350
B
  3
ACAD_MATERIAL
350
54
  3
ACAD_MLEADERSTYLE
350
C1
  3
ACAD_MLINESTYLE
350
20
  3
ACAD_PLOTSETTINGS
350
21
  3
ACAD_PLOTSTYLENAME
350
6
  3
ACAD_SCALELIST
350
AF
  3
ACAD_SECTIONVIEWSTYLE
350
C3
  3
ACAD_TABLESTYLE
350
93
  3
ACAD_VISUALSTYLE
350
82
  3
ACDB_RECOMPOSE_DATA
350
36E
  3
AcDbVariableDictionary
350
9B
  0
DICTIONARY
  5
34A
330
4
100
AcDbDictionary
280
     1
281
     1
  3
ADSK_XREC_LAYER_RECONCILED
360
34B
  0
DICTIONARY
  5
34C
330
25
100
AcDbDictionary
280
     1
281
     1
  3
ADSK_XREC_LAYER_RECONCILED
360
34D
  0
DICTIONARY
  5
34E
330
CE
100
AcDbDictionary
280
     1
281
     1
  3
ADSK_XREC_LAYER_RECONCILED
360
34F
  0
DICTIONARY
  5
350
330
E9
100
AcDbDictionary
280
     1
281
     1
  3
ADSK_XREC_LAYER_RECONCILED
360
351
  0
XRECORD
  5
CD
102
{ACAD_REACTORS
330
7
102
}
330
7
100
AcDbXrecord
280
     1
300
ACD
300
2017
300
ACD_F_S
  0
DICTIONARY
  5
55
102
{ACAD_REACTORS
330
7
102
}
330
7
100
AcDbDictionary
281
     1
  0
DICTIONARY
  5
C5
102
{ACAD_REACTORS
330
7
102
}
330
7
100
AcDbDictionary
281
     1
  3
Imperial24
350
C6
  0
DICTIONARY
  5
1F
102
{ACAD_REACTORS
330
7
102
}
330
7
100
AcDbDictionary
281
     1
  0
DICTIONARY
  5
B
102
{ACAD_REACTORS
330
7
102
}
330
7
100
AcDbDictionary
281
     1
  3
Generic 24in x 36in Title Block
350
F
  3
Model
350
A
  0
DICTIONARY
  5
54
102
{ACAD_REACTORS
330
7
102
}
330
7
100
AcDbDictionary
281
     1
  3
ByBlock
350
80
  3
ByLayer
350
7F
  3
Global
350
81
  0
DICTIONARY
  5
C1
102
{ACAD_REACTORS
330
7
102
}
330
7
100
AcDbDictionary
281
     1
  3
Standard
350
C2
  0
DICTIONARY
  5
20
102
{ACAD_REACTORS
330
7
102
}
330
7
100
AcDbDictionary
281
     1
  3
Standard
350
22
  0
DICTIONARY
  5
21
102
{ACAD_REACTORS
330
7
102
}
330
7
100
AcDbDictionary
281
     1
  0
ACDBDICTIONARYWDFLT
  5
6
102
{ACAD_REACTORS
330
7
102
}
330
7
100
AcDbDictionary
281
     1
  3
Normal
350
5
100
AcDbDictionaryWithDefault
340
5
  0
DICTIONARY
  5
AF
102
{ACAD_REACTORS
330
7
102
}
330
7
100
AcDbDictionary
281
     1
  3
A0
350
B0
  3
A1
350
B1
  3
A2
350
B2
  3
A3
350
B3
  3
A4
350
B4
  3
A5
350
B5
  3
A6
350
B6
  3
A7
350
B7
  3
A8
350
B8
  3
A9
350
B9
  3
B0
350
BA
  3
B1
350
BB
  3
B2
350
BC
  3
B3
350
BD
  3
B4
350
BE
  3
B5
350
BF
  3
B6
350
C0
  0
DICTIONARY
  5
C3
102
{ACAD_REACTORS
330
7
102
}
330
7
100
AcDbDictionary
281
     1
  3
Imperial24
350
C4
  0
DICTIONARY
  5
93
102
{ACAD_REACTORS
330
7
102
}
330
7
100
AcDbDictionary
281
     1
  3
Standard
350
94
  0
DICTIONARY
  5
82
102
{ACAD_REACTORS
330
7
102
}
330
7
100
AcDbDictionary
281
     1
  3
2dWireframe
350
88
  3
3D Hidden
350
8A
  3
3dWireframe
350
89
  3
Basic
350
87
  3
Brighten
350
8E
  3
ColorChange
350
92
  3
Conceptual
350
8B
  3
Dim
350
8D
  3
EdgeColorOff
350
AE
  3
Facepattern
350
91
  3
Flat
350
83
  3
FlatWithEdges
350
84
  3
Gouraud
350
85
  3
GouraudWithEdges
350
86
  3
Hidden
350
A6
  3
JitterOff
350
AC
  3
Linepattern
350
90
  3
OverhangOff
350
AD
  3
Realistic
350
8C
  3
Shaded
350
AB
  3
Shaded with edges
350
AA
  3
Shades of Gray
350
A7
  3
Sketchy
350
A8
  3
Thicken
350
8F
  3
Wireframe
350
A5
  3
X-Ray
350
A9
  0
XRECORD
  5
36E
102
{ACAD_REACTORS
330
7
102
}
330
7
100
AcDbXrecord
280
     1
 90
        1
330
94
330
C4
330
C6
  0
DICTIONARY
  5
9B
102
{ACAD_REACTORS
330
7
102
}
330
7
100
AcDbDictionary
281
     1
  3
CANNOSCALE
350
364
  3
CMLEADERSTYLE
350
360
  3
CTABLESTYLE
350
9C
  3
CVIEWDETAILSTYLE
350
361
  3
CVIEWSECTIONSTYLE
350
362
  3
LAYEREVAL
350
366
  3
LAYERNOTIFY
350
367
  3
LIGHTINGUNITS
350
365
  3
MSLTSCALE
350
363
  0
XRECORD
  5
34B
102
{ACAD_REACTORS
330
34A
102
}
330
34A
100
AcDbXrecord
280
     1
290
     1
  0
XRECORD
  5
34D
102
{ACAD_REACTORS
330
34C
102
}
330
34C
100
AcDbXrecord
280
     1
290
     1
  0
XRECORD
  5
34F
102
{ACAD_REACTORS
330
34E
102
}
330
34E
100
AcDbXrecord
280
     1
290
     1
  0
XRECORD
  5
351
102
{ACAD_REACTORS
330
350
102
}
330
350
100
AcDbXrecord
280
     1
290
     1
  0
ACDBDETAILVIEWSTYLE
  5
C6
102
{ACAD_XDICTIONARY
360
36C
102
}
102
{ACAD_REACTORS
330
C5
102
}
330
C5
100
AcDbModelDocViewStyle
 70
     0
  3
Imperial24
290
     0
100
AcDbDetailViewStyle
 70
     0
 71
     0
 90
        3
 71
     1
340
12
 62
   256
 40
0.24
340
0
 62
   256
 40
0.24
300

 40
0.36
280
     3
 71
     2
340
8
 90
       25
 62
   256
 71
     3
340
12
 62
   256
 40
0.24
 90
        1
 40
0.75
 90
        1
300
%<\AcVar ViewType \f "%tc1">% %<\AcVar ViewDetailId>%\PSCALE %<\AcVar ViewScale \f "%sn">%
 71
     4
340
8
 90
       25
 62
   256
340
8
 90
       25
 62
   256
280
     0
  0
LAYOUT
  5
F
102
{ACAD_REACTORS
330
B
102
}
330
B
100
AcDbPlotSettings
  1

  2
none_device
  4
ARCH_D_(24.00_x_36.00_Inches)
  6

 40
6.4
 41
19.1
 42
6.4
 43
19.1
 44
609.5999755859375
 45
914.4000244140626
 46
6.095999999999999
 47
-0.254
 48
0.0
 49
0.0
140
0.0
141
0.0
142
1.0
143
1.0
 70
   692
 72
     0
 73
     1
 74
     1
  7

 75
    16
147
1.0
 76
     0
 77
     2
 78
   300
148
0.2650993882970653
149
0.268587724897764
100
AcDbLayout
  1
Generic 24in x 36in Title Block
 70
     1
 71
     1
 10
-0.7524054877282309
 20
-0.5025428238148726
 11
35.24759547345533
 21
23.49745621500156
 12
0.0
 22
0.0
 32
0.0
 14
1.000000000000000E+20
 24
1.000000000000000E+20
 34
1.000000000000000E+20
 15
-1.000000000000000E+20
 25
-1.000000000000000E+20
 35
-1.000000000000000E+20
146
0.0
 13
0.0
 23
0.0
 33
0.0
 16
1.0
 26
0.0
 36
0.0
 17
0.0
 27
1.0
 37
0.0
 76
     0
330
C
331
4A
  0
LAYOUT
  5
A
102
{ACAD_REACTORS
330
B
102
}
330
B
100
AcDbPlotSettings
  1

  2
none_device
  4
Letter_(8.50_x_11.00_Inches)
  6

 40
6.349999904632568
 41
6.349999904632568
 42
6.350006103515625
 43
6.350006103515625
 44
215.8999938964844
 45
279.3999938964844
 46
20.37045378159827
 47
10.87052656611426
 48
0.0
 49
0.0
140
0.0
141
0.0
142
1.0
143
3.59932905303845
 70
 11956
 72
     0
 73
     1
 74
     1
  7

 75
     0
147
0.2778295580271631
 76
     0
 77
     2
 78
   300
148
5.106903281790129
149
0.2718425107115592
100
AcDbLayout
  1
Model
 70
     1
 71
     0
 10
0.0
 20
0.0
 11
12.0
 21
9.0
 12
0.0
 22
0.0
 32
0.0
 14
0.0
 24
0.0
 34
0.0
 15
0.0
 25
0.0
 35
0.0
146
0.0
 13
0.0
 23
0.0
 33
0.0
 16
1.0
 26
0.0
 36
0.0
 17
0.0
 27
1.0
 37
0.0
 76
     0
330
2
331
7D
  0
MATERIAL
  5
80
102
{ACAD_REACTORS
330
54
102
}
330
54
100
AcDbMaterial
  1
ByBlock
 73
     1
 78
     1
172
     1
176
     1
270
     1
274
     1
 94
       63
  0
MATERIAL
  5
7F
102
{ACAD_REACTORS
330
54
102
}
330
54
100
AcDbMaterial
  1
ByLayer
 73
     1
 78
     1
172
     1
176
     1
270
     1
274
     1
 94
       63
  0
MATERIAL
  5
81
102
{ACAD_REACTORS
330
54
102
}
330
54
100
AcDbMaterial
  1
Global
 73
     1
 78
     1
172
     1
176
     1
270
     1
274
     1
 94
       63
  0
MLEADERSTYLE
  5
C2
102
{ACAD_REACTORS
330
C1
102
}
330
C1
100
AcDbMLeaderStyle
179
     2
170
     2
171
     1
172
     0
 90
        2
 40
0.0
 41
0.0
173
     1
 91
-1056964608
340
15
 92
       -2
290
     1
 42
0.09
291
     1
 43
0.36
  3
Standard
 44
0.18
300

342
12
174
     1
178
     6
175
     1
176
     0
 93
-1056964608
 45
0.18
292
     0
297
     0
 46
0.18
 94
-1056964608
 47
1.0
 49
1.0
140
1.0
293
     1
141
0.0
294
     1
177
     0
142
1.0
295
     1
296
     0
143
0.125
271
     0
272
     9
273
     9
298
     1
  0
MLINESTYLE
  5
22
102
{ACAD_REACTORS
330
20
102
}
330
20
100
AcDbMlineStyle
  2
STANDARD
 70
     0
  3

 62
   256
 51
90.0
 52
90.0
 71
     2
 49
0.5
 62
   256
  6
BYLAYER
 49
-0.5
 62
   256
  6
BYLAYER
  0
ACDBPLACEHOLDER
  5
5
102
{ACAD_REACTORS
330
6
102
}
330
6
  0
SCALE
  5
B0
102
{ACAD_REACTORS
330
AF
102
}
330
AF
100
AcDbScale
 70
     0
300
1:1
140
1.0
141
1.0
290
     1
  0
SCALE
  5
B1
102
{ACAD_REACTORS
330
AF
102
}
330
AF
100
AcDbScale
 70
     0
300
1/128" = 1'-0"
140
0.0078125
141
12.0
290
     0
  0
SCALE
  5
B2
102
{ACAD_REACTORS
330
AF
102
}
330
AF
100
AcDbScale
 70
     0
300
1/64" = 1'-0"
140
0.015625
141
12.0
290
     0
  0
SCALE
  5
B3
102
{ACAD_REACTORS
330
AF
102
}
330
AF
100
AcDbScale
 70
     0
300
1/32" = 1'-0"
140
0.03125
141
12.0
290
     0
  0
SCALE
  5
B4
102
{ACAD_REACTORS
330
AF
102
}
330
AF
100
AcDbScale
 70
     0
300
1/16" = 1'-0"
140
0.0625
141
12.0
290
     0
  0
SCALE
  5
B5
102
{ACAD_REACTORS
330
AF
102
}
330
AF
100
AcDbScale
 70
     0
300
3/32" = 1'-0"
140
0.09375
141
12.0
290
     0
  0
SCALE
  5
B6
102
{ACAD_REACTORS
330
AF
102
}
330
AF
100
AcDbScale
 70
     0
300
1/8" = 1'-0"
140
0.125
141
12.0
290
     0
  0
SCALE
  5
B7
102
{ACAD_REACTORS
330
AF
102
}
330
AF
100
AcDbScale
 70
     0
300
3/16" = 1'-0"
140
0.1875
141
12.0
290
     0
  0
SCALE
  5
B8
102
{ACAD_REACTORS
330
AF
102
}
330
AF
100
AcDbScale
 70
     0
300
1/4" = 1'-0"
140
0.25
141
12.0
290
     0
  0
SCALE
  5
B9
102
{ACAD_REACTORS
330
AF
102
}
330
AF
100
AcDbScale
 70
     0
300
3/8" = 1'-0"
140
0.375
141
12.0
290
     0
  0
SCALE
  5
BA
102
{ACAD_REACTORS
330
AF
102
}
330
AF
100
AcDbScale
 70
     0
300
1/2" = 1'-0"
140
0.5
141
12.0
290
     0
  0
SCALE
  5
BB
102
{ACAD_REACTORS
330
AF
102
}
330
AF
100
AcDbScale
 70
     0
300
3/4" = 1'-0"
140
0.75
141
12.0
290
     0
  0
SCALE
  5
BC
102
{ACAD_REACTORS
330
AF
102
}
330
AF
100
AcDbScale
 70
     0
300
1" = 1'-0"
140
1.0
141
12.0
290
     0
  0
SCALE
  5
BD
102
{ACAD_REACTORS
330
AF
102
}
330
AF
100
AcDbScale
 70
     0
300
1-1/2" = 1'-0"
140
1.5
141
12.0
290
     0
  0
SCALE
  5
BE
102
{ACAD_REACTORS
330
AF
102
}
330
AF
100
AcDbScale
 70
     0
300
3" = 1'-0"
140
3.0
141
12.0
290
     0
  0
SCALE
  5
BF
102
{ACAD_REACTORS
330
AF
102
}
330
AF
100
AcDbScale
 70
     0
300
6" = 1'-0"
140
6.0
141
12.0
290
     0
  0
SCALE
  5
C0
102
{ACAD_REACTORS
330
AF
102
}
330
AF
100
AcDbScale
 70
     0
300
1'-0" = 1'-0"
140
12.0
141
12.0
290
     0
  0
ACDBSECTIONVIEWSTYLE
  5
C4
102
{ACAD_XDICTIONARY
360
36A
102
}
102
{ACAD_REACTORS
330
C3
102
}
330
C3
100
AcDbModelDocViewStyle
 70
     0
  3
Imperial24
290
     0
100
AcDbSectionViewStyle
 70
     0
 71
     0
 90
       78
 71
     1
340
12
 62
   256
 40
0.24
340
0
340
0
 62
   256
 40
0.24
300
I, O, Q, S, X, Z
 40
0.48
 90
        3
 40
0.18
 90
        1
 71
     2
340
8
 90
       25
 62
   256
340
8
 90
       50
 62
   256
 40
0.24
 40
0.0
 40
0.24
 71
     3
340
12
 62
   256
 40
0.24
 90
        1
 40
0.75
 90
        1
300
%<\AcVar ViewType \f "%tc1">% %<\AcVar ViewSectionStartId>%-%<\AcVar ViewSectionEndId>%\PSCALE %<\AcVar ViewScale \f "%sn">%
 71
     4
 62
   256
 62
   257
300
ANSI31
 40
1.0
 90
        0
290
     0
290
     0
 90
        6
 40
0.0
 40
1.570796326794896
 40
0.2617993877991494
 40
1.308996938995747
 40
-0.2617993877991494
 40
1.832595714594046
  0
TABLESTYLE
  5
94
102
{ACAD_XDICTIONARY
360
368
102
}
102
{ACAD_REACTORS
330
93
102
}
330
93
100
AcDbTableStyle
280
     0
  3
Standard
 70
     0
 71
     0
 40
0.06
 41
0.06
280
     0
281
     0
  7
Standard
140
0.18
170
     2
 62
     0
 63
     7
283
     0
 90
      512
 91
        0
  1

274
    -2
284
     1
 64
     0
275
    -2
285
     1
 65
     0
276
    -2
286
     1
 66
     0
277
    -2
287
     1
 67
     0
278
    -2
288
     1
 68
     0
279
    -2
289
     1
 69
     0
  7
Standard
140
0.25
170
     5
 62
     0
 63
     7
283
     0
 90
      512
 91
        0
  1

274
    -2
284
     1
 64
     0
275
    -2
285
     1
 65
     0
276
    -2
286
     1
 66
     0
277
    -2
287
     1
 67
     0
278
    -2
288
     1
 68
     0
279
    -2
289
     1
 69
     0
  7
Standard
140
0.18
170
     5
 62
     0
 63
     7
283
     0
 90
      512
 91
        0
  1

274
    -2
284
     1
 64
     0
275
    -2
285
     1
 65
     0
276
    -2
286
     1
 66
     0
277
    -2
287
     1
 67
     0
278
    -2
288
     1
 68
     0
279
    -2
289
     1
 69
     0
  0
VISUALSTYLE
  5
88
102
{ACAD_REACTORS
330
82
102
}
330
82
100
AcDbVisualStyle
  2
2dWireframe
 70
     4
177
     3
291
     0
 70
    58
 90
        0
176
     1
 90
        2
176
     1
 90
        1
176
     1
 90
        0
176
     1
 40
0.6
176
     1
 40
30.0
176
     1
 62
     7
420
 16777215
176
     1
 90
        1
176
     1
 90
        4
176
     1
 62
     7
176
     1
 62
   257
176
     1
 90
        1
176
     1
 90
        1
176
     1
 40
1.0
176
     1
 90
        0
176
     1
 62
   257
176
     1
 40
1.0
176
     1
 90
        1
176
     1
 90
        6
176
     1
 90
        2
176
     1
 62
     7
176
     1
 90
        5
176
     1
 90
        0
176
     1
 90
        0
176
     1
290
     0
176
     1
 90
        1
176
     1
 40
0.0
176
     1
 90
        0
176
     1
290
     1
176
     1
290
     1
176
     1
290
     0
176
     1
290
     0
176
     1
290
     0
176
     1
290
     0
176
     1
290
     0
176
     1
290
     0
176
     1
290
     0
176
     1
 90
       50
176
     1
 40
0.0
176
     1
 40
1.0
176
     1
 90
        0
176
     1
 62
    18
420
        0
176
     1
 90
       50
176
     1
 90
        3
176
     1
 62
     5
420
      255
176
     1
290
     0
176
     1
 90
       50
176
     1
 90
       50
176
     1
 90
       50
176
     1
290
     0
176
     1
 90
       50
176
     1
 62
   256
176
     0
 40
1.0
176
     0
 90
        2
176
     1
  1
strokes_ogs.tif
176
     1
290
     0
176
     1
 40
1.0
176
     1
 40
1.0
176
     1
  0
VISUALSTYLE
  5
8A
102
{ACAD_REACTORS
330
82
102
}
330
82
100
AcDbVisualStyle
  2
3D Hidden
 70
     6
177
     3
291
     0
 70
    58
 90
        1
176
     1
 90
        2
176
     1
 90
        2
176
     1
 90
        0
176
     1
 40
0.6
176
     1
 40
30.0
176
     1
 62
     7
420
 16777215
176
     1
 90
        2
176
     1
 90
       10
176
     1
 62
     7
176
     1
 62
   257
176
     1
 90
        2
176
     1
 90
        2
176
     1
 40
40.0
176
     1
 90
        0
176
     1
 62
   257
176
     1
 40
1.0
176
     1
 90
        1
176
     1
 90
        6
176
     1
 90
        2
176
     1
 62
     7
176
     1
 90
        3
176
     1
 90
        0
176
     1
 90
        0
176
     1
290
     0
176
     1
 90
        1
176
     1
 40
0.0
176
     1
 90
        0
176
     1
290
     0
176
     1
290
     1
176
     1
290
     1
176
     1
290
     0
176
     1
290
     0
176
     1
290
     0
176
     1
290
     0
176
     1
290
     0
176
     1
290
     0
176
     1
 90
       50
176
     1
 40
0.0
176
     1
 40
1.0
176
     1
 90
        0
176
     1
 62
    18
420
        0
176
     1
 90
       50
176
     1
 90
        3
176
     1
 62
     5
420
      255
176
     1
290
     0
176
     1
 90
       50
176
     1
 90
       50
176
     1
 90
       50
176
     1
290
     0
176
     1
 90
       50
176
     1
 62
   256
176
     0
 40
1.0
176
     0
 90
        2
176
     1
  1
strokes_ogs.tif
176
     1
290
     0
176
     1
 40
1.0
176
     1
 40
1.0
176
     1
  0
VISUALSTYLE
  5
89
102
{ACAD_REACTORS
330
82
102
}
330
82
100
AcDbVisualStyle
  2
3dWireframe
 70
     5
177
     3
291
     0
 70
    58
 90
        0
176
     1
 90
        2
176
     1
 90
        1
176
     1
 90
        0
176
     1
 40
0.6
176
     1
 40
30.0
176
     1
 62
     7
420
 16777215
176
     1
 90
        1
176
     1
 90
        4
176
     1
 62
     7
176
     1
 62
   257
176
     1
 90
        1
176
     1
 90
        1
176
     1
 40
1.0
176
     1
 90
        0
176
     1
 62
   257
176
     1
 40
1.0
176
     1
 90
        1
176
     1
 90
        6
176
     1
 90
        2
176
     1
 62
     7
176
     1
 90
        5
176
     1
 90
        0
176
     1
 90
        0
176
     1
290
     0
176
     1
 90
        1
176
     1
 40
0.0
176
     1
 90
        0
176
     1
290
     0
176
     1
290
     1
176
     1
290
     1
176
     1
290
     0
176
     1
290
     0
176
     1
290
     0
176
     1
290
     0
176
     1
290
     0
176
     1
290
     0
176
     1
 90
       50
176
     1
 40
0.0
176
     1
 40
1.0
176
     1
 90
        0
176
     1
 62
    18
420
        0
176
     1
 90
       50
176
     1
 90
        3
176
     1
 62
     5
420
      255
176
     1
290
     0
176
     1
 90
       50
176
     1
 90
       50
176
     1
 90
       50
176
     1
290
     0
176
     1
 90
       50
176
     1
 62
   256
176
     0
 40
1.0
176
     0
 90
        2
176
     1
  1
strokes_ogs.tif
176
     1
290
     0
176
     1
 40
1.0
176
     1
 40
1.0
176
     1
  0
VISUALSTYLE
  5
87
102
{ACAD_REACTORS
330
82
102
}
330
82
100
AcDbVisualStyle
  2
Basic
 70
     7
177
     3
291
     1
 70
    58
 90
        1
176
     1
 90
        0
176
     1
 90
        1
176
     1
 90
        0
176
     1
 40
0.6
176
     1
 40
30.0
176
     1
 62
     7
420
 16777215
176
     1
 90
        0
176
     1
 90
        4
176
     1
 62
     7
176
     1
 62
   257
176
     1
 90
        1
176
     1
 90
        1
176
     1
 40
1.0
176
     1
 90
        8
176
     1
 62
     7
176
     1
 40
1.0
176
     1
 90
        1
176
     1
 90
        6
176
     1
 90
        2
176
     1
 62
     7
176
     1
 90
        5
176
     1
 90
        0
176
     1
 90
        0
176
     1
290
     0
176
     1
 90
        1
176
     1
 40
0.0
176
     1
 90
        0
176
     1
290
     0
176
     1
290
     1
176
     1
290
     1
176
     1
290
     0
176
     1
290
     0
176
     1
290
     0
176
     1
290
     0
176
     1
290
     0
176
     1
290
     0
176
     1
 90
       50
176
     1
 40
0.0
176
     1
 40
1.0
176
     1
 90
        0
176
     1
 62
    18
420
        0
176
     1
 90
       50
176
     1
 90
        3
176
     1
 62
     5
420
      255
176
     1
290
     0
176
     1
 90
       50
176
     1
 90
       50
176
     1
 90
       50
176
     1
290
     0
176
     1
 90
       50
176
     1
 62
   256
176
     0
 40
1.0
176
     0
 90
        2
176
     1
  1
strokes_ogs.tif
176
     1
290
     0
176
     1
 40
1.0
176
     1
 40
1.0
176
     1
  0
VISUALSTYLE
  5
8E
102
{ACAD_REACTORS
330
82
102
}
330
82
100
AcDbVisualStyle
  2
Brighten
 70
    12
177
     3
291
     1
 70
    58
 90
        2
176
     1
 90
        2
176
     1
 90
        1
176
     1
 90
        0
176
     1
 40
0.6
176
     1
 40
30.0
176
     1
 62
     7
420
 16777215
176
     1
 90
        1
176
     1
 90
        4
176
     1
 62
     7
176
     1
 62
   257
176
     1
 90
        1
176
     1
 90
        1
176
     1
 40
1.0
176
     1
 90
        8
176
     1
 62
     7
176
     1
 40
1.0
176
     1
 90
        1
176
     1
 90
        6
176
     1
 90
        2
176
     1
 62
     7
176
     1
 90
        5
176
     1
 90
        0
176
     1
 90
        0
176
     1
290
     0
176
     1
 90
        1
176
     1
 40
50.0
176
     1
 90
        0
176
     1
290
     0
176
     1
290
     1
176
     1
290
     1
176
     1
290
     0
176
     1
290
     0
176
     1
290
     0
176
     1
290
     0
176
     1
290
     0
176
     1
290
     0
176
     1
 90
       50
176
     1
 40
0.0
176
     1
 40
1.0
176
     1
 90
        0
176
     1
 62
    18
420
        0
176
     1
 90
       50
176
     1
 90
        3
176
     1
 62
     5
420
      255
176
     1
290
     0
176
     1
 90
       50
176
     1
 90
       50
176
     1
 90
       50
176
     1
290
     0
176
     1
 90
       50
176
     1
 62
   256
176
     0
 40
1.0
176
     0
 90
        2
176
     1
  1
strokes_ogs.tif
176
     1
290
     0
176
     1
 40
1.0
176
     1
 40
1.0
176
     1
  0
VISUALSTYLE
  5
92
102
{ACAD_REACTORS
330
82
102
}
330
82
100
AcDbVisualStyle
  2
ColorChange
 70
    16
177
     3
291
     1
 70
    58
 90
        2
176
     1
 90
        2
176
     1
 90
        3
176
     1
 90
        0
176
     1
 40
0.6
176
     1
 40
30.0
176
     1
 62
     8
420
  8421504
176
     1
 90
        1
176
     1
 90
        4
176
     1
 62
     7
176
     1
 62
   257
176
     1
 90
        1
176
     1
 90
        1
176
     1
 40
1.0
176
     1
 90
        8
176
     1
 62
     8
420
  8421504
176
     1
 40
1.0
176
     1
 90
        1
176
     1
 90
        6
176
     1
 90
        2
176
     1
 62
     7
176
     1
 90
        5
176
     1
 90
        0
176
     1
 90
        0
176
     1
290
     0
176
     1
 90
        1
176
     1
 40
0.0
176
     1
 90
        0
176
     1
290
     0
176
     1
290
     1
176
     1
290
     1
176
     1
290
     0
176
     1
290
     0
176
     1
290
     0
176
     1
290
     0
176
     1
290
     0
176
     1
290
     0
176
     1
 90
       50
176
     1
 40
0.0
176
     1
 40
1.0
176
     1
 90
        0
176
     1
 62
    18
420
        0
176
     1
 90
       50
176
     1
 90
        3
176
     1
 62
     5
420
      255
176
     1
290
     0
176
     1
 90
       50
176
     1
 90
       50
176
     1
 90
       50
176
     1
290
     0
176
     1
 90
       50
176
     1
 62
   256
176
     0
 40
1.0
176
     0
 90
        2
176
     1
  1
strokes_ogs.tif
176
     1
290
     0
176
     1
 40
1.0
176
     1
 40
1.0
176
     1
  0
VISUALSTYLE
  5
8B
102
{ACAD_REACTORS
330
82
102
}
330
82
100
AcDbVisualStyle
  2
Conceptual
 70
     9
177
     3
291
     0
 70
    58
 90
        3
176
     1
 90
        2
176
     1
 90
        1
176
     1
 90
        0
176
     1
 40
0.6
176
     1
 40
30.0
176
     1
 62
     7
420
 16777215
176
     1
 90
        2
176
     1
 90
        2
176
     1
 62
     7
176
     1
 62
   257
176
     1
 90
        1
176
     1
 90
        1
176
     1
 40
40.0
176
     1
 90
        8
176
     1
 62
     7
176
     1
 40
1.0
176
     1
 90
        1
176
     1
 90
        6
176
     1
 90
        2
176
     1
 62
     7
176
     1
 90
        5
176
     1
 90
        0
176
     1
 90
        0
176
     1
290
     0
176
     1
 90
        1
176
     1
 40
0.0
176
     1
 90
        0
176
     1
290
     0
176
     1
290
     1
176
     1
290
     1
176
     1
290
     0
176
     1
290
     0
176
     1
290
     0
176
     1
290
     0
176
     1
290
     0
176
     1
290
     0
176
     1
 90
       50
176
     1
 40
0.0
176
     1
 40
1.0
176
     1
 90
        0
176
     1
 62
    18
420
        0
176
     1
 90
       50
176
     1
 90
        3
176
     1
 62
     5
420
      255
176
     1
290
     0
176
     1
 90
       50
176
     1
 90
       50
176
     1
 90
       50
176
     1
290
     0
176
     1
 90
       50
176
     1
 62
   256
176
     0
 40
1.0
176
     0
 90
        2
176
     1
  1
strokes_ogs.tif
176
     1
290
     0
176
     1
 40
1.0
176
     1
 40
1.0
176
     1
  0
VISUALSTYLE
  5
8D
102
{ACAD_REACTORS
330
82
102
}
330
82
100
AcDbVisualStyle
  2
Dim
 70
    11
177
     3
291
     1
 70
    58
 90
        2
176
     1
 90
        2
176
     1
 90
        1
176
     1
 90
        0
176
     1
 40
0.6
176
     1
 40
30.0
176
     1
 62
     7
420
 16777215
176
     1
 90
        1
176
     1
 90
        4
176
     1
 62
     7
176
     1
 62
   257
176
     1
 90
        1
176
     1
 90
        1
176
     1
 40
1.0
176
     1
 90
        8
176
     1
 62
     7
176
     1
 40
1.0
176
     1
 90
        1
176
     1
 90
        6
176
     1
 90
        2
176
     1
 62
     7
176
     1
 90
        5
176
     1
 90
        0
176
     1
 90
        0
176
     1
290
     0
176
     1
 90
        1
176
     1
 40
-50.0
176
     1
 90
        0
176
     1
290
     0
176
     1
290
     1
176
     1
290
     1
176
     1
290
     0
176
     1
290
     0
176
     1
290
     0
176
     1
290
     0
176
     1
290
     0
176
     1
290
     0
176
     1
 90
       50
176
     1
 40
0.0
176
     1
 40
1.0
176
     1
 90
        0
176
     1
 62
    18
420
        0
176
     1
 90
       50
176
     1
 90
        3
176
     1
 62
     5
420
      255
176
     1
290
     0
176
     1
 90
       50
176
     1
 90
       50
176
     1
 90
       50
176
     1
290
     0
176
     1
 90
       50
176
     1
 62
   256
176
     0
 40
1.0
176
     0
 90
        2
176
     1
  1
strokes_ogs.tif
176
     1
290
     0
176
     1
 40
1.0
176
     1
 40
1.0
176
     1
  0
VISUALSTYLE
  5
AE
102
{ACAD_REACTORS
330
82
102
}
330
82
100
AcDbVisualStyle
  2
EdgeColorOff
 70
    22
177
     3
291
     1
 70
    58
 90
        2
176
     0
 90
        2
176
     0
 90
        0
176
     0
 90
        0
176
     0
 40
0.6
176
     0
 40
30.0
176
     0
 62
     7
420
 16777215
176
     0
 90
        1
176
     0
 90
        4
176
     0
 62
     7
176
     0
 62
   257
176
     0
 90
        1
176
     0
 90
        1
176
     0
 40
1.0
176
     0
 90
        8
176
     2
 62
     7
176
     0
 40
1.0
176
     0
 90
        1
176
     0
 90
        6
176
     0
 90
        2
176
     0
 62
     7
176
     0
 90
        5
176
     0
 90
        0
176
     0
 90
        0
176
     0
290
     0
176
     0
 90
        1
176
     0
 40
0.0
176
     0
 90
        0
176
     0
290
     0
176
     0
290
     1
176
     0
290
     1
176
     0
290
     0
176
     0
290
     0
176
     0
290
     0
176
     0
290
     0
176
     0
290
     0
176
     0
290
     0
176
     0
 90
       50
176
     0
 40
0.0
176
     0
 40
1.0
176
     0
 90
        0
176
     0
 62
    18
420
        0
176
     0
 90
       50
176
     0
 90
        3
176
     0
 62
     5
420
      255
176
     0
290
     0
176
     0
 90
       50
176
     0
 90
       50
176
     0
 90
       50
176
     0
290
     0
176
     0
 90
       50
176
     0
 62
   256
176
     0
 40
1.0
176
     0
 90
        2
176
     0
  1
strokes_ogs.tif
176
     0
290
     0
176
     0
 40
1.0
176
     0
 40
1.0
176
     0
  0
VISUALSTYLE
  5
91
102
{ACAD_REACTORS
330
82
102
}
330
82
100
AcDbVisualStyle
  2
Facepattern
 70
    15
177
     3
291
     1
 70
    58
 90
        2
176
     1
 90
        2
176
     1
 90
        1
176
     1
 90
        0
176
     1
 40
0.6
176
     1
 40
30.0
176
     1
 62
     7
420
 16777215
176
     1
 90
        1
176
     1
 90
        4
176
     1
 62
     7
176
     1
 62
   257
176
     1
 90
        1
176
     1
 90
        1
176
     1
 40
1.0
176
     1
 90
        8
176
     1
 62
     7
176
     1
 40
1.0
176
     1
 90
        1
176
     1
 90
        6
176
     1
 90
        2
176
     1
 62
     7
176
     1
 90
        5
176
     1
 90
        0
176
     1
 90
        0
176
     1
290
     0
176
     1
 90
        1
176
     1
 40
0.0
176
     1
 90
        0
176
     1
290
     0
176
     1
290
     1
176
     1
290
     1
176
     1
290
     0
176
     1
290
     0
176
     1
290
     0
176
     1
290
     0
176
     1
290
     0
176
     1
290
     0
176
     1
 90
       50
176
     1
 40
0.0
176
     1
 40
1.0
176
     1
 90
        0
176
     1
 62
    18
420
        0
176
     1
 90
       50
176
     1
 90
        3
176
     1
 62
     5
420
      255
176
     1
290
     0
176
     1
 90
       50
176
     1
 90
       50
176
     1
 90
       50
176
     1
290
     0
176
     1
 90
       50
176
     1
 62
   256
176
     0
 40
1.0
176
     0
 90
        2
176
     1
  1
strokes_ogs.tif
176
     1
290
     0
176
     1
 40
1.0
176
     1
 40
1.0
176
     1
  0
VISUALSTYLE
  5
83
102
{ACAD_REACTORS
330
82
102
}
330
82
100
AcDbVisualStyle
  2
Flat
 70
     0
177
     3
291
     1
 70
    58
 90
        2
176
     1
 90
        1
176
     1
 90
        1
176
     1
 90
        2
176
     1
 40
0.6
176
     1
 40
30.0
176
     1
 62
     7
420
 16777215
176
     1
 90
        0
176
     1
 90
        4
176
     1
 62
     7
176
     1
 62
   257
176
     1
 90
        1
176
     1
 90
        1
176
     1
 40
1.0
176
     1
 90
        8
176
     1
 62
     7
176
     1
 40
1.0
176
     1
 90
        1
176
     1
 90
        6
176
     1
 90
        2
176
     1
 62
     7
176
     1
 90
        5
176
     1
 90
        0
176
     1
 90
        0
176
     1
290
     0
176
     1
 90
        1
176
     1
 40
0.0
176
     1
 90
        0
176
     1
290
     0
176
     1
290
     1
176
     1
290
     1
176
     1
290
     0
176
     1
290
     0
176
     1
290
     0
176
     1
290
     0
176
     1
290
     0
176
     1
290
     0
176
     1
 90
       50
176
     1
 40
0.0
176
     1
 40
1.0
176
     1
 90
        0
176
     1
 62
    18
420
        0
176
     1
 90
       50
176
     1
 90
        3
176
     1
 62
     5
420
      255
176
     1
290
     0
176
     1
 90
       50
176
     1
 90
       50
176
     1
 90
       50
176
     1
290
     0
176
     1
 90
       50
176
     1
 62
   256
176
     0
 40
1.0
176
     0
 90
        2
176
     1
  1
strokes_ogs.tif
176
     1
290
     0
176
     1
 40
1.0
176
     1
 40
1.0
176
     1
  0
VISUALSTYLE
  5
84
102
{ACAD_REACTORS
330
82
102
}
330
82
100
AcDbVisualStyle
  2
FlatWithEdges
 70
     1
177
     3
291
     1
 70
    58
 90
        2
176
     1
 90
        1
176
     1
 90
        1
176
     1
 90
        2
176
     1
 40
0.6
176
     1
 40
30.0
176
     1
 62
     7
420
 16777215
176
     1
 90
        1
176
     1
 90
        4
176
     1
 62
     7
176
     1
 62
   257
176
     1
 90
        1
176
     1
 90
        1
176
     1
 40
1.0
176
     1
 90
        0
176
     1
 62
   257
176
     1
 40
1.0
176
     1
 90
        1
176
     1
 90
        6
176
     1
 90
        2
176
     1
 62
     7
176
     1
 90
        5
176
     1
 90
        0
176
     1
 90
        0
176
     1
290
     0
176
     1
 90
        1
176
     1
 40
0.0
176
     1
 90
        0
176
     1
290
     0
176
     1
290
     1
176
     1
290
     1
176
     1
290
     0
176
     1
290
     0
176
     1
290
     0
176
     1
290
     0
176
     1
290
     0
176
     1
290
     0
176
     1
 90
       50
176
     1
 40
0.0
176
     1
 40
1.0
176
     1
 90
        0
176
     1
 62
    18
420
        0
176
     1
 90
       50
176
     1
 90
        3
176
     1
 62
     5
420
      255
176
     1
290
     0
176
     1
 90
       50
176
     1
 90
       50
176
     1
 90
       50
176
     1
290
     0
176
     1
 90
       50
176
     1
 62
   256
176
     0
 40
1.0
176
     0
 90
        2
176
     1
  1
strokes_ogs.tif
176
     1
290
     0
176
     1
 40
1.0
176
     1
 40
1.0
176
     1
  0
VISUALSTYLE
  5
85
102
{ACAD_REACTORS
330
82
102
}
330
82
100
AcDbVisualStyle
  2
Gouraud
 70
     2
177
     3
291
     1
 70
    58
 90
        2
176
     1
 90
        2
176
     1
 90
        1
176
     1
 90
        2
176
     1
 40
0.6
176
     1
 40
30.0
176
     1
 62
     7
420
 16777215
176
     1
 90
        0
176
     1
 90
        4
176
     1
 62
     7
176
     1
 62
   257
176
     1
 90
        1
176
     1
 90
        1
176
     1
 40
1.0
176
     1
 90
        0
176
     1
 62
     7
176
     1
 40
1.0
176
     1
 90
        1
176
     1
 90
        6
176
     1
 90
        2
176
     1
 62
     7
176
     1
 90
        5
176
     1
 90
        0
176
     1
 90
        0
176
     1
290
     0
176
     1
 90
        1
176
     1
 40
0.0
176
     1
 90
        0
176
     1
290
     0
176
     1
290
     1
176
     1
290
     1
176
     1
290
     0
176
     1
290
     0
176
     1
290
     0
176
     1
290
     0
176
     1
290
     0
176
     1
290
     0
176
     1
 90
       50
176
     1
 40
0.0
176
     1
 40
1.0
176
     1
 90
        0
176
     1
 62
    18
420
        0
176
     1
 90
       50
176
     1
 90
        3
176
     1
 62
     5
420
      255
176
     1
290
     0
176
     1
 90
       50
176
     1
 90
       50
176
     1
 90
       50
176
     1
290
     0
176
     1
 90
       50
176
     1
 62
   256
176
     0
 40
1.0
176
     0
 90
        2
176
     1
  1
strokes_ogs.tif
176
     1
290
     0
176
     1
 40
1.0
176
     1
 40
1.0
176
     1
  0
VISUALSTYLE
  5
86
102
{ACAD_REACTORS
330
82
102
}
330
82
100
AcDbVisualStyle
  2
GouraudWithEdges
 70
     3
177
     3
291
     1
 70
    58
 90
        2
176
     1
 90
        2
176
     1
 90
        1
176
     1
 90
        2
176
     1
 40
0.6
176
     1
 40
30.0
176
     1
 62
     7
420
 16777215
176
     1
 90
        1
176
     1
 90
        4
176
     1
 62
     7
176
     1
 62
   257
176
     1
 90
        1
176
     1
 90
        1
176
     1
 40
1.0
176
     1
 90
        0
176
     1
 62
   257
176
     1
 40
1.0
176
     1
 90
        1
176
     1
 90
        6
176
     1
 90
        2
176
     1
 62
     7
176
     1
 90
        5
176
     1
 90
        0
176
     1
 90
        0
176
     1
290
     0
176
     1
 90
        1
176
     1
 40
0.0
176
     1
 90
        0
176
     1
290
     0
176
     1
290
     1
176
     1
290
     1
176
     1
290
     0
176
     1
290
     0
176
     1
290
     0
176
     1
290
     0
176
     1
290
     0
176
     1
290
     0
176
     1
 90
       50
176
     1
 40
0.0
176
     1
 40
1.0
176
     1
 90
        0
176
     1
 62
    18
420
        0
176
     1
 90
       50
176
     1
 90
        3
176
     1
 62
     5
420
      255
176
     1
290
     0
176
     1
 90
       50
176
     1
 90
       50
176
     1
 90
       50
176
     1
290
     0
176
     1
 90
       50
176
     1
 62
   256
176
     0
 40
1.0
176
     0
 90
        2
176
     1
  1
strokes_ogs.tif
176
     1
290
     0
176
     1
 40
1.0
176
     1
 40
1.0
176
     1
  0
VISUALSTYLE
  5
A6
102
{ACAD_REACTORS
330
82
102
}
330
82
100
AcDbVisualStyle
  2
Hidden
 70
     6
177
     3
291
     0
 70
    58
 90
        1
176
     1
 90
        2
176
     1
 90
        2
176
     1
 90
        0
176
     1
 40
0.6
176
     1
 40
30.0
176
     1
 62
     7
420
 16777215
176
     1
 90
        2
176
     1
 90
        2
176
     1
 62
     7
176
     1
 62
   257
176
     1
 90
        2
176
     1
 90
        1
176
     1
 40
40.0
176
     1
 90
        0
176
     1
 62
   257
176
     1
 40
1.0
176
     1
 90
        1
176
     1
 90
        6
176
     1
 90
        2
176
     1
 62
     7
176
     1
 90
        3
176
     1
 90
        0
176
     1
 90
        0
176
     1
290
     0
176
     1
 90
        1
176
     1
 40
0.0
176
     1
 90
        0
176
     1
290
     0
176
     1
290
     1
176
     1
290
     1
176
     1
290
     0
176
     1
290
     0
176
     1
290
     0
176
     1
290
     0
176
     1
290
     0
176
     1
290
     0
176
     1
 90
       50
176
     1
 40
0.0
176
     1
 40
1.0
176
     1
 90
        0
176
     1
 62
    18
420
        0
176
     1
 90
       50
176
     1
 90
        3
176
     1
 62
     5
420
      255
176
     1
290
     0
176
     1
 90
       50
176
     1
 90
       50
176
     1
 90
       50
176
     1
290
     0
176
     1
 90
       50
176
     1
 62
   256
176
     0
 40
1.0
176
     0
 90
        2
176
     1
  1
strokes_ogs.tif
176
     1
290
     0
176
     1
 40
1.0
176
     1
 40
1.0
176
     1
  0
VISUALSTYLE
  5
AC
102
{ACAD_REACTORS
330
82
102
}
330
82
100
AcDbVisualStyle
  2
JitterOff
 70
    20
177
     3
291
     1
 70
    58
 90
        2
176
     0
 90
        2
176
     0
 90
        0
176
     0
 90
        0
176
     0
 40
0.6
176
     0
 40
30.0
176
     0
 62
     7
420
 16777215
176
     0
 90
        1
176
     0
 90
        4
176
     0
 62
     7
176
     0
 62
   257
176
     0
 90
        1
176
     0
 90
        1
176
     0
 40
1.0
176
     0
 90
       10
176
     2
 62
     7
176
     0
 40
1.0
176
     0
 90
        1
176
     0
 90
        6
176
     0
 90
        2
176
     0
 62
     7
176
     0
 90
        5
176
     0
 90
        0
176
     0
 90
        0
176
     0
290
     0
176
     0
 90
        1
176
     0
 40
0.0
176
     0
 90
        0
176
     0
290
     0
176
     0
290
     1
176
     0
290
     1
176
     0
290
     0
176
     0
290
     0
176
     0
290
     0
176
     0
290
     0
176
     0
290
     0
176
     0
290
     0
176
     0
 90
       50
176
     0
 40
0.0
176
     0
 40
1.0
176
     0
 90
        0
176
     0
 62
    18
420
        0
176
     0
 90
       50
176
     0
 90
        3
176
     0
 62
     5
420
      255
176
     0
290
     0
176
     0
 90
       50
176
     0
 90
       50
176
     0
 90
       50
176
     0
290
     0
176
     0
 90
       50
176
     0
 62
   256
176
     0
 40
1.0
176
     0
 90
        2
176
     0
  1
strokes_ogs.tif
176
     0
290
     0
176
     0
 40
1.0
176
     0
 40
1.0
176
     0
  0
VISUALSTYLE
  5
90
102
{ACAD_REACTORS
330
82
102
}
330
82
100
AcDbVisualStyle
  2
Linepattern
 70
    14
177
     3
291
     1
 70
    58
 90
        2
176
     1
 90
        2
176
     1
 90
        1
176
     1
 90
        0
176
     1
 40
0.6
176
     1
 40
30.0
176
     1
 62
     7
420
 16777215
176
     1
 90
        1
176
     1
 90
        4
176
     1
 62
     7
176
     1
 62
   257
176
     1
 90
        7
176
     1
 90
        7
176
     1
 40
1.0
176
     1
 90
        8
176
     1
 62
     7
176
     1
 40
1.0
176
     1
 90
        1
176
     1
 90
        6
176
     1
 90
        2
176
     1
 62
     7
176
     1
 90
        5
176
     1
 90
        0
176
     1
 90
        0
176
     1
290
     0
176
     1
 90
        1
176
     1
 40
0.0
176
     1
 90
        0
176
     1
290
     0
176
     1
290
     1
176
     1
290
     1
176
     1
290
     0
176
     1
290
     0
176
     1
290
     0
176
     1
290
     0
176
     1
290
     0
176
     1
290
     0
176
     1
 90
       50
176
     1
 40
0.0
176
     1
 40
1.0
176
     1
 90
        0
176
     1
 62
    18
420
        0
176
     1
 90
       50
176
     1
 90
        3
176
     1
 62
     5
420
      255
176
     1
290
     0
176
     1
 90
       50
176
     1
 90
       50
176
     1
 90
       50
176
     1
290
     0
176
     1
 90
       50
176
     1
 62
   256
176
     0
 40
1.0
176
     0
 90
        2
176
     1
  1
strokes_ogs.tif
176
     1
290
     0
176
     1
 40
1.0
176
     1
 40
1.0
176
     1
  0
VISUALSTYLE
  5
AD
102
{ACAD_REACTORS
330
82
102
}
330
82
100
AcDbVisualStyle
  2
OverhangOff
 70
    21
177
     3
291
     1
 70
    58
 90
        2
176
     0
 90
        2
176
     0
 90
        0
176
     0
 90
        0
176
     0
 40
0.6
176
     0
 40
30.0
176
     0
 62
     7
420
 16777215
176
     0
 90
        1
176
     0
 90
        4
176
     0
 62
     7
176
     0
 62
   257
176
     0
 90
        1
176
     0
 90
        1
176
     0
 40
1.0
176
     0
 90
        9
176
     2
 62
     7
176
     0
 40
1.0
176
     0
 90
        1
176
     0
 90
        6
176
     0
 90
        2
176
     0
 62
     7
176
     0
 90
        5
176
     0
 90
        0
176
     0
 90
        0
176
     0
290
     0
176
     0
 90
        1
176
     0
 40
0.0
176
     0
 90
        0
176
     0
290
     0
176
     0
290
     1
176
     0
290
     1
176
     0
290
     0
176
     0
290
     0
176
     0
290
     0
176
     0
290
     0
176
     0
290
     0
176
     0
290
     0
176
     0
 90
       50
176
     0
 40
0.0
176
     0
 40
1.0
176
     0
 90
        0
176
     0
 62
    18
420
        0
176
     0
 90
       50
176
     0
 90
        3
176
     0
 62
     5
420
      255
176
     0
290
     0
176
     0
 90
       50
176
     0
 90
       50
176
     0
 90
       50
176
     0
290
     0
176
     0
 90
       50
176
     0
 62
   256
176
     0
 40
1.0
176
     0
 90
        2
176
     0
  1
strokes_ogs.tif
176
     0
290
     0
176
     0
 40
1.0
176
     0
 40
1.0
176
     0
  0
VISUALSTYLE
  5
8C
102
{ACAD_REACTORS
330
82
102
}
330
82
100
AcDbVisualStyle
  2
Realistic
 70
     8
177
     3
291
     0
 70
    58
 90
        2
176
     1
 90
        2
176
     1
 90
        1
176
     1
 90
        0
176
     1
 40
0.6
176
     1
 40
30.0
176
     1
 62
     7
420
 16777215
176
     1
 90
        1
176
     1
 90
        0
176
     1
 62
     7
176
     1
 62
   257
176
     1
 90
        1
176
     1
 90
        1
176
     1
 40
1.0
176
     1
 90
        8
176
     1
 62
     7
176
     1
 40
1.0
176
     1
 90
        1
176
     1
 90
        6
176
     1
 90
        2
176
     1
 62
     7
176
     1
 90
        5
176
     1
 90
        0
176
     1
 90
        0
176
     1
290
     0
176
     1
 90
       13
176
     1
 40
0.0
176
     1
 90
        0
176
     1
290
     0
176
     1
290
     1
176
     1
290
     1
176
     1
290
     0
176
     1
290
     0
176
     1
290
     0
176
     1
290
     0
176
     1
290
     0
176
     1
290
     0
176
     1
 90
       50
176
     1
 40
0.0
176
     1
 40
1.0
176
     1
 90
        0
176
     1
 62
    18
420
        0
176
     1
 90
       50
176
     1
 90
        3
176
     1
 62
     5
420
      255
176
     1
290
     0
176
     1
 90
       50
176
     1
 90
       50
176
     1
 90
       50
176
     1
290
     0
176
     1
 90
       50
176
     1
 62
   256
176
     0
 40
1.0
176
     0
 90
        2
176
     1
  1
strokes_ogs.tif
176
     1
290
     0
176
     1
 40
1.0
176
     1
 40
1.0
176
     1
  0
VISUALSTYLE
  5
AB
102
{ACAD_REACTORS
330
82
102
}
330
82
100
AcDbVisualStyle
  2
Shaded
 70
    27
177
     3
291
     0
 70
    58
 90
        2
176
     1
 90
        2
176
     1
 90
        1
176
     1
 90
        2
176
     1
 40
0.6
176
     1
 40
30.0
176
     1
 62
     7
420
 16777215
176
     1
 90
        0
176
     1
 90
        4
176
     1
 62
     7
176
     1
 62
   257
176
     1
 90
        1
176
     1
 90
        1
176
     1
 40
1.0
176
     1
 90
        8
176
     1
 62
   257
176
     1
 40
1.0
176
     1
 90
        1
176
     1
 90
        6
176
     1
 90
        2
176
     1
 62
     8
420
  7895160
176
     1
 90
        3
176
     1
 90
        0
176
     1
 90
        0
176
     1
290
     0
176
     1
 90
        5
176
     1
 40
0.0
176
     1
 90
        0
176
     1
290
     0
176
     1
290
     1
176
     1
290
     1
176
     1
290
     0
176
     1
290
     0
176
     1
290
     0
176
     1
290
     0
176
     1
290
     0
176
     1
290
     0
176
     1
 90
       50
176
     1
 40
0.0
176
     1
 40
1.0
176
     1
 90
        0
176
     1
 62
    18
420
        0
176
     1
 90
       50
176
     1
 90
        3
176
     1
 62
     5
420
      255
176
     1
290
     0
176
     1
 90
       50
176
     1
 90
       50
176
     1
 90
       50
176
     1
290
     0
176
     1
 90
       50
176
     1
 62
   256
176
     0
 40
1.0
176
     0
 90
        2
176
     1
  1
strokes_ogs.tif
176
     1
290
     0
176
     1
 40
1.0
176
     1
 40
1.0
176
     1
  0
VISUALSTYLE
  5
AA
102
{ACAD_REACTORS
330
82
102
}
330
82
100
AcDbVisualStyle
  2
Shaded with edges
 70
    26
177
     3
291
     0
 70
    58
 90
        2
176
     1
 90
        2
176
     1
 90
        1
176
     1
 90
        2
176
     1
 40
0.6
176
     1
 40
30.0
176
     1
 62
     7
420
 16777215
176
     1
 90
        1
176
     1
 90
        2
176
     1
 62
     7
176
     1
 62
   257
176
     1
 90
        2
176
     1
 90
        1
176
     1
 40
1.0
176
     1
 90
        8
176
     1
 62
   257
176
     1
 40
1.0
176
     1
 90
        1
176
     1
 90
        6
176
     1
 90
        2
176
     1
 62
     7
176
     1
 90
        3
176
     1
 90
        0
176
     1
 90
        0
176
     1
290
     0
176
     1
 90
        5
176
     1
 40
0.0
176
     1
 90
        0
176
     1
290
     0
176
     1
290
     1
176
     1
290
     1
176
     1
290
     0
176
     1
290
     0
176
     1
290
     0
176
     1
290
     0
176
     1
290
     0
176
     1
290
     0
176
     1
 90
       50
176
     1
 40
0.0
176
     1
 40
1.0
176
     1
 90
        0
176
     1
 62
    18
420
        0
176
     1
 90
       50
176
     1
 90
        3
176
     1
 62
     5
420
      255
176
     1
290
     0
176
     1
 90
       50
176
     1
 90
       50
176
     1
 90
       50
176
     1
290
     0
176
     1
 90
       50
176
     1
 62
   256
176
     0
 40
1.0
176
     0
 90
        2
176
     1
  1
strokes_ogs.tif
176
     1
290
     0
176
     1
 40
1.0
176
     1
 40
1.0
176
     1
  0
VISUALSTYLE
  5
A7
102
{ACAD_REACTORS
330
82
102
}
330
82
100
AcDbVisualStyle
  2
Shades of Gray
 70
    23
177
     3
291
     0
 70
    58
 90
        2
176
     1
 90
        2
176
     1
 90
        3
176
     1
 90
        0
176
     1
 40
0.6
176
     1
 40
30.0
176
     1
 62
     7
420
 16777215
176
     1
 90
        2
176
     1
 90
        2
176
     1
 62
     7
176
     1
 62
     7
176
     1
 90
        1
176
     1
 90
        1
176
     1
 40
40.0
176
     1
 90
        8
176
     1
 62
     7
176
     1
 40
1.0
176
     1
 90
        1
176
     1
 90
        6
176
     1
 90
        2
176
     1
 62
     7
176
     1
 90
        3
176
     1
 90
        0
176
     1
 90
        0
176
     1
290
     0
176
     1
 90
        1
176
     1
 40
0.0
176
     1
 90
        0
176
     1
290
     0
176
     1
290
     1
176
     1
290
     1
176
     1
290
     0
176
     1
290
     0
176
     1
290
     0
176
     1
290
     0
176
     1
290
     0
176
     1
290
     0
176
     1
 90
       50
176
     1
 40
0.0
176
     1
 40
1.0
176
     1
 90
        0
176
     1
 62
    18
420
        0
176
     1
 90
       50
176
     1
 90
        3
176
     1
 62
     5
420
      255
176
     1
290
     0
176
     1
 90
       50
176
     1
 90
       50
176
     1
 90
       50
176
     1
290
     0
176
     1
 90
       50
176
     1
 62
   256
176
     0
 40
1.0
176
     0
 90
        2
176
     1
  1
strokes_ogs.tif
176
     1
290
     0
176
     1
 40
1.0
176
     1
 40
1.0
176
     1
  0
VISUALSTYLE
  5
A8
102
{ACAD_REACTORS
330
82
102
}
330
82
100
AcDbVisualStyle
  2
Sketchy
 70
    24
177
     3
291
     0
 70
    58
 90
        1
176
     1
 90
        2
176
     1
 90
        2
176
     1
 90
        0
176
     1
 40
0.6
176
     1
 40
30.0
176
     1
 62
     7
420
 16777215
176
     1
 90
        2
176
     1
 90
        2
176
     1
 62
     7
176
     1
 62
     7
176
     1
 90
        1
176
     1
 90
        1
176
     1
 40
40.0
176
     1
 90
       11
176
     1
 62
     7
176
     1
 40
1.0
176
     1
 90
        1
176
     1
 90
        6
176
     1
 90
        2
176
     1
 62
     7
176
     1
 90
        6
176
     1
 90
        0
176
     1
 90
        0
176
     1
290
     0
176
     1
 90
        1
176
     1
 40
0.0
176
     1
 90
        0
176
     1
290
     0
176
     1
290
     1
176
     1
290
     1
176
     1
290
     0
176
     1
290
     0
176
     1
290
     0
176
     1
290
     0
176
     1
290
     0
176
     1
290
     0
176
     1
 90
       50
176
     1
 40
0.0
176
     1
 40
1.0
176
     1
 90
        0
176
     1
 62
    18
420
        0
176
     1
 90
       50
176
     1
 90
        3
176
     1
 62
     5
420
      255
176
     1
290
     0
176
     1
 90
       50
176
     1
 90
       50
176
     1
 90
       50
176
     1
290
     0
176
     1
 90
       50
176
     1
 62
   256
176
     0
 40
1.0
176
     0
 90
        2
176
     1
  1
strokes_ogs.tif
176
     1
290
     0
176
     1
 40
1.0
176
     1
 40
1.0
176
     1
  0
VISUALSTYLE
  5
8F
102
{ACAD_REACTORS
330
82
102
}
330
82
100
AcDbVisualStyle
  2
Thicken
 70
    13
177
     3
291
     1
 70
    58
 90
        2
176
     1
 90
        2
176
     1
 90
        1
176
     1
 90
        0
176
     1
 40
0.6
176
     1
 40
30.0
176
     1
 62
     7
420
 16777215
176
     1
 90
        1
176
     1
 90
        4
176
     1
 62
     7
176
     1
 62
   257
176
     1
 90
        1
176
     1
 90
        1
176
     1
 40
1.0
176
     1
 90
       12
176
     1
 62
     7
176
     1
 40
1.0
176
     1
 90
        1
176
     1
 90
        6
176
     1
 90
        2
176
     1
 62
     7
176
     1
 90
        5
176
     1
 90
        0
176
     1
 90
        0
176
     1
290
     0
176
     1
 90
        1
176
     1
 40
0.0
176
     1
 90
        0
176
     1
290
     0
176
     1
290
     1
176
     1
290
     1
176
     1
290
     0
176
     1
290
     0
176
     1
290
     0
176
     1
290
     0
176
     1
290
     0
176
     1
290
     0
176
     1
 90
       50
176
     1
 40
0.0
176
     1
 40
1.0
176
     1
 90
        0
176
     1
 62
    18
420
        0
176
     1
 90
       50
176
     1
 90
        3
176
     1
 62
     5
420
      255
176
     1
290
     0
176
     1
 90
       50
176
     1
 90
       50
176
     1
 90
       50
176
     1
290
     0
176
     1
 90
       50
176
     1
 62
   256
176
     0
 40
1.0
176
     0
 90
        2
176
     1
  1
strokes_ogs.tif
176
     1
290
     0
176
     1
 40
1.0
176
     1
 40
1.0
176
     1
  0
VISUALSTYLE
  5
A5
102
{ACAD_REACTORS
330
82
102
}
330
82
100
AcDbVisualStyle
  2
Wireframe
 70
     5
177
     3
291
     0
 70
    58
 90
        0
176
     1
 90
        2
176
     1
 90
        0
176
     1
 90
        0
176
     1
 40
0.6
176
     1
 40
30.0
176
     1
 62
     7
420
 16777215
176
     1
 90
        1
176
     1
 90
        4
176
     1
 62
     7
176
     1
 62
   257
176
     1
 90
        1
176
     1
 90
        1
176
     1
 40
1.0
176
     1
 90
        0
176
     1
 62
   257
176
     1
 40
1.0
176
     1
 90
        1
176
     1
 90
        6
176
     1
 90
        2
176
     1
 62
     7
176
     1
 90
        3
176
     1
 90
        0
176
     1
 90
        0
176
     1
290
     0
176
     1
 90
        1
176
     1
 40
0.0
176
     1
 90
        0
176
     1
290
     0
176
     1
290
     1
176
     1
290
     1
176
     1
290
     0
176
     1
290
     0
176
     1
290
     0
176
     1
290
     0
176
     1
290
     0
176
     1
290
     0
176
     1
 90
       50
176
     1
 40
0.0
176
     1
 40
1.0
176
     1
 90
        0
176
     1
 62
    18
420
        0
176
     1
 90
       50
176
     1
 90
        3
176
     1
 62
     5
420
      255
176
     1
290
     0
176
     1
 90
       50
176
     1
 90
       50
176
     1
 90
       50
176
     1
290
     0
176
     1
 90
       50
176
     1
 62
   256
176
     0
 40
1.0
176
     0
 90
        2
176
     1
  1
strokes_ogs.tif
176
     1
290
     0
176
     1
 40
1.0
176
     1
 40
1.0
176
     1
  0
VISUALSTYLE
  5
A9
102
{ACAD_REACTORS
330
82
102
}
330
82
100
AcDbVisualStyle
  2
X-Ray
 70
    25
177
     3
291
     0
 70
    58
 90
        2
176
     1
 90
        2
176
     1
 90
        1
176
     1
 90
        1
176
     1
 40
0.5
176
     1
 40
30.0
176
     1
 62
     7
420
 16777215
176
     1
 90
        1
176
     1
 90
        0
176
     1
 62
     7
176
     1
 62
   257
176
     1
 90
        1
176
     1
 90
        1
176
     1
 40
1.0
176
     1
 90
        8
176
     1
 62
     7
176
     1
 40
1.0
176
     1
 90
        1
176
     1
 90
        6
176
     1
 90
        2
176
     1
 62
     7
176
     1
 90
        3
176
     1
 90
        0
176
     1
 90
        0
176
     1
290
     0
176
     1
 90
       13
176
     1
 40
0.0
176
     1
 90
        0
176
     1
290
     0
176
     1
290
     1
176
     1
290
     1
176
     1
290
     0
176
     1
290
     0
176
     1
290
     0
176
     1
290
     0
176
     1
290
     0
176
     1
290
     0
176
     1
 90
       50
176
     1
 40
0.0
176
     1
 40
1.0
176
     1
 90
        0
176
     1
 62
    18
420
        0
176
     1
 90
       50
176
     1
 90
        3
176
     1
 62
     5
420
      255
176
     1
290
     0
176
     1
 90
       50
176
     1
 90
       50
176
     1
 90
       50
176
     1
290
     0
176
     1
 90
       50
176
     1
 62
   256
176
     0
 40
1.0
176
     0
 90
        2
176
     1
  1
strokes_ogs.tif
176
     1
290
     0
176
     1
 40
1.0
176
     1
 40
1.0
176
     1
  0
DICTIONARYVAR
  5
364
102
{ACAD_REACTORS
330
9B
102
}
330
9B
100
DictionaryVariables
280
     0
  1
1:1
  0
DICTIONARYVAR
  5
360
102
{ACAD_REACTORS
330
9B
102
}
330
9B
100
DictionaryVariables
280
     0
  1
STANDARD
  0
DICTIONARYVAR
  5
9C
102
{ACAD_REACTORS
330
9B
102
}
330
9B
100
DictionaryVariables
280
     0
  1
STANDARD
  0
DICTIONARYVAR
  5
361
102
{ACAD_REACTORS
330
9B
102
}
330
9B
100
DictionaryVariables
280
     0
  1
Imperial24
  0
DICTIONARYVAR
  5
362
102
{ACAD_REACTORS
330
9B
102
}
330
9B
100
DictionaryVariables
280
     0
  1
Imperial24
  0
DICTIONARYVAR
  5
366
102
{ACAD_REACTORS
330
9B
102
}
330
9B
100
DictionaryVariables
280
     0
  1
1
  0
DICTIONARYVAR
  5
367
102
{ACAD_REACTORS
330
9B
102
}
330
9B
100
DictionaryVariables
280
     0
  1
15
  0
DICTIONARYVAR
  5
365
102
{ACAD_REACTORS
330
9B
102
}
330
9B
100
DictionaryVariables
280
     0
  1
0
  0
DICTIONARYVAR
  5
363
102
{ACAD_REACTORS
330
9B
102
}
330
9B
100
DictionaryVariables
280
     0
  1
0
  0
DICTIONARY
  5
36C
330
C6
100
AcDbDictionary
280
     1
281
     1
  3
ACAD_XREC_ROUNDTRIP
360
36D
  0
DICTIONARY
  5
36A
330
C4
100
AcDbDictionary
280
     1
281
     1
  3
ACAD_XREC_ROUNDTRIP
360
36B
  0
DICTIONARY
  5
368
330
94
100
AcDbDictionary
280
     1
281
     1
  3
ACAD_ROUNDTRIP_2008_TABLESTYLE_CELLSTYLEMAP
360
369
  0
XRECORD
  5
36D
102
{ACAD_REACTORS
330
36C
102
}
330
36C
100
AcDbXrecord
280
     1
102
DISPLAYNAME
  1
Imperial24
102
FLAGS
 90
        0
  0
XRECORD
  5
36B
102
{ACAD_REACTORS
330
36A
102
}
330
36A
100
AcDbXrecord
280
     1
102
DISPLAYNAME
  1
Imperial24
102
FLAGS
 90
        0
  0
CELLSTYLEMAP
  5
369
102
{ACAD_REACTORS
330
368
102
}
330
368
100
AcDbCellStyleMap
 90
        3
300
CELLSTYLE
  1
TABLEFORMAT_BEGIN
 90
        5
170
     1
 91
        0
 92
    32768
 62
   257
 93
        1
300
CONTENTFORMAT
  1
CONTENTFORMAT_BEGIN
 90
        0
 91
        0
 92
      512
 93
        0
300

 40
0.0
140
1.0
 94
        5
 62
     0
340
12
144
0.25
309
CONTENTFORMAT_END
171
     0
 94
        6
 95
        1
302
GRIDFORMAT
  1
GRIDFORMAT_BEGIN
 90
        0
 91
        1
 62
     0
 92
       -2
340
0
 93
        0
 40
0.045
309
GRIDFORMAT_END
 95
        2
302
GRIDFORMAT
  1
GRIDFORMAT_BEGIN
 90
        0
 91
        1
 62
     0
 92
       -2
340
0
 93
        0
 40
0.045
309
GRIDFORMAT_END
 95
        4
302
GRIDFORMAT
  1
GRIDFORMAT_BEGIN
 90
        0
 91
        1
 62
     0
 92
       -2
340
0
 93
        0
 40
0.045
309
GRIDFORMAT_END
 95
        8
302
GRIDFORMAT
  1
GRIDFORMAT_BEGIN
 90
        0
 91
        1
 62
     0
 92
       -2
340
0
 93
        0
 40
0.045
309
GRIDFORMAT_END
 95
       16
302
GRIDFORMAT
  1
GRIDFORMAT_BEGIN
 90
        0
 91
        1
 62
     0
 92
       -2
340
0
 93
        0
 40
0.045
309
GRIDFORMAT_END
 95
       32
302
GRIDFORMAT
  1
GRIDFORMAT_BEGIN
 90
        0
 91
        1
 62
     0
 92
       -2
340
0
 93
        0
 40
0.045
309
GRIDFORMAT_END
309
TABLEFORMAT_END
  1
CELLSTYLE_BEGIN
 90
        1
 91
        1
300
_TITLE
309
CELLSTYLE_END
300
CELLSTYLE
  1
TABLEFORMAT_BEGIN
 90
        5
170
     1
 91
        0
 92
        0
 62
   257
 93
        1
300
CONTENTFORMAT
  1
CONTENTFORMAT_BEGIN
 90
        0
 91
        0
 92
      512
 93
        0
300

 40
0.0
140
1.0
 94
        5
 62
     0
340
12
144
0.18
309
CONTENTFORMAT_END
171
     0
 94
        6
 95
        1
302
GRIDFORMAT
  1
GRIDFORMAT_BEGIN
 90
        0
 91
        1
 62
     0
 92
       -2
340
0
 93
        0
 40
0.045
309
GRIDFORMAT_END
 95
        2
302
GRIDFORMAT
  1
GRIDFORMAT_BEGIN
 90
        0
 91
        1
 62
     0
 92
       -2
340
0
 93
        0
 40
0.045
309
GRIDFORMAT_END
 95
        4
302
GRIDFORMAT
  1
GRIDFORMAT_BEGIN
 90
        0
 91
        1
 62
     0
 92
       -2
340
0
 93
        0
 40
0.045
309
GRIDFORMAT_END
 95
        8
302
GRIDFORMAT
  1
GRIDFORMAT_BEGIN
 90
        0
 91
        1
 62
     0
 92
       -2
340
0
 93
        0
 40
0.045
309
GRIDFORMAT_END
 95
       16
302
GRIDFORMAT
  1
GRIDFORMAT_BEGIN
 90
        0
 91
        1
 62
     0
 92
       -2
340
0
 93
        0
 40
0.045
309
GRIDFORMAT_END
 95
       32
302
GRIDFORMAT
  1
GRIDFORMAT_BEGIN
 90
        0
 91
        1
 62
     0
 92
       -2
340
0
 93
        0
 40
0.045
309
GRIDFORMAT_END
309
TABLEFORMAT_END
  1
CELLSTYLE_BEGIN
 90
        2
 91
        1
300
_HEADER
309
CELLSTYLE_END
300
CELLSTYLE
  1
TABLEFORMAT_BEGIN
 90
        5
170
     1
 91
        0
 92
        0
 62
   257
 93
        1
300
CONTENTFORMAT
  1
CONTENTFORMAT_BEGIN
 90
        0
 91
        0
 92
      512
 93
        0
300

 40
0.0
140
1.0
 94
        2
 62
     0
340
12
144
0.18
309
CONTENTFORMAT_END
171
     0
 94
        6
 95
        1
302
GRIDFORMAT
  1
GRIDFORMAT_BEGIN
 90
        0
 91
        1
 62
     0
 92
       -2
340
0
 93
        0
 40
0.045
309
GRIDFORMAT_END
 95
        2
302
GRIDFORMAT
  1
GRIDFORMAT_BEGIN
 90
        0
 91
        1
 62
     0
 92
       -2
340
0
 93
        0
 40
0.045
309
GRIDFORMAT_END
 95
        4
302
GRIDFORMAT
  1
GRIDFORMAT_BEGIN
 90
        0
 91
        1
 62
     0
 92
       -2
340
0
 93
        0
 40
0.045
309
GRIDFORMAT_END
 95
        8
302
GRIDFORMAT
  1
GRIDFORMAT_BEGIN
 90
        0
 91
        1
 62
     0
 92
       -2
340
0
 93
        0
 40
0.045
309
GRIDFORMAT_END
 95
       16
302
GRIDFORMAT
  1
GRIDFORMAT_BEGIN
 90
        0
 91
        1
 62
     0
 92
       -2
340
0
 93
        0
 40
0.045
309
GRIDFORMAT_END
 95
       32
302
GRIDFORMAT
  1
GRIDFORMAT_BEGIN
 90
        0
 91
        1
 62
     0
 92
       -2
340
0
 93
        0
 40
0.045
309
GRIDFORMAT_END
309
TABLEFORMAT_END
  1
CELLSTYLE_BEGIN
 90
        3
 91
        2
300
_DATA
309
CELLSTYLE_END
  0
ENDSEC
  0
EOF
