  0
SECTION
  2
HEADER
  9
$ACADVER
  1
AC1015
  9
$ACADMAINTVER
 70
     6
  9
$DWGCODEPAGE
  3
ANSI_932
  9
$INSBASE
 10
0.0
 20
0.0
 30
0.0
  9
$EXTMIN
 10
1.000000000000000E+20
 20
1.000000000000000E+20
 30
1.000000000000000E+20
  9
$EXTMAX
 10
-1.000000000000000E+20
 20
-1.000000000000000E+20
 30
-1.000000000000000E+20
  9
$LIMMIN
 10
0.0
 20
0.0
  9
$LIMMAX
 10
12.0
 20
9.0
  9
$ORTHOMODE
 70
     0
  9
$REGENMODE
 70
     1
  9
$FILLMODE
 70
     1
  9
$QTEXTMODE
 70
     0
  9
$MIRRTEXT
 70
     1
  9
$LTSCALE
 40
1.0
  9
$ATTMODE
 70
     1
  9
$TEXTSIZE
 40
0.2
  9
$TRACEWID
 40
0.05
  9
$TEXTSTYLE
  7
Standard
  9
$CLAYER
  8
0
  9
$CELTYPE
  6
ByLayer
  9
$CECOLOR
 62
   256
  9
$CELTSCALE
 40
1.0
  9
$DISPSILH
 70
     0
  9
$DIMSCALE
 40
1.0
  9
$DIMASZ
 40
0.18
  9
$DIMEXO
 40
0.0625
  9
$DIMDLI
 40
0.38
  9
$DIMRND
 40
0.0
  9
$DIMDLE
 40
0.0
  9
$DIMEXE
 40
0.18
  9
$DIMTP
 40
0.0
  9
$DIMTM
 40
0.0
  9
$DIMTXT
 40
0.18
  9
$DIMCEN
 40
0.09
  9
$DIMTSZ
 40
0.0
  9
$DIMTOL
 70
     0
  9
$DIMLIM
 70
     0
  9
$DIMTIH
 70
     1
  9
$DIMTOH
 70
     1
  9
$DIMSE1
 70
     0
  9
$DIMSE2
 70
     0
  9
$DIMTAD
 70
     0
  9
$DIMZIN
 70
     0
  9
$DIMBLK
  1

  9
$DIMASO
 70
     1
  9
$DIMSHO
 70
     1
  9
$DIMPOST
  1

  9
$DIMAPOST
  1

  9
$DIMALT
 70
     0
  9
$DIMALTD
 70
     2
  9
$DIMALTF
 40
25.4
  9
$DIMLFAC
 40
1.0
  9
$DIMTOFL
 70
     0
  9
$DIMTVP
 40
0.0
  9
$DIMTIX
 70
     0
  9
$DIMSOXD
 70
     0
  9
$DIMSAH
 70
     0
  9
$DIMBLK1
  1

  9
$DIMBLK2
  1

  9
$DIMSTYLE
  2
Standard
  9
$DIMCLRD
 70
     0
  9
$DIMCLRE
 70
     0
  9
$DIMCLRT
 70
     0
  9
$DIMTFAC
 40
1.0
  9
$DIMGAP
 40
0.09
  9
$DIMJUST
 70
     0
  9
$DIMSD1
 70
     0
  9
$DIMSD2
 70
     0
  9
$DIMTOLJ
 70
     1
  9
$DIMTZIN
 70
     0
  9
$DIMALTZ
 70
     0
  9
$DIMALTTZ
 70
     0
  9
$DIMUPT
 70
     0
  9
$DIMDEC
 70
     4
  9
$DIMTDEC
 70
     4
  9
$DIMALTU
 70
     2
  9
$DIMALTTD
 70
     2
  9
$DIMTXSTY
  7
Standard
  9
$DIMAUNIT
 70
     0
  9
$DIMADEC
 70
     0
  9
$DIMALTRND
 40
0.0
  9
$DIMAZIN
 70
     0
  9
$DIMDSEP
 70
    46
  9
$DIMATFIT
 70
     3
  9
$DIMFRAC
 70
     0
  9
$DIMLDRBLK
  1

  9
$DIMLUNIT
 70
     2
  9
$DIMLWD
 70
    -2
  9
$DIMLWE
 70
    -2
  9
$DIMTMOVE
 70
     0
  9
$LUNITS
 70
     2
  9
$LUPREC
 70
     4
  9
$SKETCHINC
 40
0.1
  9
$FILLETRAD
 40
0.5
  9
$AUNITS
 70
     0
  9
$AUPREC
 70
     0
  9
$MENU
  1
.
  9
$ELEVATION
 40
0.0
  9
$PELEVATION
 40
0.0
  9
$THICKNESS
 40
0.0
  9
$LIMCHECK
 70
     0
  9
$CHAMFERA
 40
0.5
  9
$CHAMFERB
 40
0.5
  9
$CHAMFERC
 40
1.0
  9
$CHAMFERD
 40
0.0
  9
$SKPOLY
 70
     0
  9
$TDCREATE
 40
2457163.538796296
  9
$TDUCREATE
 40
2457163.49712963
  9
$TDUPDATE
 40
2457163.538796308
  9
$TDUUPDATE
 40
2457163.497129641
  9
$TDINDWG
 40
0.0000000116
  9
$TDUSRTIMER
 40
0.0000000116
  9
$USRTIMER
 70
     1
  9
$ANGBASE
 50
0.0
  9
$ANGDIR
 70
     0
  9
$PDMODE
 70
     0
  9
$PDSIZE
 40
0.0
  9
$PLINEWID
 40
0.0
  9
$SPLFRAME
 70
     0
  9
$SPLINETYPE
 70
     6
  9
$SPLINESEGS
 70
     8
  9
$HANDSEED
  5
87
  9
$SURFTAB1
 70
     6
  9
$SURFTAB2
 70
     6
  9
$SURFTYPE
 70
     6
  9
$SURFU
 70
     6
  9
$SURFV
 70
     6
  9
$UCSBASE
  2

  9
$UCSNAME
  2

  9
$UCSORG
 10
0.0
 20
0.0
 30
0.0
  9
$UCSXDIR
 10
1.0
 20
0.0
 30
0.0
  9
$UCSYDIR
 10
0.0
 20
1.0
 30
0.0
  9
$UCSORTHOREF
  2

  9
$UCSORTHOVIEW
 70
     0
  9
$UCSORGTOP
 10
0.0
 20
0.0
 30
0.0
  9
$UCSORGBOTTOM
 10
0.0
 20
0.0
 30
0.0
  9
$UCSORGLEFT
 10
0.0
 20
0.0
 30
0.0
  9
$UCSORGRIGHT
 10
0.0
 20
0.0
 30
0.0
  9
$UCSORGFRONT
 10
0.0
 20
0.0
 30
0.0
  9
$UCSORGBACK
 10
0.0
 20
0.0
 30
0.0
  9
$PUCSBASE
  2

  9
$PUCSNAME
  2

  9
$PUCSORG
 10
0.0
 20
0.0
 30
0.0
  9
$PUCSXDIR
 10
1.0
 20
0.0
 30
0.0
  9
$PUCSYDIR
 10
0.0
 20
1.0
 30
0.0
  9
$PUCSORTHOREF
  2

  9
$PUCSORTHOVIEW
 70
     0
  9
$PUCSORGTOP
 10
0.0
 20
0.0
 30
0.0
  9
$PUCSORGBOTTOM
 10
0.0
 20
0.0
 30
0.0
  9
$PUCSORGLEFT
 10
0.0
 20
0.0
 30
0.0
  9
$PUCSORGRIGHT
 10
0.0
 20
0.0
 30
0.0
  9
$PUCSORGFRONT
 10
0.0
 20
0.0
 30
0.0
  9
$PUCSORGBACK
 10
0.0
 20
0.0
 30
0.0
  9
$USERI1
 70
     0
  9
$USERI2
 70
     0
  9
$USERI3
 70
     0
  9
$USERI4
 70
     0
  9
$USERI5
 70
     0
  9
$USERR1
 40
0.0
  9
$USERR2
 40
0.0
  9
$USERR3
 40
0.0
  9
$USERR4
 40
0.0
  9
$USERR5
 40
0.0
  9
$WORLDVIEW
 70
     1
  9
$SHADEDGE
 70
     3
  9
$SHADEDIF
 70
    70
  9
$TILEMODE
 70
     1
  9
$MAXACTVP
 70
    64
  9
$PINSBASE
 10
0.0
 20
0.0
 30
0.0
  9
$PLIMCHECK
 70
     0
  9
$PEXTMIN
 10
1.000000000000000E+20
 20
1.000000000000000E+20
 30
1.000000000000000E+20
  9
$PEXTMAX
 10
-1.000000000000000E+20
 20
-1.000000000000000E+20
 30
-1.000000000000000E+20
  9
$PLIMMIN
 10
0.0
 20
0.0
  9
$PLIMMAX
 10
12.0
 20
9.0
  9
$UNITMODE
 70
     0
  9
$VISRETAIN
 70
     1
  9
$PLINEGEN
 70
     0
  9
$PSLTSCALE
 70
     1
  9
$TREEDEPTH
 70
  3020
  9
$CMLSTYLE
  2
Standard
  9
$CMLJUST
 70
     0
  9
$CMLSCALE
 40
1.0
  9
$PROXYGRAPHICS
 70
     1
  9
$MEASUREMENT
 70
     0
  9
$CELWEIGHT
370
    -1
  9
$ENDCAPS
280
     0
  9
$JOINSTYLE
280
     0
  9
$LWDISPLAY
290
     1
  9
$INSUNITS
 70
     1
  9
$HYPERLINKBASE
  1

  9
$STYLESHEET
  1

  9
$XEDIT
290
     1
  9
$CEPSNTYPE
380
     0
  9
$PSTYLEMODE
290
     1
  9
$FINGERPRINTGUID
  2
{B277FA0D-CD04-BB6B-DAA8-A3DF0BEF1FA2}
  9
$VERSIONGUID
  2
{FAEB1C32-E019-11D5-929B-00C0DF256EC4}
  9
$EXTNAMES
290
     1
  9
$PSVPSCALE
 40
0.0
  9
$OLESTARTUP
290
     0
  0
ENDSEC
  0
SECTION
  2
CLASSES
  0
CLASS
  1
ACDBDICTIONARYWDFLT
  2
AcDbDictionaryWithDefault
  3
ObjectDBX Classes
 90
        0
280
     0
281
     0
  0
CLASS
  1
VISUALSTYLE
  2
AcDbVisualStyle
  3
ObjectDBX Classes
 90
     4095
280
     0
281
     0
  0
CLASS
  1
ACDBPLACEHOLDER
  2
AcDbPlaceHolder
  3
ObjectDBX Classes
 90
        0
280
     0
281
     0
  0
CLASS
  1
LAYOUT
  2
AcDbLayout
  3
ObjectDBX Classes
 90
        0
280
     0
281
     0
  0
ENDSEC
  0
SECTION
  2
TABLES
  0
TABLE
  2
VPORT
  5
8
330
0
100
AcDbSymbolTable
 70
     1
  0
VPORT
  5
29
330
8
100
AcDbSymbolTableRecord
100
AcDbViewportTableRecord
  2
*Active
 70
     0
 10
0.0
 20
0.0
 11
1.0
 21
1.0
 12
0.0
 22
0.0
 13
0.0
 23
0.0
 14
0.5
 24
0.5
 15
0.5
 25
0.5
 16
0.0
 26
0.0
 36
1.0
 17
104.6471869313035
 27
148.4996351082744
 37
0.0
 40
296.9999592356459
 41
0.7070705664688927
 42
50.0
 43
0.0
 44
0.0
 50
0.0
 51
0.0
 71
     0
 72
   100
 73
     1
 74
     3
 75
     0
 76
     0
 77
     0
 78
     0
281
     0
 65
     1
110
0.0
120
0.0
130
0.0
111
1.0
121
0.0
131
0.0
112
0.0
122
1.0
132
0.0
 79
     0
146
0.0
  0
ENDTAB
  0
TABLE
  2
LTYPE
  5
5
330
0
100
AcDbSymbolTable
 70
     7
  0
LTYPE
  5
14
330
5
100
AcDbSymbolTableRecord
100
AcDbLinetypeTableRecord
  2
ByBlock
 70
     0
  3

 72
    65
 73
     0
 40
0.0
  0
LTYPE
  5
15
330
5
100
AcDbSymbolTableRecord
100
AcDbLinetypeTableRecord
  2
ByLayer
 70
     0
  3

 72
    65
 73
     0
 40
0.0
  0
LTYPE
  5
16
330
5
100
AcDbSymbolTableRecord
100
AcDbLinetypeTableRecord
  2
Continuous
 70
     0
  3
Solid line
 72
    65
 73
     0
 40
0.0
  0
LTYPE
  5
44
330
5
100
AcDbSymbolTableRecord
100
AcDbLinetypeTableRecord
  2
AI-Linetype-1
 70
     0
  3
Adobe Illustrator Linetype No. 1
 72
    65
 73
     2
 40
0.529166666534375
 49
0.3527777776895833
 74
     0
 49
-0.1763888888447917
 74
     0
  0
LTYPE
  5
55
330
5
100
AcDbSymbolTableRecord
100
AcDbLinetypeTableRecord
  2
AI-Linetype-2
 70
     0
  3
Adobe Illustrator Linetype No. 2
 72
    65
 73
     2
 40
0.529166666534375
 49
0.3527777776895833
 74
     0
 49
-0.1763888888447917
 74
     0
  0
LTYPE
  5
5C
330
5
100
AcDbSymbolTableRecord
100
AcDbLinetypeTableRecord
  2
AI-Linetype-3
 70
     0
  3
Adobe Illustrator Linetype No. 3
 72
    65
 73
     2
 40
1.05833333306875
 49
0.7055555553791667
 74
     0
 49
-0.3527777776895833
 74
     0
  0
LTYPE
  5
69
330
5
100
AcDbSymbolTableRecord
100
AcDbLinetypeTableRecord
  2
AI-Linetype-4
 70
     0
  3
Adobe Illustrator Linetype No. 4
 72
    65
 73
     2
 40
0.529166666534375
 49
0.3527777776895833
 74
     0
 49
-0.1763888888447917
 74
     0
  0
LTYPE
  5
73
330
5
100
AcDbSymbolTableRecord
100
AcDbLinetypeTableRecord
  2
AI-Linetype-5
 70
     0
  3
Adobe Illustrator Linetype No. 5
 72
    65
 73
     2
 40
0.529166666534375
 49
0.3527777776895833
 74
     0
 49
-0.1763888888447917
 74
     0
  0
LTYPE
  5
7D
330
5
100
AcDbSymbolTableRecord
100
AcDbLinetypeTableRecord
  2
AI-Linetype-6
 70
     0
  3
Adobe Illustrator Linetype No. 6
 72
    65
 73
     2
 40
0.529166666534375
 49
0.3527777776895833
 74
     0
 49
-0.1763888888447917
 74
     0
  0
ENDTAB
  0
TABLE
  2
LAYER
  5
2
330
0
100
AcDbSymbolTable
 70
     4
  0
LAYER
  5
10
330
2
100
AcDbSymbolTableRecord
100
AcDbLayerTableRecord
  2
0
 70
     0
 62
     7
  6
Continuous
370
    -3
390
F
  0
LAYER
  5
3B
330
2
100
AcDbSymbolTableRecord
100
AcDbLayerTableRecord
  2
Ebene 1
 70
     0
 62
     7
  6
Continuous
370
    -3
390
F
  0
LAYER
  5
3C
330
2
100
AcDbSymbolTableRecord
100
AcDbLayerTableRecord
  2
Vermassung
 70
     0
 62
     7
  6
Continuous
370
    -3
390
F
  0
LAYER
  5
3D
330
2
100
AcDbSymbolTableRecord
100
AcDbLayerTableRecord
  2
Maske
 70
     0
 62
     7
  6
Continuous
370
    -3
390
F
  0
ENDTAB
  0
TABLE
  2
STYLE
  5
3
330
0
100
AcDbSymbolTable
 70
     1
  0
STYLE
  5
11
330
3
100
AcDbSymbolTableRecord
100
AcDbTextStyleTableRecord
  2
Standard
 70
     0
 40
0.0
 41
1.0
 50
0.0
 71
     0
 42
0.2
  3
txt
  4

  0
ENDTAB
  0
TABLE
  2
VIEW
  5
6
330
0
100
AcDbSymbolTable
 70
     0
  0
ENDTAB
  0
TABLE
  2
UCS
  5
7
330
0
100
AcDbSymbolTable
 70
     0
  0
ENDTAB
  0
TABLE
  2
APPID
  5
9
330
0
100
AcDbSymbolTable
 70
     1
  0
APPID
  5
12
330
9
100
AcDbSymbolTableRecord
100
AcDbRegAppTableRecord
  2
ACAD
 70
     0
  0
ENDTAB
  0
TABLE
  2
DIMSTYLE
  5
A
330
0
100
AcDbSymbolTable
 70
     1
100
AcDbDimStyleTable
  0
DIMSTYLE
105
27
330
A
100
AcDbSymbolTableRecord
100
AcDbDimStyleTableRecord
  2
Standard
 70
     0
340
11
  0
ENDTAB
  0
TABLE
  2
BLOCK_RECORD
  5
1
330
0
100
AcDbSymbolTable
 70
     1
  0
BLOCK_RECORD
  5
1F
330
1
100
AcDbSymbolTableRecord
100
AcDbBlockTableRecord
  2
*Model_Space
340
22
  0
BLOCK_RECORD
  5
1B
330
1
100
AcDbSymbolTableRecord
100
AcDbBlockTableRecord
  2
*Paper_Space
340
1E
  0
BLOCK_RECORD
  5
23
330
1
100
AcDbSymbolTableRecord
100
AcDbBlockTableRecord
  2
*Paper_Space0
340
26
  0
ENDTAB
  0
ENDSEC
  0
SECTION
  2
BLOCKS
  0
BLOCK
  5
20
330
1F
100
AcDbEntity
  8
0
100
AcDbBlockBegin
  2
*Model_Space
 70
     0
 71
     0
 10
0.0
 20
0.0
 30
0.0
  3
*Model_Space
  1

  0
ENDBLK
  5
21
330
1F
100
AcDbEntity
  8
0
100
AcDbBlockEnd
  0
BLOCK
  5
1C
330
1B
100
AcDbEntity
 67
     1
  8
0
100
AcDbBlockBegin
  2
*Paper_Space
 70
     0
 71
     0
 10
0.0
 20
0.0
 30
0.0
  3
*Paper_Space
  1

  0
ENDBLK
  5
1D
330
1B
100
AcDbEntity
 67
     1
  8
0
100
AcDbBlockEnd
  0
BLOCK
  5
24
330
23
100
AcDbEntity
  8
0
100
AcDbBlockBegin
  2
*Paper_Space0
 70
     0
 71
     0
 10
0.0
 20
0.0
 30
0.0
  3
*Paper_Space0
  1

  0
ENDBLK
  5
25
330
23
100
AcDbEntity
  8
0
100
AcDbBlockEnd
  0
ENDSEC
  0
SECTION
  2
ENTITIES
  0
POLYLINE
  5
3E
330
1F
100
AcDbEntity
  8
Maske
 62
     7
370
     9
100
AcDb2dPolyline
 66
     1
 10
0.0
 20
0.0
 30
0.0
  0
VERTEX
  5
3F
330
3E
100
AcDbEntity
  8
Maske
 62
     7
370
     9
100
AcDbVertex
100
AcDb2dVertex
 10
291.0423556130033
 20
14.21343044349525
 30
0.0
  0
VERTEX
  5
40
330
3E
100
AcDbEntity
  8
Maske
 62
     7
370
     9
100
AcDbVertex
100
AcDb2dVertex
 10
260.5894340711374
 20
14.21343044349525
 30
0.0
  0
VERTEX
  5
41
330
3E
100
AcDbEntity
  8
Maske
 62
     7
370
     9
100
AcDbVertex
100
AcDb2dVertex
 10
230.1203205804908
 20
14.21343044349525
 30
0.0
  0
SEQEND
  5
42
330
3E
100
AcDbEntity
  8
Maske
370
     9
  0
SPLINE
  5
43
330
1F
100
AcDbEntity
  8
Maske
  6
AI-Linetype-1
 62
     7
370
    18
100
AcDbSpline
210
0.0
220
0.0
230
1.0
 70
    11
 71
     3
 72
    17
 73
    13
 74
     0
 42
0.0000000001
 43
0.0000000001
 40
0.0
 40
0.0
 40
0.0
 40
0.0
 40
1.0
 40
1.0
 40
1.0
 40
2.0
 40
2.0
 40
2.0
 40
3.0
 40
3.0
 40
3.0
 40
4.0
 40
4.0
 40
4.0
 40
4.0
 10
330.5365857463589
 20
84.1991671881516
 30
0.0
 10
330.5365857463589
 20
89.70890839771167
 30
0.0
 10
326.0734645452177
 20
94.1882215476335
 30
0.0
 10
320.5637233356577
 20
94.1882215476335
 30
0.0
 10
315.0374456677685
 20
94.1882215476335
 30
0.0
 10
310.563644670623
 20
89.70890839771167
 30
0.0
 10
310.563644670623
 20
84.1991671881516
 30
0.0
 10
310.563644670623
 20
78.68942597859153
 30
0.0
 10
315.0374456677685
 20
74.21528047189757
 30
0.0
 10
320.5637233356577
 20
74.21528047189757
 30
0.0
 10
326.0734645452177
 20
74.21528047189757
 30
0.0
 10
330.5365857463589
 20
78.68942597859153
 30
0.0
 10
330.5365857463589
 20
84.1991671881516
 30
0.0
  0
POLYLINE
  5
45
330
1F
100
AcDbEntity
  8
Maske
 62
     7
370
     9
100
AcDb2dPolyline
 66
     1
 10
0.0
 20
0.0
 30
0.0
  0
VERTEX
  5
46
330
45
100
AcDbEntity
  8
Maske
 62
     7
370
     9
100
AcDbVertex
100
AcDb2dVertex
 10
305.3126301320052
 20
84.1991671881516
 30
0.0
  0
VERTEX
  5
47
330
45
100
AcDbEntity
  8
Maske
 62
     7
370
     9
100
AcDbVertex
100
AcDb2dVertex
 10
320.5637233356577
 20
84.1991671881516
 30
0.0
  0
VERTEX
  5
48
330
45
100
AcDbEntity
  8
Maske
 62
     7
370
     9
100
AcDbVertex
100
AcDb2dVertex
 10
335.7817436226518
 20
84.1991671881516
 30
0.0
  0
SEQEND
  5
49
330
45
100
AcDbEntity
  8
Maske
370
     9
  0
POLYLINE
  5
4A
330
1F
100
AcDbEntity
  8
Maske
 62
     7
370
     9
100
AcDb2dPolyline
 66
     1
 10
0.0
 20
0.0
 30
0.0
  0
VERTEX
  5
4B
330
4A
100
AcDbEntity
  8
Maske
 62
     7
370
     9
100
AcDbVertex
100
AcDb2dVertex
 10
320.5637233356577
 20
68.96461044282829
 30
0.0
  0
VERTEX
  5
4C
330
4A
100
AcDbEntity
  8
Maske
 62
     7
370
     9
100
AcDbVertex
100
AcDb2dVertex
 10
320.5637233356577
 20
84.1991671881516
 30
0.0
  0
VERTEX
  5
4D
330
4A
100
AcDbEntity
  8
Maske
 62
     7
370
     9
100
AcDbVertex
100
AcDb2dVertex
 10
320.5637233356577
 20
99.43372393347491
 30
0.0
  0
SEQEND
  5
4E
330
4A
100
AcDbEntity
  8
Maske
370
     9
  0
POLYLINE
  5
4F
330
1F
100
AcDbEntity
  8
Maske
 62
     7
370
     9
100
AcDb2dPolyline
 66
     1
 10
0.0
 20
0.0
 30
0.0
  0
VERTEX
  5
50
330
4F
100
AcDbEntity
  8
Maske
 62
     7
370
     9
100
AcDbVertex
100
AcDb2dVertex
 10
200.5986083482879
 20
68.96461044282829
 30
0.0
  0
VERTEX
  5
51
330
4F
100
AcDbEntity
  8
Maske
 62
     7
370
     9
100
AcDbVertex
100
AcDb2dVertex
 10
200.5986083482879
 20
84.1991671881516
 30
0.0
  0
VERTEX
  5
52
330
4F
100
AcDbEntity
  8
Maske
 62
     7
370
     9
100
AcDbVertex
100
AcDb2dVertex
 10
200.5986083482879
 20
99.43372393347491
 30
0.0
  0
SEQEND
  5
53
330
4F
100
AcDbEntity
  8
Maske
370
     9
  0
SPLINE
  5
54
330
1F
100
AcDbEntity
  8
Maske
  6
AI-Linetype-2
 62
     7
370
    18
100
AcDbSpline
210
0.0
220
0.0
230
1.0
 70
    11
 71
     3
 72
    17
 73
    13
 74
     0
 42
0.0000000001
 43
0.0000000001
 40
0.0
 40
0.0
 40
0.0
 40
0.0
 40
1.0
 40
1.0
 40
1.0
 40
2.0
 40
2.0
 40
2.0
 40
3.0
 40
3.0
 40
3.0
 40
4.0
 40
4.0
 40
4.0
 40
4.0
 10
210.5880072173183
 20
84.1991671881516
 30
0.0
 10
210.5880072173183
 20
89.70890839771167
 30
0.0
 10
206.1083495578479
 20
94.1882215476335
 30
0.0
 10
200.5986083482879
 20
94.1882215476335
 30
0.0
 10
195.0888671387278
 20
94.1882215476335
 30
0.0
 10
190.6150661415824
 20
89.70890839771167
 30
0.0
 10
190.6150661415824
 20
84.1991671881516
 30
0.0
 10
190.6150661415824
 20
78.68942597859153
 30
0.0
 10
195.0888671387278
 20
74.21528047189757
 30
0.0
 10
200.5986083482879
 20
74.21528047189757
 30
0.0
 10
206.1083495578479
 20
74.21528047189757
 30
0.0
 10
210.5880072173183
 20
78.68942597859153
 30
0.0
 10
210.5880072173183
 20
84.1991671881516
 30
0.0
  0
POLYLINE
  5
56
330
1F
100
AcDbEntity
  8
Maske
 62
     7
370
     9
100
AcDb2dPolyline
 66
     1
 10
0.0
 20
0.0
 30
0.0
  0
VERTEX
  5
57
330
56
100
AcDbEntity
  8
Maske
 62
     7
370
     9
100
AcDbVertex
100
AcDb2dVertex
 10
186.2070664682052
 20
84.1991671881516
 30
0.0
  0
VERTEX
  5
58
330
56
100
AcDbEntity
  8
Maske
 62
     7
370
     9
100
AcDbVertex
100
AcDb2dVertex
 10
200.5986083482879
 20
84.1991671881516
 30
0.0
  0
VERTEX
  5
59
330
56
100
AcDbEntity
  8
Maske
 62
     7
370
     9
100
AcDbVertex
100
AcDb2dVertex
 10
214.9794704323662
 20
84.1991671881516
 30
0.0
  0
SEQEND
  5
5A
330
56
100
AcDbEntity
  8
Maske
370
     9
  0
SPLINE
  5
5B
330
1F
100
AcDbEntity
  8
Maske
  6
AI-Linetype-3
 62
     7
370
    18
100
AcDbSpline
210
0.0
220
0.0
230
1.0
 70
    11
 71
     3
 72
    17
 73
    13
 74
     0
 42
0.0000000001
 43
0.0000000001
 40
0.0
 40
0.0
 40
0.0
 40
0.0
 40
1.0
 40
1.0
 40
1.0
 40
2.0
 40
2.0
 40
2.0
 40
3.0
 40
3.0
 40
3.0
 40
4.0
 40
4.0
 40
4.0
 40
4.0
 10
280.5461831980926
 20
14.21343044349525
 30
0.0
 10
280.5461831980926
 20
25.23325737216391
 30
0.0
 10
271.5927245414769
 20
34.18671602877971
 30
0.0
 10
260.5728976128082
 20
34.18671602877971
 30
0.0
 10
249.553415193688
 20
34.18671602877971
 30
0.0
 10
240.5999565370722
 20
25.23325737216391
 30
0.0
 10
240.5999565370722
 20
14.21343044349525
 30
0.0
 10
240.5999565370722
 20
3.177411566045925
 30
0.0
 10
249.553415193688
 20
-5.776047090569877
 30
0.0
 10
260.5728976128082
 20
-5.776047090569877
 30
0.0
 10
271.5927245414769
 20
-5.776047090569877
 30
0.0
 10
280.5461831980926
 20
3.177411566045925
 30
0.0
 10
280.5461831980926
 20
14.21343044349525
 30
0.0
  0
POLYLINE
  5
5D
330
1F
100
AcDbEntity
  8
Maske
 62
     7
370
     9
100
AcDb2dPolyline
 66
     1
 10
0.0
 20
0.0
 30
0.0
  0
VERTEX
  5
5E
330
5D
100
AcDbEntity
  8
Maske
 62
     7
370
     9
100
AcDbVertex
100
AcDb2dVertex
 10
260.5728976128082
 20
-16.25568304715136
 30
0.0
  0
VERTEX
  5
5F
330
5D
100
AcDbEntity
  8
Maske
 62
     7
370
     9
100
AcDbVertex
100
AcDb2dVertex
 10
260.5728976128082
 20
14.21343044349525
 30
0.0
  0
VERTEX
  5
60
330
5D
100
AcDbEntity
  8
Maske
 62
     7
370
     9
100
AcDbVertex
100
AcDb2dVertex
 10
260.5728976128082
 20
44.68840059646679
 30
0.0
  0
SEQEND
  5
61
330
5D
100
AcDbEntity
  8
Maske
370
     9
  0
SPLINE
  5
62
330
1F
100
AcDbEntity
  8
Maske
 62
     7
370
    35
100
AcDbSpline
210
0.0
220
0.0
230
1.0
 70
    11
 71
     3
 72
    41
 73
    37
 74
     0
 42
0.0000000001
 43
0.0000000001
 40
0.0
 40
0.0
 40
0.0
 40
0.0
 40
1.0
 40
1.0
 40
1.0
 40
2.0
 40
2.0
 40
2.0
 40
3.0
 40
3.0
 40
3.0
 40
4.0
 40
4.0
 40
4.0
 40
5.0
 40
5.0
 40
5.0
 40
6.0
 40
6.0
 40
6.0
 40
7.0
 40
7.0
 40
7.0
 40
8.0
 40
8.0
 40
8.0
 40
9.0
 40
9.0
 40
9.0
 40
10.0
 40
10.0
 40
10.0
 40
11.0
 40
11.0
 40
11.0
 40
12.0
 40
12.0
 40
12.0
 40
12.0
 10
556.0087834981506
 20
214.1753851461089
 30
0.0
 10
556.0087834981506
 20
214.1753851461089
 30
0.0
 10
-334.0178547342039
 20
214.1753851461089
 30
0.0
 10
-334.0178547342039
 20
214.1753851461089
 30
0.0
 10
-335.6542750896975
 20
214.1753851461089
 30
0.0
 10
-336.9932114500399
 20
215.4867607425693
 30
0.0
 10
-337.0207722139219
 20
217.123181098063
 30
0.0
 10
-337.0207722139219
 20
217.123181098063
 30
0.0
 10
-339.0042859395545
 20
331.0881455335474
 30
0.0
 10
-339.0042859395545
 20
331.0881455335474
 30
0.0
 10
-339.0318467034365
 20
332.7464422453724
 30
0.0
 10
-337.7204711069762
 20
334.1129393695968
 30
0.0
 10
-336.0566622423747
 20
334.1405001334788
 30
0.0
 10
-336.0401257840455
 20
334.1405001334788
 30
0.0
 10
-336.0291014784927
 20
334.1405001334788
 30
0.0
 10
-336.0125650201635
 20
334.1405001334788
 30
0.0
 10
-336.0125650201635
 20
334.1405001334788
 30
0.0
 10
-336.0566622423747
 20
334.1405001334788
 30
0.0
 10
-336.0566622423747
 20
334.1405001334788
 30
0.0
 10
-336.0566622423747
 20
334.1405001334788
 30
0.0
 10
260.5728976128082
 20
334.1405001334788
 30
0.0
 10
260.5728976128082
 20
334.1405001334788
 30
0.0
 10
260.5728976128082
 20
334.1405001334788
 30
0.0
 10
558.0090059368866
 20
334.1405001334788
 30
0.0
 10
558.0090059368866
 20
334.1405001334788
 30
0.0
 10
559.6619627507096
 20
334.1405001334788
 30
0.0
 10
560.9952147035012
 20
332.79605162036
 30
0.0
 10
560.9952147035012
 20
331.1430948065371
 30
0.0
 10
560.9952147035012
 20
331.1210461954316
 30
0.0
 10
560.9952147035012
 20
331.1046819918766
 30
0.0
 10
560.9952147035012
 20
331.0881455335474
 30
0.0
 10
560.9952147035012
 20
331.0881455335474
 30
0.0
 10
559.0118732326429
 20
217.123181098063
 30
0.0
 10
559.0118732326429
 20
217.123181098063
 30
0.0
 10
558.9843124687609
 20
215.4867607425693
 30
0.0
 10
557.6507160064207
 20
214.1753851461089
 30
0.0
 10
556.0087834981506
 20
214.1753851461089
 30
0.0
  0
POLYLINE
  5
63
330
1F
100
AcDbEntity
  8
Maske
 62
     7
370
     9
100
AcDb2dPolyline
 66
     1
 10
0.0
 20
0.0
 30
0.0
  0
VERTEX
  5
64
330
63
100
AcDbEntity
  8
Maske
 62
     7
370
     9
100
AcDbVertex
100
AcDb2dVertex
 10
260.5728976128082
 20
153.2039129933831
 30
0.0
  0
VERTEX
  5
65
330
63
100
AcDbEntity
  8
Maske
 62
     7
370
     9
100
AcDbVertex
100
AcDb2dVertex
 10
260.5728976128082
 20
244.0552150540036
 30
0.0
  0
SEQEND
  5
66
330
63
100
AcDbEntity
  8
Maske
370
     9
  0
SPLINE
  5
67
330
1F
100
AcDbEntity
  8
Maske
 62
     7
370
    35
100
AcDbSpline
210
0.0
220
0.0
230
1.0
 70
     8
 71
     3
 72
    44
 73
    40
 74
     0
 42
0.0000000001
 43
0.0000000001
 40
0.0
 40
0.0
 40
0.0
 40
0.0
 40
1.0
 40
1.0
 40
1.0
 40
2.0
 40
2.0
 40
2.0
 40
3.0
 40
3.0
 40
3.0
 40
4.0
 40
4.0
 40
4.0
 40
5.0
 40
5.0
 40
5.0
 40
6.0
 40
6.0
 40
6.0
 40
7.0
 40
7.0
 40
7.0
 40
8.0
 40
8.0
 40
8.0
 40
9.0
 40
9.0
 40
9.0
 40
10.0
 40
10.0
 40
10.0
 40
11.0
 40
11.0
 40
11.0
 40
12.0
 40
12.0
 40
12.0
 40
13.0
 40
13.0
 40
13.0
 40
13.0
 10
305.0535589515144
 20
214.1753851461089
 30
0.0
 10
305.0535589515144
 20
214.1753851461089
 30
0.0
 10
304.9543402015392
 20
213.0844956607046
 30
0.0
 10
304.9543402015392
 20
213.0844956607046
 30
0.0
 10
304.6349798500565
 20
209.4700737323547
 30
0.0
 10
302.276811990403
 20
206.2964517713426
 30
0.0
 10
298.8937282238877
 20
204.9630275637766
 30
0.0
 10
297.6703748170755
 20
204.2743529762752
 30
0.0
 10
296.9872123823504
 20
202.9684895325912
 30
0.0
 10
296.6513155725386
 20
201.6075045611433
 30
0.0
 10
296.6513155725386
 20
201.6075045611433
 30
0.0
 10
296.4418537670354
 20
200.2687404555752
 30
0.0
 10
296.4418537670354
 20
200.2687404555752
 30
0.0
 10
296.4418537670354
 20
200.2687404555752
 30
0.0
 10
296.1827825865446
 20
185.149766663782
 30
0.0
 10
296.1827825865446
 20
185.149766663782
 30
0.0
 10
296.1552218226626
 20
184.0588771783777
 30
0.0
 10
295.2736218879872
 20
183.1827893964786
 30
0.0
 10
294.1773925045807
 20
183.1827893964786
 30
0.0
 10
294.1773925045807
 20
183.1827893964786
 30
0.0
 10
226.979771536137
 20
183.1827893964786
 30
0.0
 10
226.979771536137
 20
183.1827893964786
 30
0.0
 10
225.8887097959584
 20
183.1827893964786
 30
0.0
 10
224.9960855557302
 20
184.0588771783777
 30
0.0
 10
224.979549097401
 20
185.149766663782
 30
0.0
 10
224.979549097401
 20
185.149766663782
 30
0.0
 10
224.7097981209059
 20
200.2687404555752
 30
0.0
 10
224.7097981209059
 20
200.2687404555752
 30
0.0
 10
224.7097981209059
 20
200.2687404555752
 30
0.0
 10
224.5058484681791
 20
201.6075045611433
 30
0.0
 10
224.5058484681791
 20
201.6075045611433
 30
0.0
 10
224.1696071488187
 20
202.9684895325912
 30
0.0
 10
223.4919568668701
 20
204.2743529762752
 30
0.0
 10
222.26343581683
 20
204.9630275637766
 30
0.0
 10
218.8803520503147
 20
206.2964517713426
 30
0.0
 10
216.5221841906611
 20
209.4700737323547
 30
0.0
 10
216.1914550240772
 20
213.0844956607046
 30
0.0
 10
216.1914550240772
 20
213.0844956607046
 30
0.0
 10
216.1032605796547
 20
214.1753851461089
 30
0.0
 10
216.1032605796547
 20
214.1753851461089
 30
0.0
  0
SPLINE
  5
68
330
1F
100
AcDbEntity
  8
Maske
  6
AI-Linetype-4
 62
     7
370
    18
100
AcDbSpline
210
0.0
220
0.0
230
1.0
 70
    11
 71
     3
 72
    26
 73
    22
 74
     0
 42
0.0000000001
 43
0.0000000001
 40
0.0
 40
0.0
 40
0.0
 40
0.0
 40
1.0
 40
1.0
 40
1.0
 40
2.0
 40
2.0
 40
2.0
 40
3.0
 40
3.0
 40
3.0
 40
4.0
 40
4.0
 40
4.0
 40
5.0
 40
5.0
 40
5.0
 40
6.0
 40
6.0
 40
6.0
 40
7.0
 40
7.0
 40
7.0
 40
7.0
 10
-164.5913316103279
 20
294.1503485050214
 30
0.0
 10
-164.5913316103279
 20
294.1503485050214
 30
0.0
 10
-154.6021049960717
 20
294.1503485050214
 30
0.0
 10
-154.6021049960717
 20
294.1503485050214
 30
0.0
 10
-149.0811672261846
 20
294.1503485050214
 30
0.0
 10
-144.6016818214885
 20
289.6818874058782
 30
0.0
 10
-144.6016818214885
 20
284.1554374832146
 30
0.0
 10
-144.6016818214885
 20
278.6346719681018
 30
0.0
 10
-149.0811672261846
 20
274.1551865634057
 30
0.0
 10
-154.6021049960717
 20
274.1551865634057
 30
0.0
 10
-154.6021049960717
 20
274.1551865634057
 30
0.0
 10
-164.5913316103279
 20
274.1551865634057
 30
0.0
 10
-164.5913316103279
 20
274.1551865634057
 30
0.0
 10
-170.1120971254407
 20
274.1551865634057
 30
0.0
 10
-174.5915825301368
 20
278.6346719681018
 30
0.0
 10
-174.5915825301368
 20
284.1554374832146
 30
0.0
 10
-174.5915825301368
 20
289.6818874058782
 30
0.0
 10
-170.1120971254407
 20
294.1503485050214
 30
0.0
 10
-164.5913316103279
 20
294.1503485050214
 30
0.0
 10
-164.5913316103279
 20
294.1503485050214
 30
0.0
 10
-164.5913316103279
 20
294.1503485050214
 30
0.0
 10
-164.5913316103279
 20
294.1503485050214
 30
0.0
  0
POLYLINE
  5
6A
330
1F
100
AcDbEntity
  8
Maske
 62
     7
370
     9
100
AcDb2dPolyline
 66
     1
 10
0.0
 20
0.0
 30
0.0
  0
VERTEX
  5
6B
330
6A
100
AcDbEntity
  8
Maske
 62
     7
370
     9
100
AcDbVertex
100
AcDb2dVertex
 10
-159.6049004049773
 20
300.9218559360543
 30
0.0
  0
VERTEX
  5
6C
330
6A
100
AcDbEntity
  8
Maske
 62
     7
370
     9
100
AcDbVertex
100
AcDb2dVertex
 10
-159.6049004049773
 20
267.3947034379256
 30
0.0
  0
SEQEND
  5
6D
330
6A
100
AcDbEntity
  8
Maske
370
     9
  0
POLYLINE
  5
6E
330
1F
100
AcDbEntity
  8
Maske
 62
     7
370
     9
100
AcDb2dPolyline
 66
     1
 10
0.0
 20
0.0
 30
0.0
  0
VERTEX
  5
6F
330
6E
100
AcDbEntity
  8
Maske
 62
     7
370
     9
100
AcDbVertex
100
AcDb2dVertex
 10
-131.5986856767358
 20
284.1554374832146
 30
0.0
  0
VERTEX
  5
70
330
6E
100
AcDbEntity
  8
Maske
 62
     7
370
     9
100
AcDbVertex
100
AcDb2dVertex
 10
-187.5947509296638
 20
284.1554374832146
 30
0.0
  0
SEQEND
  5
71
330
6E
100
AcDbEntity
  8
Maske
370
     9
  0
SPLINE
  5
72
330
1F
100
AcDbEntity
  8
Maske
  6
AI-Linetype-5
 62
     7
370
    18
100
AcDbSpline
210
0.0
220
0.0
230
1.0
 70
    11
 71
     3
 72
    26
 73
    22
 74
     0
 42
0.0000000001
 43
0.0000000001
 40
0.0
 40
0.0
 40
0.0
 40
0.0
 40
1.0
 40
1.0
 40
1.0
 40
2.0
 40
2.0
 40
2.0
 40
3.0
 40
3.0
 40
3.0
 40
4.0
 40
4.0
 40
4.0
 40
5.0
 40
5.0
 40
5.0
 40
6.0
 40
6.0
 40
6.0
 40
7.0
 40
7.0
 40
7.0
 40
7.0
 10
115.5161186777182
 20
294.1503485050214
 30
0.0
 10
115.5161186777182
 20
294.1503485050214
 30
0.0
 10
125.5000053939722
 20
294.1503485050214
 30
0.0
 10
125.5000053939722
 20
294.1503485050214
 30
0.0
 10
131.0317952146379
 20
294.1503485050214
 30
0.0
 10
135.5004285685555
 20
289.6818874058782
 30
0.0
 10
135.5004285685555
 20
284.1554374832146
 30
0.0
 10
135.5004285685555
 20
278.6346719681018
 30
0.0
 10
131.0317952146379
 20
274.1551865634057
 30
0.0
 10
125.5000053939722
 20
274.1551865634057
 30
0.0
 10
125.5000053939722
 20
274.1551865634057
 30
0.0
 10
115.5161186777182
 20
274.1551865634057
 30
0.0
 10
115.5161186777182
 20
274.1551865634057
 30
0.0
 10
109.9953531626053
 20
274.1551865634057
 30
0.0
 10
105.5160400126835
 20
278.6346719681018
 30
0.0
 10
105.5160400126835
 20
284.1554374832146
 30
0.0
 10
105.5160400126835
 20
289.6818874058782
 30
0.0
 10
109.9953531626053
 20
294.1503485050214
 30
0.0
 10
115.5161186777182
 20
294.1503485050214
 30
0.0
 10
115.5161186777182
 20
294.1503485050214
 30
0.0
 10
115.5161186777182
 20
294.1503485050214
 30
0.0
 10
115.5161186777182
 20
294.1503485050214
 30
0.0
  0
POLYLINE
  5
74
330
1F
100
AcDbEntity
  8
Maske
 62
     7
370
     9
100
AcDb2dPolyline
 66
     1
 10
0.0
 20
0.0
 30
0.0
  0
VERTEX
  5
75
330
74
100
AcDbEntity
  8
Maske
 62
     7
370
     9
100
AcDbVertex
100
AcDb2dVertex
 10
120.5025498830688
 20
300.9218559360543
 30
0.0
  0
VERTEX
  5
76
330
74
100
AcDbEntity
  8
Maske
 62
     7
370
     9
100
AcDbVertex
100
AcDb2dVertex
 10
120.5025498830688
 20
267.3947034379256
 30
0.0
  0
SEQEND
  5
77
330
74
100
AcDbEntity
  8
Maske
370
     9
  0
POLYLINE
  5
78
330
1F
100
AcDbEntity
  8
Maske
 62
     7
370
     9
100
AcDb2dPolyline
 66
     1
 10
0.0
 20
0.0
 30
0.0
  0
VERTEX
  5
79
330
78
100
AcDbEntity
  8
Maske
 62
     7
370
     9
100
AcDbVertex
100
AcDb2dVertex
 10
148.5035969680824
 20
284.1554374832146
 30
0.0
  0
VERTEX
  5
7A
330
78
100
AcDbEntity
  8
Maske
 62
     7
370
     9
100
AcDbVertex
100
AcDb2dVertex
 10
92.51838376593291
 20
284.1554374832146
 30
0.0
  0
SEQEND
  5
7B
330
78
100
AcDbEntity
  8
Maske
370
     9
  0
SPLINE
  5
7C
330
1F
100
AcDbEntity
  8
Maske
  6
AI-Linetype-6
 62
     7
370
    18
100
AcDbSpline
210
0.0
220
0.0
230
1.0
 70
    11
 71
     3
 72
    26
 73
    22
 74
     0
 42
0.0000000001
 43
0.0000000001
 40
0.0
 40
0.0
 40
0.0
 40
0.0
 40
1.0
 40
1.0
 40
1.0
 40
2.0
 40
2.0
 40
2.0
 40
3.0
 40
3.0
 40
3.0
 40
4.0
 40
4.0
 40
4.0
 40
5.0
 40
5.0
 40
5.0
 40
6.0
 40
6.0
 40
6.0
 40
7.0
 40
7.0
 40
7.0
 40
7.0
 10
395.6072047622093
 20
294.1503485050214
 30
0.0
 10
395.6072047622093
 20
294.1503485050214
 30
0.0
 10
405.5800671729106
 20
294.1503485050214
 30
0.0
 10
405.5800671729106
 20
294.1503485050214
 30
0.0
 10
411.1008326880234
 20
294.1503485050214
 30
0.0
 10
415.5804903474938
 20
289.6818874058782
 30
0.0
 10
415.5804903474938
 20
284.1554374832146
 30
0.0
 10
415.5804903474938
 20
278.6346719681018
 30
0.0
 10
411.1008326880234
 20
274.1551865634057
 30
0.0
 10
405.5800671729106
 20
274.1551865634057
 30
0.0
 10
405.5800671729106
 20
274.1551865634057
 30
0.0
 10
395.6072047622093
 20
274.1551865634057
 30
0.0
 10
395.6072047622093
 20
274.1551865634057
 30
0.0
 10
390.0809270943201
 20
274.1551865634057
 30
0.0
 10
385.6071260971746
 20
278.6346719681018
 30
0.0
 10
385.6071260971746
 20
284.1554374832146
 30
0.0
 10
385.6071260971746
 20
289.6818874058782
 30
0.0
 10
390.0809270943201
 20
294.1503485050214
 30
0.0
 10
395.6072047622093
 20
294.1503485050214
 30
0.0
 10
395.6072047622093
 20
294.1503485050214
 30
0.0
 10
395.6072047622093
 20
294.1503485050214
 30
0.0
 10
395.6072047622093
 20
294.1503485050214
 30
0.0
  0
POLYLINE
  5
7E
330
1F
100
AcDbEntity
  8
Maske
 62
     7
370
     9
100
AcDb2dPolyline
 66
     1
 10
0.0
 20
0.0
 30
0.0
  0
VERTEX
  5
7F
330
7E
100
AcDbEntity
  8
Maske
 62
     7
370
     9
100
AcDbVertex
100
AcDb2dVertex
 10
400.5770995092307
 20
300.9218559360543
 30
0.0
  0
VERTEX
  5
80
330
7E
100
AcDbEntity
  8
Maske
 62
     7
370
     9
100
AcDbVertex
100
AcDb2dVertex
 10
400.5770995092307
 20
267.3947034379256
 30
0.0
  0
SEQEND
  5
81
330
7E
100
AcDbEntity
  8
Maske
370
     9
  0
POLYLINE
  5
82
330
1F
100
AcDbEntity
  8
Maske
 62
     7
370
     9
100
AcDb2dPolyline
 66
     1
 10
0.0
 20
0.0
 30
0.0
  0
VERTEX
  5
83
330
82
100
AcDbEntity
  8
Maske
 62
     7
370
     9
100
AcDbVertex
100
AcDb2dVertex
 10
428.5671222886916
 20
284.1554374832146
 30
0.0
  0
VERTEX
  5
84
330
82
100
AcDbEntity
  8
Maske
 62
     7
370
     9
100
AcDbVertex
100
AcDb2dVertex
 10
372.6149820032005
 20
284.1554374832146
 30
0.0
  0
SEQEND
  5
85
330
82
100
AcDbEntity
  8
Maske
370
     9
  0
ENDSEC
  0
SECTION
  2
OBJECTS
  0
DICTIONARY
  5
C
330
0
100
AcDbDictionary
281
     1
  3
ACAD_GROUP
350
D
  3
ACAD_LAYOUT
350
1A
  3
ACAD_MLINESTYLE
350
17
  3
ACAD_PLOTSETTINGS
350
19
  3
ACAD_PLOTSTYLENAME
350
E
  3
ACAD_TABLESTYLE
350
86
  3
ACAD_VISUALSTYLE
350
2A
  0
DICTIONARY
  5
D
102
{ACAD_REACTORS
330
C
102
}
330
C
100
AcDbDictionary
281
     1
  0
DICTIONARY
  5
1A
102
{ACAD_REACTORS
330
C
102
}
330
C
100
AcDbDictionary
281
     1
  3
Layout1
350
1E
  3
Layout2
350
26
  3
Model
350
22
  0
DICTIONARY
  5
17
102
{ACAD_REACTORS
330
C
102
}
330
C
100
AcDbDictionary
281
     1
  3
Standard
350
18
  0
DICTIONARY
  5
19
102
{ACAD_REACTORS
330
C
102
}
330
C
100
AcDbDictionary
281
     1
  0
ACDBDICTIONARYWDFLT
  5
E
102
{ACAD_REACTORS
330
C
102
}
330
C
100
AcDbDictionary
281
     1
  3
Normal
350
F
100
AcDbDictionaryWithDefault
340
F
  0
DICTIONARY
  5
86
102
{ACAD_REACTORS
330
C
102
}
330
C
100
AcDbDictionary
281
     1
  0
DICTIONARY
  5
2A
102
{ACAD_REACTORS
330
C
102
}
330
C
100
AcDbDictionary
281
     1
  3
2dWireframe
350
2F
  3
3D Hidden
350
31
  3
3dWireframe
350
30
  3
Basic
350
32
  3
Brighten
350
36
  3
ColorChange
350
3A
  3
Conceptual
350
34
  3
Dim
350
35
  3
Facepattern
350
39
  3
Flat
350
2B
  3
FlatWithEdges
350
2C
  3
Gouraud
350
2D
  3
GouraudWithEdges
350
2E
  3
Linepattern
350
38
  3
Realistic
350
33
  3
Thicken
350
37
  0
LAYOUT
  5
1E
102
{ACAD_REACTORS
330
1A
102
}
330
1A
100
AcDbPlotSettings
  1

  2
none_device
  4

  6

 40
0.0
 41
0.0
 42
0.0
 43
0.0
 44
0.0
 45
0.0
 46
0.0
 47
0.0
 48
0.0
 49
0.0
140
0.0
141
0.0
142
1.0
143
1.0
 70
   688
 72
     0
 73
     0
 74
     5
  7

 75
    16
147
1.0
148
0.0
149
0.0
100
AcDbLayout
  1
Layout1
 70
     1
 71
     1
 10
0.0
 20
0.0
 11
12.0
 21
9.0
 12
0.0
 22
0.0
 32
0.0
 14
1.000000000000000E+20
 24
1.000000000000000E+20
 34
1.000000000000000E+20
 15
-1.000000000000000E+20
 25
-1.000000000000000E+20
 35
-1.000000000000000E+20
146
0.0
 13
0.0
 23
0.0
 33
0.0
 16
1.0
 26
0.0
 36
0.0
 17
0.0
 27
1.0
 37
0.0
 76
     0
330
1B
  0
LAYOUT
  5
26
102
{ACAD_REACTORS
330
1A
102
}
330
1A
100
AcDbPlotSettings
  1

  2
none_device
  4

  6

 40
0.0
 41
0.0
 42
0.0
 43
0.0
 44
0.0
 45
0.0
 46
0.0
 47
0.0
 48
0.0
 49
0.0
140
0.0
141
0.0
142
1.0
143
1.0
 70
   688
 72
     0
 73
     0
 74
     5
  7

 75
    16
147
1.0
148
0.0
149
0.0
100
AcDbLayout
  1
Layout2
 70
     1
 71
     2
 10
0.0
 20
0.0
 11
0.0
 21
0.0
 12
0.0
 22
0.0
 32
0.0
 14
0.0
 24
0.0
 34
0.0
 15
0.0
 25
0.0
 35
0.0
146
0.0
 13
0.0
 23
0.0
 33
0.0
 16
1.0
 26
0.0
 36
0.0
 17
0.0
 27
1.0
 37
0.0
 76
     0
330
23
  0
LAYOUT
  5
22
102
{ACAD_REACTORS
330
1A
102
}
330
1A
100
AcDbPlotSettings
  1

  2
none_device
  4

  6

 40
0.0
 41
0.0
 42
0.0
 43
0.0
 44
0.0
 45
0.0
 46
0.0
 47
0.0
 48
0.0
 49
0.0
140
0.0
141
0.0
142
1.0
143
1.0
 70
  1712
 72
     0
 73
     0
 74
     0
  7

 75
     0
147
1.0
148
0.0
149
0.0
100
AcDbLayout
  1
Model
 70
     1
 71
     0
 10
0.0
 20
0.0
 11
12.0
 21
9.0
 12
0.0
 22
0.0
 32
0.0
 14
1.000000000000000E+20
 24
1.000000000000000E+20
 34
1.000000000000000E+20
 15
-1.000000000000000E+20
 25
-1.000000000000000E+20
 35
-1.000000000000000E+20
146
0.0
 13
0.0
 23
0.0
 33
0.0
 16
1.0
 26
0.0
 36
0.0
 17
0.0
 27
1.0
 37
0.0
 76
     0
330
1F
331
29
  0
MLINESTYLE
  5
18
102
{ACAD_REACTORS
330
17
102
}
330
17
100
AcDbMlineStyle
  2
Standard
 70
     0
  3

 62
   256
 51
90.0
 52
90.0
 71
     2
 49
0.5
 62
   256
  6
BYLAYER
 49
-0.5
 62
   256
  6
BYLAYER
  0
ACDBPLACEHOLDER
  5
F
102
{ACAD_REACTORS
330
E
102
}
330
E
  0
VISUALSTYLE
  5
2F
102
{ACAD_REACTORS
330
2A
102
}
330
2A
100
AcDbVisualStyle
  2
2dWireframe
 70
     4
 71
     0
 72
     2
 73
     0
 90
        0
 40
-0.6
 41
-30.0
 62
     5
 63
     7
 74
     1
 91
        4
 64
     7
 65
   257
 75
     1
175
     1
 42
1.0
 92
        0
 66
   257
 43
1.0
 76
     1
 77
     6
 78
     2
 67
     7
 79
     5
170
     0
171
     0
290
     0
174
     0
 93
        1
 44
0.0
173
     0
291
     0
 45
0.0
1001
ACAD
1000
AcDbSavedByObjectVersion
1070
     0
  0
VISUALSTYLE
  5
31
102
{ACAD_REACTORS
330
2A
102
}
330
2A
100
AcDbVisualStyle
  2
3D Hidden
 70
     6
 71
     1
 72
     2
 73
     2
 90
        0
 40
-0.6
 41
-30.0
 62
     5
 63
     7
 74
     2
 91
        2
 64
     7
 65
   257
 75
     2
175
     1
 42
40.0
 92
        0
 66
   257
 43
1.0
 76
     1
 77
     6
 78
     2
 67
     7
 79
     3
170
     0
171
     0
290
     0
174
     0
 93
        1
 44
0.0
173
     0
291
     0
 45
0.0
1001
ACAD
1000
AcDbSavedByObjectVersion
1070
     0
  0
VISUALSTYLE
  5
30
102
{ACAD_REACTORS
330
2A
102
}
330
2A
100
AcDbVisualStyle
  2
3dWireframe
 70
     5
 71
     0
 72
     2
 73
     0
 90
        0
 40
-0.6
 41
-30.0
 62
     5
 63
     7
 74
     1
 91
        4
 64
     7
 65
   257
 75
     1
175
     1
 42
1.0
 92
        0
 66
   257
 43
1.0
 76
     1
 77
     6
 78
     2
 67
     7
 79
     5
170
     0
171
     0
290
     0
174
     0
 93
        1
 44
0.0
173
     0
291
     0
 45
0.0
1001
ACAD
1000
AcDbSavedByObjectVersion
1070
     0
  0
VISUALSTYLE
  5
32
102
{ACAD_REACTORS
330
2A
102
}
330
2A
100
AcDbVisualStyle
  2
Basic
 70
     7
 71
     1
 72
     0
 73
     1
 90
        0
 40
-0.6
 41
-30.0
 62
     5
 63
     7
 74
     0
 91
        4
 64
     7
 65
   257
 75
     1
175
     1
 42
1.0
 92
        8
 66
     7
 43
1.0
 76
     1
 77
     6
 78
     2
 67
     7
 79
     5
170
     0
171
     0
290
     0
174
     0
 93
        1
 44
0.0
173
     0
291
     1
 45
0.0
1001
ACAD
1000
AcDbSavedByObjectVersion
1070
     0
  0
VISUALSTYLE
  5
36
102
{ACAD_REACTORS
330
2A
102
}
330
2A
100
AcDbVisualStyle
  2
Brighten
 70
    12
 71
     2
 72
     2
 73
     0
 90
        0
 40
-0.6
 41
-30.0
 62
     5
 63
     7
 74
     1
 91
        4
 64
     7
 65
   257
 75
     1
175
     1
 42
1.0
 92
        8
 66
     7
 43
1.0
 76
     1
 77
     6
 78
     2
 67
     7
 79
     5
170
     0
171
     0
290
     0
174
     0
 93
        1
 44
50.0
173
     0
291
     1
 45
0.0
1001
ACAD
1000
AcDbSavedByObjectVersion
1070
     0
  0
VISUALSTYLE
  5
3A
102
{ACAD_REACTORS
330
2A
102
}
330
2A
100
AcDbVisualStyle
  2
ColorChange
 70
    16
 71
     2
 72
     2
 73
     3
 90
        0
 40
-0.6
 41
-30.0
 62
     5
 63
     8
 74
     1
 91
        4
 64
     7
 65
   257
 75
     1
175
     1
 42
1.0
 92
        8
 66
     8
 43
1.0
 76
     1
 77
     6
 78
     2
 67
     7
 79
     5
170
     0
171
     0
290
     0
174
     0
 93
        1
 44
0.0
173
     0
291
     1
 45
0.0
1001
ACAD
1000
AcDbSavedByObjectVersion
1070
     0
  0
VISUALSTYLE
  5
34
102
{ACAD_REACTORS
330
2A
102
}
330
2A
100
AcDbVisualStyle
  2
Conceptual
 70
     9
 71
     3
 72
     2
 73
     0
 90
        0
 40
-0.6
 41
-30.0
 62
     5
 63
     7
 74
     2
 91
        2
 64
     7
 65
   257
 75
     1
175
     1
 42
40.0
 92
        8
 66
     7
 43
1.0
 76
     1
 77
     6
 78
     2
 67
     7
 79
     3
170
     0
171
     0
290
     0
174
     0
 93
        1
 44
0.0
173
     0
291
     0
 45
0.0
1001
ACAD
1000
AcDbSavedByObjectVersion
1070
     0
  0
VISUALSTYLE
  5
35
102
{ACAD_REACTORS
330
2A
102
}
330
2A
100
AcDbVisualStyle
  2
Dim
 70
    11
 71
     2
 72
     2
 73
     0
 90
        0
 40
-0.6
 41
-30.0
 62
     5
 63
     7
 74
     1
 91
        4
 64
     7
 65
   257
 75
     1
175
     1
 42
1.0
 92
        8
 66
     7
 43
1.0
 76
     1
 77
     6
 78
     2
 67
     7
 79
     5
170
     0
171
     0
290
     0
174
     0
 93
        1
 44
-50.0
173
     0
291
     1
 45
0.0
1001
ACAD
1000
AcDbSavedByObjectVersion
1070
     0
  0
VISUALSTYLE
  5
39
102
{ACAD_REACTORS
330
2A
102
}
330
2A
100
AcDbVisualStyle
  2
Facepattern
 70
    15
 71
     2
 72
     2
 73
     0
 90
        0
 40
-0.6
 41
-30.0
 62
     5
 63
     7
 74
     1
 91
        4
 64
     7
 65
   257
 75
     1
175
     1
 42
1.0
 92
        8
 66
     7
 43
1.0
 76
     1
 77
     6
 78
     2
 67
     7
 79
     5
170
     0
171
     0
290
     0
174
     0
 93
        1
 44
0.0
173
     0
291
     1
 45
0.0
1001
ACAD
1000
AcDbSavedByObjectVersion
1070
     0
  0
VISUALSTYLE
  5
2B
102
{ACAD_REACTORS
330
2A
102
}
330
2A
100
AcDbVisualStyle
  2
Flat
 70
     0
 71
     2
 72
     1
 73
     1
 90
        2
 40
-0.6
 41
30.0
 62
     5
 63
     7
 74
     0
 91
        4
 64
     7
 65
   257
 75
     1
175
     1
 42
1.0
 92
        8
 66
     7
 43
1.0
 76
     1
 77
     6
 78
     2
 67
     7
 79
     5
170
     0
171
     0
290
     0
174
     0
 93
       13
 44
0.0
173
     0
291
     1
 45
0.0
1001
ACAD
1000
AcDbSavedByObjectVersion
1070
     0
  0
VISUALSTYLE
  5
2C
102
{ACAD_REACTORS
330
2A
102
}
330
2A
100
AcDbVisualStyle
  2
FlatWithEdges
 70
     1
 71
     2
 72
     1
 73
     1
 90
        2
 40
-0.6
 41
30.0
 62
     5
 63
     7
 74
     1
 91
        4
 64
     7
 65
   257
 75
     1
175
     1
 42
1.0
 92
        0
 66
   257
 43
1.0
 76
     1
 77
     6
 78
     2
 67
     7
 79
     5
170
     0
171
     0
290
     0
174
     0
 93
       13
 44
0.0
173
     0
291
     1
 45
0.0
1001
ACAD
1000
AcDbSavedByObjectVersion
1070
     0
  0
VISUALSTYLE
  5
2D
102
{ACAD_REACTORS
330
2A
102
}
330
2A
100
AcDbVisualStyle
  2
Gouraud
 70
     2
 71
     2
 72
     2
 73
     1
 90
        2
 40
-0.6
 41
30.0
 62
     5
 63
     7
 74
     0
 91
        4
 64
     7
 65
   257
 75
     1
175
     1
 42
1.0
 92
        0
 66
     7
 43
1.0
 76
     1
 77
     6
 78
     2
 67
     7
 79
     5
170
     0
171
     0
290
     0
174
     0
 93
       13
 44
0.0
173
     0
291
     1
 45
0.0
1001
ACAD
1000
AcDbSavedByObjectVersion
1070
     0
  0
VISUALSTYLE
  5
2E
102
{ACAD_REACTORS
330
2A
102
}
330
2A
100
AcDbVisualStyle
  2
GouraudWithEdges
 70
     3
 71
     2
 72
     2
 73
     1
 90
        2
 40
-0.6
 41
30.0
 62
     5
 63
     7
 74
     1
 91
        4
 64
     7
 65
   257
 75
     1
175
     1
 42
1.0
 92
        0
 66
   257
 43
1.0
 76
     1
 77
     6
 78
     2
 67
     7
 79
     5
170
     0
171
     0
290
     0
174
     0
 93
       13
 44
0.0
173
     0
291
     1
 45
0.0
1001
ACAD
1000
AcDbSavedByObjectVersion
1070
     0
  0
VISUALSTYLE
  5
38
102
{ACAD_REACTORS
330
2A
102
}
330
2A
100
AcDbVisualStyle
  2
Linepattern
 70
    14
 71
     2
 72
     2
 73
     0
 90
        0
 40
-0.6
 41
-30.0
 62
     5
 63
     7
 74
     1
 91
        4
 64
     7
 65
   257
 75
     7
175
     7
 42
1.0
 92
        8
 66
     7
 43
1.0
 76
     1
 77
     6
 78
     2
 67
     7
 79
     5
170
     0
171
     0
290
     0
174
     0
 93
        1
 44
0.0
173
     0
291
     1
 45
0.0
1001
ACAD
1000
AcDbSavedByObjectVersion
1070
     0
  0
VISUALSTYLE
  5
33
102
{ACAD_REACTORS
330
2A
102
}
330
2A
100
AcDbVisualStyle
  2
Realistic
 70
     8
 71
     2
 72
     2
 73
     0
 90
        0
 40
-0.6
 41
-30.0
 62
     5
 63
     7
 74
     1
 91
        0
 64
     7
 65
   257
 75
     1
175
     1
 42
1.0
 92
        8
 66
     8
 43
1.0
 76
     1
 77
     6
 78
     2
 67
     7
 79
     5
170
     0
171
     0
290
     0
174
     0
 93
       13
 44
0.0
173
     0
291
     0
 45
0.0
1001
ACAD
1000
AcDbSavedByObjectVersion
1070
     0
  0
VISUALSTYLE
  5
37
102
{ACAD_REACTORS
330
2A
102
}
330
2A
100
AcDbVisualStyle
  2
Thicken
 70
    13
 71
     2
 72
     2
 73
     0
 90
        0
 40
-0.6
 41
-30.0
 62
     5
 63
     7
 74
     1
 91
        4
 64
     7
 65
   257
 75
     1
175
     1
 42
1.0
 92
       12
 66
     7
 43
1.0
 76
     1
 77
     6
 78
     2
 67
     7
 79
     5
170
     0
171
     0
290
     0
174
     0
 93
        1
 44
0.0
173
     0
291
     1
 45
0.0
1001
ACAD
1000
AcDbSavedByObjectVersion
1070
     0
  0
ENDSEC
  0
EOF
