  0
SECTION
  2
HEADER
  9
$ACADVER
  1
AC1021
  9
$ACADMAINTVER
 70
    25
  9
$DWGCODEPAGE
  3
ANSI_1252
  9
$LASTSAVEDBY
  1
pengb
  9
$INSBASE
 10
0.0
 20
0.0
 30
0.0
  9
$EXTMIN
 10
-140.1015097043065
 20
-43.54146583741914
 30
0.0
  9
$EXTMAX
 10
3034.688028591486
 20
1871.247578467192
 30
0.0
  9
$LIMMIN
 10
0.0
 20
0.0
  9
$LIMMAX
 10
12.0
 20
9.0
  9
$ORTHOMODE
 70
     0
  9
$REGENMODE
 70
     1
  9
$FILLMODE
 70
     1
  9
$QTEXTMODE
 70
     0
  9
$MIRRTEXT
 70
     1
  9
$LTSCALE
 40
1.0
  9
$ATTMODE
 70
     1
  9
$TEXTSIZE
 40
0.2
  9
$TRACEWID
 40
0.05
  9
$TEXTSTYLE
  7
Standard
  9
$CLAYER
  8
Default
  9
$CELTYPE
  6
ByLayer
  9
$CECOLOR
 62
   256
  9
$CELTSCALE
 40
1.0
  9
$DISPSILH
 70
     0
  9
$DIMSCALE
 40
1.0
  9
$DIMASZ
 40
0.18
  9
$DIMEXO
 40
0.0625
  9
$DIMDLI
 40
0.38
  9
$DIMRND
 40
0.0
  9
$DIMDLE
 40
0.0
  9
$DIMEXE
 40
0.18
  9
$DIMTP
 40
0.0
  9
$DIMTM
 40
0.0
  9
$DIMTXT
 40
0.18
  9
$DIMCEN
 40
0.09
  9
$DIMTSZ
 40
0.0
  9
$DIMTOL
 70
     0
  9
$DIMLIM
 70
     0
  9
$DIMTIH
 70
     1
  9
$DIMTOH
 70
     1
  9
$DIMSE1
 70
     0
  9
$DIMSE2
 70
     0
  9
$DIMTAD
 70
     0
  9
$DIMZIN
 70
     0
  9
$DIMBLK
  1

  9
$DIMASO
 70
     1
  9
$DIMSHO
 70
     1
  9
$DIMPOST
  1

  9
$DIMAPOST
  1

  9
$DIMALT
 70
     0
  9
$DIMALTD
 70
     2
  9
$DIMALTF
 40
25.4
  9
$DIMLFAC
 40
1.0
  9
$DIMTOFL
 70
     0
  9
$DIMTVP
 40
0.0
  9
$DIMTIX
 70
     0
  9
$DIMSOXD
 70
     0
  9
$DIMSAH
 70
     0
  9
$DIMBLK1
  1

  9
$DIMBLK2
  1

  9
$DIMSTYLE
  2
STANDARD_ACAD
  9
$DIMCLRD
 70
     0
  9
$DIMCLRE
 70
     0
  9
$DIMCLRT
 70
     0
  9
$DIMTFAC
 40
1.0
  9
$DIMGAP
 40
0.09
  9
$DIMJUST
 70
     0
  9
$DIMSD1
 70
     0
  9
$DIMSD2
 70
     0
  9
$DIMTOLJ
 70
     1
  9
$DIMTZIN
 70
     0
  9
$DIMALTZ
 70
     0
  9
$DIMALTTZ
 70
     0
  9
$DIMUPT
 70
     0
  9
$DIMDEC
 70
     4
  9
$DIMTDEC
 70
     4
  9
$DIMALTU
 70
     2
  9
$DIMALTTD
 70
     2
  9
$DIMTXSTY
  7
Standard
  9
$DIMAUNIT
 70
     0
  9
$DIMADEC
 70
     0
  9
$DIMALTRND
 40
0.0
  9
$DIMAZIN
 70
     0
  9
$DIMDSEP
 70
    46
  9
$DIMATFIT
 70
     3
  9
$DIMFRAC
 70
     0
  9
$DIMLDRBLK
  1

  9
$DIMLUNIT
 70
     2
  9
$DIMLWD
 70
    -2
  9
$DIMLWE
 70
    -2
  9
$DIMTMOVE
 70
     2
  9
$DIMFXL
 40
1.0
  9
$DIMFXLON
 70
     0
  9
$DIMJOGANG
 40
0.7853981633974483
  9
$DIMTFILL
 70
     0
  9
$DIMTFILLCLR
 70
     0
  9
$DIMARCSYM
 70
     0
  9
$DIMLTYPE
  6

  9
$DIMLTEX1
  6

  9
$DIMLTEX2
  6

  9
$LUNITS
 70
     2
  9
$LUPREC
 70
     3
  9
$SKETCHINC
 40
0.1
  9
$FILLETRAD
 40
0.0
  9
$AUNITS
 70
     0
  9
$AUPREC
 70
     0
  9
$MENU
  1
.
  9
$ELEVATION
 40
0.0
  9
$PELEVATION
 40
0.0
  9
$THICKNESS
 40
0.0
  9
$LIMCHECK
 70
     0
  9
$CHAMFERA
 40
0.0
  9
$CHAMFERB
 40
0.0
  9
$CHAMFERC
 40
0.0
  9
$CHAMFERD
 40
0.0
  9
$SKPOLY
 70
     0
  9
$TDCREATE
 40
2460398.41492419
  9
$TDUCREATE
 40
2460397.956590856
  9
$TDUPDATE
 40
2460398.414924352
  9
$TDUUPDATE
 40
2460397.956591018
  9
$TDINDWG
 40
0.0000000116
  9
$TDUSRTIMER
 40
0.0000000116
  9
$USRTIMER
 70
     1
  9
$ANGBASE
 50
0.0
  9
$ANGDIR
 70
     0
  9
$PDMODE
 70
     0
  9
$PDSIZE
 40
0.0
  9
$PLINEWID
 40
0.0
  9
$SPLFRAME
 70
     0
  9
$SPLINETYPE
 70
     6
  9
$SPLINESEGS
 70
     8
  9
$HANDSEED
  5
3E3
  9
$SURFTAB1
 70
     6
  9
$SURFTAB2
 70
     6
  9
$SURFTYPE
 70
     6
  9
$SURFU
 70
     6
  9
$SURFV
 70
     6
  9
$UCSBASE
  2

  9
$UCSNAME
  2

  9
$UCSORG
 10
0.0
 20
0.0
 30
0.0
  9
$UCSXDIR
 10
1.0
 20
0.0
 30
0.0
  9
$UCSYDIR
 10
0.0
 20
1.0
 30
0.0
  9
$UCSORTHOREF
  2

  9
$UCSORTHOVIEW
 70
     0
  9
$UCSORGTOP
 10
0.0
 20
0.0
 30
0.0
  9
$UCSORGBOTTOM
 10
0.0
 20
0.0
 30
0.0
  9
$UCSORGLEFT
 10
0.0
 20
0.0
 30
0.0
  9
$UCSORGRIGHT
 10
0.0
 20
0.0
 30
0.0
  9
$UCSORGFRONT
 10
0.0
 20
0.0
 30
0.0
  9
$UCSORGBACK
 10
0.0
 20
0.0
 30
0.0
  9
$PUCSBASE
  2

  9
$PUCSNAME
  2

  9
$PUCSORG
 10
0.0
 20
0.0
 30
0.0
  9
$PUCSXDIR
 10
1.0
 20
0.0
 30
0.0
  9
$PUCSYDIR
 10
0.0
 20
1.0
 30
0.0
  9
$PUCSORTHOREF
  2

  9
$PUCSORTHOVIEW
 70
     0
  9
$PUCSORGTOP
 10
0.0
 20
0.0
 30
0.0
  9
$PUCSORGBOTTOM
 10
0.0
 20
0.0
 30
0.0
  9
$PUCSORGLEFT
 10
0.0
 20
0.0
 30
0.0
  9
$PUCSORGRIGHT
 10
0.0
 20
0.0
 30
0.0
  9
$PUCSORGFRONT
 10
0.0
 20
0.0
 30
0.0
  9
$PUCSORGBACK
 10
0.0
 20
0.0
 30
0.0
  9
$USERI1
 70
     0
  9
$USERI2
 70
     0
  9
$USERI3
 70
     0
  9
$USERI4
 70
     0
  9
$USERI5
 70
     0
  9
$USERR1
 40
0.0
  9
$USERR2
 40
0.0
  9
$USERR3
 40
0.0
  9
$USERR4
 40
0.0
  9
$USERR5
 40
0.0
  9
$WORLDVIEW
 70
     1
  9
$SHADEDGE
 70
     3
  9
$SHADEDIF
 70
    70
  9
$TILEMODE
 70
     1
  9
$MAXACTVP
 70
    64
  9
$PINSBASE
 10
0.0
 20
0.0
 30
0.0
  9
$PLIMCHECK
 70
     0
  9
$PEXTMIN
 10
1.000000000000000E+20
 20
1.000000000000000E+20
 30
1.000000000000000E+20
  9
$PEXTMAX
 10
-1.000000000000000E+20
 20
-1.000000000000000E+20
 30
-1.000000000000000E+20
  9
$PLIMMIN
 10
0.0
 20
0.0
  9
$PLIMMAX
 10
12.0
 20
9.0
  9
$UNITMODE
 70
     0
  9
$VISRETAIN
 70
     1
  9
$PLINEGEN
 70
     0
  9
$PSLTSCALE
 70
     1
  9
$TREEDEPTH
 70
  3020
  9
$CMLSTYLE
  2
Standard
  9
$CMLJUST
 70
     0
  9
$CMLSCALE
 40
1.0
  9
$PROXYGRAPHICS
 70
     1
  9
$MEASUREMENT
 70
     1
  9
$CELWEIGHT
370
    -1
  9
$ENDCAPS
280
     0
  9
$JOINSTYLE
280
     0
  9
$LWDISPLAY
290
     0
  9
$INSUNITS
 70
     4
  9
$HYPERLINKBASE
  1

  9
$STYLESHEET
  1

  9
$XEDIT
290
     1
  9
$CEPSNTYPE
380
     0
  9
$PSTYLEMODE
290
     1
  9
$FINGERPRINTGUID
  2
{c9471585-b02f-4ead-82be-37ff893e7394}
  9
$VERSIONGUID
  2
{FAEB1C32-E019-11D5-929B-00C0DF256EC4}
  9
$EXTNAMES
290
     1
  9
$PSVPSCALE
 40
0.0
  9
$OLESTARTUP
290
     0
  9
$SORTENTS
280
   127
  9
$INDEXCTL
280
     0
  9
$HIDETEXT
280
     1
  9
$XCLIPFRAME
290
     0
  9
$HALOGAP
280
     0
  9
$OBSCOLOR
 70
   257
  9
$OBSLTYPE
280
     0
  9
$INTERSECTIONDISPLAY
280
     0
  9
$INTERSECTIONCOLOR
 70
   257
  9
$DIMASSOC
280
     2
  9
$PROJECTNAME
  1

  9
$CAMERADISPLAY
290
     0
  9
$LENSLENGTH
 40
50.0
  9
$CAMERAHEIGHT
 40
0.0
  9
$STEPSPERSEC
 40
2.0
  9
$STEPSIZE
 40
6.0
  9
$3DDWFPREC
 40
2.0
  9
$PSOLWIDTH
 40
0.25
  9
$PSOLHEIGHT
 40
4.0
  9
$LOFTANG1
 40
1.570796326794897
  9
$LOFTANG2
 40
1.570796326794897
  9
$LOFTMAG1
 40
0.0
  9
$LOFTMAG2
 40
0.0
  9
$LOFTPARAM
 70
     7
  9
$LOFTNORMALS
280
     1
  9
$LATITUDE
 40
37.795
  9
$LONGITUDE
 40
-122.394
  9
$NORTHDIRECTION
 40
0.0
  9
$TIMEZONE
 70
 -8000
  9
$LIGHTGLYPHDISPLAY
280
     1
  9
$TILEMODELIGHTSYNCH
280
     1
  9
$CMATERIAL
347
44
  9
$SOLIDHIST
280
     0
  9
$SHOWHIST
280
     1
  9
$DWFFRAME
280
     2
  9
$DGNFRAME
280
     2
  9
$REALWORLDSCALE
290
     1
  9
$INTERFERECOLOR
 62
   256
  9
$CSHADOW
280
     0
  9
$SHADOWPLANELOCATION
 40
0.0
  0
ENDSEC
  0
SECTION
  2
CLASSES
  0
CLASS
  1
ACDBDICTIONARYWDFLT
  2
AcDbDictionaryWithDefault
  3
ObjectDBX Classes
 90
        0
 91
        3
280
     0
281
     0
  0
CLASS
  1
VISUALSTYLE
  2
AcDbVisualStyle
  3
ObjectDBX Classes
 90
     4095
 91
        3
280
     0
281
     0
  0
CLASS
  1
MATERIAL
  2
AcDbMaterial
  3
ObjectDBX Classes
 90
     1153
 91
        3
280
     0
281
     0
  0
CLASS
  1
SCALE
  2
AcDbScale
  3
ObjectDBX Classes
 90
     1153
 91
        3
280
     0
281
     0
  0
CLASS
  1
TABLESTYLE
  2
AcDbTableStyle
  3
ObjectDBX Classes
 90
     4095
 91
        3
280
     0
281
     0
  0
CLASS
  1
MLEADERSTYLE
  2
AcDbMLeaderStyle
  3
ACDB_MLEADERSTYLE_CLASS
 90
     4095
 91
        3
280
     0
281
     0
  0
CLASS
  1
SUN
  2
AcDbSun
  3
SCENEOE
 90
     1153
 91
        3
280
     0
281
     0
  0
CLASS
  1
DICTIONARYVAR
  2
AcDbDictionaryVar
  3
ObjectDBX Classes
 90
        0
 91
        3
280
     0
281
     0
  0
CLASS
  1
CELLSTYLEMAP
  2
AcDbCellStyleMap
  3
ObjectDBX Classes
 90
     1152
 91
        3
280
     0
281
     0
  0
ENDSEC
  0
SECTION
  2
TABLES
  0
TABLE
  2
VPORT
  5
8
330
0
100
AcDbSymbolTable
 70
     1
  0
VPORT
  5
29
330
8
100
AcDbSymbolTableRecord
100
AcDbViewportTableRecord
  2
*Active
 70
     0
 10
0.0
 20
0.0
 11
1.0
 21
1.0
 12
10.42990654205607
 22
4.5
 13
0.0
 23
0.0
 14
0.5
 24
0.5
 15
0.5
 25
0.5
 16
0.0
 26
0.0
 36
1.0
 17
0.0
 27
0.0
 37
0.0
 40
9.0
 41
1.972972972850329
 42
50.0
 43
0.0
 44
0.0
 50
0.0
 51
0.0
 71
     0
 72
   100
 73
     1
 74
     3
 75
     0
 76
     0
 77
     0
 78
     0
281
     0
 65
     1
110
0.0
120
0.0
130
0.0
111
1.0
121
0.0
131
0.0
112
0.0
122
1.0
132
0.0
 79
     0
146
0.0
348
2F
 60
     3
 61
     5
292
     1
282
     1
141
0.0
142
0.0
 63
   250
361
5D
  0
ENDTAB
  0
TABLE
  2
LTYPE
  5
5
330
0
100
AcDbSymbolTable
 70
     1
  0
LTYPE
  5
14
330
5
100
AcDbSymbolTableRecord
100
AcDbLinetypeTableRecord
  2
ByBlock
 70
     0
  3

 72
    65
 73
     0
 40
0.0
  0
LTYPE
  5
15
330
5
100
AcDbSymbolTableRecord
100
AcDbLinetypeTableRecord
  2
ByLayer
 70
     0
  3

 72
    65
 73
     0
 40
0.0
  0
LTYPE
  5
16
330
5
100
AcDbSymbolTableRecord
100
AcDbLinetypeTableRecord
  2
Continuous
 70
     0
  3
Solid line
 72
    65
 73
     0
 40
0.0
  0
ENDTAB
  0
TABLE
  2
LAYER
  5
2
330
0
100
AcDbSymbolTable
 70
     2
  0
LAYER
  5
10
330
2
100
AcDbSymbolTableRecord
100
AcDbLayerTableRecord
  2
0
 70
     0
 62
     7
  6
Continuous
370
    -3
390
F
347
46
  0
LAYER
  5
5F
330
2
100
AcDbSymbolTableRecord
100
AcDbLayerTableRecord
  2
Default
 70
     0
 62
    18
420
        0
  6
Continuous
370
    -3
390
F
347
46
  0
ENDTAB
  0
TABLE
  2
STYLE
  5
3
330
0
100
AcDbSymbolTable
 70
     2
  0
STYLE
  5
11
330
3
100
AcDbSymbolTableRecord
100
AcDbTextStyleTableRecord
  2
Standard
 70
     0
 40
0.0
 41
1.0
 50
0.0
 71
     0
 42
0.2
  3
txt
  4

  0
STYLE
  5
60
330
3
100
AcDbSymbolTableRecord
100
AcDbTextStyleTableRecord
  2
Helvetica Plain Condensed Bold
 70
     0
 40
0.0
 41
1.0
 50
0.0
 71
     0
 42
0.2
  3

  4

1001
ACAD
1000
Helvetica CE 55 Roman
1071
      256
  0
ENDTAB
  0
TABLE
  2
VIEW
  5
6
330
0
100
AcDbSymbolTable
 70
     0
  0
ENDTAB
  0
TABLE
  2
UCS
  5
7
330
0
100
AcDbSymbolTable
 70
     0
  0
ENDTAB
  0
TABLE
  2
APPID
  5
9
330
0
100
AcDbSymbolTable
 70
     3
  0
APPID
  5
12
330
9
100
AcDbSymbolTableRecord
100
AcDbRegAppTableRecord
  2
ACAD
 70
     0
  0
APPID
  5
5E
330
9
100
AcDbSymbolTableRecord
100
AcDbRegAppTableRecord
  2
Rhino
 70
     0
  0
APPID
  5
3DB
330
9
100
AcDbSymbolTableRecord
100
AcDbRegAppTableRecord
  2
ACAD_MLEADERVER
 70
     0
  0
ENDTAB
  0
TABLE
  2
DIMSTYLE
  5
A
330
0
100
AcDbSymbolTable
 70
     1
100
AcDbDimStyleTable
  0
DIMSTYLE
105
27
330
A
100
AcDbSymbolTableRecord
100
AcDbDimStyleTableRecord
  2
STANDARD_ACAD
 70
     0
178
     0
340
11
  0
ENDTAB
  0
TABLE
  2
BLOCK_RECORD
  5
1
330
0
100
AcDbSymbolTable
 70
     1
  0
BLOCK_RECORD
  5
1F
330
1
100
AcDbSymbolTableRecord
100
AcDbBlockTableRecord
  2
*Model_Space
340
22
 70
     0
280
     1
281
     0
  0
BLOCK_RECORD
  5
1B
330
1
100
AcDbSymbolTableRecord
100
AcDbBlockTableRecord
  2
*Paper_Space
340
1E
 70
     0
280
     1
281
     0
  0
BLOCK_RECORD
  5
23
330
1
100
AcDbSymbolTableRecord
100
AcDbBlockTableRecord
  2
*Paper_Space0
340
26
 70
     0
280
     1
281
     0
  0
ENDTAB
  0
ENDSEC
  0
SECTION
  2
BLOCKS
  0
BLOCK
  5
20
330
1F
100
AcDbEntity
  8
0
100
AcDbBlockBegin
  2
*Model_Space
 70
     0
 10
0.0
 20
0.0
 30
0.0
  3
*Model_Space
  1

  0
ENDBLK
  5
21
330
1F
100
AcDbEntity
  8
0
100
AcDbBlockEnd
  0
BLOCK
  5
1C
330
1B
100
AcDbEntity
 67
     1
  8
0
100
AcDbBlockBegin
  2
*Paper_Space
 70
     0
 10
0.0
 20
0.0
 30
0.0
  3
*Paper_Space
  1

  0
ENDBLK
  5
1D
330
1B
100
AcDbEntity
 67
     1
  8
0
100
AcDbBlockEnd
  0
BLOCK
  5
24
330
23
100
AcDbEntity
  8
0
100
AcDbBlockBegin
  2
*Paper_Space0
 70
     0
 10
0.0
 20
0.0
 30
0.0
  3
*Paper_Space0
  1

  0
ENDBLK
  5
25
330
23
100
AcDbEntity
  8
0
100
AcDbBlockEnd
  0
ENDSEC
  0
SECTION
  2
ENTITIES
  0
MTEXT
  5
61
330
1F
100
AcDbEntity
  8
Default
 62
   250
420
  2236191
100
AcDbMText
 10
800.4119462769333
 20
-43.54146583741914
 30
0.0
 40
50.0
 41
404.9180327868852
 46
20.81967213114755
 71
     7
 72
     1
  1
1700
  7
Helvetica Plain Condensed Bold
 73
     1
 44
1.0
1001
ACAD
1000
ACAD_MTEXT_DEFINED_HEIGHT_BEGIN
1070
    46
1040
20.81967213114755
1000
ACAD_MTEXT_DEFINED_HEIGHT_END
  0
MTEXT
  5
62
330
1F
100
AcDbEntity
  8
Default
 62
   250
420
  2236191
100
AcDbMText
 10
720.4040104272201
 20
911.3431634949775
 30
0.0
 40
50.0
 41
404.9180327868852
 46
20.81967213114755
 71
     7
 72
     1
  1
1220
  7
Helvetica Plain Condensed Bold
 73
     1
 44
1.0
1001
ACAD
1000
ACAD_MTEXT_DEFINED_HEIGHT_BEGIN
1070
    46
1040
20.81967213114755
1000
ACAD_MTEXT_DEFINED_HEIGHT_END
  0
MTEXT
  5
63
330
1F
100
AcDbEntity
  8
Default
 62
   250
420
  2236191
100
AcDbMText
 10
-57.23614757424653
 20
912.9399605339947
 30
0.0
 40
50.0
 41
249.1803278688525
 46
20.81967213114755
 71
     7
 72
     1
  1
25
  7
Helvetica Plain Condensed Bold
 73
     1
 44
1.0
1001
ACAD
1000
ACAD_MTEXT_DEFINED_HEIGHT_BEGIN
1070
    46
1040
20.81967213114755
1000
ACAD_MTEXT_DEFINED_HEIGHT_END
  0
MTEXT
  5
64
330
1F
100
AcDbEntity
  8
Default
 62
   250
420
  2236191
100
AcDbMText
 10
2293.417177758189
 20
-43.54146583741908
 30
0.0
 40
50.0
 41
342.6229508196722
 46
34.75409836065575
 71
     7
 72
     1
  1
Ø52
  7
Helvetica Plain Condensed Bold
 73
     1
 44
1.0
1001
ACAD
1000
ACAD_MTEXT_DEFINED_HEIGHT_BEGIN
1070
    46
1040
34.75409836065575
1000
ACAD_MTEXT_DEFINED_HEIGHT_END
  0
MTEXT
  5
65
330
1F
100
AcDbEntity
  8
Default
 62
   250
420
  2236191
100
AcDbMText
 10
123.2019178347178
 20
1850.427906336045
 30
0.0
 40
50.0
 41
327.3224043715848
 46
20.81967213114755
 71
     7
 72
     1
  1
330
  7
Helvetica Plain Condensed Bold
 73
     1
 44
1.0
1001
ACAD
1000
ACAD_MTEXT_DEFINED_HEIGHT_BEGIN
1070
    46
1040
20.81967213114755
1000
ACAD_MTEXT_DEFINED_HEIGHT_END
  0
MTEXT
  5
66
330
1F
100
AcDbEntity
  8
Default
 62
   250
420
  2236191
100
AcDbMText
 10
117.4870652740241
 20
593.5805527305181
 30
0.0
 40
50.0
 41
327.3224043715848
 46
20.81967213114755
 71
     7
 72
     1
  1
110
  7
Helvetica Plain Condensed Bold
 73
     1
 44
1.0
1001
ACAD
1000
ACAD_MTEXT_DEFINED_HEIGHT_BEGIN
1070
    46
1040
20.81967213114755
1000
ACAD_MTEXT_DEFINED_HEIGHT_END
  0
MTEXT
  5
67
330
1F
100
AcDbEntity
  8
Default
 62
   250
420
  2236191
100
AcDbMText
 10
1572.589377565972
 20
593.5805527305181
 30
0.0
 40
50.0
 41
249.7267759562842
 46
20.81967213114755
 71
     7
 72
     1
  1
80
  7
Helvetica Plain Condensed Bold
 73
     1
 44
1.0
1001
ACAD
1000
ACAD_MTEXT_DEFINED_HEIGHT_BEGIN
1070
    46
1040
20.81967213114755
1000
ACAD_MTEXT_DEFINED_HEIGHT_END
  0
MTEXT
  5
68
330
1F
100
AcDbEntity
  8
Default
 62
   250
420
  2236191
100
AcDbMText
 10
2707.912072307333
 20
281.7008784255962
 30
0.0
 40
50.0
 41
326.775956284153
 46
20.81967213114755
 71
     7
 72
     1
  1
375
  7
Helvetica Plain Condensed Bold
 73
     1
 44
1.0
1001
ACAD
1000
ACAD_MTEXT_DEFINED_HEIGHT_BEGIN
1070
    46
1040
20.81967213114755
1000
ACAD_MTEXT_DEFINED_HEIGHT_END
  0
MTEXT
  5
69
330
1F
100
AcDbEntity
  8
Default
 62
   250
420
  2236191
100
AcDbMText
 10
2066.67199821772
 20
1385.928051880829
 30
0.0
 40
50.0
 41
327.3224043715848
 46
20.81967213114755
 71
     7
 72
     1
  1
750
  7
Helvetica Plain Condensed Bold
 73
     1
 44
1.0
1001
ACAD
1000
ACAD_MTEXT_DEFINED_HEIGHT_BEGIN
1070
    46
1040
20.81967213114755
1000
ACAD_MTEXT_DEFINED_HEIGHT_END
  0
MTEXT
  5
6A
330
1F
100
AcDbEntity
  8
Default
 62
   250
420
  2236191
100
AcDbMText
 10
1836.228972902684
 20
1385.928051880829
 30
0.0
 40
50.0
 41
327.3224043715848
 46
20.81967213114755
 71
     7
 72
     1
  1
590
  7
Helvetica Plain Condensed Bold
 73
     1
 44
1.0
1001
ACAD
1000
ACAD_MTEXT_DEFINED_HEIGHT_BEGIN
1070
    46
1040
20.81967213114755
1000
ACAD_MTEXT_DEFINED_HEIGHT_END
  0
MTEXT
  5
6B
330
1F
100
AcDbEntity
  8
Default
 62
   250
420
  2236191
100
AcDbMText
 10
-140.1015097043065
 20
402.5532016943856
 30
0.0
 40
50.0
 41
250.2732240437159
 46
20.81967213114755
 71
     7
 72
     1
  1
28
  7
Helvetica Plain Condensed Bold
 73
     1
 44
1.0
1001
ACAD
1000
ACAD_MTEXT_DEFINED_HEIGHT_BEGIN
1070
    46
1040
20.81967213114755
1000
ACAD_MTEXT_DEFINED_HEIGHT_END
  0
POLYLINE
  5
6C
330
1F
100
AcDbEntity
  8
Default
 62
   250
420
  2301728
370
   120
100
AcDb2dPolyline
 66
     1
 10
0.0
 20
0.0
 30
0.0
  0
VERTEX
  5
6D
330
6C
100
AcDbEntity
  8
Default
 62
   250
420
  2301728
370
   120
100
AcDbVertex
100
AcDb2dVertex
 10
1905.180416235351
 20
496.7562098367621
 30
0.0
  0
VERTEX
  5
6E
330
6C
100
AcDbEntity
  8
Default
 62
   250
420
  2301728
370
   120
100
AcDbVertex
100
AcDb2dVertex
 10
1905.180416235351
 20
479.7985349106322
 30
0.0
  0
SEQEND
  5
6F
330
6C
100
AcDbEntity
  8
Default
 62
   250
420
  2301728
370
   120
  0
POLYLINE
  5
70
330
1F
100
AcDbEntity
  8
Default
 62
   250
420
  2301728
370
   120
100
AcDb2dPolyline
 66
     1
 10
0.0
 20
0.0
 30
0.0
  0
VERTEX
  5
71
330
70
100
AcDbEntity
  8
Default
 62
   250
420
  2301728
370
   120
100
AcDbVertex
100
AcDb2dVertex
 10
1907.207651811375
 20
496.7907665593863
 30
0.0
  0
VERTEX
  5
72
330
70
100
AcDbEntity
  8
Default
 62
   250
420
  2301728
370
   120
100
AcDbVertex
100
AcDb2dVertex
 10
1907.207651811375
 20
478.7659800386222
 30
0.0
  0
SEQEND
  5
73
330
70
100
AcDbEntity
  8
Default
 62
   250
420
  2301728
370
   120
  0
POLYLINE
  5
74
330
1F
100
AcDbEntity
  8
Default
 62
   250
420
  2301728
370
   120
100
AcDb2dPolyline
 66
     1
 10
0.0
 20
0.0
 30
0.0
  0
VERTEX
  5
75
330
74
100
AcDbEntity
  8
Default
 62
   250
420
  2301728
370
   120
100
AcDbVertex
100
AcDb2dVertex
 10
2234.070844592354
 20
117.5335002969927
 30
0.0
  0
VERTEX
  5
76
330
74
100
AcDbEntity
  8
Default
 62
   250
420
  2301728
370
   120
100
AcDbVertex
100
AcDb2dVertex
 10
2286.851400459598
 20
117.5335002969927
 30
0.0
  0
SEQEND
  5
77
330
74
100
AcDbEntity
  8
Default
 62
   250
420
  2301728
370
   120
  0
POLYLINE
  5
78
330
1F
100
AcDbEntity
  8
Default
 62
   250
420
  2301728
370
   120
100
AcDb2dPolyline
 66
     1
 10
0.0
 20
0.0
 30
0.0
  0
VERTEX
  5
79
330
78
100
AcDbEntity
  8
Default
 62
   250
420
  2301728
370
   120
100
AcDbVertex
100
AcDb2dVertex
 10
2234.070844592354
 20
115.494930115948
 30
0.0
  0
VERTEX
  5
7A
330
78
100
AcDbEntity
  8
Default
 62
   250
420
  2301728
370
   120
100
AcDbVertex
100
AcDb2dVertex
 10
2286.851400459598
 20
115.494930115948
 30
0.0
  0
SEQEND
  5
7B
330
78
100
AcDbEntity
  8
Default
 62
   250
420
  2301728
370
   120
  0
SPLINE
  5
7C
330
1F
100
AcDbEntity
  8
Default
 62
   250
420
  2301728
370
   120
100
AcDbSpline
210
0.0
220
0.0
230
1.0
 70
     8
 71
     3
 72
     8
 73
     4
 74
     0
 42
0.0000000001
 43
0.0000000001
 40
0.0
 40
0.0
 40
0.0
 40
0.0
 40
1.0
 40
1.0
 40
1.0
 40
1.0
 10
2522.883491864975
 20
223.4188923165851
 30
0.0
 10
2537.389021753694
 20
308.9481630802968
 30
0.0
 10
2546.951558038252
 20
395.2321526661203
 30
0.0
 10
2551.526868113692
 20
481.8976484697145
 30
0.0
  0
SPLINE
  5
7D
330
1F
100
AcDbEntity
  8
Default
 62
   250
420
  2301728
370
   120
100
AcDbSpline
210
0.0
220
0.0
230
1.0
 70
     8
 71
     3
 72
     8
 73
     4
 74
     0
 42
0.0000000001
 43
0.0000000001
 40
0.0
 40
0.0
 40
0.0
 40
0.0
 40
1.0
 40
1.0
 40
1.0
 40
1.0
 10
2520.879478406554
 20
223.7661182655127
 30
0.0
 10
2535.385008295274
 20
309.2152174327363
 30
0.0
 10
2544.936486428593
 20
395.4300935733114
 30
0.0
 10
2549.489680201552
 20
481.9933014779381
 30
0.0
  0
SPLINE
  5
7E
330
1F
100
AcDbEntity
  8
Default
 62
   250
420
  2301728
370
   120
100
AcDbSpline
210
0.0
220
0.0
230
1.0
 70
     8
 71
     3
 72
     8
 73
     4
 74
     0
 42
0.0000000001
 43
0.0000000001
 40
0.0
 40
0.0
 40
0.0
 40
0.0
 40
1.0
 40
1.0
 40
1.0
 40
1.0
 10
2437.947767369056
 20
138.6180772657908
 30
0.0
 10
2481.439476194924
 20
145.9219861596341
 30
0.0
 10
2515.528991929209
 20
179.9423884486715
 30
0.0
 10
2522.879897965822
 20
223.4230391232999
 30
0.0
  0
SPLINE
  5
7F
330
1F
100
AcDbEntity
  8
Default
 62
   250
420
  2301728
370
   120
100
AcDbSpline
210
0.0
220
0.0
230
1.0
 70
     8
 71
     3
 72
     8
 73
     4
 74
     0
 42
0.0000000001
 43
0.0000000001
 40
0.0
 40
0.0
 40
0.0
 40
0.0
 40
1.0
 40
1.0
 40
1.0
 40
1.0
 10
2437.611876025149
 20
140.6121383880956
 30
0.0
 10
2480.243813592128
 20
147.7778203914424
 30
0.0
 10
2513.66984025203
 20
181.1457917573354
 30
0.0
 10
2520.882519398145
 20
223.7666711730747
 30
0.0
  0
SPLINE
  5
80
330
1F
100
AcDbEntity
  8
Default
 62
   250
420
  2301728
370
   120
100
AcDbSpline
210
0.0
220
0.0
230
1.0
 70
     8
 71
     3
 72
     8
 73
     4
 74
     0
 42
0.0000000001
 43
0.0000000001
 40
0.0
 40
0.0
 40
0.0
 40
0.0
 40
1.0
 40
1.0
 40
1.0
 40
1.0
 10
2296.497978693578
 20
124.218429175192
 30
0.0
 10
2343.912566671741
 20
125.9490298442102
 30
0.0
 10
2391.164046919119
 20
130.7648547091137
 30
0.0
 10
2437.948320276618
 20
138.6216711649437
 30
0.0
  0
SPLINE
  5
81
330
1F
100
AcDbEntity
  8
Default
 62
   250
420
  2301728
370
   120
100
AcDbSpline
210
0.0
220
0.0
230
1.0
 70
     8
 71
     3
 72
     8
 73
     4
 74
     0
 42
0.0000000001
 43
0.0000000001
 40
0.0
 40
0.0
 40
0.0
 40
0.0
 40
1.0
 40
1.0
 40
1.0
 40
1.0
 10
2295.915767030806
 20
126.2343301461952
 30
0.0
 10
2343.399468454218
 20
127.9428145127339
 30
0.0
 10
2390.744942987133
 20
132.736523075158
 30
0.0
 10
2437.59556525207
 20
140.6016331444179
 30
0.0
  0
SPLINE
  5
82
330
1F
100
AcDbEntity
  8
Default
 62
   250
420
  2301728
370
   120
100
AcDbSpline
210
0.0
220
0.0
230
1.0
 70
     8
 71
     3
 72
     8
 73
     4
 74
     0
 42
0.0000000001
 43
0.0000000001
 40
0.0
 40
0.0
 40
0.0
 40
0.0
 40
1.0
 40
1.0
 40
1.0
 40
1.0
 10
1998.032671203795
 20
223.4188923165851
 30
0.0
 10
2005.405693542887
 20
179.9492997931963
 30
0.0
 10
2039.484151125932
 20
145.9178393529193
 30
0.0
 10
2082.975859951801
 20
138.611165921266
 30
0.0
  0
SPLINE
  5
83
330
1F
100
AcDbEntity
  8
Default
 62
   250
420
  2301728
370
   120
100
AcDbSpline
210
0.0
220
0.0
230
1.0
 70
     8
 71
     3
 72
     8
 73
     4
 74
     0
 42
0.0000000001
 43
0.0000000001
 40
0.0
 40
0.0
 40
0.0
 40
0.0
 40
1.0
 40
1.0
 40
1.0
 40
1.0
 10
2000.025626510976
 20
223.7661182655127
 30
0.0
 10
2007.260421959571
 20
181.1452388497734
 30
0.0
 10
2040.686448619472
 20
147.7772674838803
 30
0.0
 10
2083.318386186451
 20
140.6115854805336
 30
0.0
  0
SPLINE
  5
84
330
1F
100
AcDbEntity
  8
Default
 62
   250
420
  2301728
370
   120
100
AcDbSpline
210
0.0
220
0.0
230
1.0
 70
     8
 71
     3
 72
     8
 73
     4
 74
     0
 42
0.0000000001
 43
0.0000000001
 40
0.0
 40
0.0
 40
0.0
 40
0.0
 40
1.0
 40
1.0
 40
1.0
 40
1.0
 10
2569.768117944974
 20
499.1859621179123
 30
0.0
 10
2560.067354769918
 20
499.1859621179123
 30
0.0
 10
2552.028078818633
 20
491.5945412918359
 30
0.0
 10
2551.524932937225
 20
481.8937781167805
 30
0.0
  0
SPLINE
  5
85
330
1F
100
AcDbEntity
  8
Default
 62
   250
420
  2301728
370
   120
100
AcDbSpline
210
0.0
220
0.0
230
1.0
 70
     8
 71
     3
 72
     8
 73
     4
 74
     0
 42
0.0000000001
 43
0.0000000001
 40
0.0
 40
0.0
 40
0.0
 40
0.0
 40
1.0
 40
1.0
 40
1.0
 40
1.0
 10
2569.768117944974
 20
501.2248087527381
 30
0.0
 10
2558.978126872804
 20
501.2248087527381
 30
0.0
 10
2550.06802151139
 20
492.7846748190122
 30
0.0
 10
2549.470881344444
 20
481.994683746843
 30
0.0
  0
SPLINE
  5
86
330
1F
100
AcDbEntity
  8
Default
 62
   250
420
  2301728
370
   120
100
AcDbSpline
210
0.0
220
0.0
230
1.0
 70
     8
 71
     3
 72
     8
 73
     4
 74
     0
 42
0.0000000001
 43
0.0000000001
 40
0.0
 40
0.0
 40
0.0
 40
0.0
 40
1.0
 40
1.0
 40
1.0
 40
1.0
 10
2584.549548707124
 20
499.1859621179123
 30
0.0
 10
2585.376145512294
 20
499.1859621179123
 30
0.0
 10
2586.141922485646
 20
499.495590352625
 30
0.0
 10
2586.694830047633
 20
500.0927305195704
 30
0.0
  0
SPLINE
  5
87
330
1F
100
AcDbEntity
  8
Default
 62
   250
420
  2301728
370
   120
100
AcDbSpline
210
0.0
220
0.0
230
1.0
 70
     8
 71
     3
 72
     8
 73
     4
 74
     0
 42
0.0000000001
 43
0.0000000001
 40
0.0
 40
0.0
 40
0.0
 40
0.0
 40
1.0
 40
1.0
 40
1.0
 40
1.0
 10
2584.549548707124
 20
501.2248087527381
 30
0.0
 10
2584.823237950307
 20
501.2248087527381
 30
0.0
 10
2585.088633580061
 20
501.3270966517055
 30
0.0
 10
2585.271093075517
 20
501.5123206849711
 30
0.0
  0
POLYLINE
  5
88
330
1F
100
AcDbEntity
  8
Default
 62
   250
420
  2301728
370
   120
100
AcDb2dPolyline
 66
     1
 10
0.0
 20
0.0
 30
0.0
  0
VERTEX
  5
89
330
88
100
AcDbEntity
  8
Default
 62
   250
420
  2301728
370
   120
100
AcDbVertex
100
AcDb2dVertex
 10
2584.549548707124
 20
499.1859621179123
 30
0.0
  0
VERTEX
  5
8A
330
88
100
AcDbEntity
  8
Default
 62
   250
420
  2301728
370
   120
100
AcDbVertex
100
AcDb2dVertex
 10
2569.770329575222
 20
499.1859621179123
 30
0.0
  0
SEQEND
  5
8B
330
88
100
AcDbEntity
  8
Default
 62
   250
420
  2301728
370
   120
  0
POLYLINE
  5
8C
330
1F
100
AcDbEntity
  8
Default
 62
   250
420
  2301728
370
   120
100
AcDb2dPolyline
 66
     1
 10
0.0
 20
0.0
 30
0.0
  0
VERTEX
  5
8D
330
8C
100
AcDbEntity
  8
Default
 62
   250
420
  2301728
370
   120
100
AcDbVertex
100
AcDb2dVertex
 10
2584.549548707124
 20
501.2248087527381
 30
0.0
  0
VERTEX
  5
8E
330
8C
100
AcDbEntity
  8
Default
 62
   250
420
  2301728
370
   120
100
AcDbVertex
100
AcDb2dVertex
 10
2569.770329575222
 20
501.2248087527381
 30
0.0
  0
SEQEND
  5
8F
330
8C
100
AcDbEntity
  8
Default
 62
   250
420
  2301728
370
   120
  0
SPLINE
  5
90
330
1F
100
AcDbEntity
  8
Default
 62
   250
420
  2301728
370
   120
100
AcDbSpline
210
0.0
220
0.0
230
1.0
 70
     8
 71
     3
 72
     8
 73
     4
 74
     0
 42
0.0000000001
 43
0.0000000001
 40
0.0
 40
0.0
 40
0.0
 40
0.0
 40
1.0
 40
1.0
 40
1.0
 40
1.0
 10
2613.708787711176
 20
497.8985168598265
 30
0.0
 10
2613.570560820679
 20
501.4537124834006
 30
0.0
 10
2610.659502506819
 20
504.251424747053
 30
0.0
 10
2607.104306883245
 20
504.251424747053
 30
0.0
  0
SPLINE
  5
91
330
1F
100
AcDbEntity
  8
Default
 62
   250
420
  2301728
370
   120
100
AcDbSpline
210
0.0
220
0.0
230
1.0
 70
     8
 71
     3
 72
     8
 73
     4
 74
     0
 42
0.0000000001
 43
0.0000000001
 40
0.0
 40
0.0
 40
0.0
 40
0.0
 40
1.0
 40
1.0
 40
1.0
 40
1.0
 10
2615.735193925856
 20
497.9214625236489
 30
0.0
 10
2615.57485073288
 20
502.5769441955763
 30
0.0
 10
2611.757024017362
 20
506.2814248608867
 30
0.0
 10
2607.101542345436
 20
506.2814248608867
 30
0.0
  0
SPLINE
  5
92
330
1F
100
AcDbEntity
  8
Default
 62
   250
420
  2301728
370
   120
100
AcDbSpline
210
0.0
220
0.0
230
1.0
 70
     8
 71
     3
 72
     8
 73
     4
 74
     0
 42
0.0000000001
 43
0.0000000001
 40
0.0
 40
0.0
 40
0.0
 40
0.0
 40
1.0
 40
1.0
 40
1.0
 40
1.0
 10
2613.708787711176
 20
477.8777340402907
 30
0.0
 10
2614.831190062008
 20
477.8777340402907
 30
0.0
 10
2615.737958463666
 20
478.7955605931884
 30
0.0
 10
2615.737958463666
 20
479.9069047927815
 30
0.0
  0
POLYLINE
  5
93
330
1F
100
AcDbEntity
  8
Default
 62
   250
420
  2301728
370
   120
100
AcDb2dPolyline
 66
     1
 10
0.0
 20
0.0
 30
0.0
  0
VERTEX
  5
94
330
93
100
AcDbEntity
  8
Default
 62
   250
420
  2301728
370
   120
100
AcDbVertex
100
AcDb2dVertex
 10
2607.616852193207
 20
479.9041402549718
 30
0.0
  0
VERTEX
  5
95
330
93
100
AcDbEntity
  8
Default
 62
   250
420
  2301728
370
   120
100
AcDbVertex
100
AcDb2dVertex
 10
2607.616852193207
 20
477.8749695024807
 30
0.0
  0
SEQEND
  5
96
330
93
100
AcDbEntity
  8
Default
 62
   250
420
  2301728
370
   120
  0
SPLINE
  5
97
330
1F
100
AcDbEntity
  8
Default
 62
   250
420
  2301728
370
   120
100
AcDbSpline
210
0.0
220
0.0
230
1.0
 70
     8
 71
     3
 72
     8
 73
     4
 74
     0
 42
0.0000000001
 43
0.0000000001
 40
0.0
 40
0.0
 40
0.0
 40
0.0
 40
1.0
 40
1.0
 40
1.0
 40
1.0
 10
2612.678168015632
 20
479.9041402549718
 30
0.0
 10
2613.239369191048
 20
479.9041402549718
 30
0.0
 10
2613.709340618737
 20
480.3519953801808
 30
0.0
 10
2613.709340618737
 20
480.9242547068371
 30
0.0
  0
POLYLINE
  5
98
330
1F
100
AcDbEntity
  8
Default
 62
   250
420
  2301728
370
   120
100
AcDb2dPolyline
 66
     1
 10
0.0
 20
0.0
 30
0.0
  0
VERTEX
  5
99
330
98
100
AcDbEntity
  8
Default
 62
   250
420
  2301728
370
   120
100
AcDbVertex
100
AcDb2dVertex
 10
2612.678168015632
 20
479.9041402549718
 30
0.0
  0
VERTEX
  5
9A
330
98
100
AcDbEntity
  8
Default
 62
   250
420
  2301728
370
   120
100
AcDbVertex
100
AcDb2dVertex
 10
2607.621828361265
 20
479.9041402549718
 30
0.0
  0
SEQEND
  5
9B
330
98
100
AcDbEntity
  8
Default
 62
   250
420
  2301728
370
   120
  0
POLYLINE
  5
9C
330
1F
100
AcDbEntity
  8
Default
 62
   250
420
  2301728
370
   120
100
AcDb2dPolyline
 66
     1
 10
0.0
 20
0.0
 30
0.0
  0
VERTEX
  5
9D
330
9C
100
AcDbEntity
  8
Default
 62
   250
420
  2301728
370
   120
100
AcDbVertex
100
AcDb2dVertex
 10
2613.708787711176
 20
477.8777340402907
 30
0.0
  0
VERTEX
  5
9E
330
9C
100
AcDbEntity
  8
Default
 62
   250
420
  2301728
370
   120
100
AcDbVertex
100
AcDb2dVertex
 10
2607.618510915893
 20
477.8777340402907
 30
0.0
  0
SEQEND
  5
9F
330
9C
100
AcDbEntity
  8
Default
 62
   250
420
  2301728
370
   120
  0
POLYLINE
  5
A0
330
1F
100
AcDbEntity
  8
Default
 62
   250
420
  2301728
370
   120
100
AcDb2dPolyline
 66
     1
 10
0.0
 20
0.0
 30
0.0
  0
VERTEX
  5
A1
330
A0
100
AcDbEntity
  8
Default
 62
   250
420
  2301728
370
   120
100
AcDbVertex
100
AcDb2dVertex
 10
2613.708787711176
 20
497.8985168598265
 30
0.0
  0
VERTEX
  5
A2
330
A0
100
AcDbEntity
  8
Default
 62
   250
420
  2301728
370
   120
100
AcDbVertex
100
AcDb2dVertex
 10
2613.708787711176
 20
480.9270192446469
 30
0.0
  0
SEQEND
  5
A3
330
A0
100
AcDbEntity
  8
Default
 62
   250
420
  2301728
370
   120
  0
POLYLINE
  5
A4
330
1F
100
AcDbEntity
  8
Default
 62
   250
420
  2301728
370
   120
100
AcDb2dPolyline
 66
     1
 10
0.0
 20
0.0
 30
0.0
  0
VERTEX
  5
A5
330
A4
100
AcDbEntity
  8
Default
 62
   250
420
  2301728
370
   120
100
AcDbVertex
100
AcDb2dVertex
 10
2615.735193925856
 20
497.9214625236489
 30
0.0
  0
VERTEX
  5
A6
330
A4
100
AcDbEntity
  8
Default
 62
   250
420
  2301728
370
   120
100
AcDbVertex
100
AcDb2dVertex
 10
2615.735193925856
 20
479.9187923053642
 30
0.0
  0
SEQEND
  5
A7
330
A4
100
AcDbEntity
  8
Default
 62
   250
420
  2301728
370
   120
  0
SPLINE
  5
A8
330
1F
100
AcDbEntity
  8
Default
 62
   250
420
  2301728
370
   120
100
AcDbSpline
210
0.0
220
0.0
230
1.0
 70
     8
 71
     3
 72
     8
 73
     4
 74
     0
 42
0.0000000001
 43
0.0000000001
 40
0.0
 40
0.0
 40
0.0
 40
0.0
 40
1.0
 40
1.0
 40
1.0
 40
1.0
 10
2591.312437551564
 20
504.2486602092429
 30
0.0
 10
2591.04980645962
 20
504.2486602092429
 30
0.0
 10
2590.773352678627
 20
504.157430461515
 30
0.0
 10
2590.601951334411
 20
503.9722064282495
 30
0.0
  0
POLYLINE
  5
A9
330
1F
100
AcDbEntity
  8
Default
 62
   250
420
  2301728
370
   120
100
AcDb2dPolyline
 66
     1
 10
0.0
 20
0.0
 30
0.0
  0
VERTEX
  5
AA
330
A9
100
AcDbEntity
  8
Default
 62
   250
420
  2301728
370
   120
100
AcDbVertex
100
AcDb2dVertex
 10
2591.312437551564
 20
504.2486602092429
 30
0.0
  0
VERTEX
  5
AB
330
A9
100
AcDbEntity
  8
Default
 62
   250
420
  2301728
370
   120
100
AcDbVertex
100
AcDb2dVertex
 10
2607.100712984092
 20
504.2486602092429
 30
0.0
  0
SEQEND
  5
AC
330
A9
100
AcDbEntity
  8
Default
 62
   250
420
  2301728
370
   120
  0
POLYLINE
  5
AD
330
1F
100
AcDbEntity
  8
Default
 62
   250
420
  2301728
370
   120
100
AcDb2dPolyline
 66
     1
 10
0.0
 20
0.0
 30
0.0
  0
VERTEX
  5
AE
330
AD
100
AcDbEntity
  8
Default
 62
   250
420
  2301728
370
   120
100
AcDbVertex
100
AcDb2dVertex
 10
2590.461789267448
 20
506.2861245751637
 30
0.0
  0
VERTEX
  5
AF
330
AD
100
AcDbEntity
  8
Default
 62
   250
420
  2301728
370
   120
100
AcDbVertex
100
AcDb2dVertex
 10
2607.098777807626
 20
506.2861245751637
 30
0.0
  0
SEQEND
  5
B0
330
AD
100
AcDbEntity
  8
Default
 62
   250
420
  2301728
370
   120
  0
SPLINE
  5
B1
330
1F
100
AcDbEntity
  8
Default
 62
   250
420
  2301728
370
   120
100
AcDbSpline
210
0.0
220
0.0
230
1.0
 70
     8
 71
     3
 72
     8
 73
     4
 74
     0
 42
0.0000000001
 43
0.0000000001
 40
0.0
 40
0.0
 40
0.0
 40
0.0
 40
1.0
 40
1.0
 40
1.0
 40
1.0
 10
2590.461789267448
 20
506.2861245751637
 30
0.0
 10
2590.210216326744
 20
506.2861245751637
 30
0.0
 10
2589.95587884823
 20
506.1838366761962
 30
0.0
 10
2589.751303050295
 20
505.9986126429308
 30
0.0
  0
POLYLINE
  5
B2
330
1F
100
AcDbEntity
  8
Default
 62
   250
420
  2301728
370
   120
100
AcDb2dPolyline
 66
     1
 10
0.0
 20
0.0
 30
0.0
  0
VERTEX
  5
B3
330
B2
100
AcDbEntity
  8
Default
 62
   250
420
  2301728
370
   120
100
AcDbVertex
100
AcDb2dVertex
 10
2590.59586935123
 20
503.9675067139728
 30
0.0
  0
VERTEX
  5
B4
330
B2
100
AcDbEntity
  8
Default
 62
   250
420
  2301728
370
   120
100
AcDbVertex
100
AcDb2dVertex
 10
2586.708929190464
 20
500.0916247044467
 30
0.0
  0
SEQEND
  5
B5
330
B2
100
AcDbEntity
  8
Default
 62
   250
420
  2301728
370
   120
  0
POLYLINE
  5
B6
330
1F
100
AcDbEntity
  8
Default
 62
   250
420
  2301728
370
   120
100
AcDb2dPolyline
 66
     1
 10
0.0
 20
0.0
 30
0.0
  0
VERTEX
  5
B7
330
B6
100
AcDbEntity
  8
Default
 62
   250
420
  2301728
370
   120
100
AcDbVertex
100
AcDb2dVertex
 10
2589.756279218353
 20
505.995018743778
 30
0.0
  0
VERTEX
  5
B8
330
B6
100
AcDbEntity
  8
Default
 62
   250
420
  2301728
370
   120
100
AcDbVertex
100
AcDb2dVertex
 10
2585.283257041881
 20
501.5109384160662
 30
0.0
  0
SEQEND
  5
B9
330
B6
100
AcDbEntity
  8
Default
 62
   250
420
  2301728
370
   120
  0
SPLINE
  5
BA
330
1F
100
AcDbEntity
  8
Default
 62
   250
420
  2301728
370
   120
100
AcDbSpline
210
0.0
220
0.0
230
1.0
 70
     8
 71
     3
 72
     8
 73
     4
 74
     0
 42
0.0000000001
 43
0.0000000001
 40
0.0
 40
0.0
 40
0.0
 40
0.0
 40
1.0
 40
1.0
 40
1.0
 40
1.0
 10
1969.388465593735
 20
481.8865903184747
 30
0.0
 10
1968.871497023277
 20
491.5984116447698
 30
0.0
 10
1960.87921821476
 20
499.1787743196066
 30
0.0
 10
1951.145280585985
 20
499.1787743196066
 30
0.0
  0
SPLINE
  5
BB
330
1F
100
AcDbEntity
  8
Default
 62
   250
420
  2301728
370
   120
100
AcDbSpline
210
0.0
220
0.0
230
1.0
 70
     8
 71
     3
 72
     8
 73
     4
 74
     0
 42
0.0000000001
 43
0.0000000001
 40
0.0
 40
0.0
 40
0.0
 40
0.0
 40
1.0
 40
1.0
 40
1.0
 40
1.0
 10
1971.427035774779
 20
481.9863901334133
 30
0.0
 10
1970.865834599363
 20
492.7763812055824
 30
0.0
 10
1961.944671086709
 20
501.227573290548
 30
0.0
 10
1951.13256371206
 20
501.227573290548
 30
0.0
  0
POLYLINE
  5
BC
330
1F
100
AcDbEntity
  8
Default
 62
   250
420
  2301728
370
   120
100
AcDb2dPolyline
 66
     1
 10
0.0
 20
0.0
 30
0.0
  0
VERTEX
  5
BD
330
BC
100
AcDbEntity
  8
Default
 62
   250
420
  2301728
370
   120
100
AcDbVertex
100
AcDb2dVertex
 10
1930.779206993989
 20
506.2861245751637
 30
0.0
  0
VERTEX
  5
BE
330
BC
100
AcDbEntity
  8
Default
 62
   250
420
  2301728
370
   120
100
AcDbVertex
100
AcDb2dVertex
 10
2590.458748275857
 20
506.2861245751637
 30
0.0
  0
SEQEND
  5
BF
330
BC
100
AcDbEntity
  8
Default
 62
   250
420
  2301728
370
   120
  0
SPLINE
  5
C0
330
1F
100
AcDbEntity
  8
Default
 62
   250
420
  2301728
370
   120
100
AcDbSpline
210
0.0
220
0.0
230
1.0
 70
     8
 71
     3
 72
     8
 73
     4
 74
     0
 42
0.0000000001
 43
0.0000000001
 40
0.0
 40
0.0
 40
0.0
 40
0.0
 40
1.0
 40
1.0
 40
1.0
 40
1.0
 10
2295.915767030806
 20
126.2343301461952
 30
0.0
 10
2295.75542383783
 20
126.2122138437157
 30
0.0
 10
2295.606138796094
 20
126.1762748521867
 30
0.0
 10
2295.445795603118
 20
126.1071614069384
 30
0.0
  0
SPLINE
  5
C1
330
1F
100
AcDbEntity
  8
Default
 62
   250
420
  2301728
370
   120
100
AcDbSpline
210
0.0
220
0.0
230
1.0
 70
     8
 71
     3
 72
     8
 73
     4
 74
     0
 42
0.0000000001
 43
0.0000000001
 40
0.0
 40
0.0
 40
0.0
 40
0.0
 40
1.0
 40
1.0
 40
1.0
 40
1.0
 10
2295.445242695556
 20
126.1104788523103
 30
0.0
 10
2293.874985219513
 20
125.2396494421814
 30
0.0
 10
2292.476129087687
 20
123.9900783520916
 30
0.0
 10
2291.397959341813
 20
122.522108775017
 30
0.0
  0
SPLINE
  5
C2
330
1F
100
AcDbEntity
  8
Default
 62
   250
420
  2301728
370
   120
100
AcDbSpline
210
0.0
220
0.0
230
1.0
 70
     8
 71
     3
 72
     8
 73
     4
 74
     0
 42
0.0000000001
 43
0.0000000001
 40
0.0
 40
0.0
 40
0.0
 40
0.0
 40
1.0
 40
1.0
 40
1.0
 40
1.0
 10
2296.497978693578
 20
124.218429175192
 30
0.0
 10
2296.301696509073
 20
124.218429175192
 30
0.0
 10
2296.141353316097
 20
124.1493157299437
 30
0.0
 10
2295.99483281217
 20
124.0802022846954
 30
0.0
  0
SPLINE
  5
C3
330
1F
100
AcDbEntity
  8
Default
 62
   250
420
  2301728
370
   120
100
AcDbSpline
210
0.0
220
0.0
230
1.0
 70
     8
 71
     3
 72
     8
 73
     4
 74
     0
 42
0.0000000001
 43
0.0000000001
 40
0.0
 40
0.0
 40
0.0
 40
0.0
 40
1.0
 40
1.0
 40
1.0
 40
1.0
 10
2295.993450543266
 20
124.0843490914103
 30
0.0
 10
2294.846167352143
 20
123.3628047230177
 30
0.0
 10
2293.848169202757
 20
122.4339200188801
 30
0.0
 10
2293.068569540356
 20
121.3557502730063
 30
0.0
  0
SPLINE
  5
C4
330
1F
100
AcDbEntity
  8
Default
 62
   250
420
  2301728
370
   120
100
AcDbSpline
210
0.0
220
0.0
230
1.0
 70
     8
 71
     3
 72
     8
 73
     4
 74
     0
 42
0.0000000001
 43
0.0000000001
 40
0.0
 40
0.0
 40
0.0
 40
0.0
 40
1.0
 40
1.0
 40
1.0
 40
1.0
 10
2288.34646250721
 20
115.494930115948
 30
0.0
 10
2288.689265195641
 20
115.494930115948
 30
0.0
 10
2288.998893430354
 20
115.6663314601639
 30
0.0
 10
2289.184117463619
 20
115.9317270899174
 30
0.0
  0
SPLINE
  5
C5
330
1F
100
AcDbEntity
  8
Default
 62
   250
420
  2301728
370
   120
100
AcDbSpline
210
0.0
220
0.0
230
1.0
 70
     8
 71
     3
 72
     8
 73
     4
 74
     0
 42
0.0000000001
 43
0.0000000001
 40
0.0
 40
0.0
 40
0.0
 40
0.0
 40
1.0
 40
1.0
 40
1.0
 40
1.0
 10
2287.327177416687
 20
117.5335002969927
 30
0.0
 10
2287.647863802639
 20
117.5335002969927
 30
0.0
 10
2287.946433886113
 20
117.682785338729
 30
0.0
 10
2288.117835230328
 20
117.9702972709621
 30
0.0
  0
POLYLINE
  5
C6
330
1F
100
AcDbEntity
  8
Default
 62
   250
420
  2301728
370
   120
100
AcDb2dPolyline
 66
     1
 10
0.0
 20
0.0
 30
0.0
  0
VERTEX
  5
C7
330
C6
100
AcDbEntity
  8
Default
 62
   250
420
  2301728
370
   120
100
AcDbVertex
100
AcDb2dVertex
 10
2286.845594930197
 20
117.5335002969927
 30
0.0
  0
VERTEX
  5
C8
330
C6
100
AcDbEntity
  8
Default
 62
   250
420
  2301728
370
   120
100
AcDbVertex
100
AcDb2dVertex
 10
2287.326624509125
 20
117.5335002969927
 30
0.0
  0
SEQEND
  5
C9
330
C6
100
AcDbEntity
  8
Default
 62
   250
420
  2301728
370
   120
  0
POLYLINE
  5
CA
330
1F
100
AcDbEntity
  8
Default
 62
   250
420
  2301728
370
   120
100
AcDb2dPolyline
 66
     1
 10
0.0
 20
0.0
 30
0.0
  0
VERTEX
  5
CB
330
CA
100
AcDbEntity
  8
Default
 62
   250
420
  2301728
370
   120
100
AcDbVertex
100
AcDb2dVertex
 10
2286.845594930197
 20
115.494930115948
 30
0.0
  0
VERTEX
  5
CC
330
CA
100
AcDbEntity
  8
Default
 62
   250
420
  2301728
370
   120
100
AcDbVertex
100
AcDb2dVertex
 10
2288.34673896099
 20
115.494930115948
 30
0.0
  0
SEQEND
  5
CD
330
CA
100
AcDbEntity
  8
Default
 62
   250
420
  2301728
370
   120
  0
POLYLINE
  5
CE
330
1F
100
AcDbEntity
  8
Default
 62
   250
420
  2301728
370
   120
100
AcDb2dPolyline
 66
     1
 10
0.0
 20
0.0
 30
0.0
  0
VERTEX
  5
CF
330
CE
100
AcDbEntity
  8
Default
 62
   250
420
  2301728
370
   120
100
AcDbVertex
100
AcDb2dVertex
 10
2291.413717207331
 20
122.538696001877
 30
0.0
  0
VERTEX
  5
D0
330
CE
100
AcDbEntity
  8
Default
 62
   250
420
  2301728
370
   120
100
AcDbVertex
100
AcDb2dVertex
 10
2288.12391721351
 20
117.9633859264374
 30
0.0
  0
SEQEND
  5
D1
330
CE
100
AcDbEntity
  8
Default
 62
   250
420
  2301728
370
   120
  0
POLYLINE
  5
D2
330
1F
100
AcDbEntity
  8
Default
 62
   250
420
  2301728
370
   120
100
AcDb2dPolyline
 66
     1
 10
0.0
 20
0.0
 30
0.0
  0
VERTEX
  5
D3
330
D2
100
AcDbEntity
  8
Default
 62
   250
420
  2301728
370
   120
100
AcDbVertex
100
AcDb2dVertex
 10
2293.071886985728
 20
121.351879920072
 30
0.0
  0
VERTEX
  5
D4
330
D2
100
AcDbEntity
  8
Default
 62
   250
420
  2301728
370
   120
100
AcDbVertex
100
AcDb2dVertex
 10
2289.184946824962
 20
115.9278567369832
 30
0.0
  0
SEQEND
  5
D5
330
D2
100
AcDbEntity
  8
Default
 62
   250
420
  2301728
370
   120
  0
SPLINE
  5
D6
330
1F
100
AcDbEntity
  8
Default
 62
   250
420
  2301728
370
   120
100
AcDbSpline
210
0.0
220
0.0
230
1.0
 70
     8
 71
     3
 72
     8
 73
     4
 74
     0
 42
0.0000000001
 43
0.0000000001
 40
0.0
 40
0.0
 40
0.0
 40
0.0
 40
1.0
 40
1.0
 40
1.0
 40
1.0
 10
2229.490005441295
 20
122.5386960018766
 30
0.0
 10
2228.4339519979
 20
124.0066655789512
 30
0.0
 10
2227.059976706363
 20
125.2341203665615
 30
0.0
 10
2225.453780238792
 20
126.1160079279302
 30
0.0
  0
SPLINE
  5
D7
330
1F
100
AcDbEntity
  8
Default
 62
   250
420
  2301728
370
   120
100
AcDbSpline
210
0.0
220
0.0
230
1.0
 70
     8
 71
     3
 72
     8
 73
     4
 74
     0
 42
0.0000000001
 43
0.0000000001
 40
0.0
 40
0.0
 40
0.0
 40
0.0
 40
1.0
 40
1.0
 40
1.0
 40
1.0
 10
2227.856163595624
 20
121.3518799200723
 30
0.0
 10
2227.065505781984
 20
122.4521659684257
 30
0.0
 10
2226.067507632597
 20
123.3699925213235
 30
0.0
 10
2224.931282592715
 20
124.0804787384764
 30
0.0
  0
SPLINE
  5
D8
330
1F
100
AcDbEntity
  8
Default
 62
   250
420
  2301728
370
   120
100
AcDbSpline
210
0.0
220
0.0
230
1.0
 70
     8
 71
     3
 72
     8
 73
     4
 74
     0
 42
0.0000000001
 43
0.0000000001
 40
0.0
 40
0.0
 40
0.0
 40
0.0
 40
1.0
 40
1.0
 40
1.0
 40
1.0
 10
2231.730663336245
 20
115.9317270899174
 30
0.0
 10
2231.93800367199
 20
115.6552733089241
 30
0.0
 10
2232.233809217653
 20
115.494930115948
 30
0.0
 10
2232.557260141416
 20
115.494930115948
 30
0.0
  0
SPLINE
  5
D9
330
1F
100
AcDbEntity
  8
Default
 62
   250
420
  2301728
370
   120
100
AcDbSpline
210
0.0
220
0.0
230
1.0
 70
     8
 71
     3
 72
     8
 73
     4
 74
     0
 42
0.0000000001
 43
0.0000000001
 40
0.0
 40
0.0
 40
0.0
 40
0.0
 40
1.0
 40
1.0
 40
1.0
 40
1.0
 10
2232.771788275466
 20
117.9589626659414
 30
0.0
 10
2232.965305922161
 20
117.6825088849481
 30
0.0
 10
2233.274934156875
 20
117.522165691972
 30
0.0
 10
2233.609443231876
 20
117.522165691972
 30
0.0
  0
POLYLINE
  5
DA
330
1F
100
AcDbEntity
  8
Default
 62
   250
420
  2301728
370
   120
100
AcDb2dPolyline
 66
     1
 10
0.0
 20
0.0
 30
0.0
  0
VERTEX
  5
DB
330
DA
100
AcDbEntity
  8
Default
 62
   250
420
  2301728
370
   120
100
AcDbVertex
100
AcDb2dVertex
 10
2234.070844592354
 20
117.5335002969927
 30
0.0
  0
VERTEX
  5
DC
330
DA
100
AcDbEntity
  8
Default
 62
   250
420
  2301728
370
   120
100
AcDbVertex
100
AcDb2dVertex
 10
2233.611931315905
 20
117.5335002969927
 30
0.0
  0
SEQEND
  5
DD
330
DA
100
AcDbEntity
  8
Default
 62
   250
420
  2301728
370
   120
  0
POLYLINE
  5
DE
330
1F
100
AcDbEntity
  8
Default
 62
   250
420
  2301728
370
   120
100
AcDb2dPolyline
 66
     1
 10
0.0
 20
0.0
 30
0.0
  0
VERTEX
  5
DF
330
DE
100
AcDbEntity
  8
Default
 62
   250
420
  2301728
370
   120
100
AcDbVertex
100
AcDb2dVertex
 10
2234.070844592354
 20
115.494930115948
 30
0.0
  0
VERTEX
  5
E0
330
DE
100
AcDbEntity
  8
Default
 62
   250
420
  2301728
370
   120
100
AcDbVertex
100
AcDb2dVertex
 10
2232.555877872511
 20
115.494930115948
 30
0.0
  0
SEQEND
  5
E1
330
DE
100
AcDbEntity
  8
Default
 62
   250
420
  2301728
370
   120
  0
POLYLINE
  5
E2
330
1F
100
AcDbEntity
  8
Default
 62
   250
420
  2301728
370
   120
100
AcDb2dPolyline
 66
     1
 10
0.0
 20
0.0
 30
0.0
  0
VERTEX
  5
E3
330
E2
100
AcDbEntity
  8
Default
 62
   250
420
  2301728
370
   120
100
AcDbVertex
100
AcDb2dVertex
 10
2229.490005441294
 20
122.5386960018765
 30
0.0
  0
VERTEX
  5
E4
330
E2
100
AcDbEntity
  8
Default
 62
   250
420
  2301728
370
   120
100
AcDbVertex
100
AcDb2dVertex
 10
2232.768747283875
 20
117.9633859264372
 30
0.0
  0
SEQEND
  5
E5
330
E2
100
AcDbEntity
  8
Default
 62
   250
420
  2301728
370
   120
  0
POLYLINE
  5
E6
330
1F
100
AcDbEntity
  8
Default
 62
   250
420
  2301728
370
   120
100
AcDb2dPolyline
 66
     1
 10
0.0
 20
0.0
 30
0.0
  0
VERTEX
  5
E7
330
E6
100
AcDbEntity
  8
Default
 62
   250
420
  2301728
370
   120
100
AcDbVertex
100
AcDb2dVertex
 10
2227.856163595624
 20
121.3518799200723
 30
0.0
  0
VERTEX
  5
E8
330
E6
100
AcDbEntity
  8
Default
 62
   250
420
  2301728
370
   120
100
AcDbVertex
100
AcDb2dVertex
 10
2231.73204560515
 20
115.9278567369834
 30
0.0
  0
SEQEND
  5
E9
330
E6
100
AcDbEntity
  8
Default
 62
   250
420
  2301728
370
   120
  0
SPLINE
  5
EA
330
1F
100
AcDbEntity
  8
Default
 62
   250
420
  2301728
370
   120
100
AcDbSpline
210
0.0
220
0.0
230
1.0
 70
     8
 71
     3
 72
     8
 73
     4
 74
     0
 42
0.0000000001
 43
0.0000000001
 40
0.0
 40
0.0
 40
0.0
 40
0.0
 40
1.0
 40
1.0
 40
1.0
 40
1.0
 10
1934.227415004319
 20
500.0827781834548
 30
0.0
 10
1934.788616179735
 20
499.5105188567986
 30
0.0
 10
1935.546099539657
 20
499.1760097817967
 30
0.0
 10
1936.372696344827
 20
499.1760097817967
 30
0.0
  0
SPLINE
  5
EB
330
1F
100
AcDbEntity
  8
Default
 62
   250
420
  2301728
370
   120
100
AcDbSpline
210
0.0
220
0.0
230
1.0
 70
     8
 71
     3
 72
     8
 73
     4
 74
     0
 42
0.0000000001
 43
0.0000000001
 40
0.0
 40
0.0
 40
0.0
 40
0.0
 40
1.0
 40
1.0
 40
1.0
 40
1.0
 10
1935.660551404988
 20
501.5161910379051
 30
0.0
 10
1935.843010900444
 20
501.3199088533998
 30
0.0
 10
1936.108406530197
 20
501.2286791056721
 30
0.0
 10
1936.371037622141
 20
501.2286791056721
 30
0.0
  0
POLYLINE
  5
EC
330
1F
100
AcDbEntity
  8
Default
 62
   250
420
  2301728
370
   120
100
AcDb2dPolyline
 66
     1
 10
0.0
 20
0.0
 30
0.0
  0
VERTEX
  5
ED
330
EC
100
AcDbEntity
  8
Default
 62
   250
420
  2301728
370
   120
100
AcDbVertex
100
AcDb2dVertex
 10
1936.377396059104
 20
499.1859621179123
 30
0.0
  0
VERTEX
  5
EE
330
EC
100
AcDbEntity
  8
Default
 62
   250
420
  2301728
370
   120
100
AcDbVertex
100
AcDb2dVertex
 10
1951.145557039767
 20
499.1859621179123
 30
0.0
  0
SEQEND
  5
EF
330
EC
100
AcDbEntity
  8
Default
 62
   250
420
  2301728
370
   120
  0
POLYLINE
  5
F0
330
1F
100
AcDbEntity
  8
Default
 62
   250
420
  2301728
370
   120
100
AcDb2dPolyline
 66
     1
 10
0.0
 20
0.0
 30
0.0
  0
VERTEX
  5
F1
330
F0
100
AcDbEntity
  8
Default
 62
   250
420
  2301728
370
   120
100
AcDbVertex
100
AcDb2dVertex
 10
1936.377396059104
 20
501.2248087527381
 30
0.0
  0
VERTEX
  5
F2
330
F0
100
AcDbEntity
  8
Default
 62
   250
420
  2301728
370
   120
100
AcDbVertex
100
AcDb2dVertex
 10
1951.145557039767
 20
501.2248087527381
 30
0.0
  0
SEQEND
  5
F3
330
F0
100
AcDbEntity
  8
Default
 62
   250
420
  2301728
370
   120
  0
POLYLINE
  5
F4
330
1F
100
AcDbEntity
  8
Default
 62
   250
420
  2301728
370
   120
100
AcDb2dPolyline
 66
     1
 10
0.0
 20
0.0
 30
0.0
  0
VERTEX
  5
F5
330
F4
100
AcDbEntity
  8
Default
 62
   250
420
  2301728
370
   120
100
AcDbVertex
100
AcDb2dVertex
 10
1929.602896155863
 20
504.2486602092429
 30
0.0
  0
VERTEX
  5
F6
330
F4
100
AcDbEntity
  8
Default
 62
   250
420
  2301728
370
   120
100
AcDbVertex
100
AcDb2dVertex
 10
1913.825678874574
 20
504.2486602092429
 30
0.0
  0
SEQEND
  5
F7
330
F4
100
AcDbEntity
  8
Default
 62
   250
420
  2301728
370
   120
  0
POLYLINE
  5
F8
330
1F
100
AcDbEntity
  8
Default
 62
   250
420
  2301728
370
   120
100
AcDb2dPolyline
 66
     1
 10
0.0
 20
0.0
 30
0.0
  0
VERTEX
  5
F9
330
F8
100
AcDbEntity
  8
Default
 62
   250
420
  2301728
370
   120
100
AcDbVertex
100
AcDb2dVertex
 10
1930.443315650083
 20
506.2861245751637
 30
0.0
  0
VERTEX
  5
FA
330
F8
100
AcDbEntity
  8
Default
 62
   250
420
  2301728
370
   120
100
AcDbVertex
100
AcDb2dVertex
 10
1913.828443412384
 20
506.2861245751637
 30
0.0
  0
SEQEND
  5
FB
330
F8
100
AcDbEntity
  8
Default
 62
   250
420
  2301728
370
   120
  0
SPLINE
  5
FC
330
1F
100
AcDbEntity
  8
Default
 62
   250
420
  2301728
370
   120
100
AcDbSpline
210
0.0
220
0.0
230
1.0
 70
     8
 71
     3
 72
     8
 73
     4
 74
     0
 42
0.0000000001
 43
0.0000000001
 40
0.0
 40
0.0
 40
0.0
 40
0.0
 40
1.0
 40
1.0
 40
1.0
 40
1.0
 10
1913.825125967012
 20
504.2486602092429
 30
0.0
 10
1910.20081689819
 20
504.2486602092429
 30
0.0
 10
1907.231703290322
 20
501.312721055094
 30
0.0
 10
1907.231703290322
 20
497.6662956837922
 30
0.0
  0
SPLINE
  5
FD
330
1F
100
AcDbEntity
  8
Default
 62
   250
420
  2301728
370
   120
100
AcDbSpline
210
0.0
220
0.0
230
1.0
 70
     8
 71
     3
 72
     8
 73
     4
 74
     0
 42
0.0000000001
 43
0.0000000001
 40
0.0
 40
0.0
 40
0.0
 40
0.0
 40
1.0
 40
1.0
 40
1.0
 40
1.0
 10
1913.825125967012
 20
506.2861245751637
 30
0.0
 10
1909.056298244877
 20
506.2861245751637
 30
0.0
 10
1905.20253253783
 20
502.4323588681169
 30
0.0
 10
1905.20253253783
 20
497.6635311459822
 30
0.0
  0
POLYLINE
  5
FE
330
1F
100
AcDbEntity
  8
Default
 62
   250
420
  2301728
370
   120
100
AcDb2dPolyline
 66
     1
 10
0.0
 20
0.0
 30
0.0
  0
VERTEX
  5
FF
330
FE
100
AcDbEntity
  8
Default
 62
   250
420
  2301728
370
   120
100
AcDbVertex
100
AcDb2dVertex
 10
1913.310092573022
 20
479.9041402549718
 30
0.0
  0
VERTEX
  5
100
330
FE
100
AcDbEntity
  8
Default
 62
   250
420
  2301728
370
   120
100
AcDbVertex
100
AcDb2dVertex
 10
1913.310092573022
 20
477.8749695024807
 30
0.0
  0
SEQEND
  5
101
330
FE
100
AcDbEntity
  8
Default
 62
   250
420
  2301728
370
   120
  0
POLYLINE
  5
102
330
1F
100
AcDbEntity
  8
Default
 62
   250
420
  2301728
370
   120
100
AcDb2dPolyline
 66
     1
 10
0.0
 20
0.0
 30
0.0
  0
VERTEX
  5
103
330
102
100
AcDbEntity
  8
Default
 62
   250
420
  2301728
370
   120
100
AcDbVertex
100
AcDb2dVertex
 10
1908.226936901897
 20
479.9041402549718
 30
0.0
  0
VERTEX
  5
104
330
102
100
AcDbEntity
  8
Default
 62
   250
420
  2301728
370
   120
100
AcDbVertex
100
AcDb2dVertex
 10
1913.305392858745
 20
479.9041402549718
 30
0.0
  0
SEQEND
  5
105
330
102
100
AcDbEntity
  8
Default
 62
   250
420
  2301728
370
   120
  0
POLYLINE
  5
106
330
1F
100
AcDbEntity
  8
Default
 62
   250
420
  2301728
370
   120
100
AcDb2dPolyline
 66
     1
 10
0.0
 20
0.0
 30
0.0
  0
VERTEX
  5
107
330
106
100
AcDbEntity
  8
Default
 62
   250
420
  2301728
370
   120
100
AcDbVertex
100
AcDb2dVertex
 10
1907.230597475198
 20
477.8777340402907
 30
0.0
  0
VERTEX
  5
108
330
106
100
AcDbEntity
  8
Default
 62
   250
420
  2301728
370
   120
100
AcDbVertex
100
AcDb2dVertex
 10
1913.307051581431
 20
477.8777340402907
 30
0.0
  0
SEQEND
  5
109
330
106
100
AcDbEntity
  8
Default
 62
   250
420
  2301728
370
   120
  0
SPLINE
  5
10A
330
1F
100
AcDbEntity
  8
Default
 62
   250
420
  2301728
370
   120
100
AcDbSpline
210
0.0
220
0.0
230
1.0
 70
     8
 71
     3
 72
     8
 73
     4
 74
     0
 42
0.0000000001
 43
0.0000000001
 40
0.0
 40
0.0
 40
0.0
 40
0.0
 40
1.0
 40
1.0
 40
1.0
 40
1.0
 10
1931.170389094095
 20
505.9950187437777
 30
0.0
 10
1930.96304875835
 20
506.1885363904731
 30
0.0
 10
1930.733592120125
 20
506.2825306760108
 30
0.0
 10
1930.448844725702
 20
506.2825306760108
 30
0.0
  0
SPLINE
  5
10B
330
1F
100
AcDbEntity
  8
Default
 62
   250
420
  2301728
370
   120
100
AcDbSpline
210
0.0
220
0.0
230
1.0
 70
     8
 71
     3
 72
     8
 73
     4
 74
     0
 42
0.0000000001
 43
0.0000000001
 40
0.0
 40
0.0
 40
0.0
 40
0.0
 40
1.0
 40
1.0
 40
1.0
 40
1.0
 10
1930.331075414999
 20
503.9675067139728
 30
0.0
 10
1930.112676928014
 20
504.1637888984781
 30
0.0
 10
1929.88322028979
 20
504.2439604949661
 30
0.0
 10
1929.609531046607
 20
504.2439604949661
 30
0.0
  0
POLYLINE
  5
10C
330
1F
100
AcDbEntity
  8
Default
 62
   250
420
  2301728
370
   120
100
AcDb2dPolyline
 66
     1
 10
0.0
 20
0.0
 30
0.0
  0
VERTEX
  5
10D
330
10C
100
AcDbEntity
  8
Default
 62
   250
420
  2301728
370
   120
100
AcDbVertex
100
AcDb2dVertex
 10
1930.331075414999
 20
503.9675067139728
 30
0.0
  0
VERTEX
  5
10E
330
10C
100
AcDbEntity
  8
Default
 62
   250
420
  2301728
370
   120
100
AcDbVertex
100
AcDb2dVertex
 10
1934.229073727005
 20
500.0916247044465
 30
0.0
  0
SEQEND
  5
10F
330
10C
100
AcDbEntity
  8
Default
 62
   250
420
  2301728
370
   120
  0
POLYLINE
  5
110
330
1F
100
AcDbEntity
  8
Default
 62
   250
420
  2301728
370
   120
100
AcDb2dPolyline
 66
     1
 10
0.0
 20
0.0
 30
0.0
  0
VERTEX
  5
111
330
110
100
AcDbEntity
  8
Default
 62
   250
420
  2301728
370
   120
100
AcDbVertex
100
AcDb2dVertex
 10
1931.170389094094
 20
505.9950187437775
 30
0.0
  0
VERTEX
  5
112
330
110
100
AcDbEntity
  8
Default
 62
   250
420
  2301728
370
   120
100
AcDbVertex
100
AcDb2dVertex
 10
1935.665527573045
 20
501.5109384160658
 30
0.0
  0
SEQEND
  5
113
330
110
100
AcDbEntity
  8
Default
 62
   250
420
  2301728
370
   120
  0
SPLINE
  5
114
330
1F
100
AcDbEntity
  8
Default
 62
   250
420
  2301728
370
   120
100
AcDbSpline
210
0.0
220
0.0
230
1.0
 70
     8
 71
     3
 72
     8
 73
     4
 74
     0
 42
0.0000000001
 43
0.0000000001
 40
0.0
 40
0.0
 40
0.0
 40
0.0
 40
1.0
 40
1.0
 40
1.0
 40
1.0
 10
2224.933217769182
 20
124.0843490914103
 30
0.0
 10
2224.772874576206
 20
124.1534625366587
 30
0.0
 10
2224.612531383229
 20
124.222575981907
 30
0.0
 10
2224.427307349964
 20
124.222575981907
 30
0.0
  0
SPLINE
  5
115
330
1F
100
AcDbEntity
  8
Default
 62
   250
420
  2301728
370
   120
100
AcDbSpline
210
0.0
220
0.0
230
1.0
 70
     8
 71
     3
 72
     8
 73
     4
 74
     0
 42
0.0000000001
 43
0.0000000001
 40
0.0
 40
0.0
 40
0.0
 40
0.0
 40
1.0
 40
1.0
 40
1.0
 40
1.0
 10
2082.979177397172
 20
138.6180772657908
 30
0.0
 10
2129.763450754671
 20
130.7640253477707
 30
0.0
 10
2177.014931002049
 20
125.9592586341068
 30
0.0
 10
2224.429518980212
 20
124.2148352760391
 30
0.0
  0
SPLINE
  5
116
330
1F
100
AcDbEntity
  8
Default
 62
   250
420
  2301728
370
   120
100
AcDbSpline
210
0.0
220
0.0
230
1.0
 70
     8
 71
     3
 72
     8
 73
     4
 74
     0
 42
0.0000000001
 43
0.0000000001
 40
0.0
 40
0.0
 40
0.0
 40
0.0
 40
1.0
 40
1.0
 40
1.0
 40
1.0
 10
2225.459585768193
 20
126.1104788523103
 30
0.0
 10
2225.310300726457
 20
126.1795922975587
 30
0.0
 10
2225.17207383596
 20
126.2127667512779
 30
0.0
 10
2225.000672491744
 20
126.2376475915672
 30
0.0
  0
SPLINE
  5
117
330
1F
100
AcDbEntity
  8
Default
 62
   250
420
  2301728
370
   120
100
AcDbSpline
210
0.0
220
0.0
230
1.0
 70
     8
 71
     3
 72
     8
 73
     4
 74
     0
 42
0.0000000001
 43
0.0000000001
 40
0.0
 40
0.0
 40
0.0
 40
0.0
 40
1.0
 40
1.0
 40
1.0
 40
1.0
 10
2083.315068741079
 20
140.6121383880956
 30
0.0
 10
2130.179513695066
 20
132.7359701675961
 30
0.0
 10
2177.524988227981
 20
127.9533197564117
 30
0.0
 10
2224.983808811104
 20
126.2448353898731
 30
0.0
  0
SPLINE
  5
118
330
1F
100
AcDbEntity
  8
Default
 62
   250
420
  2301728
370
   120
100
AcDbSpline
210
0.0
220
0.0
230
1.0
 70
     8
 71
     3
 72
     8
 73
     4
 74
     0
 42
0.0000000001
 43
0.0000000001
 40
0.0
 40
0.0
 40
0.0
 40
0.0
 40
1.0
 40
1.0
 40
1.0
 40
1.0
 10
1969.388465593735
 20
481.8865903184747
 30
0.0
 10
1973.941659366695
 20
395.2459753551699
 30
0.0
 10
1983.537370104973
 20
308.948163080297
 30
0.0
 10
1998.031841842452
 20
223.4078341653455
 30
0.0
  0
SPLINE
  5
119
330
1F
100
AcDbEntity
  8
Default
 62
   250
420
  2301728
370
   120
100
AcDbSpline
210
0.0
220
0.0
230
1.0
 70
     8
 71
     3
 72
     8
 73
     4
 74
     0
 42
0.0000000001
 43
0.0000000001
 40
0.0
 40
0.0
 40
0.0
 40
0.0
 40
1.0
 40
1.0
 40
1.0
 40
1.0
 10
1971.427035774779
 20
481.9863901334133
 30
0.0
 10
1975.980229547739
 20
395.4259467665966
 30
0.0
 10
1985.542765832298
 20
309.2193642394512
 30
0.0
 10
2000.023414880728
 20
223.7592069209879
 30
0.0
  0
POLYLINE
  5
11A
330
1F
100
AcDbEntity
  8
Default
 62
   250
420
  2301728
370
   120
100
AcDb2dPolyline
 66
     1
 10
0.0
 20
0.0
 30
0.0
  0
VERTEX
  5
11B
330
11A
100
AcDbEntity
  8
Default
 62
   250
420
  2301728
370
   120
100
AcDbVertex
100
AcDb2dVertex
 10
788.890458500256
 20
127.8054169835804
 30
0.0
  0
VERTEX
  5
11C
330
11A
100
AcDbEntity
  8
Default
 62
   250
420
  2301728
370
   120
100
AcDbVertex
100
AcDb2dVertex
 10
790.9030420258873
 20
129.8401168116911
 30
0.0
  0
SEQEND
  5
11D
330
11A
100
AcDbEntity
  8
Default
 62
   250
420
  2301728
370
   120
  0
POLYLINE
  5
11E
330
1F
100
AcDbEntity
  8
Default
 62
   250
420
  2301728
370
   120
100
AcDb2dPolyline
 66
     1
 10
0.0
 20
0.0
 30
0.0
  0
VERTEX
  5
11F
330
11E
100
AcDbEntity
  8
Default
 62
   250
420
  2301728
370
   120
100
AcDbVertex
100
AcDb2dVertex
 10
793.4132423573069
 20
127.8496495885394
 30
0.0
  0
VERTEX
  5
120
330
11E
100
AcDbEntity
  8
Default
 62
   250
420
  2301728
370
   120
100
AcDbVertex
100
AcDb2dVertex
 10
795.4479421854173
 20
129.8843494166502
 30
0.0
  0
SEQEND
  5
121
330
11E
100
AcDbEntity
  8
Default
 62
   250
420
  2301728
370
   120
  0
POLYLINE
  5
122
330
1F
100
AcDbEntity
  8
Default
 62
   250
420
  2301728
370
   120
100
AcDb2dPolyline
 66
     1
 10
0.0
 20
0.0
 30
0.0
  0
VERTEX
  5
123
330
122
100
AcDbEntity
  8
Default
 62
   250
420
  2301728
370
   120
100
AcDbVertex
100
AcDb2dVertex
 10
797.9692006680766
 20
127.8717658910188
 30
0.0
  0
VERTEX
  5
124
330
122
100
AcDbEntity
  8
Default
 62
   250
420
  2301728
370
   120
100
AcDbVertex
100
AcDb2dVertex
 10
799.9817841937079
 20
129.9175238703693
 30
0.0
  0
SEQEND
  5
125
330
122
100
AcDbEntity
  8
Default
 62
   250
420
  2301728
370
   120
  0
POLYLINE
  5
126
330
1F
100
AcDbEntity
  8
Default
 62
   250
420
  2301728
370
   120
100
AcDb2dPolyline
 66
     1
 10
0.0
 20
0.0
 30
0.0
  0
VERTEX
  5
127
330
126
100
AcDbEntity
  8
Default
 62
   250
420
  2301728
370
   120
100
AcDbVertex
100
AcDb2dVertex
 10
802.5030426763667
 20
127.9298211850272
 30
0.0
  0
VERTEX
  5
128
330
126
100
AcDbEntity
  8
Default
 62
   250
420
  2301728
370
   120
100
AcDbVertex
100
AcDb2dVertex
 10
804.5156262019977
 20
129.9285820216089
 30
0.0
  0
SEQEND
  5
129
330
126
100
AcDbEntity
  8
Default
 62
   250
420
  2301728
370
   120
  0
POLYLINE
  5
12A
330
1F
100
AcDbEntity
  8
Default
 62
   250
420
  2301728
370
   120
100
AcDb2dPolyline
 66
     1
 10
0.0
 20
0.0
 30
0.0
  0
VERTEX
  5
12B
330
12A
100
AcDbEntity
  8
Default
 62
   250
420
  2301728
370
   120
100
AcDbVertex
100
AcDb2dVertex
 10
807.0258265334173
 20
127.9851119412258
 30
0.0
  0
VERTEX
  5
12C
330
12A
100
AcDbEntity
  8
Default
 62
   250
420
  2301728
370
   120
100
AcDbVertex
100
AcDb2dVertex
 10
809.0273519078089
 20
129.9866373156174
 30
0.0
  0
SEQEND
  5
12D
330
12A
100
AcDbEntity
  8
Default
 62
   250
420
  2301728
370
   120
  0
POLYLINE
  5
12E
330
1F
100
AcDbEntity
  8
Default
 62
   250
420
  2301728
370
   120
100
AcDb2dPolyline
 66
     1
 10
0.0
 20
0.0
 30
0.0
  0
VERTEX
  5
12F
330
12E
100
AcDbEntity
  8
Default
 62
   250
420
  2301728
370
   120
100
AcDbVertex
100
AcDb2dVertex
 10
811.5707266929473
 20
128.0293445461848
 30
0.0
  0
VERTEX
  5
130
330
12E
100
AcDbEntity
  8
Default
 62
   250
420
  2301728
370
   120
100
AcDbVertex
100
AcDb2dVertex
 10
813.5943683698183
 20
130.0308699205764
 30
0.0
  0
SEQEND
  5
131
330
12E
100
AcDbEntity
  8
Default
 62
   250
420
  2301728
370
   120
  0
POLYLINE
  5
132
330
1F
100
AcDbEntity
  8
Default
 62
   250
420
  2301728
370
   120
100
AcDb2dPolyline
 66
     1
 10
0.0
 20
0.0
 30
0.0
  0
VERTEX
  5
133
330
132
100
AcDbEntity
  8
Default
 62
   250
420
  2301728
370
   120
100
AcDbVertex
100
AcDb2dVertex
 10
816.0824523987585
 20
128.0542253864744
 30
0.0
  0
VERTEX
  5
134
330
132
100
AcDbEntity
  8
Default
 62
   250
420
  2301728
370
   120
100
AcDbVertex
100
AcDb2dVertex
 10
818.1171522268692
 20
130.0640443742957
 30
0.0
  0
SEQEND
  5
135
330
132
100
AcDbEntity
  8
Default
 62
   250
420
  2301728
370
   120
  0
POLYLINE
  5
136
330
1F
100
AcDbEntity
  8
Default
 62
   250
420
  2301728
370
   120
100
AcDb2dPolyline
 66
     1
 10
0.0
 20
0.0
 30
0.0
  0
VERTEX
  5
137
330
136
100
AcDbEntity
  8
Default
 62
   250
420
  2301728
370
   120
100
AcDbVertex
100
AcDb2dVertex
 10
820.638410709528
 20
128.0873998401933
 30
0.0
  0
VERTEX
  5
138
330
136
100
AcDbEntity
  8
Default
 62
   250
420
  2301728
370
   120
100
AcDbVertex
100
AcDb2dVertex
 10
822.6620523863992
 20
130.0999833658246
 30
0.0
  0
SEQEND
  5
139
330
136
100
AcDbEntity
  8
Default
 62
   250
420
  2301728
370
   120
  0
POLYLINE
  5
13A
330
1F
100
AcDbEntity
  8
Default
 62
   250
420
  2301728
370
   120
100
AcDb2dPolyline
 66
     1
 10
0.0
 20
0.0
 30
0.0
  0
VERTEX
  5
13B
330
13A
100
AcDbEntity
  8
Default
 62
   250
420
  2301728
370
   120
100
AcDbVertex
100
AcDb2dVertex
 10
825.1722527178188
 20
128.1316324451526
 30
0.0
  0
VERTEX
  5
13C
330
13A
100
AcDbEntity
  8
Default
 62
   250
420
  2301728
370
   120
100
AcDbVertex
100
AcDb2dVertex
 10
827.1958943946895
 20
130.1663322732632
 30
0.0
  0
SEQEND
  5
13D
330
13A
100
AcDbEntity
  8
Default
 62
   250
420
  2301728
370
   120
  0
POLYLINE
  5
13E
330
1F
100
AcDbEntity
  8
Default
 62
   250
420
  2301728
370
   120
100
AcDb2dPolyline
 66
     1
 10
0.0
 20
0.0
 30
0.0
  0
VERTEX
  5
13F
330
13E
100
AcDbEntity
  8
Default
 62
   250
420
  2301728
370
   120
100
AcDbVertex
100
AcDb2dVertex
 10
829.717152877349
 20
128.1648068988718
 30
0.0
  0
VERTEX
  5
140
330
13E
100
AcDbEntity
  8
Default
 62
   250
420
  2301728
370
   120
100
AcDbVertex
100
AcDb2dVertex
 10
831.7297364029803
 20
130.2022712647924
 30
0.0
  0
SEQEND
  5
141
330
13E
100
AcDbEntity
  8
Default
 62
   250
420
  2301728
370
   120
  0
POLYLINE
  5
142
330
1F
100
AcDbEntity
  8
Default
 62
   250
420
  2301728
370
   120
100
AcDb2dPolyline
 66
     1
 10
0.0
 20
0.0
 30
0.0
  0
VERTEX
  5
143
330
142
100
AcDbEntity
  8
Default
 62
   250
420
  2301728
370
   120
100
AcDbVertex
100
AcDb2dVertex
 10
834.2509948856391
 20
128.2118040416404
 30
0.0
  0
VERTEX
  5
144
330
142
100
AcDbEntity
  8
Default
 62
   250
420
  2301728
370
   120
100
AcDbVertex
100
AcDb2dVertex
 10
836.2746365625103
 20
130.2465038697514
 30
0.0
  0
SEQEND
  5
145
330
142
100
AcDbEntity
  8
Default
 62
   250
420
  2301728
370
   120
  0
POLYLINE
  5
146
330
1F
100
AcDbEntity
  8
Default
 62
   250
420
  2301728
370
   120
100
AcDb2dPolyline
 66
     1
 10
0.0
 20
0.0
 30
0.0
  0
VERTEX
  5
147
330
146
100
AcDbEntity
  8
Default
 62
   250
420
  2301728
370
   120
100
AcDbVertex
100
AcDb2dVertex
 10
838.784836893929
 20
128.2670947978391
 30
0.0
  0
VERTEX
  5
148
330
146
100
AcDbEntity
  8
Default
 62
   250
420
  2301728
370
   120
100
AcDbVertex
100
AcDb2dVertex
 10
840.8084785708002
 20
130.2907364747101
 30
0.0
  0
SEQEND
  5
149
330
146
100
AcDbEntity
  8
Default
 62
   250
420
  2301728
370
   120
  0
POLYLINE
  5
14A
330
1F
100
AcDbEntity
  8
Default
 62
   250
420
  2301728
370
   120
100
AcDb2dPolyline
 66
     1
 10
0.0
 20
0.0
 30
0.0
  0
VERTEX
  5
14B
330
14A
100
AcDbEntity
  8
Default
 62
   250
420
  2301728
370
   120
100
AcDbVertex
100
AcDb2dVertex
 10
843.3297370534594
 20
128.3002692515583
 30
0.0
  0
VERTEX
  5
14C
330
14A
100
AcDbEntity
  8
Default
 62
   250
420
  2301728
370
   120
100
AcDbVertex
100
AcDb2dVertex
 10
845.331262427851
 20
130.3266754662394
 30
0.0
  0
SEQEND
  5
14D
330
14A
100
AcDbEntity
  8
Default
 62
   250
420
  2301728
370
   120
  0
POLYLINE
  5
14E
330
1F
100
AcDbEntity
  8
Default
 62
   250
420
  2301728
370
   120
100
AcDb2dPolyline
 66
     1
 10
0.0
 20
0.0
 30
0.0
  0
VERTEX
  5
14F
330
14E
100
AcDbEntity
  8
Default
 62
   250
420
  2301728
370
   120
100
AcDbVertex
100
AcDb2dVertex
 10
847.8525209105101
 20
128.3472663943272
 30
0.0
  0
VERTEX
  5
150
330
14E
100
AcDbEntity
  8
Default
 62
   250
420
  2301728
370
   120
100
AcDbVertex
100
AcDb2dVertex
 10
849.8872207386207
 20
130.3819662224379
 30
0.0
  0
SEQEND
  5
151
330
14E
100
AcDbEntity
  8
Default
 62
   250
420
  2301728
370
   120
  0
POLYLINE
  5
152
330
1F
100
AcDbEntity
  8
Default
 62
   250
420
  2301728
370
   120
100
AcDb2dPolyline
 66
     1
 10
0.0
 20
0.0
 30
0.0
  0
VERTEX
  5
153
330
152
100
AcDbEntity
  8
Default
 62
   250
420
  2301728
370
   120
100
AcDbVertex
100
AcDb2dVertex
 10
852.364246616321
 20
128.3804408480465
 30
0.0
  0
VERTEX
  5
154
330
152
100
AcDbEntity
  8
Default
 62
   250
420
  2301728
370
   120
100
AcDbVertex
100
AcDb2dVertex
 10
854.4100045956714
 20
130.4040825249176
 30
0.0
  0
SEQEND
  5
155
330
152
100
AcDbEntity
  8
Default
 62
   250
420
  2301728
370
   120
  0
POLYLINE
  5
156
330
1F
100
AcDbEntity
  8
Default
 62
   250
420
  2301728
370
   120
100
AcDb2dPolyline
 66
     1
 10
0.0
 20
0.0
 30
0.0
  0
VERTEX
  5
157
330
156
100
AcDbEntity
  8
Default
 62
   250
420
  2301728
370
   120
100
AcDbVertex
100
AcDb2dVertex
 10
856.9312630783309
 20
128.438496142055
 30
0.0
  0
VERTEX
  5
158
330
156
100
AcDbEntity
  8
Default
 62
   250
420
  2301728
370
   120
100
AcDbVertex
100
AcDb2dVertex
 10
858.9438466039621
 20
130.4621378189262
 30
0.0
  0
SEQEND
  5
159
330
156
100
AcDbEntity
  8
Default
 62
   250
420
  2301728
370
   120
  0
POLYLINE
  5
15A
330
1F
100
AcDbEntity
  8
Default
 62
   250
420
  2301728
370
   120
100
AcDb2dPolyline
 66
     1
 10
0.0
 20
0.0
 30
0.0
  0
VERTEX
  5
15B
330
15A
100
AcDbEntity
  8
Default
 62
   250
420
  2301728
370
   120
100
AcDbVertex
100
AcDb2dVertex
 10
861.4651050866212
 20
128.4937868982537
 30
0.0
  0
VERTEX
  5
15C
330
15A
100
AcDbEntity
  8
Default
 62
   250
420
  2301728
370
   120
100
AcDbVertex
100
AcDb2dVertex
 10
863.4887467634919
 20
130.4953122726453
 30
0.0
  0
SEQEND
  5
15D
330
15A
100
AcDbEntity
  8
Default
 62
   250
420
  2301728
370
   120
  0
POLYLINE
  5
15E
330
1F
100
AcDbEntity
  8
Default
 62
   250
420
  2301728
370
   120
100
AcDb2dPolyline
 66
     1
 10
0.0
 20
0.0
 30
0.0
  0
VERTEX
  5
15F
330
15E
100
AcDbEntity
  8
Default
 62
   250
420
  2301728
370
   120
100
AcDbVertex
100
AcDb2dVertex
 10
866.010005246151
 20
128.5048450494934
 30
0.0
  0
VERTEX
  5
160
330
15E
100
AcDbEntity
  8
Default
 62
   250
420
  2301728
370
   120
100
AcDbVertex
100
AcDb2dVertex
 10
868.0225887717825
 20
130.5284867263645
 30
0.0
  0
SEQEND
  5
161
330
15E
100
AcDbEntity
  8
Default
 62
   250
420
  2301728
370
   120
  0
POLYLINE
  5
162
330
1F
100
AcDbEntity
  8
Default
 62
   250
420
  2301728
370
   120
100
AcDb2dPolyline
 66
     1
 10
0.0
 20
0.0
 30
0.0
  0
VERTEX
  5
163
330
162
100
AcDbEntity
  8
Default
 62
   250
420
  2301728
370
   120
100
AcDbVertex
100
AcDb2dVertex
 10
870.5327891032018
 20
128.5490776544525
 30
0.0
  0
VERTEX
  5
164
330
162
100
AcDbEntity
  8
Default
 62
   250
420
  2301728
370
   120
100
AcDbVertex
100
AcDb2dVertex
 10
872.5674889313127
 20
130.5865420203731
 30
0.0
  0
SEQEND
  5
165
330
162
100
AcDbEntity
  8
Default
 62
   250
420
  2301728
370
   120
  0
POLYLINE
  5
166
330
1F
100
AcDbEntity
  8
Default
 62
   250
420
  2301728
370
   120
100
AcDb2dPolyline
 66
     1
 10
0.0
 20
0.0
 30
0.0
  0
VERTEX
  5
167
330
166
100
AcDbEntity
  8
Default
 62
   250
420
  2301728
370
   120
100
AcDbVertex
100
AcDb2dVertex
 10
875.0776892627316
 20
128.596074797221
 30
0.0
  0
VERTEX
  5
168
330
166
100
AcDbEntity
  8
Default
 62
   250
420
  2301728
370
   120
100
AcDbVertex
100
AcDb2dVertex
 10
877.101330939603
 20
130.6307746253318
 30
0.0
  0
SEQEND
  5
169
330
166
100
AcDbEntity
  8
Default
 62
   250
420
  2301728
370
   120
  0
POLYLINE
  5
16A
330
1F
100
AcDbEntity
  8
Default
 62
   250
420
  2301728
370
   120
100
AcDb2dPolyline
 66
     1
 10
0.0
 20
0.0
 30
0.0
  0
VERTEX
  5
16B
330
16A
100
AcDbEntity
  8
Default
 62
   250
420
  2301728
370
   120
100
AcDbVertex
100
AcDb2dVertex
 10
879.6115312710222
 20
128.6403074021802
 30
0.0
  0
VERTEX
  5
16C
330
16A
100
AcDbEntity
  8
Default
 62
   250
420
  2301728
370
   120
100
AcDbVertex
100
AcDb2dVertex
 10
881.6241147966534
 20
130.6639490790513
 30
0.0
  0
SEQEND
  5
16D
330
16A
100
AcDbEntity
  8
Default
 62
   250
420
  2301728
370
   120
  0
POLYLINE
  5
16E
330
1F
100
AcDbEntity
  8
Default
 62
   250
420
  2301728
370
   120
100
AcDb2dPolyline
 66
     1
 10
0.0
 20
0.0
 30
0.0
  0
VERTEX
  5
16F
330
16E
100
AcDbEntity
  8
Default
 62
   250
420
  2301728
370
   120
100
AcDbVertex
100
AcDb2dVertex
 10
884.1453732793125
 20
128.6983626961887
 30
0.0
  0
VERTEX
  5
170
330
16E
100
AcDbEntity
  8
Default
 62
   250
420
  2301728
370
   120
100
AcDbVertex
100
AcDb2dVertex
 10
886.157956804944
 20
130.7109462218201
 30
0.0
  0
SEQEND
  5
171
330
16E
100
AcDbEntity
  8
Default
 62
   250
420
  2301728
370
   120
  0
POLYLINE
  5
172
330
1F
100
AcDbEntity
  8
Default
 62
   250
420
  2301728
370
   120
100
AcDb2dPolyline
 66
     1
 10
0.0
 20
0.0
 30
0.0
  0
VERTEX
  5
173
330
172
100
AcDbEntity
  8
Default
 62
   250
420
  2301728
370
   120
100
AcDbVertex
100
AcDb2dVertex
 10
888.6792152876023
 20
128.7315371499079
 30
0.0
  0
VERTEX
  5
174
330
172
100
AcDbEntity
  8
Default
 62
   250
420
  2301728
370
   120
100
AcDbVertex
100
AcDb2dVertex
 10
890.7028569644733
 20
130.7551788267788
 30
0.0
  0
SEQEND
  5
175
330
172
100
AcDbEntity
  8
Default
 62
   250
420
  2301728
370
   120
  0
POLYLINE
  5
176
330
1F
100
AcDbEntity
  8
Default
 62
   250
420
  2301728
370
   120
100
AcDb2dPolyline
 66
     1
 10
0.0
 20
0.0
 30
0.0
  0
VERTEX
  5
177
330
176
100
AcDbEntity
  8
Default
 62
   250
420
  2301728
370
   120
100
AcDbVertex
100
AcDb2dVertex
 10
790.4966549678272
 20
127.8164751348201
 30
0.0
  0
VERTEX
  5
178
330
176
100
AcDbEntity
  8
Default
 62
   250
420
  2301728
370
   120
100
AcDbVertex
100
AcDb2dVertex
 10
792.5202966446982
 20
129.8511749629309
 30
0.0
  0
SEQEND
  5
179
330
176
100
AcDbEntity
  8
Default
 62
   250
420
  2301728
370
   120
  0
POLYLINE
  5
17A
330
1F
100
AcDbEntity
  8
Default
 62
   250
420
  2301728
370
   120
100
AcDb2dPolyline
 66
     1
 10
0.0
 20
0.0
 30
0.0
  0
VERTEX
  5
17B
330
17A
100
AcDbEntity
  8
Default
 62
   250
420
  2301728
370
   120
100
AcDbVertex
100
AcDb2dVertex
 10
795.0194388248779
 20
127.8607077397792
 30
0.0
  0
VERTEX
  5
17C
330
17A
100
AcDbEntity
  8
Default
 62
   250
420
  2301728
370
   120
100
AcDbVertex
100
AcDb2dVertex
 10
797.0541386529885
 20
129.8843494166502
 30
0.0
  0
SEQEND
  5
17D
330
17A
100
AcDbEntity
  8
Default
 62
   250
420
  2301728
370
   120
  0
POLYLINE
  5
17E
330
1F
100
AcDbEntity
  8
Default
 62
   250
420
  2301728
370
   120
100
AcDb2dPolyline
 66
     1
 10
0.0
 20
0.0
 30
0.0
  0
VERTEX
  5
17F
330
17E
100
AcDbEntity
  8
Default
 62
   250
420
  2301728
370
   120
100
AcDbVertex
100
AcDb2dVertex
 10
799.5753971356478
 20
127.8938821934983
 30
0.0
  0
VERTEX
  5
180
330
17E
100
AcDbEntity
  8
Default
 62
   250
420
  2301728
370
   120
100
AcDbVertex
100
AcDb2dVertex
 10
801.5879806612791
 20
129.9175238703692
 30
0.0
  0
SEQEND
  5
181
330
17E
100
AcDbEntity
  8
Default
 62
   250
420
  2301728
370
   120
  0
POLYLINE
  5
182
330
1F
100
AcDbEntity
  8
Default
 62
   250
420
  2301728
370
   120
100
AcDb2dPolyline
 66
     1
 10
0.0
 20
0.0
 30
0.0
  0
VERTEX
  5
183
330
182
100
AcDbEntity
  8
Default
 62
   250
420
  2301728
370
   120
100
AcDbVertex
100
AcDb2dVertex
 10
804.0981809926984
 20
127.9519374875069
 30
0.0
  0
VERTEX
  5
184
330
182
100
AcDbEntity
  8
Default
 62
   250
420
  2301728
370
   120
100
AcDbVertex
100
AcDb2dVertex
 10
806.1107645183297
 20
129.9645210131383
 30
0.0
  0
SEQEND
  5
185
330
182
100
AcDbEntity
  8
Default
 62
   250
420
  2301728
370
   120
  0
POLYLINE
  5
186
330
1F
100
AcDbEntity
  8
Default
 62
   250
420
  2301728
370
   120
100
AcDb2dPolyline
 66
     1
 10
0.0
 20
0.0
 30
0.0
  0
VERTEX
  5
187
330
186
100
AcDbEntity
  8
Default
 62
   250
420
  2301728
370
   120
100
AcDbVertex
100
AcDb2dVertex
 10
808.632023000989
 20
127.9851119412261
 30
0.0
  0
VERTEX
  5
188
330
186
100
AcDbEntity
  8
Default
 62
   250
420
  2301728
370
   120
100
AcDbVertex
100
AcDb2dVertex
 10
810.6667228290999
 20
130.0087536180973
 30
0.0
  0
SEQEND
  5
189
330
186
100
AcDbEntity
  8
Default
 62
   250
420
  2301728
370
   120
  0
POLYLINE
  5
18A
330
1F
100
AcDbEntity
  8
Default
 62
   250
420
  2301728
370
   120
100
AcDb2dPolyline
 66
     1
 10
0.0
 20
0.0
 30
0.0
  0
VERTEX
  5
18B
330
18A
100
AcDbEntity
  8
Default
 62
   250
420
  2301728
370
   120
100
AcDbVertex
100
AcDb2dVertex
 10
813.1769231605185
 20
128.0404026974244
 30
0.0
  0
VERTEX
  5
18C
330
18A
100
AcDbEntity
  8
Default
 62
   250
420
  2301728
370
   120
100
AcDbVertex
100
AcDb2dVertex
 10
815.1784485349101
 20
130.041928071816
 30
0.0
  0
SEQEND
  5
18D
330
18A
100
AcDbEntity
  8
Default
 62
   250
420
  2301728
370
   120
  0
POLYLINE
  5
18E
330
1F
100
AcDbEntity
  8
Default
 62
   250
420
  2301728
370
   120
100
AcDb2dPolyline
 66
     1
 10
0.0
 20
0.0
 30
0.0
  0
VERTEX
  5
18F
330
18E
100
AcDbEntity
  8
Default
 62
   250
420
  2301728
370
   120
100
AcDbVertex
100
AcDb2dVertex
 10
817.721823320049
 20
128.0763416889539
 30
0.0
  0
VERTEX
  5
190
330
18E
100
AcDbEntity
  8
Default
 62
   250
420
  2301728
370
   120
100
AcDbVertex
100
AcDb2dVertex
 10
819.7233486944403
 20
130.0889252145853
 30
0.0
  0
SEQEND
  5
191
330
18E
100
AcDbEntity
  8
Default
 62
   250
420
  2301728
370
   120
  0
POLYLINE
  5
192
330
1F
100
AcDbEntity
  8
Default
 62
   250
420
  2301728
370
   120
100
AcDb2dPolyline
 66
     1
 10
0.0
 20
0.0
 30
0.0
  0
VERTEX
  5
193
330
192
100
AcDbEntity
  8
Default
 62
   250
420
  2301728
370
   120
100
AcDbVertex
100
AcDb2dVertex
 10
822.22249087462
 20
128.1095161426729
 30
0.0
  0
VERTEX
  5
194
330
192
100
AcDbEntity
  8
Default
 62
   250
420
  2301728
370
   120
100
AcDbVertex
100
AcDb2dVertex
 10
824.2682488539704
 20
130.1220996683043
 30
0.0
  0
SEQEND
  5
195
330
192
100
AcDbEntity
  8
Default
 62
   250
420
  2301728
370
   120
  0
POLYLINE
  5
196
330
1F
100
AcDbEntity
  8
Default
 62
   250
420
  2301728
370
   120
100
AcDb2dPolyline
 66
     1
 10
0.0
 20
0.0
 30
0.0
  0
VERTEX
  5
197
330
196
100
AcDbEntity
  8
Default
 62
   250
420
  2301728
370
   120
100
AcDbVertex
100
AcDb2dVertex
 10
826.7895073366296
 20
128.153748747632
 30
0.0
  0
VERTEX
  5
198
330
196
100
AcDbEntity
  8
Default
 62
   250
420
  2301728
370
   120
100
AcDbVertex
100
AcDb2dVertex
 10
828.8020908622609
 20
130.1663322732632
 30
0.0
  0
SEQEND
  5
199
330
196
100
AcDbEntity
  8
Default
 62
   250
420
  2301728
370
   120
  0
POLYLINE
  5
19A
330
1F
100
AcDbEntity
  8
Default
 62
   250
420
  2301728
370
   120
100
AcDb2dPolyline
 66
     1
 10
0.0
 20
0.0
 30
0.0
  0
VERTEX
  5
19B
330
19A
100
AcDbEntity
  8
Default
 62
   250
420
  2301728
370
   120
100
AcDbVertex
100
AcDb2dVertex
 10
831.3122911936798
 20
128.1896877391609
 30
0.0
  0
VERTEX
  5
19C
330
19A
100
AcDbEntity
  8
Default
 62
   250
420
  2301728
370
   120
100
AcDbVertex
100
AcDb2dVertex
 10
833.3359328705508
 20
130.213329416032
 30
0.0
  0
SEQEND
  5
19D
330
19A
100
AcDbEntity
  8
Default
 62
   250
420
  2301728
370
   120
  0
POLYLINE
  5
19E
330
1F
100
AcDbEntity
  8
Default
 62
   250
420
  2301728
370
   120
100
AcDb2dPolyline
 66
     1
 10
0.0
 20
0.0
 30
0.0
  0
VERTEX
  5
19F
330
19E
100
AcDbEntity
  8
Default
 62
   250
420
  2301728
370
   120
100
AcDbVertex
100
AcDb2dVertex
 10
835.86824950445
 20
128.23392034412
 30
0.0
  0
VERTEX
  5
1A0
330
19E
100
AcDbEntity
  8
Default
 62
   250
420
  2301728
370
   120
100
AcDbVertex
100
AcDb2dVertex
 10
837.8587167276021
 20
130.257562020991
 30
0.0
  0
SEQEND
  5
1A1
330
19E
100
AcDbEntity
  8
Default
 62
   250
420
  2301728
370
   120
  0
POLYLINE
  5
1A2
330
1F
100
AcDbEntity
  8
Default
 62
   250
420
  2301728
370
   120
100
AcDb2dPolyline
 66
     1
 10
0.0
 20
0.0
 30
0.0
  0
VERTEX
  5
1A3
330
1A2
100
AcDbEntity
  8
Default
 62
   250
420
  2301728
370
   120
100
AcDbVertex
100
AcDb2dVertex
 10
840.4020915127403
 20
128.2781529490789
 30
0.0
  0
VERTEX
  5
1A4
330
1A2
100
AcDbEntity
  8
Default
 62
   250
420
  2301728
370
   120
100
AcDbVertex
100
AcDb2dVertex
 10
842.4146750383716
 20
130.3128527771898
 30
0.0
  0
SEQEND
  5
1A5
330
1A2
100
AcDbEntity
  8
Default
 62
   250
420
  2301728
370
   120
  0
POLYLINE
  5
1A6
330
1F
100
AcDbEntity
  8
Default
 62
   250
420
  2301728
370
   120
100
AcDb2dPolyline
 66
     1
 10
0.0
 20
0.0
 30
0.0
  0
VERTEX
  5
1A7
330
1A6
100
AcDbEntity
  8
Default
 62
   250
420
  2301728
370
   120
100
AcDbVertex
100
AcDb2dVertex
 10
844.913817218551
 20
128.3251500918479
 30
0.0
  0
VERTEX
  5
1A8
330
1A6
100
AcDbEntity
  8
Default
 62
   250
420
  2301728
370
   120
100
AcDbVertex
100
AcDb2dVertex
 10
846.9264007441823
 20
130.3487917687189
 30
0.0
  0
SEQEND
  5
1A9
330
1A6
100
AcDbEntity
  8
Default
 62
   250
420
  2301728
370
   120
  0
POLYLINE
  5
1AA
330
1F
100
AcDbEntity
  8
Default
 62
   250
420
  2301728
370
   120
100
AcDb2dPolyline
 66
     1
 10
0.0
 20
0.0
 30
0.0
  0
VERTEX
  5
1AB
330
1AA
100
AcDbEntity
  8
Default
 62
   250
420
  2301728
370
   120
100
AcDbVertex
100
AcDb2dVertex
 10
849.4697755293209
 20
128.3583245455667
 30
0.0
  0
VERTEX
  5
1AC
330
1AA
100
AcDbEntity
  8
Default
 62
   250
420
  2301728
370
   120
100
AcDbVertex
100
AcDb2dVertex
 10
851.4823590549524
 20
130.3930243736777
 30
0.0
  0
SEQEND
  5
1AD
330
1AA
100
AcDbEntity
  8
Default
 62
   250
420
  2301728
370
   120
  0
POLYLINE
  5
1AE
330
1F
100
AcDbEntity
  8
Default
 62
   250
420
  2301728
370
   120
100
AcDb2dPolyline
 66
     1
 10
0.0
 20
0.0
 30
0.0
  0
VERTEX
  5
1AF
330
1AE
100
AcDbEntity
  8
Default
 62
   250
420
  2301728
370
   120
100
AcDbVertex
100
AcDb2dVertex
 10
853.9925593863716
 20
128.4136153017657
 30
0.0
  0
VERTEX
  5
1B0
330
1AE
100
AcDbEntity
  8
Default
 62
   250
420
  2301728
370
   120
100
AcDbVertex
100
AcDb2dVertex
 10
856.0272592144827
 20
130.4151406761573
 30
0.0
  0
SEQEND
  5
1B1
330
1AE
100
AcDbEntity
  8
Default
 62
   250
420
  2301728
370
   120
  0
POLYLINE
  5
1B2
330
1F
100
AcDbEntity
  8
Default
 62
   250
420
  2301728
370
   120
100
AcDb2dPolyline
 66
     1
 10
0.0
 20
0.0
 30
0.0
  0
VERTEX
  5
1B3
330
1B2
100
AcDbEntity
  8
Default
 62
   250
420
  2301728
370
   120
100
AcDbVertex
100
AcDb2dVertex
 10
858.5374595459018
 20
128.4606124445345
 30
0.0
  0
VERTEX
  5
1B4
330
1B2
100
AcDbEntity
  8
Default
 62
   250
420
  2301728
370
   120
100
AcDbVertex
100
AcDb2dVertex
 10
860.5500430715331
 20
130.4731959701659
 30
0.0
  0
SEQEND
  5
1B5
330
1B2
100
AcDbEntity
  8
Default
 62
   250
420
  2301728
370
   120
  0
POLYLINE
  5
1B6
330
1F
100
AcDbEntity
  8
Default
 62
   250
420
  2301728
370
   120
100
AcDb2dPolyline
 66
     1
 10
0.0
 20
0.0
 30
0.0
  0
VERTEX
  5
1B7
330
1B6
100
AcDbEntity
  8
Default
 62
   250
420
  2301728
370
   120
100
AcDbVertex
100
AcDb2dVertex
 10
863.0602434029524
 20
128.5048450494934
 30
0.0
  0
VERTEX
  5
1B8
330
1B6
100
AcDbEntity
  8
Default
 62
   250
420
  2301728
370
   120
100
AcDbVertex
100
AcDb2dVertex
 10
865.0728269285839
 20
130.5174285751249
 30
0.0
  0
SEQEND
  5
1B9
330
1B6
100
AcDbEntity
  8
Default
 62
   250
420
  2301728
370
   120
  0
POLYLINE
  5
1BA
330
1F
100
AcDbEntity
  8
Default
 62
   250
420
  2301728
370
   120
100
AcDb2dPolyline
 66
     1
 10
0.0
 20
0.0
 30
0.0
  0
VERTEX
  5
1BB
330
1BA
100
AcDbEntity
  8
Default
 62
   250
420
  2301728
370
   120
100
AcDbVertex
100
AcDb2dVertex
 10
867.6051435624829
 20
128.5269613519731
 30
0.0
  0
VERTEX
  5
1BC
330
1BA
100
AcDbEntity
  8
Default
 62
   250
420
  2301728
370
   120
100
AcDbVertex
100
AcDb2dVertex
 10
869.6398433905938
 20
130.5506030288441
 30
0.0
  0
SEQEND
  5
1BD
330
1BA
100
AcDbEntity
  8
Default
 62
   250
420
  2301728
370
   120
  0
POLYLINE
  5
1BE
330
1F
100
AcDbEntity
  8
Default
 62
   250
420
  2301728
370
   120
100
AcDb2dPolyline
 66
     1
 10
0.0
 20
0.0
 30
0.0
  0
VERTEX
  5
1BF
330
1BE
100
AcDbEntity
  8
Default
 62
   250
420
  2301728
370
   120
100
AcDbVertex
100
AcDb2dVertex
 10
872.1389855707725
 20
128.5739584947418
 30
0.0
  0
VERTEX
  5
1C0
330
1BE
100
AcDbEntity
  8
Default
 62
   250
420
  2301728
370
   120
100
AcDbVertex
100
AcDb2dVertex
 10
874.1626272476437
 20
130.586542020373
 30
0.0
  0
SEQEND
  5
1C1
330
1BE
100
AcDbEntity
  8
Default
 62
   250
420
  2301728
370
   120
  0
POLYLINE
  5
1C2
330
1F
100
AcDbEntity
  8
Default
 62
   250
420
  2301728
370
   120
100
AcDb2dPolyline
 66
     1
 10
0.0
 20
0.0
 30
0.0
  0
VERTEX
  5
1C3
330
1C2
100
AcDbEntity
  8
Default
 62
   250
420
  2301728
370
   120
100
AcDbVertex
100
AcDb2dVertex
 10
876.683885730303
 20
128.6181910997008
 30
0.0
  0
VERTEX
  5
1C4
330
1C2
100
AcDbEntity
  8
Default
 62
   250
420
  2301728
370
   120
100
AcDbVertex
100
AcDb2dVertex
 10
878.7075274071742
 20
130.630774625332
 30
0.0
  0
SEQEND
  5
1C5
330
1C2
100
AcDbEntity
  8
Default
 62
   250
420
  2301728
370
   120
  0
POLYLINE
  5
1C6
330
1F
100
AcDbEntity
  8
Default
 62
   250
420
  2301728
370
   120
100
AcDb2dPolyline
 66
     1
 10
0.0
 20
0.0
 30
0.0
  0
VERTEX
  5
1C7
330
1C6
100
AcDbEntity
  8
Default
 62
   250
420
  2301728
370
   120
100
AcDbVertex
100
AcDb2dVertex
 10
881.2177277385936
 20
128.65136555342
 30
0.0
  0
VERTEX
  5
1C8
330
1C6
100
AcDbEntity
  8
Default
 62
   250
420
  2301728
370
   120
100
AcDbVertex
100
AcDb2dVertex
 10
883.2303112642246
 20
130.6860653815306
 30
0.0
  0
SEQEND
  5
1C9
330
1C6
100
AcDbEntity
  8
Default
 62
   250
420
  2301728
370
   120
  0
POLYLINE
  5
1CA
330
1F
100
AcDbEntity
  8
Default
 62
   250
420
  2301728
370
   120
100
AcDb2dPolyline
 66
     1
 10
0.0
 20
0.0
 30
0.0
  0
VERTEX
  5
1CB
330
1CA
100
AcDbEntity
  8
Default
 62
   250
420
  2301728
370
   120
100
AcDbVertex
100
AcDb2dVertex
 10
885.7626278981236
 20
128.7094208474285
 30
0.0
  0
VERTEX
  5
1CC
330
1CA
100
AcDbEntity
  8
Default
 62
   250
420
  2301728
370
   120
100
AcDbVertex
100
AcDb2dVertex
 10
887.7752114237546
 20
130.7220043730597
 30
0.0
  0
SEQEND
  5
1CD
330
1CA
100
AcDbEntity
  8
Default
 62
   250
420
  2301728
370
   120
  0
POLYLINE
  5
1CE
330
1F
100
AcDbEntity
  8
Default
 62
   250
420
  2301728
370
   120
100
AcDb2dPolyline
 66
     1
 10
0.0
 20
0.0
 30
0.0
  0
VERTEX
  5
1CF
330
1CE
100
AcDbEntity
  8
Default
 62
   250
420
  2301728
370
   120
100
AcDbVertex
100
AcDb2dVertex
 10
890.2743536039341
 20
128.7425953011476
 30
0.0
  0
VERTEX
  5
1D0
330
1CE
100
AcDbEntity
  8
Default
 62
   250
420
  2301728
370
   120
100
AcDbVertex
100
AcDb2dVertex
 10
892.3090534320452
 20
130.7772951292583
 30
0.0
  0
SEQEND
  5
1D1
330
1CE
100
AcDbEntity
  8
Default
 62
   250
420
  2301728
370
   120
  0
POLYLINE
  5
1D2
330
1F
100
AcDbEntity
  8
Default
 62
   250
420
  2301728
370
   120
100
AcDb2dPolyline
 66
     1
 10
0.0
 20
0.0
 30
0.0
  0
VERTEX
  5
1D3
330
1D2
100
AcDbEntity
  8
Default
 62
   250
420
  2301728
370
   120
100
AcDbVertex
100
AcDb2dVertex
 10
112.243289956143
 20
459.7025566626662
 30
0.0
  0
VERTEX
  5
1D4
330
1D2
100
AcDbEntity
  8
Default
 62
   250
420
  2301728
370
   120
100
AcDbVertex
100
AcDb2dVertex
 10
114.9912405392164
 20
407.8978826423291
 30
0.0
  0
SEQEND
  5
1D5
330
1D2
100
AcDbEntity
  8
Default
 62
   250
420
  2301728
370
   120
  0
POLYLINE
  5
1D6
330
1F
100
AcDbEntity
  8
Default
 62
   250
420
  2301728
370
   120
100
AcDb2dPolyline
 66
     1
 10
0.0
 20
0.0
 30
0.0
  0
VERTEX
  5
1D7
330
1D6
100
AcDbEntity
  8
Default
 62
   250
420
  2301728
370
   120
100
AcDbVertex
100
AcDb2dVertex
 10
117.0018888883807
 20
407.6546033150547
 30
0.0
  0
VERTEX
  5
1D8
330
1D6
100
AcDbEntity
  8
Default
 62
   250
420
  2301728
370
   120
100
AcDbVertex
100
AcDb2dVertex
 10
114.2539383053072
 20
459.7080857382859
 30
0.0
  0
SEQEND
  5
1D9
330
1D6
100
AcDbEntity
  8
Default
 62
   250
420
  2301728
370
   120
  0
POLYLINE
  5
1DA
330
1F
100
AcDbEntity
  8
Default
 62
   250
420
  2301728
370
   120
100
AcDb2dPolyline
 66
     1
 10
0.0
 20
0.0
 30
0.0
  0
VERTEX
  5
1DB
330
1DA
100
AcDbEntity
  8
Default
 62
   250
420
  2301728
370
   120
100
AcDbVertex
100
AcDb2dVertex
 10
350.4029696600447
 20
115.5698490905972
 30
0.0
  0
VERTEX
  5
1DC
330
1DA
100
AcDbEntity
  8
Default
 62
   250
420
  2301728
370
   120
100
AcDbVertex
100
AcDb2dVertex
 10
298.3494872368134
 20
115.5698490905972
 30
0.0
  0
SEQEND
  5
1DD
330
1DA
100
AcDbEntity
  8
Default
 62
   250
420
  2301728
370
   120
  0
SPLINE
  5
1DE
330
1F
100
AcDbEntity
  8
Default
 62
   250
420
  2301728
370
   120
100
AcDbSpline
210
0.0
220
0.0
230
1.0
 70
     8
 71
     3
 72
     8
 73
     4
 74
     0
 42
0.0000000001
 43
0.0000000001
 40
0.0
 40
0.0
 40
0.0
 40
0.0
 40
1.0
 40
1.0
 40
1.0
 40
1.0
 10
238.3888737696114
 20
125.209515980053
 30
0.0
 10
238.8975487266392
 20
125.1072280810855
 30
0.0
 10
239.4393981373859
 20
125.0740536273663
 30
0.0
 10
239.9591312456535
 20
125.0629954761266
 30
0.0
  0
SPLINE
  5
1DF
330
1F
100
AcDbEntity
  8
Default
 62
   250
420
  2301728
370
   120
100
AcDbSpline
210
0.0
220
0.0
230
1.0
 70
     8
 71
     3
 72
     8
 73
     4
 74
     0
 42
0.0000000001
 43
0.0000000001
 40
0.0
 40
0.0
 40
0.0
 40
0.0
 40
1.0
 40
1.0
 40
1.0
 40
1.0
 10
238.2904562235778
 20
127.2400690014489
 30
0.0
 10
238.8433637855643
 20
127.1488392537212
 30
0.0
 10
239.4322103390802
 20
127.0935484975225
 30
0.0
 10
239.9989405901164
 20
127.071432195043
 30
0.0
  0
SPLINE
  5
1E0
330
1F
100
AcDbEntity
  8
Default
 62
   250
420
  2301728
370
   120
100
AcDbSpline
210
0.0
220
0.0
230
1.0
 70
     8
 71
     3
 72
     8
 73
     4
 74
     0
 42
0.0000000001
 43
0.0000000001
 40
0.0
 40
0.0
 40
0.0
 40
0.0
 40
1.0
 40
1.0
 40
1.0
 40
1.0
 10
289.852403824203
 20
126.0482767515867
 30
0.0
 10
289.7058833202764
 20
126.1284483480749
 30
0.0
 10
289.5593628163501
 20
126.161622801794
 30
0.0
 10
289.3879614721341
 20
126.161622801794
 30
0.0
  0
SPLINE
  5
1E1
330
1F
100
AcDbEntity
  8
Default
 62
   250
420
  2301728
370
   120
100
AcDbSpline
210
0.0
220
0.0
230
1.0
 70
     8
 71
     3
 72
     8
 73
     4
 74
     0
 42
0.0000000001
 43
0.0000000001
 40
0.0
 40
0.0
 40
0.0
 40
0.0
 40
1.0
 40
1.0
 40
1.0
 40
1.0
 10
293.8604307410439
 20
122.5038628254715
 30
0.0
 10
292.7988482220297
 20
123.9745969403559
 30
0.0
 10
291.4304020061128
 20
125.171641812057
 30
0.0
 10
289.8573799922607
 20
126.0424712221858
 30
0.0
  0
SPLINE
  5
1E2
330
1F
100
AcDbEntity
  8
Default
 62
   250
420
  2301728
370
   120
100
AcDbSpline
210
0.0
220
0.0
230
1.0
 70
     8
 71
     3
 72
     8
 73
     4
 74
     0
 42
0.0000000001
 43
0.0000000001
 40
0.0
 40
0.0
 40
0.0
 40
0.0
 40
1.0
 40
1.0
 40
1.0
 40
1.0
 10
289.3448346822991
 20
124.0279525200876
 30
0.0
 10
289.1872560271331
 20
124.1302404190551
 30
0.0
 10
289.0158546829171
 20
124.174473024014
 30
0.0
 10
288.8361597252714
 20
124.1855311752537
 30
0.0
  0
SPLINE
  5
1E3
330
1F
100
AcDbEntity
  8
Default
 62
   250
420
  2301728
370
   120
100
AcDbSpline
210
0.0
220
0.0
230
1.0
 70
     8
 71
     3
 72
     8
 73
     4
 74
     0
 42
0.0000000001
 43
0.0000000001
 40
0.0
 40
0.0
 40
0.0
 40
0.0
 40
1.0
 40
1.0
 40
1.0
 40
1.0
 10
292.2268653491545
 20
121.3449685755475
 30
0.0
 10
291.4472656867533
 20
122.4176092458016
 30
0.0
 10
290.4741483776569
 20
123.3354357986993
 30
0.0
 10
289.3434524133942
 20
124.0348638646125
 30
0.0
  0
SPLINE
  5
1E4
330
1F
100
AcDbEntity
  8
Default
 62
   250
420
  2301728
370
   120
100
AcDbSpline
210
0.0
220
0.0
230
1.0
 70
     8
 71
     3
 72
     8
 73
     4
 74
     0
 42
0.0000000001
 43
0.0000000001
 40
0.0
 40
0.0
 40
0.0
 40
0.0
 40
1.0
 40
1.0
 40
1.0
 40
1.0
 10
296.0574089385978
 20
116.0005640813848
 30
0.0
 10
296.261984736533
 20
115.7406975272511
 30
0.0
 10
296.543967593146
 20
115.5720607208451
 30
0.0
 10
296.8591249034785
 20
115.5720607208451
 30
0.0
  0
SPLINE
  5
1E5
330
1F
100
AcDbEntity
  8
Default
 62
   250
420
  2301728
370
   120
100
AcDbSpline
210
0.0
220
0.0
230
1.0
 70
     8
 71
     3
 72
     8
 73
     4
 74
     0
 42
0.0000000001
 43
0.0000000001
 40
0.0
 40
0.0
 40
0.0
 40
0.0
 40
1.0
 40
1.0
 40
1.0
 40
1.0
 10
297.0838818274261
 20
117.9882667667267
 30
0.0
 10
297.2884576253612
 20
117.7505165150724
 30
0.0
 10
297.5704404819742
 20
117.5708215574268
 30
0.0
 10
297.8966559435465
 20
117.5708215574268
 30
0.0
  0
POLYLINE
  5
1E6
330
1F
100
AcDbEntity
  8
Default
 62
   250
420
  2301728
370
   120
100
AcDb2dPolyline
 66
     1
 10
0.0
 20
0.0
 30
0.0
  0
VERTEX
  5
1E7
330
1E6
100
AcDbEntity
  8
Default
 62
   250
420
  2301728
370
   120
100
AcDbVertex
100
AcDb2dVertex
 10
298.364968648549
 20
117.5688863809598
 30
0.0
  0
VERTEX
  5
1E8
330
1E6
100
AcDbEntity
  8
Default
 62
   250
420
  2301728
370
   120
100
AcDbVertex
100
AcDb2dVertex
 10
297.9005262964802
 20
117.5688863809598
 30
0.0
  0
SEQEND
  5
1E9
330
1E6
100
AcDbEntity
  8
Default
 62
   250
420
  2301728
370
   120
  0
POLYLINE
  5
1EA
330
1F
100
AcDbEntity
  8
Default
 62
   250
420
  2301728
370
   120
100
AcDb2dPolyline
 66
     1
 10
0.0
 20
0.0
 30
0.0
  0
VERTEX
  5
1EB
330
1EA
100
AcDbEntity
  8
Default
 62
   250
420
  2301728
370
   120
100
AcDbVertex
100
AcDb2dVertex
 10
298.364968648549
 20
115.5698490905972
 30
0.0
  0
VERTEX
  5
1EC
330
1EA
100
AcDbEntity
  8
Default
 62
   250
420
  2301728
370
   120
100
AcDbVertex
100
AcDb2dVertex
 10
296.8610600799454
 20
115.5698490905972
 30
0.0
  0
SEQEND
  5
1ED
330
1EA
100
AcDbEntity
  8
Default
 62
   250
420
  2301728
370
   120
  0
POLYLINE
  5
1EE
330
1F
100
AcDbEntity
  8
Default
 62
   250
420
  2301728
370
   120
100
AcDb2dPolyline
 66
     1
 10
0.0
 20
0.0
 30
0.0
  0
VERTEX
  5
1EF
330
1EE
100
AcDbEntity
  8
Default
 62
   250
420
  2301728
370
   120
100
AcDbVertex
100
AcDb2dVertex
 10
293.8604307410438
 20
122.5038628254713
 30
0.0
  0
VERTEX
  5
1F0
330
1EE
100
AcDbEntity
  8
Default
 62
   250
420
  2301728
370
   120
100
AcDbVertex
100
AcDb2dVertex
 10
297.0838818274258
 20
117.9921371196605
 30
0.0
  0
SEQEND
  5
1F1
330
1EE
100
AcDbEntity
  8
Default
 62
   250
420
  2301728
370
   120
  0
POLYLINE
  5
1F2
330
1F
100
AcDbEntity
  8
Default
 62
   250
420
  2301728
370
   120
100
AcDb2dPolyline
 66
     1
 10
0.0
 20
0.0
 30
0.0
  0
VERTEX
  5
1F3
330
1F2
100
AcDbEntity
  8
Default
 62
   250
420
  2301728
370
   120
100
AcDbVertex
100
AcDb2dVertex
 10
292.2268653491546
 20
121.3449685755475
 30
0.0
  0
VERTEX
  5
1F4
330
1F2
100
AcDbEntity
  8
Default
 62
   250
420
  2301728
370
   120
100
AcDbVertex
100
AcDb2dVertex
 10
296.0585147537219
 20
115.9845297620872
 30
0.0
  0
SEQEND
  5
1F5
330
1F2
100
AcDbEntity
  8
Default
 62
   250
420
  2301728
370
   120
  0
SPLINE
  5
1F6
330
1F
100
AcDbEntity
  8
Default
 62
   250
420
  2301728
370
   120
100
AcDbSpline
210
0.0
220
0.0
230
1.0
 70
     8
 71
     3
 72
     8
 73
     4
 74
     0
 42
0.0000000001
 43
0.0000000001
 40
0.0
 40
0.0
 40
0.0
 40
0.0
 40
1.0
 40
1.0
 40
1.0
 40
1.0
 10
359.357307626418
 20
126.1580289026411
 30
0.0
 10
359.1886708200121
 20
126.1580289026411
 30
0.0
 10
359.028327627036
 20
126.1137962976823
 30
0.0
 10
358.8818071231096
 20
126.0115083987147
 30
0.0
  0
SPLINE
  5
1F7
330
1F
100
AcDbEntity
  8
Default
 62
   250
420
  2301728
370
   120
100
AcDbSpline
210
0.0
220
0.0
230
1.0
 70
     8
 71
     3
 72
     8
 73
     4
 74
     0
 42
0.0000000001
 43
0.0000000001
 40
0.0
 40
0.0
 40
0.0
 40
0.0
 40
1.0
 40
1.0
 40
1.0
 40
1.0
 10
358.8826364844526
 20
126.0258839953263
 30
0.0
 10
357.3096144706007
 20
125.1661127364371
 30
0.0
 10
355.9439327924936
 20
123.9441870244466
 30
0.0
 10
354.9127601893885
 20
122.4872755986119
 30
0.0
  0
SPLINE
  5
1F8
330
1F
100
AcDbEntity
  8
Default
 62
   250
420
  2301728
370
   120
100
AcDbSpline
210
0.0
220
0.0
230
1.0
 70
     8
 71
     3
 72
     8
 73
     4
 74
     0
 42
0.0000000001
 43
0.0000000001
 40
0.0
 40
0.0
 40
0.0
 40
0.0
 40
1.0
 40
1.0
 40
1.0
 40
1.0
 10
359.9420073732189
 20
124.1816608223199
 30
0.0
 10
359.7484897265237
 20
124.1816608223199
 30
0.0
 10
359.5798529201177
 20
124.137428217361
 30
0.0
 10
359.4112161137118
 20
124.0240821671538
 30
0.0
  0
SPLINE
  5
1F9
330
1F
100
AcDbEntity
  8
Default
 62
   250
420
  2301728
370
   120
100
AcDbSpline
210
0.0
220
0.0
230
1.0
 70
     8
 71
     3
 72
     8
 73
     4
 74
     0
 42
0.0000000001
 43
0.0000000001
 40
0.0
 40
0.0
 40
0.0
 40
0.0
 40
1.0
 40
1.0
 40
1.0
 40
1.0
 10
359.4114925674929
 20
124.0279525200876
 30
0.0
 10
358.3029129057097
 20
123.3257599163646
 30
0.0
 10
357.296621142894
 20
122.4106979012766
 30
0.0
 10
356.5280796317325
 20
121.3491153822624
 30
0.0
  0
SPLINE
  5
1FA
330
1F
100
AcDbEntity
  8
Default
 62
   250
420
  2301728
370
   120
100
AcDbSpline
210
0.0
220
0.0
230
1.0
 70
     8
 71
     3
 72
     8
 73
     4
 74
     0
 42
0.0000000001
 43
0.0000000001
 40
0.0
 40
0.0
 40
0.0
 40
0.0
 40
1.0
 40
1.0
 40
1.0
 40
1.0
 10
351.8930555395986
 20
115.5698490905972
 30
0.0
 10
352.1971546986913
 20
115.5698490905972
 30
0.0
 10
352.5150765468335
 20
115.7384858970031
 30
0.0
 10
352.6947715044792
 20
115.9983524511368
 30
0.0
  0
SPLINE
  5
1FB
330
1F
100
AcDbEntity
  8
Default
 62
   250
420
  2301728
370
   120
100
AcDbSpline
210
0.0
220
0.0
230
1.0
 70
     8
 71
     3
 72
     8
 73
     4
 74
     0
 42
0.0000000001
 43
0.0000000001
 40
0.0
 40
0.0
 40
0.0
 40
0.0
 40
1.0
 40
1.0
 40
1.0
 40
1.0
 10
350.8549715919686
 20
117.5688863809598
 30
0.0
 10
351.1839515913508
 20
117.5688863809598
 30
0.0
 10
351.4880507504435
 20
117.7485813386054
 30
0.0
 10
351.6926265483784
 20
117.9863315902597
 30
0.0
  0
POLYLINE
  5
1FC
330
1F
100
AcDbEntity
  8
Default
 62
   250
420
  2301728
370
   120
100
AcDb2dPolyline
 66
     1
 10
0.0
 20
0.0
 30
0.0
  0
VERTEX
  5
1FD
330
1FC
100
AcDbEntity
  8
Default
 62
   250
420
  2301728
370
   120
100
AcDbVertex
100
AcDb2dVertex
 10
350.4029696600447
 20
117.5688863809598
 30
0.0
  0
VERTEX
  5
1FE
330
1FC
100
AcDbEntity
  8
Default
 62
   250
420
  2301728
370
   120
100
AcDbVertex
100
AcDb2dVertex
 10
350.8563538608736
 20
117.5688863809598
 30
0.0
  0
SEQEND
  5
1FF
330
1FC
100
AcDbEntity
  8
Default
 62
   250
420
  2301728
370
   120
  0
POLYLINE
  5
200
330
1F
100
AcDbEntity
  8
Default
 62
   250
420
  2301728
370
   120
100
AcDb2dPolyline
 66
     1
 10
0.0
 20
0.0
 30
0.0
  0
VERTEX
  5
201
330
200
100
AcDbEntity
  8
Default
 62
   250
420
  2301728
370
   120
100
AcDbVertex
100
AcDb2dVertex
 10
350.4029696600447
 20
115.5698490905972
 30
0.0
  0
VERTEX
  5
202
330
200
100
AcDbEntity
  8
Default
 62
   250
420
  2301728
370
   120
100
AcDbVertex
100
AcDb2dVertex
 10
351.8958200774086
 20
115.5698490905972
 30
0.0
  0
SEQEND
  5
203
330
200
100
AcDbEntity
  8
Default
 62
   250
420
  2301728
370
   120
  0
POLYLINE
  5
204
330
1F
100
AcDbEntity
  8
Default
 62
   250
420
  2301728
370
   120
100
AcDb2dPolyline
 66
     1
 10
0.0
 20
0.0
 30
0.0
  0
VERTEX
  5
205
330
204
100
AcDbEntity
  8
Default
 62
   250
420
  2301728
370
   120
100
AcDbVertex
100
AcDb2dVertex
 10
354.9185657187895
 20
122.5038628254715
 30
0.0
  0
VERTEX
  5
206
330
204
100
AcDbEntity
  8
Default
 62
   250
420
  2301728
370
   120
100
AcDbVertex
100
AcDb2dVertex
 10
351.6951146324075
 20
117.9921371196606
 30
0.0
  0
SEQEND
  5
207
330
204
100
AcDbEntity
  8
Default
 62
   250
420
  2301728
370
   120
  0
POLYLINE
  5
208
330
1F
100
AcDbEntity
  8
Default
 62
   250
420
  2301728
370
   120
100
AcDb2dPolyline
 66
     1
 10
0.0
 20
0.0
 30
0.0
  0
VERTEX
  5
209
330
208
100
AcDbEntity
  8
Default
 62
   250
420
  2301728
370
   120
100
AcDbVertex
100
AcDb2dVertex
 10
356.5308441695425
 20
121.3449685755476
 30
0.0
  0
VERTEX
  5
20A
330
208
100
AcDbEntity
  8
Default
 62
   250
420
  2301728
370
   120
100
AcDbVertex
100
AcDb2dVertex
 10
352.6991947649753
 20
115.9845297620872
 30
0.0
  0
SEQEND
  5
20B
330
208
100
AcDbEntity
  8
Default
 62
   250
420
  2301728
370
   120
  0
POLYLINE
  5
20C
330
1F
100
AcDbEntity
  8
Default
 62
   250
420
  2301728
370
   120
100
AcDb2dPolyline
 66
     1
 10
0.0
 20
0.0
 30
0.0
  0
VERTEX
  5
20D
330
20C
100
AcDbEntity
  8
Default
 62
   250
420
  2301728
370
   120
100
AcDbVertex
100
AcDb2dVertex
 10
114.2522795826214
 20
459.7025566626664
 30
0.0
  0
VERTEX
  5
20E
330
20C
100
AcDbEntity
  8
Default
 62
   250
420
  2301728
370
   120
100
AcDbVertex
100
AcDb2dVertex
 10
112.23969605699
 20
459.7025566626664
 30
0.0
  0
SEQEND
  5
20F
330
20C
100
AcDbEntity
  8
Default
 62
   250
420
  2301728
370
   120
  0
POLYLINE
  5
210
330
1F
100
AcDbEntity
  8
Default
 62
   250
420
  2301728
370
   120
100
AcDb2dPolyline
 66
     1
 10
0.0
 20
0.0
 30
0.0
  0
VERTEX
  5
211
330
210
100
AcDbEntity
  8
Default
 62
   250
420
  2301728
370
   120
100
AcDbVertex
100
AcDb2dVertex
 10
117.0018888883809
 20
407.654603315055
 30
0.0
  0
VERTEX
  5
212
330
210
100
AcDbEntity
  8
Default
 62
   250
420
  2301728
370
   120
100
AcDbVertex
100
AcDb2dVertex
 10
114.9893053627495
 20
407.9034117179489
 30
0.0
  0
SEQEND
  5
213
330
210
100
AcDbEntity
  8
Default
 62
   250
420
  2301728
370
   120
  0
POLYLINE
  5
214
330
1F
100
AcDbEntity
  8
Default
 62
   250
420
  2301728
370
   120
100
AcDb2dPolyline
 66
     1
 10
0.0
 20
0.0
 30
0.0
  0
VERTEX
  5
215
330
214
100
AcDbEntity
  8
Default
 62
   250
420
  2301728
370
   120
100
AcDbVertex
100
AcDb2dVertex
 10
50.94215210490438
 20
478.2628341572144
 30
0.0
  0
VERTEX
  5
216
330
214
100
AcDbEntity
  8
Default
 62
   250
420
  2301728
370
   120
100
AcDbVertex
100
AcDb2dVertex
 10
50.94215210490438
 20
480.2754176828457
 30
0.0
  0
SEQEND
  5
217
330
214
100
AcDbEntity
  8
Default
 62
   250
420
  2301728
370
   120
  0
POLYLINE
  5
218
330
1F
100
AcDbEntity
  8
Default
 62
   250
420
  2301728
370
   120
100
AcDb2dPolyline
 66
     1
 10
0.0
 20
0.0
 30
0.0
  0
VERTEX
  5
219
330
218
100
AcDbEntity
  8
Default
 62
   250
420
  2301728
370
   120
100
AcDbVertex
100
AcDb2dVertex
 10
1736.395983510379
 20
477.4351315369204
 30
0.0
  0
VERTEX
  5
21A
330
218
100
AcDbEntity
  8
Default
 62
   250
420
  2301728
370
   120
100
AcDbVertex
100
AcDb2dVertex
 10
1736.395983510379
 20
479.4366569113119
 30
0.0
  0
SEQEND
  5
21B
330
218
100
AcDbEntity
  8
Default
 62
   250
420
  2301728
370
   120
  0
POLYLINE
  5
21C
330
1F
100
AcDbEntity
  8
Default
 62
   250
420
  2301728
370
   120
100
AcDb2dPolyline
 66
     1
 10
0.0
 20
0.0
 30
0.0
  0
VERTEX
  5
21D
330
21C
100
AcDbEntity
  8
Default
 62
   250
420
  2301728
370
   120
100
AcDbVertex
100
AcDb2dVertex
 10
787.3923554610531
 20
500.9193273247404
 30
0.0
  0
VERTEX
  5
21E
330
21C
100
AcDbEntity
  8
Default
 62
   250
420
  2301728
370
   120
100
AcDbVertex
100
AcDb2dVertex
 10
1695.946648544342
 20
500.9193273247404
 30
0.0
  0
SEQEND
  5
21F
330
21C
100
AcDbEntity
  8
Default
 62
   250
420
  2301728
370
   120
  0
POLYLINE
  5
220
330
1F
100
AcDbEntity
  8
Default
 62
   250
420
  2301728
370
   120
100
AcDb2dPolyline
 66
     1
 10
0.0
 20
0.0
 30
0.0
  0
VERTEX
  5
221
330
220
100
AcDbEntity
  8
Default
 62
   250
420
  2301728
370
   120
100
AcDbVertex
100
AcDb2dVertex
 10
787.4139188559705
 20
127.7816419584149
 30
0.0
  0
VERTEX
  5
222
330
220
100
AcDbEntity
  8
Default
 62
   250
420
  2301728
370
   120
100
AcDbVertex
100
AcDb2dVertex
 10
894.6309887386076
 20
128.7768755699909
 30
0.0
  0
SEQEND
  5
223
330
220
100
AcDbEntity
  8
Default
 62
   250
420
  2301728
370
   120
  0
POLYLINE
  5
224
330
1F
100
AcDbEntity
  8
Default
 62
   250
420
  2301728
370
   120
100
AcDb2dPolyline
 66
     1
 10
0.0
 20
0.0
 30
0.0
  0
VERTEX
  5
225
330
224
100
AcDbEntity
  8
Default
 62
   250
420
  2301728
370
   120
100
AcDbVertex
100
AcDb2dVertex
 10
787.3923554610535
 20
129.8019661899142
 30
0.0
  0
VERTEX
  5
226
330
224
100
AcDbEntity
  8
Default
 62
   250
420
  2301728
370
   120
100
AcDbVertex
100
AcDb2dVertex
 10
894.63154164617
 20
130.7861416502503
 30
0.0
  0
SEQEND
  5
227
330
224
100
AcDbEntity
  8
Default
 62
   250
420
  2301728
370
   120
  0
POLYLINE
  5
228
330
1F
100
AcDbEntity
  8
Default
 62
   250
420
  2301728
370
   120
100
AcDb2dPolyline
 66
     1
 10
0.0
 20
0.0
 30
0.0
  0
VERTEX
  5
229
330
228
100
AcDbEntity
  8
Default
 62
   250
420
  2301728
370
   120
100
AcDbVertex
100
AcDb2dVertex
 10
96.80804600194318
 20
500.9193273247404
 30
0.0
  0
VERTEX
  5
22A
330
228
100
AcDbEntity
  8
Default
 62
   250
420
  2301728
370
   120
100
AcDbVertex
100
AcDb2dVertex
 10
673.8196131533796
 20
500.9193273247404
 30
0.0
  0
SEQEND
  5
22B
330
228
100
AcDbEntity
  8
Default
 62
   250
420
  2301728
370
   120
  0
SPLINE
  5
22C
330
1F
100
AcDbEntity
  8
Default
 62
   250
420
  2301728
370
   120
100
AcDbSpline
210
0.0
220
0.0
230
1.0
 70
     8
 71
     3
 72
     8
 73
     4
 74
     0
 42
0.0000000001
 43
0.0000000001
 40
0.0
 40
0.0
 40
0.0
 40
0.0
 40
1.0
 40
1.0
 40
1.0
 40
1.0
 10
68.5425820718437
 20
505.7008719208009
 30
0.0
 10
68.1472531650233
 20
506.063026373902
 30
0.0
 10
67.66069451047508
 20
506.3007766255562
 30
0.0
 10
67.11884509972822
 20
506.3007766255562
 30
0.0
  0
SPLINE
  5
22D
330
1F
100
AcDbEntity
  8
Default
 62
   250
420
  2301728
370
   120
100
AcDbSpline
210
0.0
220
0.0
230
1.0
 70
     8
 71
     3
 72
     8
 73
     4
 74
     0
 42
0.0000000001
 43
0.0000000001
 40
0.0
 40
0.0
 40
0.0
 40
0.0
 40
1.0
 40
1.0
 40
1.0
 40
1.0
 10
67.42653815797371
 20
503.9890701088903
 30
0.0
 10
67.23302051127837
 20
504.1936459068253
 30
0.0
 10
66.97315395714463
 20
504.2710529655034
 30
0.0
 10
66.71328740301084
 20
504.2710529655034
 30
0.0
  0
POLYLINE
  5
22E
330
1F
100
AcDbEntity
  8
Default
 62
   250
420
  2301728
370
   120
100
AcDb2dPolyline
 66
     1
 10
0.0
 20
0.0
 30
0.0
  0
VERTEX
  5
22F
330
22E
100
AcDbEntity
  8
Default
 62
   250
420
  2301728
370
   120
100
AcDbVertex
100
AcDb2dVertex
 10
67.42653815797371
 20
503.9890701088903
 30
0.0
  0
VERTEX
  5
230
330
22E
100
AcDbEntity
  8
Default
 62
   250
420
  2301728
370
   120
100
AcDbVertex
100
AcDb2dVertex
 10
70.96514655468809
 20
500.4504617121759
 30
0.0
  0
SEQEND
  5
231
330
22E
100
AcDbEntity
  8
Default
 62
   250
420
  2301728
370
   120
  0
POLYLINE
  5
232
330
1F
100
AcDbEntity
  8
Default
 62
   250
420
  2301728
370
   120
100
AcDb2dPolyline
 66
     1
 10
0.0
 20
0.0
 30
0.0
  0
VERTEX
  5
233
330
232
100
AcDbEntity
  8
Default
 62
   250
420
  2301728
370
   120
100
AcDbVertex
100
AcDb2dVertex
 10
68.54258207184364
 20
505.7008719208007
 30
0.0
  0
VERTEX
  5
234
330
232
100
AcDbEntity
  8
Default
 62
   250
420
  2301728
370
   120
100
AcDbVertex
100
AcDb2dVertex
 10
72.39911231670038
 20
501.844341675944
 30
0.0
  0
SEQEND
  5
235
330
232
100
AcDbEntity
  8
Default
 62
   250
420
  2301728
370
   120
  0
SPLINE
  5
236
330
1F
100
AcDbEntity
  8
Default
 62
   250
420
  2301728
370
   120
100
AcDbSpline
210
0.0
220
0.0
230
1.0
 70
     8
 71
     3
 72
     8
 73
     4
 74
     0
 42
0.0000000001
 43
0.0000000001
 40
0.0
 40
0.0
 40
0.0
 40
0.0
 40
1.0
 40
1.0
 40
1.0
 40
1.0
 10
70.98228668910969
 20
500.4344273928783
 30
0.0
 10
71.7065955953122
 20
499.6880021841964
 30
0.0
 10
72.73500366060728
 20
499.2594988236567
 30
0.0
 10
73.79658617962161
 20
499.2594988236567
 30
0.0
  0
SPLINE
  5
237
330
1F
100
AcDbEntity
  8
Default
 62
   250
420
  2301728
370
   120
100
AcDbSpline
210
0.0
220
0.0
230
1.0
 70
     8
 71
     3
 72
     8
 73
     4
 74
     0
 42
0.0000000001
 43
0.0000000001
 40
0.0
 40
0.0
 40
0.0
 40
0.0
 40
1.0
 40
1.0
 40
1.0
 40
1.0
 10
72.39551841754752
 20
501.847659121316
 30
0.0
 10
72.77978917312828
 20
501.4744465169751
 30
0.0
 10
73.2663478276765
 20
501.2588125678002
 30
0.0
 10
73.79713908718367
 20
501.2588125678002
 30
0.0
  0
POLYLINE
  5
238
330
1F
100
AcDbEntity
  8
Default
 62
   250
420
  2301728
370
   120
100
AcDb2dPolyline
 66
     1
 10
0.0
 20
0.0
 30
0.0
  0
VERTEX
  5
239
330
238
100
AcDbEntity
  8
Default
 62
   250
420
  2301728
370
   120
100
AcDbVertex
100
AcDb2dVertex
 10
73.79769199474566
 20
499.2630927228094
 30
0.0
  0
VERTEX
  5
23A
330
238
100
AcDbEntity
  8
Default
 62
   250
420
  2301728
370
   120
100
AcDbVertex
100
AcDb2dVertex
 10
80.28606223465874
 20
499.2630927228094
 30
0.0
  0
SEQEND
  5
23B
330
238
100
AcDbEntity
  8
Default
 62
   250
420
  2301728
370
   120
  0
POLYLINE
  5
23C
330
1F
100
AcDbEntity
  8
Default
 62
   250
420
  2301728
370
   120
100
AcDb2dPolyline
 66
     1
 10
0.0
 20
0.0
 30
0.0
  0
VERTEX
  5
23D
330
23C
100
AcDbEntity
  8
Default
 62
   250
420
  2301728
370
   120
100
AcDbVertex
100
AcDb2dVertex
 10
73.79769199474566
 20
501.2618535593911
 30
0.0
  0
VERTEX
  5
23E
330
23C
100
AcDbEntity
  8
Default
 62
   250
420
  2301728
370
   120
100
AcDbVertex
100
AcDb2dVertex
 10
80.28606223465874
 20
501.2618535593911
 30
0.0
  0
SEQEND
  5
23F
330
23C
100
AcDbEntity
  8
Default
 62
   250
420
  2301728
370
   120
  0
SPLINE
  5
240
330
1F
100
AcDbEntity
  8
Default
 62
   250
420
  2301728
370
   120
100
AcDbSpline
210
0.0
220
0.0
230
1.0
 70
     8
 71
     3
 72
     8
 73
     4
 74
     0
 42
0.0000000001
 43
0.0000000001
 40
0.0
 40
0.0
 40
0.0
 40
0.0
 40
1.0
 40
1.0
 40
1.0
 40
1.0
 10
50.94215210490438
 20
504.2763055873423
 30
0.0
 10
47.61917765736467
 20
504.2763055873423
 30
0.0
 10
44.92651783048979
 20
501.5974684495171
 30
0.0
 10
44.92651783048979
 20
498.2827876154071
 30
0.0
  0
SPLINE
  5
241
330
1F
100
AcDbEntity
  8
Default
 62
   250
420
  2301728
370
   120
100
AcDbSpline
210
0.0
220
0.0
230
1.0
 70
     8
 71
     3
 72
     8
 73
     4
 74
     0
 42
0.0000000001
 43
0.0000000001
 40
0.0
 40
0.0
 40
0.0
 40
0.0
 40
1.0
 40
1.0
 40
1.0
 40
1.0
 10
50.94215210490438
 20
506.2852952138208
 30
0.0
 10
46.51059799558152
 20
506.2852952138208
 30
0.0
 10
42.93605060733796
 20
502.7135123633873
 30
0.0
 10
42.93605060733796
 20
498.2681355650148
 30
0.0
  0
POLYLINE
  5
242
330
1F
100
AcDbEntity
  8
Default
 62
   250
420
  2301728
370
   120
100
AcDb2dPolyline
 66
     1
 10
0.0
 20
0.0
 30
0.0
  0
VERTEX
  5
243
330
242
100
AcDbEntity
  8
Default
 62
   250
420
  2301728
370
   120
100
AcDbVertex
100
AcDb2dVertex
 10
50.94215210490438
 20
504.2763055873423
 30
0.0
  0
VERTEX
  5
244
330
242
100
AcDbEntity
  8
Default
 62
   250
420
  2301728
370
   120
100
AcDbVertex
100
AcDb2dVertex
 10
66.713840310573
 20
504.2763055873423
 30
0.0
  0
SEQEND
  5
245
330
242
100
AcDbEntity
  8
Default
 62
   250
420
  2301728
370
   120
  0
POLYLINE
  5
246
330
1F
100
AcDbEntity
  8
Default
 62
   250
420
  2301728
370
   120
100
AcDb2dPolyline
 66
     1
 10
0.0
 20
0.0
 30
0.0
  0
VERTEX
  5
247
330
246
100
AcDbEntity
  8
Default
 62
   250
420
  2301728
370
   120
100
AcDbVertex
100
AcDb2dVertex
 10
50.94215210490438
 20
506.2852952138208
 30
0.0
  0
VERTEX
  5
248
330
246
100
AcDbEntity
  8
Default
 62
   250
420
  2301728
370
   120
100
AcDbVertex
100
AcDb2dVertex
 10
67.12022736863315
 20
506.2852952138208
 30
0.0
  0
SEQEND
  5
249
330
246
100
AcDbEntity
  8
Default
 62
   250
420
  2301728
370
   120
  0
SPLINE
  5
24A
330
1F
100
AcDbEntity
  8
Default
 62
   250
420
  2301728
370
   120
100
AcDbSpline
210
0.0
220
0.0
230
1.0
 70
     8
 71
     3
 72
     8
 73
     4
 74
     0
 42
0.0000000001
 43
0.0000000001
 40
0.0
 40
0.0
 40
0.0
 40
0.0
 40
1.0
 40
1.0
 40
1.0
 40
1.0
 10
42.93743287624289
 20
480.261871447577
 30
0.0
 10
42.93743287624289
 20
479.1532917857938
 30
0.0
 10
43.83037858885132
 20
478.2603460731853
 30
0.0
 10
44.92790009939478
 20
478.2603460731853
 30
0.0
  0
POLYLINE
  5
24B
330
1F
100
AcDbEntity
  8
Default
 62
   250
420
  2301728
370
   120
100
AcDb2dPolyline
 66
     1
 10
0.0
 20
0.0
 30
0.0
  0
VERTEX
  5
24C
330
24B
100
AcDbEntity
  8
Default
 62
   250
420
  2301728
370
   120
100
AcDbVertex
100
AcDb2dVertex
 10
44.92485910780385
 20
481.2656751263639
 30
0.0
  0
VERTEX
  5
24D
330
24B
100
AcDbEntity
  8
Default
 62
   250
420
  2301728
370
   120
100
AcDbVertex
100
AcDb2dVertex
 10
44.92485910780385
 20
498.2703471952627
 30
0.0
  0
SEQEND
  5
24E
330
24B
100
AcDbEntity
  8
Default
 62
   250
420
  2301728
370
   120
  0
POLYLINE
  5
24F
330
1F
100
AcDbEntity
  8
Default
 62
   250
420
  2301728
370
   120
100
AcDb2dPolyline
 66
     1
 10
0.0
 20
0.0
 30
0.0
  0
VERTEX
  5
250
330
24F
100
AcDbEntity
  8
Default
 62
   250
420
  2301728
370
   120
100
AcDbVertex
100
AcDb2dVertex
 10
42.93743287624289
 20
480.261871447577
 30
0.0
  0
VERTEX
  5
251
330
24F
100
AcDbEntity
  8
Default
 62
   250
420
  2301728
370
   120
100
AcDbVertex
100
AcDb2dVertex
 10
42.93743287624289
 20
498.2838934305311
 30
0.0
  0
SEQEND
  5
252
330
24F
100
AcDbEntity
  8
Default
 62
   250
420
  2301728
370
   120
  0
SPLINE
  5
253
330
1F
100
AcDbEntity
  8
Default
 62
   250
420
  2301728
370
   120
100
AcDbSpline
210
0.0
220
0.0
230
1.0
 70
     8
 71
     3
 72
     8
 73
     4
 74
     0
 42
0.0000000001
 43
0.0000000001
 40
0.0
 40
0.0
 40
0.0
 40
0.0
 40
1.0
 40
1.0
 40
1.0
 40
1.0
 10
44.92485910780385
 20
481.2656751263639
 30
0.0
 10
44.92485910780385
 20
480.7127675643772
 30
0.0
 10
45.38930145987263
 20
480.2704415147878
 30
0.0
 10
45.94220902185918
 20
480.2704415147878
 30
0.0
  0
POLYLINE
  5
254
330
1F
100
AcDbEntity
  8
Default
 62
   250
420
  2301728
370
   120
100
AcDb2dPolyline
 66
     1
 10
0.0
 20
0.0
 30
0.0
  0
VERTEX
  5
255
330
254
100
AcDbEntity
  8
Default
 62
   250
420
  2301728
370
   120
100
AcDbVertex
100
AcDb2dVertex
 10
45.94137966051625
 20
480.261871447577
 30
0.0
  0
VERTEX
  5
256
330
254
100
AcDbEntity
  8
Default
 62
   250
420
  2301728
370
   120
100
AcDbVertex
100
AcDb2dVertex
 10
50.9396640208754
 20
480.261871447577
 30
0.0
  0
SEQEND
  5
257
330
254
100
AcDbEntity
  8
Default
 62
   250
420
  2301728
370
   120
  0
POLYLINE
  5
258
330
1F
100
AcDbEntity
  8
Default
 62
   250
420
  2301728
370
   120
100
AcDb2dPolyline
 66
     1
 10
0.0
 20
0.0
 30
0.0
  0
VERTEX
  5
259
330
258
100
AcDbEntity
  8
Default
 62
   250
420
  2301728
370
   120
100
AcDbVertex
100
AcDb2dVertex
 10
44.92485910780385
 20
478.2628341572144
 30
0.0
  0
VERTEX
  5
25A
330
258
100
AcDbEntity
  8
Default
 62
   250
420
  2301728
370
   120
100
AcDbVertex
100
AcDb2dVertex
 10
50.94049338221828
 20
478.2628341572144
 30
0.0
  0
SEQEND
  5
25B
330
258
100
AcDbEntity
  8
Default
 62
   250
420
  2301728
370
   120
  0
POLYLINE
  5
25C
330
1F
100
AcDbEntity
  8
Default
 62
   250
420
  2301728
370
   120
100
AcDb2dPolyline
 66
     1
 10
0.0
 20
0.0
 30
0.0
  0
VERTEX
  5
25D
330
25C
100
AcDbEntity
  8
Default
 62
   250
420
  2301728
370
   120
100
AcDbVertex
100
AcDb2dVertex
 10
1713.44092025938
 20
498.8990030932413
 30
0.0
  0
VERTEX
  5
25E
330
25C
100
AcDbEntity
  8
Default
 62
   250
420
  2301728
370
   120
100
AcDbVertex
100
AcDb2dVertex
 10
1695.949689535933
 20
498.8990030932413
 30
0.0
  0
SEQEND
  5
25F
330
25C
100
AcDbEntity
  8
Default
 62
   250
420
  2301728
370
   120
  0
POLYLINE
  5
260
330
1F
100
AcDbEntity
  8
Default
 62
   250
420
  2301728
370
   120
100
AcDb2dPolyline
 66
     1
 10
0.0
 20
0.0
 30
0.0
  0
VERTEX
  5
261
330
260
100
AcDbEntity
  8
Default
 62
   250
420
  2301728
370
   120
100
AcDbVertex
100
AcDb2dVertex
 10
1713.44092025938
 20
500.9193273247404
 30
0.0
  0
VERTEX
  5
262
330
260
100
AcDbEntity
  8
Default
 62
   250
420
  2301728
370
   120
100
AcDbVertex
100
AcDb2dVertex
 10
1695.949689535933
 20
500.9193273247404
 30
0.0
  0
SEQEND
  5
263
330
260
100
AcDbEntity
  8
Default
 62
   250
420
  2301728
370
   120
  0
SPLINE
  5
264
330
1F
100
AcDbEntity
  8
Default
 62
   250
420
  2301728
370
   120
100
AcDbSpline
210
0.0
220
0.0
230
1.0
 70
     8
 71
     3
 72
     8
 73
     4
 74
     0
 42
0.0000000001
 43
0.0000000001
 40
0.0
 40
0.0
 40
0.0
 40
0.0
 40
1.0
 40
1.0
 40
1.0
 40
1.0
 10
1713.44092025938
 20
498.8990030932413
 30
0.0
 10
1714.502502778394
 20
498.8990030932413
 30
0.0
 10
1715.51985269245
 20
499.3275064537809
 30
0.0
 10
1716.277336052371
 20
500.0739316624629
 30
0.0
  0
SPLINE
  5
265
330
1F
100
AcDbEntity
  8
Default
 62
   250
420
  2301728
370
   120
100
AcDbSpline
210
0.0
220
0.0
230
1.0
 70
     8
 71
     3
 72
     8
 73
     4
 74
     0
 42
0.0000000001
 43
0.0000000001
 40
0.0
 40
0.0
 40
0.0
 40
0.0
 40
1.0
 40
1.0
 40
1.0
 40
1.0
 10
1713.44092025938
 20
500.9193273247404
 30
0.0
 10
1713.971711518887
 20
500.9193273247404
 30
0.0
 10
1714.480386475915
 20
501.1239031226756
 30
0.0
 10
1714.842540929016
 20
501.4971157270165
 30
0.0
  0
POLYLINE
  5
266
330
1F
100
AcDbEntity
  8
Default
 62
   250
420
  2301728
370
   120
100
AcDb2dPolyline
 66
     1
 10
0.0
 20
0.0
 30
0.0
  0
VERTEX
  5
267
330
266
100
AcDbEntity
  8
Default
 62
   250
420
  2301728
370
   120
100
AcDbVertex
100
AcDb2dVertex
 10
1719.812074096152
 20
503.6136458743013
 30
0.0
  0
VERTEX
  5
268
330
266
100
AcDbEntity
  8
Default
 62
   250
420
  2301728
370
   120
100
AcDbVertex
100
AcDb2dVertex
 10
1716.284523850678
 20
500.0750374775874
 30
0.0
  0
SEQEND
  5
269
330
266
100
AcDbEntity
  8
Default
 62
   250
420
  2301728
370
   120
  0
POLYLINE
  5
26A
330
1F
100
AcDbEntity
  8
Default
 62
   250
420
  2301728
370
   120
100
AcDb2dPolyline
 66
     1
 10
0.0
 20
0.0
 30
0.0
  0
VERTEX
  5
26B
330
26A
100
AcDbEntity
  8
Default
 62
   250
420
  2301728
370
   120
100
AcDbVertex
100
AcDb2dVertex
 10
1718.697135997405
 20
505.3251712324307
 30
0.0
  0
VERTEX
  5
26C
330
26A
100
AcDbEntity
  8
Default
 62
   250
420
  2301728
370
   120
100
AcDbVertex
100
AcDb2dVertex
 10
1714.840605752548
 20
501.4935218278635
 30
0.0
  0
SEQEND
  5
26D
330
26A
100
AcDbEntity
  8
Default
 62
   250
420
  2301728
370
   120
  0
SPLINE
  5
26E
330
1F
100
AcDbEntity
  8
Default
 62
   250
420
  2301728
370
   120
100
AcDbSpline
210
0.0
220
0.0
230
1.0
 70
     8
 71
     3
 72
     8
 73
     4
 74
     0
 42
0.0000000001
 43
0.0000000001
 40
0.0
 40
0.0
 40
0.0
 40
0.0
 40
1.0
 40
1.0
 40
1.0
 40
1.0
 10
1720.110644179625
 20
505.9098709792318
 30
0.0
 10
1719.579852920118
 20
505.9098709792318
 30
0.0
 10
1719.07117796309
 20
505.6942370300571
 30
0.0
 10
1718.697965358749
 20
505.3210244257161
 30
0.0
  0
SPLINE
  5
26F
330
1F
100
AcDbEntity
  8
Default
 62
   250
420
  2301728
370
   120
100
AcDbSpline
210
0.0
220
0.0
230
1.0
 70
     8
 71
     3
 72
     8
 73
     4
 74
     0
 42
0.0000000001
 43
0.0000000001
 40
0.0
 40
0.0
 40
0.0
 40
0.0
 40
1.0
 40
1.0
 40
1.0
 40
1.0
 10
1742.391713112562
 20
497.9051517505704
 30
0.0
 10
1742.391713112562
 20
501.2281261981099
 30
0.0
 10
1739.701817823497
 20
503.9097278737452
 30
0.0
 10
1736.398195140627
 20
503.9097278737452
 30
0.0
  0
SPLINE
  5
270
330
1F
100
AcDbEntity
  8
Default
 62
   250
420
  2301728
370
   120
100
AcDbSpline
210
0.0
220
0.0
230
1.0
 70
     8
 71
     3
 72
     8
 73
     4
 74
     0
 42
0.0000000001
 43
0.0000000001
 40
0.0
 40
0.0
 40
0.0
 40
0.0
 40
1.0
 40
1.0
 40
1.0
 40
1.0
 10
1744.40070273904
 20
497.9051517505704
 30
0.0
 10
1744.40070273904
 20
502.3256477086533
 30
0.0
 10
1740.804039048317
 20
505.9084887103267
 30
0.0
 10
1736.394601241474
 20
505.9084887103267
 30
0.0
  0
SPLINE
  5
271
330
1F
100
AcDbEntity
  8
Default
 62
   250
420
  2301728
370
   120
100
AcDbSpline
210
0.0
220
0.0
230
1.0
 70
     8
 71
     3
 72
     8
 73
     4
 74
     0
 42
0.0000000001
 43
0.0000000001
 40
0.0
 40
0.0
 40
0.0
 40
0.0
 40
1.0
 40
1.0
 40
1.0
 40
1.0
 10
1720.50735535535
 20
503.9119395039931
 30
0.0
 10
1720.258546952456
 20
503.9119395039931
 30
0.0
 10
1719.998680398322
 20
503.8096516050256
 30
0.0
 10
1719.805162751627
 20
503.6188984961402
 30
0.0
  0
POLYLINE
  5
272
330
1F
100
AcDbEntity
  8
Default
 62
   250
420
  2301728
370
   120
100
AcDb2dPolyline
 66
     1
 10
0.0
 20
0.0
 30
0.0
  0
VERTEX
  5
273
330
272
100
AcDbEntity
  8
Default
 62
   250
420
  2301728
370
   120
100
AcDbVertex
100
AcDb2dVertex
 10
1720.50735535535
 20
503.9119395039931
 30
0.0
  0
VERTEX
  5
274
330
272
100
AcDbEntity
  8
Default
 62
   250
420
  2301728
370
   120
100
AcDbVertex
100
AcDb2dVertex
 10
1736.392389611226
 20
503.9119395039931
 30
0.0
  0
SEQEND
  5
275
330
272
100
AcDbEntity
  8
Default
 62
   250
420
  2301728
370
   120
  0
POLYLINE
  5
276
330
1F
100
AcDbEntity
  8
Default
 62
   250
420
  2301728
370
   120
100
AcDb2dPolyline
 66
     1
 10
0.0
 20
0.0
 30
0.0
  0
VERTEX
  5
277
330
276
100
AcDbEntity
  8
Default
 62
   250
420
  2301728
370
   120
100
AcDbVertex
100
AcDb2dVertex
 10
1720.110644179625
 20
505.9098709792318
 30
0.0
  0
VERTEX
  5
278
330
276
100
AcDbEntity
  8
Default
 62
   250
420
  2301728
370
   120
100
AcDbVertex
100
AcDb2dVertex
 10
1736.379949191081
 20
505.9098709792318
 30
0.0
  0
SEQEND
  5
279
330
276
100
AcDbEntity
  8
Default
 62
   250
420
  2301728
370
   120
  0
SPLINE
  5
27A
330
1F
100
AcDbEntity
  8
Default
 62
   250
420
  2301728
370
   120
100
AcDbSpline
210
0.0
220
0.0
230
1.0
 70
     8
 71
     3
 72
     8
 73
     4
 74
     0
 42
0.0000000001
 43
0.0000000001
 40
0.0
 40
0.0
 40
0.0
 40
0.0
 40
1.0
 40
1.0
 40
1.0
 40
1.0
 10
1742.391713112562
 20
477.4351315369204
 30
0.0
 10
1743.500292774345
 20
477.4351315369204
 30
0.0
 10
1744.404296638193
 20
478.3391354007685
 30
0.0
 10
1744.404296638193
 20
479.4366569113119
 30
0.0
  0
POLYLINE
  5
27B
330
1F
100
AcDbEntity
  8
Default
 62
   250
420
  2301728
370
   120
100
AcDb2dPolyline
 66
     1
 10
0.0
 20
0.0
 30
0.0
  0
VERTEX
  5
27C
330
27B
100
AcDbEntity
  8
Default
 62
   250
420
  2301728
370
   120
100
AcDbVertex
100
AcDb2dVertex
 10
1741.38652716487
 20
479.4330630121592
 30
0.0
  0
VERTEX
  5
27D
330
27B
100
AcDbEntity
  8
Default
 62
   250
420
  2301728
370
   120
100
AcDbVertex
100
AcDb2dVertex
 10
1736.399300955751
 20
479.4330630121592
 30
0.0
  0
SEQEND
  5
27E
330
27B
100
AcDbEntity
  8
Default
 62
   250
420
  2301728
370
   120
  0
POLYLINE
  5
27F
330
1F
100
AcDbEntity
  8
Default
 62
   250
420
  2301728
370
   120
100
AcDb2dPolyline
 66
     1
 10
0.0
 20
0.0
 30
0.0
  0
VERTEX
  5
280
330
27F
100
AcDbEntity
  8
Default
 62
   250
420
  2301728
370
   120
100
AcDbVertex
100
AcDb2dVertex
 10
1742.391713112562
 20
477.4351315369204
 30
0.0
  0
VERTEX
  5
281
330
27F
100
AcDbEntity
  8
Default
 62
   250
420
  2301728
370
   120
100
AcDbVertex
100
AcDb2dVertex
 10
1736.398195140627
 20
477.4351315369204
 30
0.0
  0
SEQEND
  5
282
330
27F
100
AcDbEntity
  8
Default
 62
   250
420
  2301728
370
   120
  0
SPLINE
  5
283
330
1F
100
AcDbEntity
  8
Default
 62
   250
420
  2301728
370
   120
100
AcDbSpline
210
0.0
220
0.0
230
1.0
 70
     8
 71
     3
 72
     8
 73
     4
 74
     0
 42
0.0000000001
 43
0.0000000001
 40
0.0
 40
0.0
 40
0.0
 40
0.0
 40
1.0
 40
1.0
 40
1.0
 40
1.0
 10
1741.38652716487
 20
479.4330630121592
 30
0.0
 10
1741.964315567146
 20
479.4330630121592
 30
0.0
 10
1742.392818927686
 20
479.8864472129882
 30
0.0
 10
1742.392818927686
 20
480.4282966237351
 30
0.0
  0
POLYLINE
  5
284
330
1F
100
AcDbEntity
  8
Default
 62
   250
420
  2301728
370
   120
100
AcDb2dPolyline
 66
     1
 10
0.0
 20
0.0
 30
0.0
  0
VERTEX
  5
285
330
284
100
AcDbEntity
  8
Default
 62
   250
420
  2301728
370
   120
100
AcDbVertex
100
AcDb2dVertex
 10
1742.391713112562
 20
497.9051517505704
 30
0.0
  0
VERTEX
  5
286
330
284
100
AcDbEntity
  8
Default
 62
   250
420
  2301728
370
   120
100
AcDbVertex
100
AcDb2dVertex
 10
1742.391713112562
 20
480.4360373296027
 30
0.0
  0
SEQEND
  5
287
330
284
100
AcDbEntity
  8
Default
 62
   250
420
  2301728
370
   120
  0
POLYLINE
  5
288
330
1F
100
AcDbEntity
  8
Default
 62
   250
420
  2301728
370
   120
100
AcDb2dPolyline
 66
     1
 10
0.0
 20
0.0
 30
0.0
  0
VERTEX
  5
289
330
288
100
AcDbEntity
  8
Default
 62
   250
420
  2301728
370
   120
100
AcDbVertex
100
AcDb2dVertex
 10
1744.40070273904
 20
497.9051517505704
 30
0.0
  0
VERTEX
  5
28A
330
288
100
AcDbEntity
  8
Default
 62
   250
420
  2301728
370
   120
100
AcDbVertex
100
AcDb2dVertex
 10
1744.40070273904
 20
479.440803718027
 30
0.0
  0
SEQEND
  5
28B
330
288
100
AcDbEntity
  8
Default
 62
   250
420
  2301728
370
   120
  0
SPLINE
  5
28C
330
1F
100
AcDbEntity
  8
Default
 62
   250
420
  2301728
370
   120
100
AcDbSpline
210
0.0
220
0.0
230
1.0
 70
     8
 71
     3
 72
     8
 73
     4
 74
     0
 42
0.0000000001
 43
0.0000000001
 40
0.0
 40
0.0
 40
0.0
 40
0.0
 40
1.0
 40
1.0
 40
1.0
 40
1.0
 10
1695.9516247124
 20
498.8990030932413
 30
0.0
 10
1689.947048589225
 20
498.8990030932413
 30
0.0
 10
1684.351624061921
 20
495.9133022585136
 30
0.0
 10
1681.003768774091
 20
490.9288405872042
 30
0.0
  0
SPLINE
  5
28D
330
1F
100
AcDbEntity
  8
Default
 62
   250
420
  2301728
370
   120
100
AcDbSpline
210
0.0
220
0.0
230
1.0
 70
     8
 71
     3
 72
     8
 73
     4
 74
     0
 42
0.0000000001
 43
0.0000000001
 40
0.0
 40
0.0
 40
0.0
 40
0.0
 40
1.0
 40
1.0
 40
1.0
 40
1.0
 10
1695.9516247124
 20
500.9193273247404
 30
0.0
 10
1689.280794977031
 20
500.9193273247404
 30
0.0
 10
1683.052291291252
 20
497.5963528772008
 30
0.0
 10
1679.342281550322
 20
492.0672772573346
 30
0.0
  0
SPLINE
  5
28E
330
1F
100
AcDbEntity
  8
Default
 62
   250
420
  2301728
370
   120
100
AcDbSpline
210
0.0
220
0.0
230
1.0
 70
     8
 71
     3
 72
     8
 73
     4
 74
     0
 42
0.0000000001
 43
0.0000000001
 40
0.0
 40
0.0
 40
0.0
 40
0.0
 40
1.0
 40
1.0
 40
1.0
 40
1.0
 10
1541.838870598524
 20
237.730075197266
 30
0.0
 10
1589.800837063054
 20
321.3518148721238
 30
0.0
 10
1636.222955967451
 20
405.830561268061
 30
0.0
 10
1681.107991849526
 20
491.1137881666886
 30
0.0
  0
SPLINE
  5
28F
330
1F
100
AcDbEntity
  8
Default
 62
   250
420
  2301728
370
   120
100
AcDbSpline
210
0.0
220
0.0
230
1.0
 70
     8
 71
     3
 72
     8
 73
     4
 74
     0
 42
0.0000000001
 43
0.0000000001
 40
0.0
 40
0.0
 40
0.0
 40
0.0
 40
1.0
 40
1.0
 40
1.0
 40
1.0
 10
1540.105505391696
 20
238.7352611449577
 30
0.0
 10
1588.056413704986
 20
322.3459426685758
 30
0.0
 10
1634.456416306904
 20
406.7915146107937
 30
0.0
 10
1679.330394037739
 20
492.0609188203717
 30
0.0
  0
POLYLINE
  5
290
330
1F
100
AcDbEntity
  8
Default
 62
   250
420
  2301728
370
   120
100
AcDb2dPolyline
 66
     1
 10
0.0
 20
0.0
 30
0.0
  0
VERTEX
  5
291
330
290
100
AcDbEntity
  8
Default
 62
   250
420
  2301728
370
   120
100
AcDbVertex
100
AcDb2dVertex
 10
119.6635858917845
 20
320.0088024040585
 30
0.0
  0
VERTEX
  5
292
330
290
100
AcDbEntity
  8
Default
 62
   250
420
  2301728
370
   120
100
AcDbVertex
100
AcDb2dVertex
 10
123.9265031947015
 20
247.4894465738921
 30
0.0
  0
SEQEND
  5
293
330
290
100
AcDbEntity
  8
Default
 62
   250
420
  2301728
370
   120
  0
POLYLINE
  5
294
330
1F
100
AcDbEntity
  8
Default
 62
   250
420
  2301728
370
   120
100
AcDb2dPolyline
 66
     1
 10
0.0
 20
0.0
 30
0.0
  0
VERTEX
  5
295
330
294
100
AcDbEntity
  8
Default
 62
   250
420
  2301728
370
   120
100
AcDbVertex
100
AcDb2dVertex
 10
121.6499063082215
 20
320.1307185214765
 30
0.0
  0
VERTEX
  5
296
330
294
100
AcDbEntity
  8
Default
 62
   250
420
  2301728
370
   120
100
AcDbVertex
100
AcDb2dVertex
 10
125.9128236111384
 20
247.6003045400705
 30
0.0
  0
SEQEND
  5
297
330
294
100
AcDbEntity
  8
Default
 62
   250
420
  2301728
370
   120
  0
POLYLINE
  5
298
330
1F
100
AcDbEntity
  8
Default
 62
   250
420
  2301728
370
   120
100
AcDb2dPolyline
 66
     1
 10
0.0
 20
0.0
 30
0.0
  0
VERTEX
  5
299
330
298
100
AcDbEntity
  8
Default
 62
   250
420
  2301728
370
   120
100
AcDbVertex
100
AcDb2dVertex
 10
96.80804600194318
 20
500.9193273247404
 30
0.0
  0
VERTEX
  5
29A
330
298
100
AcDbEntity
  8
Default
 62
   250
420
  2301728
370
   120
100
AcDbVertex
100
AcDb2dVertex
 10
787.3923554610531
 20
500.9193273247404
 30
0.0
  0
SEQEND
  5
29B
330
298
100
AcDbEntity
  8
Default
 62
   250
420
  2301728
370
   120
  0
SPLINE
  5
29C
330
1F
100
AcDbEntity
  8
Default
 62
   250
420
  2301728
370
   120
100
AcDbSpline
210
0.0
220
0.0
230
1.0
 70
     8
 71
     3
 72
     8
 73
     4
 74
     0
 42
0.0000000001
 43
0.0000000001
 40
0.0
 40
0.0
 40
0.0
 40
0.0
 40
1.0
 40
1.0
 40
1.0
 40
1.0
 10
111.0503918911568
 20
482.2935302840969
 30
0.0
 10
110.4864261779304
 20
491.8367148039862
 30
0.0
 10
102.5936707305713
 20
499.2539697480367
 30
0.0
 10
93.0504862106821
 20
499.2539697480367
 30
0.0
  0
SPLINE
  5
29D
330
1F
100
AcDbEntity
  8
Default
 62
   250
420
  2301728
370
   120
100
AcDbSpline
210
0.0
220
0.0
230
1.0
 70
     8
 71
     3
 72
     8
 73
     4
 74
     0
 42
0.0000000001
 43
0.0000000001
 40
0.0
 40
0.0
 40
0.0
 40
0.0
 40
1.0
 40
1.0
 40
1.0
 40
1.0
 10
113.0380945764987
 20
482.4256751914117
 30
0.0
 10
112.405015418024
 20
493.0083259278358
 30
0.0
 10
103.6552532495856
 20
501.2604712904862
 30
0.0
 10
93.04772167287217
 20
501.2604712904862
 30
0.0
  0
POLYLINE
  5
29E
330
1F
100
AcDbEntity
  8
Default
 62
   250
420
  2301728
370
   120
100
AcDb2dPolyline
 66
     1
 10
0.0
 20
0.0
 30
0.0
  0
VERTEX
  5
29F
330
29E
100
AcDbEntity
  8
Default
 62
   250
420
  2301728
370
   120
100
AcDbVertex
100
AcDb2dVertex
 10
80.28965613381166
 20
499.2630927228094
 30
0.0
  0
VERTEX
  5
2A0
330
29E
100
AcDbEntity
  8
Default
 62
   250
420
  2301728
370
   120
100
AcDbVertex
100
AcDb2dVertex
 10
93.05352720227296
 20
499.2630927228094
 30
0.0
  0
SEQEND
  5
2A1
330
29E
100
AcDbEntity
  8
Default
 62
   250
420
  2301728
370
   120
  0
POLYLINE
  5
2A2
330
1F
100
AcDbEntity
  8
Default
 62
   250
420
  2301728
370
   120
100
AcDb2dPolyline
 66
     1
 10
0.0
 20
0.0
 30
0.0
  0
VERTEX
  5
2A3
330
2A2
100
AcDbEntity
  8
Default
 62
   250
420
  2301728
370
   120
100
AcDbVertex
100
AcDb2dVertex
 10
80.28965613381166
 20
501.2618535593911
 30
0.0
  0
VERTEX
  5
2A4
330
2A2
100
AcDbEntity
  8
Default
 62
   250
420
  2301728
370
   120
100
AcDbVertex
100
AcDb2dVertex
 10
93.05352720227296
 20
501.2618535593911
 30
0.0
  0
SEQEND
  5
2A5
330
2A2
100
AcDbEntity
  8
Default
 62
   250
420
  2301728
370
   120
  0
POLYLINE
  5
2A6
330
1F
100
AcDbEntity
  8
Default
 62
   250
420
  2301728
370
   120
100
AcDb2dPolyline
 66
     1
 10
0.0
 20
0.0
 30
0.0
  0
VERTEX
  5
2A7
330
2A6
100
AcDbEntity
  8
Default
 62
   250
420
  2301728
370
   120
100
AcDbVertex
100
AcDb2dVertex
 10
239.9569196154055
 20
125.0660364677177
 30
0.0
  0
VERTEX
  5
2A8
330
2A6
100
AcDbEntity
  8
Default
 62
   250
420
  2301728
370
   120
100
AcDbVertex
100
AcDb2dVertex
 10
288.8339480950236
 20
124.1730907551092
 30
0.0
  0
SEQEND
  5
2A9
330
2A6
100
AcDbEntity
  8
Default
 62
   250
420
  2301728
370
   120
  0
POLYLINE
  5
2AA
330
1F
100
AcDbEntity
  8
Default
 62
   250
420
  2301728
370
   120
100
AcDb2dPolyline
 66
     1
 10
0.0
 20
0.0
 30
0.0
  0
VERTEX
  5
2AB
330
2AA
100
AcDbEntity
  8
Default
 62
   250
420
  2301728
370
   120
100
AcDbVertex
100
AcDb2dVertex
 10
240.0011522203646
 20
127.075026094196
 30
0.0
  0
VERTEX
  5
2AC
330
2AA
100
AcDbEntity
  8
Default
 62
   250
420
  2301728
370
   120
100
AcDbVertex
100
AcDb2dVertex
 10
289.3868556570104
 20
126.1599640791082
 30
0.0
  0
SEQEND
  5
2AD
330
2AA
100
AcDbEntity
  8
Default
 62
   250
420
  2301728
370
   120
  0
POLYLINE
  5
2AE
330
1F
100
AcDbEntity
  8
Default
 62
   250
420
  2301728
370
   120
100
AcDb2dPolyline
 66
     1
 10
0.0
 20
0.0
 30
0.0
  0
VERTEX
  5
2AF
330
2AE
100
AcDbEntity
  8
Default
 62
   250
420
  2301728
370
   120
100
AcDbVertex
100
AcDb2dVertex
 10
359.9420073732189
 20
124.1816608223199
 30
0.0
  0
VERTEX
  5
2B0
330
2AE
100
AcDbEntity
  8
Default
 62
   250
420
  2301728
370
   120
100
AcDbVertex
100
AcDb2dVertex
 10
787.441840687851
 20
127.7423855215139
 30
0.0
  0
SEQEND
  5
2B1
330
2AE
100
AcDbEntity
  8
Default
 62
   250
420
  2301728
370
   120
  0
POLYLINE
  5
2B2
330
1F
100
AcDbEntity
  8
Default
 62
   250
420
  2301728
370
   120
100
AcDb2dPolyline
 66
     1
 10
0.0
 20
0.0
 30
0.0
  0
VERTEX
  5
2B3
330
2B2
100
AcDbEntity
  8
Default
 62
   250
420
  2301728
370
   120
100
AcDbVertex
100
AcDb2dVertex
 10
359.3573076264179
 20
126.1580289026411
 30
0.0
  0
VERTEX
  5
2B4
330
2B2
100
AcDbEntity
  8
Default
 62
   250
420
  2301728
370
   120
100
AcDbVertex
100
AcDb2dVertex
 10
787.3879322005573
 20
129.7546925933641
 30
0.0
  0
SEQEND
  5
2B5
330
2B2
100
AcDbEntity
  8
Default
 62
   250
420
  2301728
370
   120
  0
POLYLINE
  5
2B6
330
1F
100
AcDbEntity
  8
Default
 62
   250
420
  2301728
370
   120
100
AcDb2dPolyline
 66
     1
 10
0.0
 20
0.0
 30
0.0
  0
VERTEX
  5
2B7
330
2B6
100
AcDbEntity
  8
Default
 62
   250
420
  2301728
370
   120
100
AcDbVertex
100
AcDb2dVertex
 10
114.9928992619024
 20
407.9089407935688
 30
0.0
  0
VERTEX
  5
2B8
330
2B6
100
AcDbEntity
  8
Default
 62
   250
420
  2301728
370
   120
100
AcDbVertex
100
AcDb2dVertex
 10
119.6622036228795
 20
320.0270483536039
 30
0.0
  0
SEQEND
  5
2B9
330
2B6
100
AcDbEntity
  8
Default
 62
   250
420
  2301728
370
   120
  0
POLYLINE
  5
2BA
330
1F
100
AcDbEntity
  8
Default
 62
   250
420
  2301728
370
   120
100
AcDb2dPolyline
 66
     1
 10
0.0
 20
0.0
 30
0.0
  0
VERTEX
  5
2BB
330
2BA
100
AcDbEntity
  8
Default
 62
   250
420
  2301728
370
   120
100
AcDbVertex
100
AcDb2dVertex
 10
111.0288284962394
 20
482.3150936790145
 30
0.0
  0
VERTEX
  5
2BC
330
2BA
100
AcDbEntity
  8
Default
 62
   250
420
  2301728
370
   120
100
AcDbVertex
100
AcDb2dVertex
 10
112.2286379057504
 20
459.7039389315714
 30
0.0
  0
SEQEND
  5
2BD
330
2BA
100
AcDbEntity
  8
Default
 62
   250
420
  2301728
370
   120
  0
POLYLINE
  5
2BE
330
1F
100
AcDbEntity
  8
Default
 62
   250
420
  2301728
370
   120
100
AcDb2dPolyline
 66
     1
 10
0.0
 20
0.0
 30
0.0
  0
VERTEX
  5
2BF
330
2BE
100
AcDbEntity
  8
Default
 62
   250
420
  2301728
370
   120
100
AcDbVertex
100
AcDb2dVertex
 10
117.0018888883808
 20
407.6546033150547
 30
0.0
  0
VERTEX
  5
2C0
330
2BE
100
AcDbEntity
  8
Default
 62
   250
420
  2301728
370
   120
100
AcDbVertex
100
AcDb2dVertex
 10
121.6490769468784
 20
320.1321007903813
 30
0.0
  0
SEQEND
  5
2C1
330
2BE
100
AcDbEntity
  8
Default
 62
   250
420
  2301728
370
   120
  0
POLYLINE
  5
2C2
330
1F
100
AcDbEntity
  8
Default
 62
   250
420
  2301728
370
   120
100
AcDb2dPolyline
 66
     1
 10
0.0
 20
0.0
 30
0.0
  0
VERTEX
  5
2C3
330
2C2
100
AcDbEntity
  8
Default
 62
   250
420
  2301728
370
   120
100
AcDbVertex
100
AcDb2dVertex
 10
113.0380945764988
 20
482.4256751914118
 30
0.0
  0
VERTEX
  5
2C4
330
2C2
100
AcDbEntity
  8
Default
 62
   250
420
  2301728
370
   120
100
AcDbVertex
100
AcDb2dVertex
 10
114.2489621372495
 20
459.7122325450011
 30
0.0
  0
SEQEND
  5
2C5
330
2C2
100
AcDbEntity
  8
Default
 62
   250
420
  2301728
370
   120
  0
POLYLINE
  5
2C6
330
1F
100
AcDbEntity
  8
Default
 62
   250
420
  2301728
370
   120
100
AcDb2dPolyline
 66
     1
 10
0.0
 20
0.0
 30
0.0
  0
VERTEX
  5
2C7
330
2C6
100
AcDbEntity
  8
Default
 62
   250
420
  2301728
370
   120
100
AcDbVertex
100
AcDb2dVertex
 10
894.6464701503432
 20
128.7868279061064
 30
0.0
  0
VERTEX
  5
2C8
330
2C6
100
AcDbEntity
  8
Default
 62
   250
420
  2301728
370
   120
100
AcDbVertex
100
AcDb2dVertex
 10
1369.09921362888
 20
134.1223858792774
 30
0.0
  0
SEQEND
  5
2C9
330
2C6
100
AcDbEntity
  8
Default
 62
   250
420
  2301728
370
   120
  0
POLYLINE
  5
2CA
330
1F
100
AcDbEntity
  8
Default
 62
   250
420
  2301728
370
   120
100
AcDb2dPolyline
 66
     1
 10
0.0
 20
0.0
 30
0.0
  0
VERTEX
  5
2CB
330
2CA
100
AcDbEntity
  8
Default
 62
   250
420
  2301728
370
   120
100
AcDbVertex
100
AcDb2dVertex
 10
894.6351355453226
 20
130.7844829275642
 30
0.0
  0
VERTEX
  5
2CC
330
2CA
100
AcDbEntity
  8
Default
 62
   250
420
  2301728
370
   120
100
AcDbVertex
100
AcDb2dVertex
 10
1369.076820872619
 20
136.1449217410246
 30
0.0
  0
SEQEND
  5
2CD
330
2CA
100
AcDbEntity
  8
Default
 62
   250
420
  2301728
370
   120
  0
SPLINE
  5
2CE
330
1F
100
AcDbEntity
  8
Default
 62
   250
420
  2301728
370
   120
100
AcDbSpline
210
0.0
220
0.0
230
1.0
 70
     8
 71
     3
 72
     8
 73
     4
 74
     0
 42
0.0000000001
 43
0.0000000001
 40
0.0
 40
0.0
 40
0.0
 40
0.0
 40
1.0
 40
1.0
 40
1.0
 40
1.0
 10
1369.109165964996
 20
134.1187919801246
 30
0.0
 10
1441.017558939167
 20
135.5093544985209
 30
0.0
 10
1506.796971588716
 20
174.956544508457
 30
0.0
 10
1541.856840094288
 20
237.7640790123282
 30
0.0
  0
SPLINE
  5
2CF
330
1F
100
AcDbEntity
  8
Default
 62
   250
420
  2301728
370
   120
100
AcDbSpline
210
0.0
220
0.0
230
1.0
 70
     8
 71
     3
 72
     8
 73
     4
 74
     0
 42
0.0000000001
 43
0.0000000001
 40
0.0
 40
0.0
 40
0.0
 40
0.0
 40
1.0
 40
1.0
 40
1.0
 40
1.0
 10
1369.076544418839
 20
136.129163875508
 30
0.0
 10
1440.260628486807
 20
137.5086682426647
 30
0.0
 10
1505.384845675403
 20
176.5605293457803
 30
0.0
 10
1540.104676030353
 20
238.7322201533669
 30
0.0
  0
SPLINE
  5
2D0
330
1F
100
AcDbEntity
  8
Default
 62
   250
420
  2301728
370
   120
100
AcDbSpline
210
0.0
220
0.0
230
1.0
 70
     8
 71
     3
 72
     8
 73
     4
 74
     0
 42
0.0000000001
 43
0.0000000001
 40
0.0
 40
0.0
 40
0.0
 40
0.0
 40
1.0
 40
1.0
 40
1.0
 40
1.0
 10
123.9475136820569
 20
247.3686362715979
 30
0.0
 10
131.511289130034
 20
186.1230656303391
 30
0.0
 10
177.742654925546
 20
136.748420344933
 30
0.0
 10
238.3883208620495
 20
125.2037104506522
 30
0.0
  0
SPLINE
  5
2D1
330
1F
100
AcDbEntity
  8
Default
 62
   250
420
  2301728
370
   120
100
AcDbSpline
210
0.0
220
0.0
230
1.0
 70
     8
 71
     3
 72
     8
 73
     4
 74
     0
 42
0.0000000001
 43
0.0000000001
 40
0.0
 40
0.0
 40
0.0
 40
0.0
 40
1.0
 40
1.0
 40
1.0
 40
1.0
 10
125.9122707035764
 20
247.6014103551943
 30
0.0
 10
133.373758252586
 20
187.3953059304703
 30
0.0
 10
178.7232364867293
 20
138.8251411477547
 30
0.0
 10
238.2741454504992
 20
127.236198648515
 30
0.0
  0
POLYLINE
  5
2D2
330
1F
100
AcDbEntity
  8
Default
 62
   250
420
  2301728
370
   120
100
AcDb2dPolyline
 66
     1
 10
0.0
 20
0.0
 30
0.0
  0
VERTEX
  5
2D3
330
2D2
100
AcDbEntity
  8
Default
 62
   250
420
  2301728
370
   120
100
AcDbVertex
100
AcDb2dVertex
 10
1739.940673890275
 20
1726.33747993048
 30
0.0
  0
VERTEX
  5
2D4
330
2D2
100
AcDbEntity
  8
Default
 62
   250
420
  2301728
370
   120
100
AcDbVertex
100
AcDb2dVertex
 10
1739.940673890275
 20
1098.850981445284
 30
0.0
  0
SEQEND
  5
2D5
330
2D2
100
AcDbEntity
  8
Default
 62
   250
420
  2301728
370
   120
  0
POLYLINE
  5
2D6
330
1F
100
AcDbEntity
  8
Default
 62
   250
420
  2301728
370
   120
100
AcDb2dPolyline
 66
     1
 10
0.0
 20
0.0
 30
0.0
  0
VERTEX
  5
2D7
330
2D6
100
AcDbEntity
  8
Default
 62
   250
420
  2301728
370
   120
100
AcDbVertex
100
AcDb2dVertex
 10
44.69374374689346
 20
1726.33747993048
 30
0.0
  0
VERTEX
  5
2D8
330
2D6
100
AcDbEntity
  8
Default
 62
   250
420
  2301728
370
   120
100
AcDbVertex
100
AcDb2dVertex
 10
44.69374374689346
 20
1098.850981445284
 30
0.0
  0
SEQEND
  5
2D9
330
2D6
100
AcDbEntity
  8
Default
 62
   250
420
  2301728
370
   120
  0
SPLINE
  5
2DA
330
1F
100
AcDbEntity
  8
Default
 62
   250
420
  2301728
370
   120
100
AcDbSpline
210
0.0
220
0.0
230
1.0
 70
     8
 71
     3
 72
     8
 73
     4
 74
     0
 42
0.0000000001
 43
0.0000000001
 40
0.0
 40
0.0
 40
0.0
 40
0.0
 40
1.0
 40
1.0
 40
1.0
 40
1.0
 10
1739.940673890275
 20
1726.33747993048
 30
0.0
 10
1739.940673890275
 20
1742.584668639457
 30
0.0
 10
1726.546488201149
 20
1755.765984917218
 30
0.0
 10
1710.020081173369
 20
1755.765984917218
 30
0.0
  0
SPLINE
  5
2DB
330
1F
100
AcDbEntity
  8
Default
 62
   250
420
  2301728
370
   120
100
AcDbSpline
210
0.0
220
0.0
230
1.0
 70
     8
 71
     3
 72
     8
 73
     4
 74
     0
 42
0.0000000001
 43
0.0000000001
 40
0.0
 40
0.0
 40
0.0
 40
0.0
 40
1.0
 40
1.0
 40
1.0
 40
1.0
 10
1710.018975358245
 20
1069.438787231624
 30
0.0
 10
1726.545382386025
 20
1069.438787231624
 30
0.0
 10
1739.939568075151
 20
1082.597987206906
 30
0.0
 10
1739.939568075151
 20
1098.845175915883
 30
0.0
  0
SPLINE
  5
2DC
330
1F
100
AcDbEntity
  8
Default
 62
   250
420
  2301728
370
   120
100
AcDbSpline
210
0.0
220
0.0
230
1.0
 70
     8
 71
     3
 72
     8
 73
     4
 74
     0
 42
0.0000000001
 43
0.0000000001
 40
0.0
 40
0.0
 40
0.0
 40
0.0
 40
1.0
 40
1.0
 40
1.0
 40
1.0
 10
44.69374374689346
 20
1098.848216907474
 30
0.0
 10
44.69374374689346
 20
1082.601028198497
 30
0.0
 10
58.08792943601952
 20
1069.452886374455
 30
0.0
 10
74.58945562351045
 20
1069.452886374455
 30
0.0
  0
SPLINE
  5
2DD
330
1F
100
AcDbEntity
  8
Default
 62
   250
420
  2301728
370
   120
100
AcDbSpline
210
0.0
220
0.0
230
1.0
 70
     8
 71
     3
 72
     8
 73
     4
 74
     0
 42
0.0000000001
 43
0.0000000001
 40
0.0
 40
0.0
 40
0.0
 40
0.0
 40
1.0
 40
1.0
 40
1.0
 40
1.0
 10
74.59415533778736
 20
1755.757138396227
 30
0.0
 10
58.1009227637262
 20
1755.757138396227
 30
0.0
 10
44.69567892336039
 20
1742.597938420945
 30
0.0
 10
44.69567892336039
 20
1726.339691560728
 30
0.0
  0
POLYLINE
  5
2DE
330
1F
100
AcDbEntity
  8
Default
 62
   250
420
  2301728
370
   120
100
AcDb2dPolyline
 66
     1
 10
0.0
 20
0.0
 30
0.0
  0
VERTEX
  5
2DF
330
2DE
100
AcDbEntity
  8
Default
 62
   250
420
  2301728
370
   120
100
AcDbVertex
100
AcDb2dVertex
 10
74.59415533778736
 20
1069.438787231624
 30
0.0
  0
VERTEX
  5
2E0
330
2DE
100
AcDbEntity
  8
Default
 62
   250
420
  2301728
370
   120
100
AcDbVertex
100
AcDb2dVertex
 10
1710.022845711179
 20
1069.438787231624
 30
0.0
  0
SEQEND
  5
2E1
330
2DE
100
AcDbEntity
  8
Default
 62
   250
420
  2301728
370
   120
  0
POLYLINE
  5
2E2
330
1F
100
AcDbEntity
  8
Default
 62
   250
420
  2301728
370
   120
100
AcDb2dPolyline
 66
     1
 10
0.0
 20
0.0
 30
0.0
  0
VERTEX
  5
2E3
330
2E2
100
AcDbEntity
  8
Default
 62
   250
420
  2301728
370
   120
100
AcDbVertex
100
AcDb2dVertex
 10
74.59415533778736
 20
1755.757138396227
 30
0.0
  0
VERTEX
  5
2E4
330
2E2
100
AcDbEntity
  8
Default
 62
   250
420
  2301728
370
   120
100
AcDbVertex
100
AcDb2dVertex
 10
1710.022845711179
 20
1755.757138396227
 30
0.0
  0
SEQEND
  5
2E5
330
2E2
100
AcDbEntity
  8
Default
 62
   250
420
  2301728
370
   120
  0
SPLINE
  5
2E6
330
1F
100
AcDbEntity
  8
Default
 62
   250
420
  2301728
370
    60
100
AcDbSpline
210
0.0
220
0.0
230
1.0
 70
     8
 71
     3
 72
     8
 73
     4
 74
     0
 42
0.0000000001
 43
0.0000000001
 40
0.0
 40
0.0
 40
0.0
 40
0.0
 40
1.0
 40
1.0
 40
1.0
 40
1.0
 10
2228.14726942701
 20
127.7376858072369
 30
0.0
 10
2238.90132150765
 20
127.4280575725244
 30
0.0
 10
2249.694077117629
 20
127.2566562283085
 30
0.0
 10
2260.459187349509
 20
127.2566562283085
 30
0.0
  0
LINE
  5
2E7
330
1F
100
AcDbEntity
  8
Default
 62
   250
420
  2301728
370
    60
100
AcDbLine
 10
2260.459187349509
 20
127.2566562283085
 30
0.0
 11
2260.461951887318
 21
127.2566562283085
 31
0.0
  0
SPLINE
  5
2E8
330
1F
100
AcDbEntity
  8
Default
 62
   250
420
  2301728
370
    60
100
AcDbSpline
210
0.0
220
0.0
230
1.0
 70
     8
 71
     3
 72
     8
 73
     4
 74
     0
 42
0.0000000001
 43
0.0000000001
 40
1.000999999999976
 40
1.000999999999976
 40
1.000999999999976
 40
1.000999999999976
 40
2.000999999999976
 40
2.000999999999976
 40
2.000999999999976
 40
2.000999999999976
 10
2260.461951887318
 20
127.2566562283085
 30
0.0
 10
2271.218768505769
 20
127.2566562283085
 30
0.0
 10
2282.019817729177
 20
127.4280575725244
 30
0.0
 10
2292.751753507338
 20
127.7376858072369
 30
0.0
  0
SPLINE
  5
2E9
330
1F
100
AcDbEntity
  8
Default
 62
   250
420
  2301728
370
    60
100
AcDbSpline
210
0.0
220
0.0
230
1.0
 70
     8
 71
     3
 72
     8
 73
     4
 74
     0
 42
0.0000000001
 43
0.0000000001
 40
0.0
 40
0.0
 40
0.0
 40
0.0
 40
1.0
 40
1.0
 40
1.0
 40
1.0
 10
289.642022496867
 20
128.0506314873214
 30
0.0
 10
312.7977911928671
 20
127.237857371201
 30
0.0
 10
335.953559888867
 20
127.2240346821513
 30
0.0
 10
359.1065640470572
 20
128.0506314873214
 30
0.0
  0
SPLINE
  5
2EA
330
1F
100
AcDbEntity
  8
Default
 62
   250
420
  2301728
370
    60
100
AcDbSpline
210
0.0
220
0.0
230
1.0
 70
     8
 71
     3
 72
     8
 73
     4
 74
     0
 42
0.0000000001
 43
0.0000000001
 40
0.0
 40
0.0
 40
0.0
 40
0.0
 40
1.0
 40
1.0
 40
1.0
 40
1.0
 10
193.788032374398
 20
1261.079312754
 30
0.0
 10
210.2232096544505
 20
1232.914201546401
 30
0.0
 10
239.7816479182557
 20
1214.582551328735
 30
0.0
 10
272.7100577723695
 20
1212.135935366944
 30
0.0
  0
SPLINE
  5
2EB
330
1F
100
AcDbEntity
  8
Default
 62
   250
420
  2301728
370
    60
100
AcDbSpline
210
0.0
220
0.0
230
1.0
 70
     8
 71
     3
 72
     8
 73
     4
 74
     0
 42
0.0000000001
 43
0.0000000001
 40
0.0
 40
0.0
 40
0.0
 40
0.0
 40
1.0
 40
1.0
 40
1.0
 40
1.0
 10
1359.596667814797
 20
1200.227965204438
 30
0.0
 10
1398.32507799415
 20
1202.232255116639
 30
0.0
 10
1432.312305829468
 20
1226.167623475041
 30
0.0
 10
1446.787425802278
 20
1261.520532988466
 30
0.0
  0
SPLINE
  5
2EC
330
1F
100
AcDbEntity
  8
Default
 62
   250
420
  2301728
370
    60
100
AcDbSpline
210
0.0
220
0.0
230
1.0
 70
     8
 71
     3
 72
     8
 73
     4
 74
     0
 42
0.0000000001
 43
0.0000000001
 40
0.0
 40
0.0
 40
0.0
 40
0.0
 40
1.0
 40
1.0
 40
1.0
 40
1.0
 10
1446.789360978745
 20
1261.523297526275
 30
0.0
 10
1455.135500626934
 20
1281.892412109863
 30
0.0
 10
1459.41776969452
 20
1303.621679295937
 30
0.0
 10
1459.41776969452
 20
1325.585932195856
 30
0.0
  0
SPLINE
  5
2ED
330
1F
100
AcDbEntity
  8
Default
 62
   250
420
  2301728
370
    60
100
AcDbSpline
210
0.0
220
0.0
230
1.0
 70
     8
 71
     3
 72
     8
 73
     4
 74
     0
 42
0.0000000001
 43
0.0000000001
 40
0.0
 40
0.0
 40
0.0
 40
0.0
 40
1.0
 40
1.0
 40
1.0
 40
1.0
 10
1459.418322602082
 20
1325.576809221083
 30
0.0
 10
1463.001163603755
 20
1354.861558241705
 30
0.0
 10
1464.814700407072
 20
1384.334295833402
 30
0.0
 10
1464.814700407072
 20
1413.818091576339
 30
0.0
  0
SPLINE
  5
2EE
330
1F
100
AcDbEntity
  8
Default
 62
   250
420
  2301728
370
    60
100
AcDbSpline
210
0.0
220
0.0
230
1.0
 70
     8
 71
     3
 72
     8
 73
     4
 74
     0
 42
0.0000000001
 43
0.0000000001
 40
0.0
 40
0.0
 40
0.0
 40
0.0
 40
1.0
 40
1.0
 40
1.0
 40
1.0
 10
272.7089519572455
 20
1212.136764728287
 30
0.0
 10
634.3685527905095
 20
1185.154875703339
 30
0.0
 10
997.4021289153106
 20
1181.190528483895
 30
0.0
 10
1359.581462856842
 20
1200.229900380905
 30
0.0
  0
SPLINE
  5
2EF
330
1F
100
AcDbEntity
  8
Default
 62
   250
420
  2301728
370
    60
100
AcDbSpline
210
0.0
220
0.0
230
1.0
 70
     8
 71
     3
 72
     8
 73
     4
 74
     0
 42
0.0000000001
 43
0.0000000001
 40
0.0
 40
0.0
 40
0.0
 40
0.0
 40
1.0
 40
1.0
 40
1.0
 40
1.0
 10
169.3005858153531
 20
1324.353777693969
 30
0.0
 10
174.0307100081488
 20
1302.135187315536
 30
0.0
 10
182.2883844464191
 20
1280.748722817893
 30
0.0
 10
193.7916262735509
 20
1261.079036300219
 30
0.0
  0
SPLINE
  5
2F0
330
1F
100
AcDbEntity
  8
Default
 62
   250
420
  2301728
370
    60
100
AcDbSpline
210
0.0
220
0.0
230
1.0
 70
     8
 71
     3
 72
     8
 73
     4
 74
     0
 42
0.0000000001
 43
0.0000000001
 40
0.0
 40
0.0
 40
0.0
 40
0.0
 40
1.0
 40
1.0
 40
1.0
 40
1.0
 10
163.887620783504
 20
1412.603353662655
 30
0.0
 10
163.9097370859835
 20
1383.097441617238
 30
0.0
 10
165.6900994355804
 20
1353.624704025541
 30
0.0
 10
169.2839985884935
 20
1324.351013156159
 30
0.0
  0
SPLINE
  5
2F1
330
1F
100
AcDbEntity
  8
Default
 62
   250
420
  2301728
370
    60
100
AcDbSpline
210
0.0
220
0.0
230
1.0
 70
     8
 71
     3
 72
     8
 73
     4
 74
     0
 42
0.0000000001
 43
0.0000000001
 40
0.0
 40
0.0
 40
0.0
 40
0.0
 40
1.0
 40
1.0
 40
1.0
 40
1.0
 10
272.7089519572455
 20
1613.049208563449
 30
0.0
 10
239.7805421031317
 20
1610.602592601658
 30
0.0
 10
210.2221038393265
 20
1592.270942383991
 30
0.0
 10
193.786926559274
 20
1564.094773025153
 30
0.0
  0
SPLINE
  5
2F2
330
1F
100
AcDbEntity
  8
Default
 62
   250
420
  2301728
370
    60
100
AcDbSpline
210
0.0
220
0.0
230
1.0
 70
     8
 71
     3
 72
     8
 73
     4
 74
     0
 42
0.0000000001
 43
0.0000000001
 40
0.0
 40
0.0
 40
0.0
 40
0.0
 40
1.0
 40
1.0
 40
1.0
 40
1.0
 10
1446.789360978745
 20
1563.673457462919
 30
0.0
 10
1432.314241005935
 20
1599.015308825104
 30
0.0
 10
1398.315955019377
 20
1622.939619032265
 30
0.0
 10
1359.598602991264
 20
1624.977083398186
 30
0.0
  0
SPLINE
  5
2F3
330
1F
100
AcDbEntity
  8
Default
 62
   250
420
  2301728
370
    60
100
AcDbSpline
210
0.0
220
0.0
230
1.0
 70
     8
 71
     3
 72
     8
 73
     4
 74
     0
 42
0.0000000001
 43
0.0000000001
 40
0.0
 40
0.0
 40
0.0
 40
0.0
 40
1.0
 40
1.0
 40
1.0
 40
1.0
 10
1459.418322602082
 20
1499.619116406767
 30
0.0
 10
1459.418322602082
 20
1521.550194852967
 30
0.0
 10
1455.138818072306
 20
1543.290520190282
 30
0.0
 10
1446.789913886307
 20
1563.670692925108
 30
0.0
  0
SPLINE
  5
2F4
330
1F
100
AcDbEntity
  8
Default
 62
   250
420
  2301728
370
    60
100
AcDbSpline
210
0.0
220
0.0
230
1.0
 70
     8
 71
     3
 72
     8
 73
     4
 74
     0
 42
0.0000000001
 43
0.0000000001
 40
0.0
 40
0.0
 40
0.0
 40
0.0
 40
1.0
 40
1.0
 40
1.0
 40
1.0
 10
1464.80861842389
 20
1411.370646253206
 30
0.0
 10
1464.80861842389
 20
1440.865500147382
 30
0.0
 10
1463.006139771813
 20
1470.32717958784
 30
0.0
 10
1459.4122406189
 20
1499.622986759702
 30
0.0
  0
SPLINE
  5
2F5
330
1F
100
AcDbEntity
  8
Default
 62
   250
420
  2301728
370
    60
100
AcDbSpline
210
0.0
220
0.0
230
1.0
 70
     8
 71
     3
 72
     8
 73
     4
 74
     0
 42
0.0000000001
 43
0.0000000001
 40
0.0
 40
0.0
 40
0.0
 40
0.0
 40
1.0
 40
1.0
 40
1.0
 40
1.0
 10
1359.596667814797
 20
1624.967960423413
 30
0.0
 10
997.4062757220254
 20
1643.985216017943
 30
0.0
 10
634.3837577484642
 20
1639.99875249602
 30
0.0
 10
272.7130987639602
 20
1613.050037924791
 30
0.0
  0
SPLINE
  5
2F6
330
1F
100
AcDbEntity
  8
Default
 62
   250
420
  2301728
370
    60
100
AcDbSpline
210
0.0
220
0.0
230
1.0
 70
     8
 71
     3
 72
     8
 73
     4
 74
     0
 42
0.0000000001
 43
0.0000000001
 40
0.0
 40
0.0
 40
0.0
 40
0.0
 40
1.0
 40
1.0
 40
1.0
 40
1.0
 10
193.788032374398
 20
1564.09422011759
 30
0.0
 10
182.2875550850761
 20
1544.424533599916
 30
0.0
 10
174.0298806468058
 20
1523.046362715703
 30
0.0
 10
169.2969919162002
 20
1500.81947872384
 30
0.0
  0
SPLINE
  5
2F7
330
1F
100
AcDbEntity
  8
Default
 62
   250
420
  2301728
370
    60
100
AcDbSpline
210
0.0
220
0.0
230
1.0
 70
     8
 71
     3
 72
     8
 73
     4
 74
     0
 42
0.0000000001
 43
0.0000000001
 40
0.0
 40
0.0
 40
0.0
 40
0.0
 40
1.0
 40
1.0
 40
1.0
 40
1.0
 10
169.3005858153531
 20
1500.81947872384
 30
0.0
 10
165.6956285112003
 20
1471.545787854458
 30
0.0
 10
163.9042080103636
 20
1442.084108414001
 30
0.0
 10
163.8931498591239
 20
1412.600312671064
 30
0.0
  0
SPLINE
  5
2F8
330
1F
100
AcDbEntity
  8
Default
 62
   250
420
  2301728
370
    60
100
AcDbSpline
210
0.0
220
0.0
230
1.0
 70
     8
 71
     3
 72
     8
 73
     4
 74
     0
 42
0.0000000001
 43
0.0000000001
 40
1.0
 40
1.0
 40
1.0
 40
1.0
 40
2.0
 40
2.0
 40
2.0
 40
2.0
 10
368.7796818440133
 20
1412.603353662655
 30
0.0
 10
368.7796818440133
 20
1434.255213790051
 30
0.0
 10
350.923532129655
 20
1451.810028883127
 30
0.0
 10
328.9012239357276
 20
1451.810028883127
 30
0.0
  0
SPLINE
  5
2F9
330
1F
100
AcDbEntity
  8
Default
 62
   250
420
  2301728
370
    60
100
AcDbSpline
210
0.0
220
0.0
230
1.0
 70
     8
 71
     3
 72
     8
 73
     4
 74
     0
 42
0.0000000001
 43
0.0000000001
 40
2.0
 40
2.0
 40
2.0
 40
2.0
 40
3.0
 40
3.0
 40
3.0
 40
3.0
 10
328.9012239357276
 20
1451.810028883127
 30
0.0
 10
306.8789157418002
 20
1451.810028883127
 30
0.0
 10
289.0117078762024
 20
1434.255213790051
 30
0.0
 10
289.0117078762024
 20
1412.603353662655
 30
0.0
  0
SPLINE
  5
2FA
330
1F
100
AcDbEntity
  8
Default
 62
   250
420
  2301728
370
    60
100
AcDbSpline
210
0.0
220
0.0
230
1.0
 70
     8
 71
     3
 72
     8
 73
     4
 74
     0
 42
0.0000000001
 43
0.0000000001
 40
3.0
 40
3.0
 40
3.0
 40
3.0
 40
4.0
 40
4.0
 40
4.0
 40
4.0
 10
289.0117078762024
 20
1412.603353662655
 30
0.0
 10
289.0117078762024
 20
1390.940435384018
 30
0.0
 10
306.8789157418002
 20
1373.382855753133
 30
0.0
 10
328.9012239357276
 20
1373.382855753133
 30
0.0
  0
SPLINE
  5
2FB
330
1F
100
AcDbEntity
  8
Default
 62
   250
420
  2301728
370
    60
100
AcDbSpline
210
0.0
220
0.0
230
1.0
 70
     8
 71
     3
 72
     8
 73
     4
 74
     0
 42
0.0000000001
 43
0.0000000001
 40
4.0
 40
4.0
 40
4.0
 40
4.0
 40
5.0
 40
5.0
 40
5.0
 40
5.0
 10
328.9012239357276
 20
1373.382855753133
 30
0.0
 10
350.923532129655
 20
1373.382855753133
 30
0.0
 10
368.7796818440133
 20
1390.940435384018
 30
0.0
 10
368.7796818440133
 20
1412.603353662655
 30
0.0
  0
SPLINE
  5
2FC
330
1F
100
AcDbEntity
  8
Default
 62
   250
420
  2301728
370
    60
100
AcDbSpline
210
0.0
220
0.0
230
1.0
 70
     8
 71
     3
 72
     8
 73
     4
 74
     0
 42
0.0000000001
 43
0.0000000001
 40
1.0
 40
1.0
 40
1.0
 40
1.0
 40
2.0
 40
2.0
 40
2.0
 40
2.0
 10
354.8187659038509
 20
1412.603353662655
 30
0.0
 10
354.8187659038509
 20
1426.680380190834
 30
0.0
 10
343.2270588668011
 20
1438.089627732429
 30
0.0
 10
328.8984593979176
 20
1438.089627732429
 30
0.0
  0
SPLINE
  5
2FD
330
1F
100
AcDbEntity
  8
Default
 62
   250
420
  2301728
370
    60
100
AcDbSpline
210
0.0
220
0.0
230
1.0
 70
     8
 71
     3
 72
     8
 73
     4
 74
     0
 42
0.0000000001
 43
0.0000000001
 40
2.0
 40
2.0
 40
2.0
 40
2.0
 40
3.0
 40
3.0
 40
3.0
 40
3.0
 10
328.8984593979176
 20
1438.089627732429
 30
0.0
 10
314.5809180802739
 20
1438.089627732429
 30
0.0
 10
302.9670947407448
 20
1426.680380190834
 30
0.0
 10
302.9670947407448
 20
1412.603353662655
 30
0.0
  0
SPLINE
  5
2FE
330
1F
100
AcDbEntity
  8
Default
 62
   250
420
  2301728
370
    60
100
AcDbSpline
210
0.0
220
0.0
230
1.0
 70
     8
 71
     3
 72
     8
 73
     4
 74
     0
 42
0.0000000001
 43
0.0000000001
 40
3.0
 40
3.0
 40
3.0
 40
3.0
 40
4.0
 40
4.0
 40
4.0
 40
4.0
 10
302.9670947407448
 20
1412.603353662655
 30
0.0
 10
302.9670947407448
 20
1398.515268983236
 30
0.0
 10
314.5809180802739
 20
1387.106021441642
 30
0.0
 10
328.8984593979176
 20
1387.106021441642
 30
0.0
  0
SPLINE
  5
2FF
330
1F
100
AcDbEntity
  8
Default
 62
   250
420
  2301728
370
    60
100
AcDbSpline
210
0.0
220
0.0
230
1.0
 70
     8
 71
     3
 72
     8
 73
     4
 74
     0
 42
0.0000000001
 43
0.0000000001
 40
4.0
 40
4.0
 40
4.0
 40
4.0
 40
5.0
 40
5.0
 40
5.0
 40
5.0
 10
328.8984593979176
 20
1387.106021441642
 30
0.0
 10
343.2270588668011
 20
1387.106021441642
 30
0.0
 10
354.8187659038509
 20
1398.515268983236
 30
0.0
 10
354.8187659038509
 20
1412.603353662655
 30
0.0
  0
SPLINE
  5
300
330
1F
100
AcDbEntity
  8
Default
 62
   250
420
  2301728
370
    60
100
AcDbSpline
210
0.0
220
0.0
230
1.0
 70
     8
 71
     3
 72
     8
 73
     4
 74
     0
 42
0.0000000001
 43
0.0000000001
 40
0.0
 40
0.0
 40
0.0
 40
0.0
 40
1.0
 40
1.0
 40
1.0
 40
1.0
 10
1695.057849638449
 20
1098.848216907474
 30
0.0
 10
1703.326582227959
 20
1098.848216907474
 30
0.0
 10
1710.016763727997
 20
1105.449933197594
 30
0.0
 10
1710.016763727997
 20
1113.555558056319
 30
0.0
  0
SPLINE
  5
301
330
1F
100
AcDbEntity
  8
Default
 62
   250
420
  2301728
370
    60
100
AcDbSpline
210
0.0
220
0.0
230
1.0
 70
     8
 71
     3
 72
     8
 73
     4
 74
     0
 42
0.0000000001
 43
0.0000000001
 40
0.0
 40
0.0
 40
0.0
 40
0.0
 40
1.0
 40
1.0
 40
1.0
 40
1.0
 10
1490.221355787919
 20
1152.766103629725
 30
0.0
 10
1586.593143842189
 20
1152.766103629725
 30
0.0
 10
1664.738334115569
 20
1229.598138443387
 30
0.0
 10
1664.738334115569
 20
1324.352671878845
 30
0.0
  0
POLYLINE
  5
302
330
1F
100
AcDbEntity
  8
Default
 62
   250
420
  2301728
370
    60
100
AcDb2dPolyline
 66
     1
 10
0.0
 20
0.0
 30
0.0
  0
VERTEX
  5
303
330
302
100
AcDbEntity
  8
Default
 62
   250
420
  2301728
370
    60
100
AcDbVertex
100
AcDb2dVertex
 10
1710.018975358245
 20
1113.557769686566
 30
0.0
  0
VERTEX
  5
304
330
302
100
AcDbEntity
  8
Default
 62
   250
420
  2301728
370
    60
100
AcDbVertex
100
AcDb2dVertex
 10
1710.018975358245
 20
1711.637879487503
 30
0.0
  0
SEQEND
  5
305
330
302
100
AcDbEntity
  8
Default
 62
   250
420
  2301728
370
    60
  0
SPLINE
  5
306
330
1F
100
AcDbEntity
  8
Default
 62
   250
420
  2301728
370
    60
100
AcDbSpline
210
0.0
220
0.0
230
1.0
 70
     8
 71
     3
 72
     8
 73
     4
 74
     0
 42
0.0000000001
 43
0.0000000001
 40
0.0
 40
0.0
 40
0.0
 40
0.0
 40
1.0
 40
1.0
 40
1.0
 40
1.0
 10
74.59415533778736
 20
1113.557769686566
 30
0.0
 10
74.59415533778736
 20
1105.438322138793
 30
0.0
 10
81.32027582935467
 20
1098.850428537722
 30
0.0
 10
89.56412757857532
 20
1098.850428537722
 30
0.0
  0
SPLINE
  5
307
330
1F
100
AcDbEntity
  8
Default
 62
   250
420
  2301728
370
    60
100
AcDbSpline
210
0.0
220
0.0
230
1.0
 70
     8
 71
     3
 72
     8
 73
     4
 74
     0
 42
0.0000000001
 43
0.0000000001
 40
0.0
 40
0.0
 40
0.0
 40
0.0
 40
1.0
 40
1.0
 40
1.0
 40
1.0
 10
114.9337381527699
 20
1324.353777693969
 30
0.0
 10
136.1792112221061
 20
1224.396384100216
 30
0.0
 10
225.8027624823287
 20
1152.767209444848
 30
0.0
 10
329.6664480015172
 20
1152.767209444848
 30
0.0
  0
POLYLINE
  5
308
330
1F
100
AcDbEntity
  8
Default
 62
   250
420
  2301728
370
    60
100
AcDb2dPolyline
 66
     1
 10
0.0
 20
0.0
 30
0.0
  0
VERTEX
  5
309
330
308
100
AcDbEntity
  8
Default
 62
   250
420
  2301728
370
    60
100
AcDbVertex
100
AcDb2dVertex
 10
74.59415533778736
 20
1711.637603033723
 30
0.0
  0
VERTEX
  5
30A
330
308
100
AcDbEntity
  8
Default
 62
   250
420
  2301728
370
    60
100
AcDbVertex
100
AcDb2dVertex
 10
74.59415533778736
 20
1113.557493232785
 30
0.0
  0
SEQEND
  5
30B
330
308
100
AcDbEntity
  8
Default
 62
   250
420
  2301728
370
    60
  0
SPLINE
  5
30C
330
1F
100
AcDbEntity
  8
Default
 62
   250
420
  2301728
370
    60
100
AcDbSpline
210
0.0
220
0.0
230
1.0
 70
     8
 71
     3
 72
     8
 73
     4
 74
     0
 42
0.0000000001
 43
0.0000000001
 40
0.0
 40
0.0
 40
0.0
 40
0.0
 40
1.0
 40
1.0
 40
1.0
 40
1.0
 10
1664.739716384474
 20
1324.353777693969
 30
0.0
 10
1668.300441083668
 20
1353.627468563351
 30
0.0
 10
1670.136094189463
 20
1383.100206155048
 30
0.0
 10
1670.136094189463
 20
1412.606118200465
 30
0.0
  0
SPLINE
  5
30D
330
1F
100
AcDbEntity
  8
Default
 62
   250
420
  2301728
370
    60
100
AcDbSpline
210
0.0
220
0.0
230
1.0
 70
     8
 71
     3
 72
     8
 73
     4
 74
     0
 42
0.0000000001
 43
0.0000000001
 40
0.0
 40
0.0
 40
0.0
 40
0.0
 40
1.0
 40
1.0
 40
1.0
 40
1.0
 10
109.5221553898257
 20
1412.603353662655
 30
0.0
 10
109.5221553898257
 20
1383.097441617238
 30
0.0
 10
111.3246340419021
 20
1353.624704025541
 30
0.0
 10
114.9185331948152
 20
1324.351013156159
 30
0.0
  0
POLYLINE
  5
30E
330
1F
100
AcDbEntity
  8
Default
 62
   250
420
  2301728
370
    60
100
AcDb2dPolyline
 66
     1
 10
0.0
 20
0.0
 30
0.0
  0
VERTEX
  5
30F
330
30E
100
AcDbEntity
  8
Default
 62
   250
420
  2301728
370
    60
100
AcDbVertex
100
AcDb2dVertex
 10
89.56633920882331
 20
1098.848216907474
 30
0.0
  0
VERTEX
  5
310
330
30E
100
AcDbEntity
  8
Default
 62
   250
420
  2301728
370
    60
100
AcDbVertex
100
AcDb2dVertex
 10
1695.052320562829
 20
1098.848216907474
 30
0.0
  0
SEQEND
  5
311
330
30E
100
AcDbEntity
  8
Default
 62
   250
420
  2301728
370
    60
  0
SPLINE
  5
312
330
1F
100
AcDbEntity
  8
Default
 62
   250
420
  2301728
370
    60
100
AcDbSpline
210
0.0
220
0.0
230
1.0
 70
     8
 71
     3
 72
     8
 73
     4
 74
     0
 42
0.0000000001
 43
0.0000000001
 40
0.0
 40
0.0
 40
0.0
 40
0.0
 40
1.0
 40
1.0
 40
1.0
 40
1.0
 10
329.6598131107732
 20
1152.766103629725
 30
0.0
 10
716.0564982673191
 20
1126.561049729368
 30
0.0
 10
1103.818865101972
 20
1126.561049729368
 30
0.0
 10
1490.215550258518
 20
1152.766103629725
 30
0.0
  0
SPLINE
  5
313
330
1F
100
AcDbEntity
  8
Default
 62
   250
420
  2301728
370
    60
100
AcDbSpline
210
0.0
220
0.0
230
1.0
 70
     8
 71
     3
 72
     8
 73
     4
 74
     0
 42
0.0000000001
 43
0.0000000001
 40
0.0
 40
0.0
 40
0.0
 40
0.0
 40
1.0
 40
1.0
 40
1.0
 40
1.0
 10
1664.739716384474
 20
1500.81947872384
 30
0.0
 10
1664.739716384474
 20
1595.604422075208
 30
0.0
 10
1586.594526111093
 20
1672.428163275441
 30
0.0
 10
1490.222738056824
 20
1672.428163275441
 30
0.0
  0
SPLINE
  5
314
330
1F
100
AcDbEntity
  8
Default
 62
   250
420
  2301728
370
    60
100
AcDbSpline
210
0.0
220
0.0
230
1.0
 70
     8
 71
     3
 72
     8
 73
     4
 74
     0
 42
0.0000000001
 43
0.0000000001
 40
0.0
 40
0.0
 40
0.0
 40
0.0
 40
1.0
 40
1.0
 40
1.0
 40
1.0
 10
1490.221355787919
 20
1672.429545544346
 30
0.0
 10
1103.813612480133
 20
1698.634599444702
 30
0.0
 10
716.0512456454805
 20
1698.634599444702
 30
0.0
 10
329.6656186401743
 20
1672.429545544346
 30
0.0
  0
SPLINE
  5
315
330
1F
100
AcDbEntity
  8
Default
 62
   250
420
  2301728
370
    60
100
AcDbSpline
210
0.0
220
0.0
230
1.0
 70
     8
 71
     3
 72
     8
 73
     4
 74
     0
 42
0.0000000001
 43
0.0000000001
 40
0.0
 40
0.0
 40
0.0
 40
0.0
 40
1.0
 40
1.0
 40
1.0
 40
1.0
 10
329.6598131107732
 20
1672.429545544346
 30
0.0
 10
225.7961275915849
 20
1672.429545544346
 30
0.0
 10
136.1725763313622
 20
1600.803135426788
 30
0.0
 10
114.927103262026
 20
1500.820860992745
 30
0.0
  0
SPLINE
  5
316
330
1F
100
AcDbEntity
  8
Default
 62
   250
420
  2301728
370
    60
100
AcDbSpline
210
0.0
220
0.0
230
1.0
 70
     8
 71
     3
 72
     8
 73
     4
 74
     0
 42
0.0000000001
 43
0.0000000001
 40
0.0
 40
0.0
 40
0.0
 40
0.0
 40
1.0
 40
1.0
 40
1.0
 40
1.0
 10
1670.1297357525
 20
1412.603353662655
 30
0.0
 10
1670.1297357525
 20
1442.098207556832
 30
0.0
 10
1668.305140797945
 20
1471.548828846049
 30
0.0
 10
1664.733357947511
 20
1500.822519715432
 30
0.0
  0
SPLINE
  5
317
330
1F
100
AcDbEntity
  8
Default
 62
   250
420
  2301728
370
    60
100
AcDbSpline
210
0.0
220
0.0
230
1.0
 70
     8
 71
     3
 72
     8
 73
     4
 74
     0
 42
0.0000000001
 43
0.0000000001
 40
0.0
 40
0.0
 40
0.0
 40
0.0
 40
1.0
 40
1.0
 40
1.0
 40
1.0
 10
114.9337381527699
 20
1500.81947872384
 30
0.0
 10
111.328780848617
 20
1471.545787854458
 30
0.0
 10
109.5263021965407
 20
1442.084108414001
 30
0.0
 10
109.5263021965407
 20
1412.600312671064
 30
0.0
  0
SPLINE
  5
318
330
1F
100
AcDbEntity
  8
Default
 62
   250
420
  2301728
370
    60
100
AcDbSpline
210
0.0
220
0.0
230
1.0
 70
     8
 71
     3
 72
     8
 73
     4
 74
     0
 42
0.0000000001
 43
0.0000000001
 40
0.0
 40
0.0
 40
0.0
 40
0.0
 40
1.0
 40
1.0
 40
1.0
 40
1.0
 10
1710.018975358245
 20
1711.637603033723
 30
0.0
 10
1710.018975358245
 20
1719.745992430256
 30
0.0
 10
1703.326029320396
 20
1726.333886031327
 30
0.0
 10
1695.060061268697
 20
1726.333886031327
 30
0.0
  0
SPLINE
  5
319
330
1F
100
AcDbEntity
  8
Default
 62
   250
420
  2301728
370
    60
100
AcDbSpline
210
0.0
220
0.0
230
1.0
 70
     8
 71
     3
 72
     8
 73
     4
 74
     0
 42
0.0000000001
 43
0.0000000001
 40
0.0
 40
0.0
 40
0.0
 40
0.0
 40
1.0
 40
1.0
 40
1.0
 40
1.0
 10
89.56633920882331
 20
1726.33747993048
 30
0.0
 10
81.31972292179267
 20
1726.33747993048
 30
0.0
 10
74.59636696803528
 20
1719.757879942839
 30
0.0
 10
74.59636696803528
 20
1711.641196932875
 30
0.0
  0
POLYLINE
  5
31A
330
1F
100
AcDbEntity
  8
Default
 62
   250
420
  2301728
370
    60
100
AcDb2dPolyline
 66
     1
 10
0.0
 20
0.0
 30
0.0
  0
VERTEX
  5
31B
330
31A
100
AcDbEntity
  8
Default
 62
   250
420
  2301728
370
    60
100
AcDbVertex
100
AcDb2dVertex
 10
89.56633920882331
 20
1726.33747993048
 30
0.0
  0
VERTEX
  5
31C
330
31A
100
AcDbEntity
  8
Default
 62
   250
420
  2301728
370
    60
100
AcDbVertex
100
AcDb2dVertex
 10
1695.052320562829
 20
1726.33747993048
 30
0.0
  0
SEQEND
  5
31D
330
31A
100
AcDbEntity
  8
Default
 62
   250
420
  2301728
370
    60
  0
POLYLINE
  5
31E
330
1F
100
AcDbEntity
  8
Default
 62
   250
420
  2301728
370
    60
100
AcDb2dPolyline
 66
     1
 10
0.0
 20
0.0
 30
0.0
  0
VERTEX
  5
31F
330
31E
100
AcDbEntity
  8
Default
 62
   250
420
  2301728
370
    60
100
AcDbVertex
100
AcDb2dVertex
 10
2454.743993287086
 20
45.99389666666667
 30
0.0
  0
VERTEX
  5
320
330
31E
100
AcDbEntity
  8
Default
 62
   250
420
  2301728
370
    60
100
AcDbVertex
100
AcDb2dVertex
 10
2234.073056222602
 20
45.99389666666667
 30
0.0
  0
SEQEND
  5
321
330
31E
100
AcDbEntity
  8
Default
 62
   250
420
  2301728
370
    60
  0
POLYLINE
  5
322
330
1F
100
AcDbEntity
  8
Default
 62
   250
420
  2301728
370
    60
100
AcDb2dPolyline
 66
     1
 10
0.0
 20
0.0
 30
0.0
  0
VERTEX
  5
323
330
322
100
AcDbEntity
  8
Default
 62
   250
420
  2301728
370
    60
100
AcDbVertex
100
AcDb2dVertex
 10
2234.07250331504
 20
77.50990415368557
 30
0.0
  0
VERTEX
  5
324
330
322
100
AcDbEntity
  8
Default
 62
   250
420
  2301728
370
    60
100
AcDbVertex
100
AcDb2dVertex
 10
2234.07250331504
 20
14.47844208720977
 30
0.0
  0
SEQEND
  5
325
330
322
100
AcDbEntity
  8
Default
 62
   250
420
  2301728
370
    60
  0
POLYLINE
  5
326
330
1F
100
AcDbEntity
  8
Default
 62
   250
420
  2301728
370
    60
100
AcDb2dPolyline
 66
     1
 10
0.0
 20
0.0
 30
0.0
  0
VERTEX
  5
327
330
326
100
AcDbEntity
  8
Default
 62
   250
420
  2301728
370
    60
100
AcDbVertex
100
AcDb2dVertex
 10
2286.842277484825
 20
77.50990415368557
 30
0.0
  0
VERTEX
  5
328
330
326
100
AcDbEntity
  8
Default
 62
   250
420
  2301728
370
    60
100
AcDbVertex
100
AcDb2dVertex
 10
2286.842277484825
 20
14.47844208720977
 30
0.0
  0
SEQEND
  5
329
330
326
100
AcDbEntity
  8
Default
 62
   250
420
  2301728
370
    60
  0
POLYLINE
  5
32A
330
1F
100
AcDbEntity
  8
Default
 62
   250
420
  2301728
370
    60
100
AcDb2dPolyline
 66
     1
 10
0.0
 20
0.0
 30
0.0
  0
VERTEX
  5
32B
330
32A
100
AcDbEntity
  8
Default
 62
   250
420
  2301728
370
    60
100
AcDbVertex
100
AcDb2dVertex
 10
74.59415533778736
 20
1002.726343071223
 30
0.0
  0
VERTEX
  5
32C
330
32A
100
AcDbEntity
  8
Default
 62
   250
420
  2301728
370
    60
100
AcDbVertex
100
AcDb2dVertex
 10
-57.68068525408395
 20
1002.726343071223
 30
0.0
  0
SEQEND
  5
32D
330
32A
100
AcDbEntity
  8
Default
 62
   250
420
  2301728
370
    60
  0
POLYLINE
  5
32E
330
1F
100
AcDbEntity
  8
Default
 62
   250
420
  2301728
370
    60
100
AcDb2dPolyline
 66
     1
 10
0.0
 20
0.0
 30
0.0
  0
VERTEX
  5
32F
330
32E
100
AcDbEntity
  8
Default
 62
   250
420
  2301728
370
    60
100
AcDbVertex
100
AcDb2dVertex
 10
42.9092345905816
 20
1034.24207410446
 30
0.0
  0
VERTEX
  5
330
330
32E
100
AcDbEntity
  8
Default
 62
   250
420
  2301728
370
    60
100
AcDbVertex
100
AcDb2dVertex
 10
42.9092345905816
 20
971.2106120379849
 30
0.0
  0
SEQEND
  5
331
330
32E
100
AcDbEntity
  8
Default
 62
   250
420
  2301728
370
    60
  0
POLYLINE
  5
332
330
1F
100
AcDbEntity
  8
Default
 62
   250
420
  2301728
370
    60
100
AcDb2dPolyline
 66
     1
 10
0.0
 20
0.0
 30
0.0
  0
VERTEX
  5
333
330
332
100
AcDbEntity
  8
Default
 62
   250
420
  2301728
370
    60
100
AcDbVertex
100
AcDb2dVertex
 10
74.59415533778736
 20
1034.24207410446
 30
0.0
  0
VERTEX
  5
334
330
332
100
AcDbEntity
  8
Default
 62
   250
420
  2301728
370
    60
100
AcDbVertex
100
AcDb2dVertex
 10
74.59415533778736
 20
971.2106120379849
 30
0.0
  0
SEQEND
  5
335
330
332
100
AcDbEntity
  8
Default
 62
   250
420
  2301728
370
    60
  0
POLYLINE
  5
336
330
1F
100
AcDbEntity
  8
Default
 62
   250
420
  2301728
370
    60
100
AcDb2dPolyline
 66
     1
 10
0.0
 20
0.0
 30
0.0
  0
VERTEX
  5
337
330
336
100
AcDbEntity
  8
Default
 62
   250
420
  2301728
370
    60
100
AcDbVertex
100
AcDb2dVertex
 10
1464.80861842389
 20
1002.726066617442
 30
0.0
  0
VERTEX
  5
338
330
336
100
AcDbEntity
  8
Default
 62
   250
420
  2301728
370
    60
100
AcDbVertex
100
AcDb2dVertex
 10
164.018936329476
 20
1002.726066617442
 30
0.0
  0
SEQEND
  5
339
330
336
100
AcDbEntity
  8
Default
 62
   250
420
  2301728
370
    60
  0
POLYLINE
  5
33A
330
1F
100
AcDbEntity
  8
Default
 62
   250
420
  2301728
370
    60
100
AcDb2dPolyline
 66
     1
 10
0.0
 20
0.0
 30
0.0
  0
VERTEX
  5
33B
330
33A
100
AcDbEntity
  8
Default
 62
   250
420
  2301728
370
    60
100
AcDbVertex
100
AcDb2dVertex
 10
164.0194892370378
 20
1034.241797650679
 30
0.0
  0
VERTEX
  5
33C
330
33A
100
AcDbEntity
  8
Default
 62
   250
420
  2301728
370
    60
100
AcDbVertex
100
AcDb2dVertex
 10
164.0194892370378
 20
971.2103355842037
 30
0.0
  0
SEQEND
  5
33D
330
33A
100
AcDbEntity
  8
Default
 62
   250
420
  2301728
370
    60
  0
POLYLINE
  5
33E
330
1F
100
AcDbEntity
  8
Default
 62
   250
420
  2301728
370
    60
100
AcDb2dPolyline
 66
     1
 10
0.0
 20
0.0
 30
0.0
  0
VERTEX
  5
33F
330
33E
100
AcDbEntity
  8
Default
 62
   250
420
  2301728
370
    60
100
AcDbVertex
100
AcDb2dVertex
 10
1464.80861842389
 20
1034.241797650679
 30
0.0
  0
VERTEX
  5
340
330
33E
100
AcDbEntity
  8
Default
 62
   250
420
  2301728
370
    60
100
AcDbVertex
100
AcDb2dVertex
 10
1464.80861842389
 20
971.2103355842037
 30
0.0
  0
SEQEND
  5
341
330
33E
100
AcDbEntity
  8
Default
 62
   250
420
  2301728
370
    60
  0
POLYLINE
  5
342
330
1F
100
AcDbEntity
  8
Default
 62
   250
420
  2301728
370
    60
100
AcDb2dPolyline
 66
     1
 10
0.0
 20
0.0
 30
0.0
  0
VERTEX
  5
343
330
342
100
AcDbEntity
  8
Default
 62
   250
420
  2301728
370
    60
100
AcDbVertex
100
AcDb2dVertex
 10
1744.406784722222
 20
45.99389666666667
 30
0.0
  0
VERTEX
  5
344
330
342
100
AcDbEntity
  8
Default
 62
   250
420
  2301728
370
    60
100
AcDbVertex
100
AcDb2dVertex
 10
44.4067847222222
 20
45.99389666666667
 30
0.0
  0
SEQEND
  5
345
330
342
100
AcDbEntity
  8
Default
 62
   250
420
  2301728
370
    60
  0
POLYLINE
  5
346
330
1F
100
AcDbEntity
  8
Default
 62
   250
420
  2301728
370
    60
100
AcDb2dPolyline
 66
     1
 10
0.0
 20
0.0
 30
0.0
  0
VERTEX
  5
347
330
346
100
AcDbEntity
  8
Default
 62
   250
420
  2301728
370
    60
100
AcDbVertex
100
AcDb2dVertex
 10
44.40650826844137
 20
77.50990415368557
 30
0.0
  0
VERTEX
  5
348
330
346
100
AcDbEntity
  8
Default
 62
   250
420
  2301728
370
    60
100
AcDbVertex
100
AcDb2dVertex
 10
44.40650826844137
 20
14.47844208720977
 30
0.0
  0
SEQEND
  5
349
330
346
100
AcDbEntity
  8
Default
 62
   250
420
  2301728
370
    60
  0
POLYLINE
  5
34A
330
1F
100
AcDbEntity
  8
Default
 62
   250
420
  2301728
370
    60
100
AcDb2dPolyline
 66
     1
 10
0.0
 20
0.0
 30
0.0
  0
VERTEX
  5
34B
330
34A
100
AcDbEntity
  8
Default
 62
   250
420
  2301728
370
    60
100
AcDbVertex
100
AcDb2dVertex
 10
1744.406784722222
 20
77.50990415368557
 30
0.0
  0
VERTEX
  5
34C
330
34A
100
AcDbEntity
  8
Default
 62
   250
420
  2301728
370
    60
100
AcDbVertex
100
AcDb2dVertex
 10
1744.406784722222
 20
14.47844208720977
 30
0.0
  0
SEQEND
  5
34D
330
34A
100
AcDbEntity
  8
Default
 62
   250
420
  2301728
370
    60
  0
POLYLINE
  5
34E
330
1F
100
AcDbEntity
  8
Default
 62
   250
420
  2301728
370
    60
100
AcDb2dPolyline
 66
     1
 10
0.0
 20
0.0
 30
0.0
  0
VERTEX
  5
34F
330
34E
100
AcDbEntity
  8
Default
 62
   250
420
  2301728
370
    60
100
AcDbVertex
100
AcDb2dVertex
 10
-15.77360950086933
 20
506.2999472642134
 30
0.0
  0
VERTEX
  5
350
330
34E
100
AcDbEntity
  8
Default
 62
   250
420
  2301728
370
    60
100
AcDbVertex
100
AcDb2dVertex
 10
-15.77360950086933
 20
396.7661946968522
 30
0.0
  0
SEQEND
  5
351
330
34E
100
AcDbEntity
  8
Default
 62
   250
420
  2301728
370
    60
  0
POLYLINE
  5
352
330
1F
100
AcDbEntity
  8
Default
 62
   250
420
  2301728
370
    60
100
AcDb2dPolyline
 66
     1
 10
0.0
 20
0.0
 30
0.0
  0
VERTEX
  5
353
330
352
100
AcDbEntity
  8
Default
 62
   250
420
  2301728
370
    60
100
AcDbVertex
100
AcDb2dVertex
 10
-47.28934053410723
 20
477.4182678562798
 30
0.0
  0
VERTEX
  5
354
330
352
100
AcDbEntity
  8
Default
 62
   250
420
  2301728
370
    60
100
AcDbVertex
100
AcDb2dVertex
 10
15.74212153236851
 20
477.4182678562798
 30
0.0
  0
SEQEND
  5
355
330
352
100
AcDbEntity
  8
Default
 62
   250
420
  2301728
370
    60
  0
POLYLINE
  5
356
330
1F
100
AcDbEntity
  8
Default
 62
   250
420
  2301728
370
    60
100
AcDb2dPolyline
 66
     1
 10
0.0
 20
0.0
 30
0.0
  0
VERTEX
  5
357
330
356
100
AcDbEntity
  8
Default
 62
   250
420
  2301728
370
    60
100
AcDbVertex
100
AcDb2dVertex
 10
-47.28934053410723
 20
506.2999472642134
 30
0.0
  0
VERTEX
  5
358
330
356
100
AcDbEntity
  8
Default
 62
   250
420
  2301728
370
    60
100
AcDbVertex
100
AcDb2dVertex
 10
15.74212153236851
 20
506.2999472642134
 30
0.0
  0
SEQEND
  5
359
330
356
100
AcDbEntity
  8
Default
 62
   250
420
  2301728
370
    60
  0
POLYLINE
  5
35A
330
1F
100
AcDbEntity
  8
Default
 62
   250
420
  2301728
370
    60
100
AcDb2dPolyline
 66
     1
 10
0.0
 20
0.0
 30
0.0
  0
VERTEX
  5
35B
330
35A
100
AcDbEntity
  8
Default
 62
   250
420
  2301728
370
    60
100
AcDbVertex
100
AcDb2dVertex
 10
1806.630172386854
 20
1692.083750650284
 30
0.0
  0
VERTEX
  5
35C
330
35A
100
AcDbEntity
  8
Default
 62
   250
420
  2301728
370
    60
100
AcDbVertex
100
AcDb2dVertex
 10
1806.630172386854
 20
1133.110792708662
 30
0.0
  0
SEQEND
  5
35D
330
35A
100
AcDbEntity
  8
Default
 62
   250
420
  2301728
370
    60
  0
POLYLINE
  5
35E
330
1F
100
AcDbEntity
  8
Default
 62
   250
420
  2301728
370
    60
100
AcDb2dPolyline
 66
     1
 10
0.0
 20
0.0
 30
0.0
  0
VERTEX
  5
35F
330
35E
100
AcDbEntity
  8
Default
 62
   250
420
  2301728
370
    60
100
AcDbVertex
100
AcDb2dVertex
 10
1775.114164899835
 20
1133.111069162442
 30
0.0
  0
VERTEX
  5
360
330
35E
100
AcDbEntity
  8
Default
 62
   250
420
  2301728
370
    60
100
AcDbVertex
100
AcDb2dVertex
 10
1838.145626966311
 20
1133.111069162442
 30
0.0
  0
SEQEND
  5
361
330
35E
100
AcDbEntity
  8
Default
 62
   250
420
  2301728
370
    60
  0
POLYLINE
  5
362
330
1F
100
AcDbEntity
  8
Default
 62
   250
420
  2301728
370
    60
100
AcDb2dPolyline
 66
     1
 10
0.0
 20
0.0
 30
0.0
  0
VERTEX
  5
363
330
362
100
AcDbEntity
  8
Default
 62
   250
420
  2301728
370
    60
100
AcDbVertex
100
AcDb2dVertex
 10
1775.114164899835
 20
1692.083750650284
 30
0.0
  0
VERTEX
  5
364
330
362
100
AcDbEntity
  8
Default
 62
   250
420
  2301728
370
    60
100
AcDbVertex
100
AcDb2dVertex
 10
1838.145626966311
 20
1692.083750650284
 30
0.0
  0
SEQEND
  5
365
330
362
100
AcDbEntity
  8
Default
 62
   250
420
  2301728
370
    60
  0
POLYLINE
  5
366
330
1F
100
AcDbEntity
  8
Default
 62
   250
420
  2301728
370
    60
100
AcDb2dPolyline
 66
     1
 10
0.0
 20
0.0
 30
0.0
  0
VERTEX
  5
367
330
366
100
AcDbEntity
  8
Default
 62
   250
420
  2301728
370
    60
100
AcDbVertex
100
AcDb2dVertex
 10
2037.07319770189
 20
1755.765984917218
 30
0.0
  0
VERTEX
  5
368
330
366
100
AcDbEntity
  8
Default
 62
   250
420
  2301728
370
    60
100
AcDbVertex
100
AcDb2dVertex
 10
2037.07319770189
 20
1069.447357298835
 30
0.0
  0
SEQEND
  5
369
330
366
100
AcDbEntity
  8
Default
 62
   250
420
  2301728
370
    60
  0
POLYLINE
  5
36A
330
1F
100
AcDbEntity
  8
Default
 62
   250
420
  2301728
370
    60
100
AcDb2dPolyline
 66
     1
 10
0.0
 20
0.0
 30
0.0
  0
VERTEX
  5
36B
330
36A
100
AcDbEntity
  8
Default
 62
   250
420
  2301728
370
    60
100
AcDbVertex
100
AcDb2dVertex
 10
2005.557466668652
 20
1069.447633752616
 30
0.0
  0
VERTEX
  5
36C
330
36A
100
AcDbEntity
  8
Default
 62
   250
420
  2301728
370
    60
100
AcDbVertex
100
AcDb2dVertex
 10
2068.588928735127
 20
1069.447633752616
 30
0.0
  0
SEQEND
  5
36D
330
36A
100
AcDbEntity
  8
Default
 62
   250
420
  2301728
370
    60
  0
POLYLINE
  5
36E
330
1F
100
AcDbEntity
  8
Default
 62
   250
420
  2301728
370
    60
100
AcDb2dPolyline
 66
     1
 10
0.0
 20
0.0
 30
0.0
  0
VERTEX
  5
36F
330
36E
100
AcDbEntity
  8
Default
 62
   250
420
  2301728
370
    60
100
AcDbVertex
100
AcDb2dVertex
 10
2005.557466668652
 20
1755.765984917218
 30
0.0
  0
VERTEX
  5
370
330
36E
100
AcDbEntity
  8
Default
 62
   250
420
  2301728
370
    60
100
AcDbVertex
100
AcDb2dVertex
 10
2068.588928735127
 20
1755.765984917218
 30
0.0
  0
SEQEND
  5
371
330
36E
100
AcDbEntity
  8
Default
 62
   250
420
  2301728
370
    60
  0
POLYLINE
  5
372
330
1F
100
AcDbEntity
  8
Default
 62
   250
420
  2301728
370
    60
100
AcDb2dPolyline
 66
     1
 10
0.0
 20
0.0
 30
0.0
  0
VERTEX
  5
373
330
372
100
AcDbEntity
  8
Default
 62
   250
420
  2301728
370
    60
100
AcDbVertex
100
AcDb2dVertex
 10
2678.310783707474
 20
506.2999472642134
 30
0.0
  0
VERTEX
  5
374
330
372
100
AcDbEntity
  8
Default
 62
   250
420
  2301728
370
    60
100
AcDbVertex
100
AcDb2dVertex
 10
2678.310783707474
 20
115.9306212747935
 30
0.0
  0
SEQEND
  5
375
330
372
100
AcDbEntity
  8
Default
 62
   250
420
  2301728
370
    60
  0
POLYLINE
  5
376
330
1F
100
AcDbEntity
  8
Default
 62
   250
420
  2301728
370
    60
100
AcDb2dPolyline
 66
     1
 10
0.0
 20
0.0
 30
0.0
  0
VERTEX
  5
377
330
376
100
AcDbEntity
  8
Default
 62
   250
420
  2301728
370
    60
100
AcDbVertex
100
AcDb2dVertex
 10
2646.795052674236
 20
115.9317270899174
 30
0.0
  0
VERTEX
  5
378
330
376
100
AcDbEntity
  8
Default
 62
   250
420
  2301728
370
    60
100
AcDbVertex
100
AcDb2dVertex
 10
2709.826514740712
 20
115.9317270899174
 30
0.0
  0
SEQEND
  5
379
330
376
100
AcDbEntity
  8
Default
 62
   250
420
  2301728
370
    60
  0
POLYLINE
  5
37A
330
1F
100
AcDbEntity
  8
Default
 62
   250
420
  2301728
370
    60
100
AcDb2dPolyline
 66
     1
 10
0.0
 20
0.0
 30
0.0
  0
VERTEX
  5
37B
330
37A
100
AcDbEntity
  8
Default
 62
   250
420
  2301728
370
    60
100
AcDbVertex
100
AcDb2dVertex
 10
2646.795052674236
 20
506.2999472642134
 30
0.0
  0
VERTEX
  5
37C
330
37A
100
AcDbEntity
  8
Default
 62
   250
420
  2301728
370
    60
100
AcDbVertex
100
AcDb2dVertex
 10
2709.826514740712
 20
506.2999472642134
 30
0.0
  0
SEQEND
  5
37D
330
37A
100
AcDbEntity
  8
Default
 62
   250
420
  2301728
370
    60
  0
POLYLINE
  5
37E
330
1F
100
AcDbEntity
  8
Default
 62
   250
420
  2301728
370
    60
100
AcDb2dPolyline
 66
     1
 10
0.0
 20
0.0
 30
0.0
  0
VERTEX
  5
37F
330
37E
100
AcDbEntity
  8
Default
 62
   250
420
  2301728
370
    60
100
AcDbVertex
100
AcDb2dVertex
 10
1744.398491108792
 20
563.8244500133023
 30
0.0
  0
VERTEX
  5
380
330
37E
100
AcDbEntity
  8
Default
 62
   250
420
  2301728
370
    60
100
AcDbVertex
100
AcDb2dVertex
 10
1560.258156664765
 20
563.8244500133023
 30
0.0
  0
SEQEND
  5
381
330
37E
100
AcDbEntity
  8
Default
 62
   250
420
  2301728
370
    60
  0
POLYLINE
  5
382
330
1F
100
AcDbEntity
  8
Default
 62
   250
420
  2301728
370
    60
100
AcDb2dPolyline
 66
     1
 10
0.0
 20
0.0
 30
0.0
  0
VERTEX
  5
383
330
382
100
AcDbEntity
  8
Default
 62
   250
420
  2301728
370
    60
100
AcDbVertex
100
AcDb2dVertex
 10
1679.718535146254
 20
532.3087189800644
 30
0.0
  0
VERTEX
  5
384
330
382
100
AcDbEntity
  8
Default
 62
   250
420
  2301728
370
    60
100
AcDbVertex
100
AcDb2dVertex
 10
1679.718535146254
 20
595.3401810465402
 30
0.0
  0
SEQEND
  5
385
330
382
100
AcDbEntity
  8
Default
 62
   250
420
  2301728
370
    60
  0
POLYLINE
  5
386
330
1F
100
AcDbEntity
  8
Default
 62
   250
420
  2301728
370
    60
100
AcDb2dPolyline
 66
     1
 10
0.0
 20
0.0
 30
0.0
  0
VERTEX
  5
387
330
386
100
AcDbEntity
  8
Default
 62
   250
420
  2301728
370
    60
100
AcDbVertex
100
AcDb2dVertex
 10
1744.398491108792
 20
532.3087189800644
 30
0.0
  0
VERTEX
  5
388
330
386
100
AcDbEntity
  8
Default
 62
   250
420
  2301728
370
    60
100
AcDbVertex
100
AcDb2dVertex
 10
1744.398491108792
 20
595.3401810465402
 30
0.0
  0
SEQEND
  5
389
330
386
100
AcDbEntity
  8
Default
 62
   250
420
  2301728
370
    60
  0
POLYLINE
  5
38A
330
1F
100
AcDbEntity
  8
Default
 62
   250
420
  2301728
370
    60
100
AcDb2dPolyline
 66
     1
 10
0.0
 20
0.0
 30
0.0
  0
VERTEX
  5
38B
330
38A
100
AcDbEntity
  8
Default
 62
   250
420
  2301728
370
    60
100
AcDbVertex
100
AcDb2dVertex
 10
261.891315506977
 20
563.8244500133023
 30
0.0
  0
VERTEX
  5
38C
330
38A
100
AcDbEntity
  8
Default
 62
   250
420
  2301728
370
    60
100
AcDbVertex
100
AcDb2dVertex
 10
44.07061692453448
 20
563.8244500133023
 30
0.0
  0
SEQEND
  5
38D
330
38A
100
AcDbEntity
  8
Default
 62
   250
420
  2301728
370
    60
  0
POLYLINE
  5
38E
330
1F
100
AcDbEntity
  8
Default
 62
   250
420
  2301728
370
    60
100
AcDb2dPolyline
 66
     1
 10
0.0
 20
0.0
 30
0.0
  0
VERTEX
  5
38F
330
38E
100
AcDbEntity
  8
Default
 62
   250
420
  2301728
370
    60
100
AcDbVertex
100
AcDb2dVertex
 10
44.07144628587747
 20
532.3087189800644
 30
0.0
  0
VERTEX
  5
390
330
38E
100
AcDbEntity
  8
Default
 62
   250
420
  2301728
370
    60
100
AcDbVertex
100
AcDb2dVertex
 10
44.07144628587747
 20
595.3401810465402
 30
0.0
  0
SEQEND
  5
391
330
38E
100
AcDbEntity
  8
Default
 62
   250
420
  2301728
370
    60
  0
POLYLINE
  5
392
330
1F
100
AcDbEntity
  8
Default
 62
   250
420
  2301728
370
    60
100
AcDb2dPolyline
 66
     1
 10
0.0
 20
0.0
 30
0.0
  0
VERTEX
  5
393
330
392
100
AcDbEntity
  8
Default
 62
   250
420
  2301728
370
    60
100
AcDbVertex
100
AcDb2dVertex
 10
113.2459878198057
 20
532.3087189800644
 30
0.0
  0
VERTEX
  5
394
330
392
100
AcDbEntity
  8
Default
 62
   250
420
  2301728
370
    60
100
AcDbVertex
100
AcDb2dVertex
 10
113.2459878198057
 20
595.3401810465402
 30
0.0
  0
SEQEND
  5
395
330
392
100
AcDbEntity
  8
Default
 62
   250
420
  2301728
370
    60
  0
POLYLINE
  5
396
330
1F
100
AcDbEntity
  8
Default
 62
   250
420
  2301728
370
    60
100
AcDb2dPolyline
 66
     1
 10
0.0
 20
0.0
 30
0.0
  0
VERTEX
  5
397
330
396
100
AcDbEntity
  8
Default
 62
   250
420
  2301728
370
    60
100
AcDbVertex
100
AcDb2dVertex
 10
328.8923774147358
 20
1820.640840795357
 30
0.0
  0
VERTEX
  5
398
330
396
100
AcDbEntity
  8
Default
 62
   250
420
  2301728
370
    60
100
AcDbVertex
100
AcDb2dVertex
 10
44.69789055360837
 20
1820.640840795357
 30
0.0
  0
SEQEND
  5
399
330
396
100
AcDbEntity
  8
Default
 62
   250
420
  2301728
370
    60
  0
POLYLINE
  5
39A
330
1F
100
AcDbEntity
  8
Default
 62
   250
420
  2301728
370
    60
100
AcDb2dPolyline
 66
     1
 10
0.0
 20
0.0
 30
0.0
  0
VERTEX
  5
39B
330
39A
100
AcDbEntity
  8
Default
 62
   250
420
  2301728
370
    60
100
AcDbVertex
100
AcDb2dVertex
 10
44.69706119226538
 20
1789.125109762119
 30
0.0
  0
VERTEX
  5
39C
330
39A
100
AcDbEntity
  8
Default
 62
   250
420
  2301728
370
    60
100
AcDbVertex
100
AcDb2dVertex
 10
44.69706119226538
 20
1852.156571828595
 30
0.0
  0
SEQEND
  5
39D
330
39A
100
AcDbEntity
  8
Default
 62
   250
420
  2301728
370
    60
  0
POLYLINE
  5
39E
330
1F
100
AcDbEntity
  8
Default
 62
   250
420
  2301728
370
    60
100
AcDb2dPolyline
 66
     1
 10
0.0
 20
0.0
 30
0.0
  0
VERTEX
  5
39F
330
39E
100
AcDbEntity
  8
Default
 62
   250
420
  2301728
370
    60
100
AcDbVertex
100
AcDb2dVertex
 10
328.8923774147358
 20
1789.125109762119
 30
0.0
  0
VERTEX
  5
3A0
330
39E
100
AcDbEntity
  8
Default
 62
   250
420
  2301728
370
    60
100
AcDbVertex
100
AcDb2dVertex
 10
328.8923774147358
 20
1852.156571828595
 30
0.0
  0
SEQEND
  5
3A1
330
39E
100
AcDbEntity
  8
Default
 62
   250
420
  2301728
370
    60
  0
POLYLINE
  5
3A2
330
1F
100
AcDbEntity
  8
Default
 62
    18
420
        0
370
    30
100
AcDb2dPolyline
 66
     1
 10
0.0
 20
0.0
 30
0.0
  0
VERTEX
  5
3A3
330
3A2
100
AcDbEntity
  8
Default
 62
    18
420
        0
370
    30
100
AcDbVertex
100
AcDb2dVertex
 10
328.9017768432896
 20
1760.657005210552
 30
0.0
  0
VERTEX
  5
3A4
330
3A2
100
AcDbEntity
  8
Default
 62
    18
420
        0
370
    30
100
AcDbVertex
100
AcDb2dVertex
 10
328.9017768432896
 20
1412.601694939969
 30
0.0
  0
SEQEND
  5
3A5
330
3A2
100
AcDbEntity
  8
Default
 62
    18
420
        0
370
    30
  0
ENDSEC
  0
SECTION
  2
OBJECTS
  0
DICTIONARY
  5
C
330
0
100
AcDbDictionary
281
     1
  3
ACAD_DETAILVIEWSTYLE
350
3E1
  3
ACAD_GROUP
350
D
  3
ACAD_LAYOUT
350
1A
  3
ACAD_MATERIAL
350
43
  3
ACAD_MLEADERSTYLE
350
5B
  3
ACAD_MLINESTYLE
350
17
  3
ACAD_PLOTSETTINGS
350
19
  3
ACAD_PLOTSTYLENAME
350
E
  3
ACAD_SCALELIST
350
47
  3
ACAD_SECTIONVIEWSTYLE
350
3E2
  3
ACAD_TABLESTYLE
350
59
  3
ACAD_VISUALSTYLE
350
2A
  3
ACDB_RECOMPOSE_DATA
350
3DE
  3
AcDbVariableDictionary
350
3A6
  0
SUN
  5
5D
330
29
100
AcDbSun
 90
        1
290
     0
 63
     7
421
 16777215
 40
1.0
291
     1
 91
  2455826
 92
 54000000
292
     0
 70
     2
 71
   256
280
     1
  0
DICTIONARY
  5
3E1
102
{ACAD_REACTORS
330
C
102
}
330
C
100
AcDbDictionary
281
     1
  0
DICTIONARY
  5
D
102
{ACAD_REACTORS
330
C
102
}
330
C
100
AcDbDictionary
281
     1
  0
DICTIONARY
  5
1A
102
{ACAD_REACTORS
330
C
102
}
330
C
100
AcDbDictionary
281
     1
  3
Layout1
350
1E
  3
Layout2
350
26
  3
Model
350
22
  0
DICTIONARY
  5
43
102
{ACAD_REACTORS
330
C
102
}
330
C
100
AcDbDictionary
281
     1
  3
ByBlock
350
45
  3
ByLayer
350
44
  3
Global
350
46
  0
DICTIONARY
  5
5B
102
{ACAD_REACTORS
330
C
102
}
330
C
100
AcDbDictionary
281
     1
  3
Standard
350
5C
  0
DICTIONARY
  5
17
102
{ACAD_REACTORS
330
C
102
}
330
C
100
AcDbDictionary
281
     1
  3
Standard
350
18
  0
DICTIONARY
  5
19
102
{ACAD_REACTORS
330
C
102
}
330
C
100
AcDbDictionary
281
     1
  0
ACDBDICTIONARYWDFLT
  5
E
102
{ACAD_REACTORS
330
C
102
}
330
C
100
AcDbDictionary
281
     1
  3
Normal
350
F
100
AcDbDictionaryWithDefault
340
F
  0
DICTIONARY
  5
47
102
{ACAD_REACTORS
330
C
102
}
330
C
100
AcDbDictionary
281
     1
  3
A0
350
48
  3
A1
350
49
  3
A2
350
4A
  3
A3
350
4B
  3
A4
350
4C
  3
A5
350
4D
  3
A6
350
4E
  3
A7
350
4F
  3
A8
350
50
  3
A9
350
51
  3
B1
350
52
  3
B2
350
53
  3
B3
350
54
  3
B4
350
55
  3
B5
350
56
  3
B6
350
57
  3
B7
350
58
  0
DICTIONARY
  5
3E2
102
{ACAD_REACTORS
330
C
102
}
330
C
100
AcDbDictionary
281
     1
  0
DICTIONARY
  5
59
102
{ACAD_REACTORS
330
C
102
}
330
C
100
AcDbDictionary
281
     1
  3
Standard
350
5A
  0
DICTIONARY
  5
2A
102
{ACAD_REACTORS
330
C
102
}
330
C
100
AcDbDictionary
281
     1
  3
2dWireframe
350
2F
  3
Basic
350
32
  3
Brighten
350
36
  3
ColorChange
350
3A
  3
Conceptual
350
34
  3
Dim
350
35
  3
EdgeColorOff
350
3D
  3
Facepattern
350
39
  3
Flat
350
2B
  3
FlatWithEdges
350
2C
  3
Gouraud
350
2D
  3
GouraudWithEdges
350
2E
  3
Hidden
350
31
  3
JitterOff
350
3B
  3
Linepattern
350
38
  3
OverhangOff
350
3C
  3
Realistic
350
33
  3
Shaded
350
42
  3
Shaded with edges
350
41
  3
Shades of Gray
350
3E
  3
Sketchy
350
3F
  3
Thicken
350
37
  3
Wireframe
350
30
  3
X-Ray
350
40
  0
XRECORD
  5
3DE
102
{ACAD_REACTORS
330
C
102
}
330
C
100
AcDbXrecord
280
     1
 90
        1
330
5A
  0
DICTIONARY
  5
3A6
102
{ACAD_REACTORS
330
C
102
}
330
C
100
AcDbDictionary
281
     1
  3
CANNOSCALE
350
3A7
  3
CMLEADERSTYLE
350
3E0
  3
CTABLESTYLE
350
3DF
  3
XCLIPFRAME
350
3A8
  0
LAYOUT
  5
1E
102
{ACAD_REACTORS
330
1A
102
}
330
1A
100
AcDbPlotSettings
  1

  2
none_device
  4

  6

 40
0.0
 41
0.0
 42
0.0
 43
0.0
 44
0.0
 45
0.0
 46
0.0
 47
0.0
 48
0.0
 49
0.0
140
0.0
141
0.0
142
1.0
143
1.0
 70
   688
 72
     0
 73
     0
 74
     5
  7

 75
    16
 76
     0
 77
     2
 78
   300
147
1.0
148
0.0
149
0.0
100
AcDbLayout
  1
Layout1
 70
     1
 71
     1
 10
0.0
 20
0.0
 11
12.0
 21
9.0
 12
0.0
 22
0.0
 32
0.0
 14
1.000000000000000E+20
 24
1.000000000000000E+20
 34
1.000000000000000E+20
 15
-1.000000000000000E+20
 25
-1.000000000000000E+20
 35
-1.000000000000000E+20
146
0.0
 13
0.0
 23
0.0
 33
0.0
 16
1.0
 26
0.0
 36
0.0
 17
0.0
 27
1.0
 37
0.0
 76
     0
330
1B
  0
LAYOUT
  5
26
102
{ACAD_REACTORS
330
1A
102
}
330
1A
100
AcDbPlotSettings
  1

  2
none_device
  4

  6

 40
0.0
 41
0.0
 42
0.0
 43
0.0
 44
0.0
 45
0.0
 46
0.0
 47
0.0
 48
0.0
 49
0.0
140
0.0
141
0.0
142
1.0
143
1.0
 70
   688
 72
     0
 73
     0
 74
     5
  7

 75
    16
 76
     0
 77
     2
 78
   300
147
1.0
148
0.0
149
0.0
100
AcDbLayout
  1
Layout2
 70
     1
 71
     2
 10
0.0
 20
0.0
 11
0.0
 21
0.0
 12
0.0
 22
0.0
 32
0.0
 14
0.0
 24
0.0
 34
0.0
 15
0.0
 25
0.0
 35
0.0
146
0.0
 13
0.0
 23
0.0
 33
0.0
 16
1.0
 26
0.0
 36
0.0
 17
0.0
 27
1.0
 37
0.0
 76
     0
330
23
  0
LAYOUT
  5
22
102
{ACAD_REACTORS
330
1A
102
}
330
1A
100
AcDbPlotSettings
  1

  2
none_device
  4
Letter_(8.50_x_11.00_Inches)
  6

 40
6.35
 41
6.35
 42
6.35000508
 43
6.35000508
 44
215.9
 45
279.4
 46
0.0
 47
0.0
 48
0.0
 49
0.0
140
0.0
141
0.0
142
1.0
143
1.0
 70
  1712
 72
     0
 73
     0
 74
     0
  7

 75
     0
 76
     0
 77
     2
 78
   300
147
1.0
148
0.0
149
0.0
100
AcDbLayout
  1
Model
 70
     1
 71
     0
 10
0.0
 20
0.0
 11
12.0
 21
9.0
 12
0.0
 22
0.0
 32
0.0
 14
-140.1015097043065
 24
-43.54146583741914
 34
0.0
 15
3034.688028591486
 25
1871.247578467192
 35
0.0
146
0.0
 13
0.0
 23
0.0
 33
0.0
 16
1.0
 26
0.0
 36
0.0
 17
0.0
 27
1.0
 37
0.0
 76
     0
330
1F
331
29
  0
MATERIAL
  5
45
102
{ACAD_REACTORS
330
43
102
}
330
43
100
AcDbMaterial
  1
ByBlock
 72
     1
 94
      127
  0
MATERIAL
  5
44
102
{ACAD_REACTORS
330
43
102
}
330
43
100
AcDbMaterial
  1
ByLayer
 72
     1
 94
      127
  0
MATERIAL
  5
46
102
{ACAD_REACTORS
330
43
102
}
330
43
100
AcDbMaterial
  1
Global
 72
     1
 94
      127
  0
MLEADERSTYLE
  5
5C
102
{ACAD_REACTORS
330
5B
102
}
102
{ACAD_XDICTIONARY
360
3DC
102
}
330
5B
100
AcDbMLeaderStyle
170
     2
171
     1
172
     0
 90
        2
 40
0.0
 41
0.0
173
     1
 91
-1056964608
340
14
 92
       -2
290
     1
 42
0.09
291
     1
 43
0.36
  3
Standard
341
0
 44
0.18
300

342
11
174
     1
178
     6
175
     1
176
     0
 93
-1056964608
 45
0.18
292
     0
297
     0
 46
0.18
343
0
 94
-1056964608
 47
1.0
 49
1.0
140
1.0
293
     1
141
0.0
294
     1
177
     0
142
1.0
295
     0
296
     0
143
0.125
1001
ACAD_MLEADERVER
1070
     2
  0
MLINESTYLE
  5
18
102
{ACAD_REACTORS
330
17
102
}
330
17
100
AcDbMlineStyle
  2
Standard
 70
     0
  3

 62
   256
 51
90.0
 52
90.0
 71
     2
 49
0.5
 62
   256
  6
BYLAYER
 49
-0.5
 62
   256
  6
BYLAYER
  0
ACDBPLACEHOLDER
  5
F
102
{ACAD_REACTORS
330
E
102
}
330
E
  0
SCALE
  5
48
102
{ACAD_REACTORS
330
47
102
}
330
47
100
AcDbScale
 70
     0
300
1:1
140
1.0
141
1.0
290
     1
  0
SCALE
  5
49
102
{ACAD_REACTORS
330
47
102
}
330
47
100
AcDbScale
 70
     0
300
1/128" = 1'-0"
140
0.0078125
141
12.0
290
     0
  0
SCALE
  5
4A
102
{ACAD_REACTORS
330
47
102
}
330
47
100
AcDbScale
 70
     0
300
1/64" = 1'-0"
140
0.015625
141
12.0
290
     0
  0
SCALE
  5
4B
102
{ACAD_REACTORS
330
47
102
}
330
47
100
AcDbScale
 70
     0
300
1/32" = 1'-0"
140
0.03125
141
12.0
290
     0
  0
SCALE
  5
4C
102
{ACAD_REACTORS
330
47
102
}
330
47
100
AcDbScale
 70
     0
300
1/16" = 1'-0"
140
0.0625
141
12.0
290
     0
  0
SCALE
  5
4D
102
{ACAD_REACTORS
330
47
102
}
330
47
100
AcDbScale
 70
     0
300
3/32" = 1'-0"
140
0.09375
141
12.0
290
     0
  0
SCALE
  5
4E
102
{ACAD_REACTORS
330
47
102
}
330
47
100
AcDbScale
 70
     0
300
1/8" = 1'-0"
140
0.125
141
12.0
290
     0
  0
SCALE
  5
4F
102
{ACAD_REACTORS
330
47
102
}
330
47
100
AcDbScale
 70
     0
300
3/16" = 1'-0"
140
0.1875
141
12.0
290
     0
  0
SCALE
  5
50
102
{ACAD_REACTORS
330
47
102
}
330
47
100
AcDbScale
 70
     0
300
1/4" = 1'-0"
140
0.25
141
12.0
290
     0
  0
SCALE
  5
51
102
{ACAD_REACTORS
330
47
102
}
330
47
100
AcDbScale
 70
     0
300
3/8" = 1'-0"
140
0.375
141
12.0
290
     0
  0
SCALE
  5
52
102
{ACAD_REACTORS
330
47
102
}
330
47
100
AcDbScale
 70
     0
300
1/2" = 1'-0"
140
0.5
141
12.0
290
     0
  0
SCALE
  5
53
102
{ACAD_REACTORS
330
47
102
}
330
47
100
AcDbScale
 70
     0
300
3/4" = 1'-0"
140
0.75
141
12.0
290
     0
  0
SCALE
  5
54
102
{ACAD_REACTORS
330
47
102
}
330
47
100
AcDbScale
 70
     0
300
1" = 1'-0"
140
1.0
141
12.0
290
     0
  0
SCALE
  5
55
102
{ACAD_REACTORS
330
47
102
}
330
47
100
AcDbScale
 70
     0
300
1-1/2" = 1'-0"
140
1.5
141
12.0
290
     0
  0
SCALE
  5
56
102
{ACAD_REACTORS
330
47
102
}
330
47
100
AcDbScale
 70
     0
300
3" = 1'-0"
140
3.0
141
12.0
290
     0
  0
SCALE
  5
57
102
{ACAD_REACTORS
330
47
102
}
330
47
100
AcDbScale
 70
     0
300
6" = 1'-0"
140
6.0
141
12.0
290
     0
  0
SCALE
  5
58
102
{ACAD_REACTORS
330
47
102
}
330
47
100
AcDbScale
 70
     0
300
1'-0" = 1'-0"
140
12.0
141
12.0
290
     0
  0
TABLESTYLE
  5
5A
102
{ACAD_REACTORS
330
59
102
}
102
{ACAD_XDICTIONARY
360
3D9
102
}
330
59
100
AcDbTableStyle
  3
Standard
 70
     0
 71
     0
 40
0.06
 41
0.06
280
     0
281
     0
  7
Standard
140
0.18
170
     2
 62
     0
 63
   257
283
     0
 90
        4
 91
        0
  1

274
    -2
284
     1
 64
     0
275
    -2
285
     1
 65
     0
276
    -2
286
     1
 66
     0
277
    -2
287
     1
 67
     0
278
    -2
288
     1
 68
     0
279
    -2
289
     1
 69
     0
  7
Standard
140
0.25
170
     5
 62
     0
 63
   257
283
     0
 90
        4
 91
        0
  1

274
    -2
284
     1
 64
     0
275
    -2
285
     1
 65
     0
276
    -2
286
     1
 66
     0
277
    -2
287
     1
 67
     0
278
    -2
288
     1
 68
     0
279
    -2
289
     1
 69
     0
  7
Standard
140
0.18
170
     5
 62
     0
 63
   257
283
     0
 90
        4
 91
        0
  1

274
    -2
284
     1
 64
     0
275
    -2
285
     1
 65
     0
276
    -2
286
     1
 66
     0
277
    -2
287
     1
 67
     0
278
    -2
288
     1
 68
     0
279
    -2
289
     1
 69
     0
  0
VISUALSTYLE
  5
2F
102
{ACAD_REACTORS
330
2A
102
}
102
{ACAD_XDICTIONARY
360
3B1
102
}
330
2A
100
AcDbVisualStyle
  2
2dWireframe
 70
     4
 71
     0
 72
     2
 73
     0
 90
        0
 40
0.6
 41
30.0
 62
     5
 63
     7
421
 16777215
 74
     1
 91
        4
 64
     7
 65
   257
 75
     1
175
     1
 42
1.0
 92
        0
 66
   257
 43
1.0
 76
     1
 77
     6
 78
     2
 67
     7
 79
     5
170
     0
171
     0
290
     0
174
     0
 93
        1
 44
0.0
173
     0
291
     0
 45
0.0
  0
VISUALSTYLE
  5
32
102
{ACAD_REACTORS
330
2A
102
}
102
{ACAD_XDICTIONARY
360
3B7
102
}
330
2A
100
AcDbVisualStyle
  2
Basic
 70
     7
 71
     1
 72
     0
 73
     1
 90
        0
 40
0.6
 41
30.0
 62
     5
 63
     7
421
 16777215
 74
     0
 91
        4
 64
     7
 65
   257
 75
     1
175
     1
 42
1.0
 92
        8
 66
     7
 43
1.0
 76
     1
 77
     6
 78
     2
 67
     7
 79
     5
170
     0
171
     0
290
     0
174
     0
 93
        1
 44
0.0
173
     0
291
     1
 45
0.0
  0
VISUALSTYLE
  5
36
102
{ACAD_REACTORS
330
2A
102
}
102
{ACAD_XDICTIONARY
360
3BF
102
}
330
2A
100
AcDbVisualStyle
  2
Brighten
 70
    12
 71
     2
 72
     2
 73
     0
 90
        0
 40
0.6
 41
30.0
 62
     5
 63
     7
421
 16777215
 74
     1
 91
        4
 64
     7
 65
   257
 75
     1
175
     1
 42
1.0
 92
        8
 66
     7
 43
1.0
 76
     1
 77
     6
 78
     2
 67
     7
 79
     5
170
     0
171
     0
290
     0
174
     0
 93
        1
 44
50.0
173
     0
291
     1
 45
0.0
  0
VISUALSTYLE
  5
3A
102
{ACAD_REACTORS
330
2A
102
}
102
{ACAD_XDICTIONARY
360
3C7
102
}
330
2A
100
AcDbVisualStyle
  2
ColorChange
 70
    16
 71
     2
 72
     2
 73
     3
 90
        0
 40
0.6
 41
30.0
 62
     5
 63
     8
421
  8421504
 74
     1
 91
        4
 64
     7
 65
   257
 75
     1
175
     1
 42
1.0
 92
        8
 66
     8
424
  8421504
 43
1.0
 76
     1
 77
     6
 78
     2
 67
     7
 79
     5
170
     0
171
     0
290
     0
174
     0
 93
        1
 44
0.0
173
     0
291
     1
 45
0.0
  0
VISUALSTYLE
  5
34
102
{ACAD_REACTORS
330
2A
102
}
102
{ACAD_XDICTIONARY
360
3BB
102
}
330
2A
100
AcDbVisualStyle
  2
Conceptual
 70
     9
 71
     3
 72
     2
 73
     0
 90
        0
 40
0.6
 41
30.0
 62
     5
 63
     7
421
 16777215
 74
     2
 91
        2
 64
     7
 65
   257
 75
     1
175
     1
 42
179.0
 92
        8
 66
     7
 43
1.0
 76
     1
 77
     6
 78
     2
 67
     7
 79
     3
170
     0
171
     0
290
     0
174
     0
 93
        1
 44
0.0
173
     0
291
     0
 45
0.0
  0
VISUALSTYLE
  5
35
102
{ACAD_REACTORS
330
2A
102
}
102
{ACAD_XDICTIONARY
360
3BD
102
}
330
2A
100
AcDbVisualStyle
  2
Dim
 70
    11
 71
     2
 72
     2
 73
     0
 90
        0
 40
0.6
 41
30.0
 62
     5
 63
     7
421
 16777215
 74
     1
 91
        4
 64
     7
 65
   257
 75
     1
175
     1
 42
1.0
 92
        8
 66
     7
 43
1.0
 76
     1
 77
     6
 78
     2
 67
     7
 79
     5
170
     0
171
     0
290
     0
174
     0
 93
        1
 44
-50.0
173
     0
291
     1
 45
0.0
  0
VISUALSTYLE
  5
3D
102
{ACAD_REACTORS
330
2A
102
}
102
{ACAD_XDICTIONARY
360
3CD
102
}
330
2A
100
AcDbVisualStyle
  2
EdgeColorOff
 70
    22
 71
     2
 72
     2
 73
     0
 90
        0
 40
0.6
 41
30.0
 62
     5
 63
     7
421
 16777215
 74
     1
 91
        4
 64
     7
 65
   257
 75
     1
175
     1
 42
1.0
 92
        8
 66
     7
 43
1.0
 76
     1
 77
     6
 78
     2
 67
     7
 79
     5
170
     0
171
     0
290
     0
174
     0
 93
        1
 44
0.0
173
     0
291
     1
 45
0.0
  0
VISUALSTYLE
  5
39
102
{ACAD_REACTORS
330
2A
102
}
102
{ACAD_XDICTIONARY
360
3C5
102
}
330
2A
100
AcDbVisualStyle
  2
Facepattern
 70
    15
 71
     2
 72
     2
 73
     0
 90
        0
 40
0.6
 41
30.0
 62
     5
 63
     7
421
 16777215
 74
     1
 91
        4
 64
     7
 65
   257
 75
     1
175
     1
 42
1.0
 92
        8
 66
     7
 43
1.0
 76
     1
 77
     6
 78
     2
 67
     7
 79
     5
170
     0
171
     0
290
     0
174
     0
 93
        1
 44
0.0
173
     0
291
     1
 45
0.0
  0
VISUALSTYLE
  5
2B
102
{ACAD_REACTORS
330
2A
102
}
102
{ACAD_XDICTIONARY
360
3A9
102
}
330
2A
100
AcDbVisualStyle
  2
Flat
 70
     0
 71
     2
 72
     1
 73
     1
 90
        2
 40
0.6
 41
30.0
 62
     5
 63
     7
421
 16777215
 74
     0
 91
        0
 64
     7
 65
   257
 75
     1
175
     1
 42
1.0
 92
        8
 66
     7
 43
1.0
 76
     1
 77
     6
 78
     2
 67
     7
 79
     5
170
     0
171
     0
290
     0
174
     0
 93
       13
 44
0.0
173
     0
291
     1
 45
0.0
  0
VISUALSTYLE
  5
2C
102
{ACAD_REACTORS
330
2A
102
}
102
{ACAD_XDICTIONARY
360
3AB
102
}
330
2A
100
AcDbVisualStyle
  2
FlatWithEdges
 70
     1
 71
     2
 72
     1
 73
     1
 90
        2
 40
0.6
 41
30.0
 62
     5
 63
     7
421
 16777215
 74
     1
 91
        0
 64
     7
 65
   257
 75
     1
175
     1
 42
1.0
 92
        0
 66
   257
 43
1.0
 76
     1
 77
     6
 78
     2
 67
     7
 79
     5
170
     0
171
     0
290
     0
174
     0
 93
       13
 44
0.0
173
     0
291
     1
 45
0.0
  0
VISUALSTYLE
  5
2D
102
{ACAD_REACTORS
330
2A
102
}
102
{ACAD_XDICTIONARY
360
3AD
102
}
330
2A
100
AcDbVisualStyle
  2
Gouraud
 70
     2
 71
     2
 72
     2
 73
     1
 90
        2
 40
0.6
 41
30.0
 62
     5
 63
     7
421
 16777215
 74
     0
 91
        0
 64
     7
 65
   257
 75
     1
175
     1
 42
1.0
 92
        0
 66
     7
 43
1.0
 76
     1
 77
     6
 78
     2
 67
     7
 79
     5
170
     0
171
     0
290
     0
174
     0
 93
       13
 44
0.0
173
     0
291
     1
 45
0.0
  0
VISUALSTYLE
  5
2E
102
{ACAD_REACTORS
330
2A
102
}
102
{ACAD_XDICTIONARY
360
3AF
102
}
330
2A
100
AcDbVisualStyle
  2
GouraudWithEdges
 70
     3
 71
     2
 72
     2
 73
     1
 90
        2
 40
0.6
 41
30.0
 62
     5
 63
     7
421
 16777215
 74
     1
 91
        0
 64
     7
 65
   257
 75
     1
175
     1
 42
1.0
 92
        0
 66
   257
 43
1.0
 76
     1
 77
     6
 78
     2
 67
     7
 79
     5
170
     0
171
     0
290
     0
174
     0
 93
       13
 44
0.0
173
     0
291
     1
 45
0.0
  0
VISUALSTYLE
  5
31
102
{ACAD_REACTORS
330
2A
102
}
102
{ACAD_XDICTIONARY
360
3B5
102
}
330
2A
100
AcDbVisualStyle
  2
Hidden
 70
     6
 71
     1
 72
     2
 73
     2
 90
        0
 40
0.6
 41
30.0
 62
     5
 63
     7
421
 16777215
 74
     2
 91
        2
 64
     7
 65
   257
 75
     2
175
     1
 42
40.0
 92
        0
 66
   257
 43
1.0
 76
     1
 77
     6
 78
     2
 67
     7
 79
     3
170
     0
171
     0
290
     0
174
     0
 93
        1
 44
0.0
173
     0
291
     0
 45
0.0
  0
VISUALSTYLE
  5
3B
102
{ACAD_REACTORS
330
2A
102
}
102
{ACAD_XDICTIONARY
360
3C9
102
}
330
2A
100
AcDbVisualStyle
  2
JitterOff
 70
    20
 71
     2
 72
     2
 73
     0
 90
        0
 40
0.6
 41
30.0
 62
     5
 63
     7
421
 16777215
 74
     1
 91
        4
 64
     7
 65
   257
 75
     1
175
     1
 42
1.0
 92
       10
 66
     7
 43
1.0
 76
     1
 77
     6
 78
     2
 67
     7
 79
     5
170
     0
171
     0
290
     0
174
     0
 93
        1
 44
0.0
173
     0
291
     1
 45
0.0
  0
VISUALSTYLE
  5
38
102
{ACAD_REACTORS
330
2A
102
}
102
{ACAD_XDICTIONARY
360
3C3
102
}
330
2A
100
AcDbVisualStyle
  2
Linepattern
 70
    14
 71
     2
 72
     2
 73
     0
 90
        0
 40
0.6
 41
30.0
 62
     5
 63
     7
421
 16777215
 74
     1
 91
        4
 64
     7
 65
   257
 75
     7
175
     7
 42
1.0
 92
        8
 66
     7
 43
1.0
 76
     1
 77
     6
 78
     2
 67
     7
 79
     5
170
     0
171
     0
290
     0
174
     0
 93
        1
 44
0.0
173
     0
291
     1
 45
0.0
  0
VISUALSTYLE
  5
3C
102
{ACAD_REACTORS
330
2A
102
}
102
{ACAD_XDICTIONARY
360
3CB
102
}
330
2A
100
AcDbVisualStyle
  2
OverhangOff
 70
    21
 71
     2
 72
     2
 73
     0
 90
        0
 40
0.6
 41
30.0
 62
     5
 63
     7
421
 16777215
 74
     1
 91
        4
 64
     7
 65
   257
 75
     1
175
     1
 42
1.0
 92
        9
 66
     7
 43
1.0
 76
     1
 77
     6
 78
     2
 67
     7
 79
     5
170
     0
171
     0
290
     0
174
     0
 93
        1
 44
0.0
173
     0
291
     1
 45
0.0
  0
VISUALSTYLE
  5
33
102
{ACAD_REACTORS
330
2A
102
}
102
{ACAD_XDICTIONARY
360
3B9
102
}
330
2A
100
AcDbVisualStyle
  2
Realistic
 70
     8
 71
     2
 72
     3
 73
     0
 90
        2
 40
0.6
 41
30.0
 62
     5
 63
     7
421
 16777215
 74
     0
 91
        0
 64
     7
 65
   257
 75
     1
175
     1
 42
1.0
 92
        8
 66
   257
 43
1.0
 76
     1
 77
     6
 78
     2
 67
     7
 79
     3
170
     0
171
     0
290
     0
174
     0
 93
       13
 44
0.0
173
     0
291
     0
 45
0.0
  0
VISUALSTYLE
  5
42
102
{ACAD_REACTORS
330
2A
102
}
102
{ACAD_XDICTIONARY
360
3D7
102
}
330
2A
100
AcDbVisualStyle
  2
Shaded
 70
    27
 71
     2
 72
     2
 73
     1
 90
        2
 40
0.6
 41
30.0
 62
     5
 63
     7
421
 16777215
 74
     0
 91
        4
 64
     7
 65
   257
 75
     1
175
     1
 42
1.0
 92
        8
 66
   257
 43
1.0
 76
     1
 77
     6
 78
     2
 67
     8
425
  7895160
 79
     3
170
     0
171
     0
290
     0
174
     0
 93
        5
 44
0.0
173
     0
291
     0
 45
0.0
  0
VISUALSTYLE
  5
41
102
{ACAD_REACTORS
330
2A
102
}
102
{ACAD_XDICTIONARY
360
3D5
102
}
330
2A
100
AcDbVisualStyle
  2
Shaded with edges
 70
    26
 71
     2
 72
     2
 73
     1
 90
        2
 40
0.6
 41
30.0
 62
     5
 63
     7
421
 16777215
 74
     1
 91
       10
 64
     7
 65
   257
 75
     2
175
     1
 42
1.0
 92
        8
 66
   257
 43
1.0
 76
     1
 77
     6
 78
     2
 67
     7
 79
     3
170
     0
171
     0
290
     0
174
     0
 93
        5
 44
0.0
173
     0
291
     0
 45
0.0
  0
VISUALSTYLE
  5
3E
102
{ACAD_REACTORS
330
2A
102
}
102
{ACAD_XDICTIONARY
360
3CF
102
}
330
2A
100
AcDbVisualStyle
  2
Shades of Gray
 70
    23
 71
     2
 72
     2
 73
     3
 90
        0
 40
0.6
 41
30.0
 62
     5
 63
     7
421
 16777215
 74
     2
 91
        2
 64
     7
 65
     7
 75
     1
175
     1
 42
40.0
 92
        8
 66
     7
 43
1.0
 76
     1
 77
     6
 78
     2
 67
     7
 79
     3
170
     0
171
     0
290
     0
174
     0
 93
        1
 44
0.0
173
     0
291
     0
 45
0.0
  0
VISUALSTYLE
  5
3F
102
{ACAD_REACTORS
330
2A
102
}
102
{ACAD_XDICTIONARY
360
3D1
102
}
330
2A
100
AcDbVisualStyle
  2
Sketchy
 70
    24
 71
     1
 72
     2
 73
     2
 90
        0
 40
0.6
 41
30.0
 62
     5
 63
     7
421
 16777215
 74
     2
 91
        2
 64
     7
 65
     7
 75
     1
175
     1
 42
40.0
 92
       11
 66
     7
 43
1.0
 76
     1
 77
     6
 78
     2
 67
     7
 79
     6
170
     0
171
     0
290
     0
174
     0
 93
        1
 44
0.0
173
     0
291
     0
 45
0.0
  0
VISUALSTYLE
  5
37
102
{ACAD_REACTORS
330
2A
102
}
102
{ACAD_XDICTIONARY
360
3C1
102
}
330
2A
100
AcDbVisualStyle
  2
Thicken
 70
    13
 71
     2
 72
     2
 73
     0
 90
        0
 40
0.6
 41
30.0
 62
     5
 63
     7
421
 16777215
 74
     1
 91
        4
 64
     7
 65
   257
 75
     1
175
     1
 42
1.0
 92
       12
 66
     7
 43
1.0
 76
     1
 77
     6
 78
     2
 67
     7
 79
     5
170
     0
171
     0
290
     0
174
     0
 93
        1
 44
0.0
173
     0
291
     1
 45
0.0
  0
VISUALSTYLE
  5
30
102
{ACAD_REACTORS
330
2A
102
}
102
{ACAD_XDICTIONARY
360
3B3
102
}
330
2A
100
AcDbVisualStyle
  2
Wireframe
 70
     5
 71
     0
 72
     2
 73
     0
 90
        0
 40
0.6
 41
30.0
 62
     5
 63
     7
421
 16777215
 74
     1
 91
        4
 64
     7
 65
   257
 75
     1
175
     1
 42
1.0
 92
        0
 66
   257
 43
1.0
 76
     1
 77
     6
 78
     2
 67
     7
 79
     3
170
     0
171
     0
290
     0
174
     0
 93
        1
 44
0.0
173
     0
291
     0
 45
0.0
  0
VISUALSTYLE
  5
40
102
{ACAD_REACTORS
330
2A
102
}
102
{ACAD_XDICTIONARY
360
3D3
102
}
330
2A
100
AcDbVisualStyle
  2
X-Ray
 70
    25
 71
     2
 72
     2
 73
     1
 90
        1
 40
0.5
 41
30.0
 62
     5
 63
     7
421
 16777215
 74
     1
 91
        0
 64
     7
 65
   257
 75
     1
175
     1
 42
1.0
 92
        8
 66
     7
 43
1.0
 76
     1
 77
     6
 78
     2
 67
     7
 79
     3
170
     0
171
     0
290
     0
174
     0
 93
       13
 44
0.0
173
     0
291
     0
 45
0.0
  0
DICTIONARYVAR
  5
3A7
102
{ACAD_REACTORS
330
3A6
102
}
330
3A6
100
DictionaryVariables
280
     0
  1
1:1
  0
DICTIONARYVAR
  5
3E0
102
{ACAD_REACTORS
330
3A6
102
}
330
3A6
100
DictionaryVariables
280
     0
  1
Standard
  0
DICTIONARYVAR
  5
3DF
102
{ACAD_REACTORS
330
3A6
102
}
330
3A6
100
DictionaryVariables
280
     0
  1
Standard
  0
DICTIONARYVAR
  5
3A8
102
{ACAD_REACTORS
330
3A6
102
}
330
3A6
100
DictionaryVariables
280
     0
  1
2
  0
DICTIONARY
  5
3DC
330
5C
100
AcDbDictionary
280
     1
281
     1
  3
ACAD_XREC_ROUNDTRIP
360
3DD
  0
DICTIONARY
  5
3D9
330
5A
100
AcDbDictionary
280
     1
281
     1
  3
ACAD_ROUNDTRIP_2008_TABLESTYLE_CELLSTYLEMAP
360
3DA
  0
DICTIONARY
  5
3B1
330
2F
100
AcDbDictionary
280
     1
281
     1
  3
ACAD_XREC_ROUNDTRIP
360
3B2
  0
DICTIONARY
  5
3B7
330
32
100
AcDbDictionary
280
     1
281
     1
  3
ACAD_XREC_ROUNDTRIP
360
3B8
  0
DICTIONARY
  5
3BF
330
36
100
AcDbDictionary
280
     1
281
     1
  3
ACAD_XREC_ROUNDTRIP
360
3C0
  0
DICTIONARY
  5
3C7
330
3A
100
AcDbDictionary
280
     1
281
     1
  3
ACAD_XREC_ROUNDTRIP
360
3C8
  0
DICTIONARY
  5
3BB
330
34
100
AcDbDictionary
280
     1
281
     1
  3
ACAD_XREC_ROUNDTRIP
360
3BC
  0
DICTIONARY
  5
3BD
330
35
100
AcDbDictionary
280
     1
281
     1
  3
ACAD_XREC_ROUNDTRIP
360
3BE
  0
DICTIONARY
  5
3CD
330
3D
100
AcDbDictionary
280
     1
281
     1
  3
ACAD_XREC_ROUNDTRIP
360
3CE
  0
DICTIONARY
  5
3C5
330
39
100
AcDbDictionary
280
     1
281
     1
  3
ACAD_XREC_ROUNDTRIP
360
3C6
  0
DICTIONARY
  5
3A9
330
2B
100
AcDbDictionary
280
     1
281
     1
  3
ACAD_XREC_ROUNDTRIP
360
3AA
  0
DICTIONARY
  5
3AB
330
2C
100
AcDbDictionary
280
     1
281
     1
  3
ACAD_XREC_ROUNDTRIP
360
3AC
  0
DICTIONARY
  5
3AD
330
2D
100
AcDbDictionary
280
     1
281
     1
  3
ACAD_XREC_ROUNDTRIP
360
3AE
  0
DICTIONARY
  5
3AF
330
2E
100
AcDbDictionary
280
     1
281
     1
  3
ACAD_XREC_ROUNDTRIP
360
3B0
  0
DICTIONARY
  5
3B5
330
31
100
AcDbDictionary
280
     1
281
     1
  3
ACAD_XREC_ROUNDTRIP
360
3B6
  0
DICTIONARY
  5
3C9
330
3B
100
AcDbDictionary
280
     1
281
     1
  3
ACAD_XREC_ROUNDTRIP
360
3CA
  0
DICTIONARY
  5
3C3
330
38
100
AcDbDictionary
280
     1
281
     1
  3
ACAD_XREC_ROUNDTRIP
360
3C4
  0
DICTIONARY
  5
3CB
330
3C
100
AcDbDictionary
280
     1
281
     1
  3
ACAD_XREC_ROUNDTRIP
360
3CC
  0
DICTIONARY
  5
3B9
330
33
100
AcDbDictionary
280
     1
281
     1
  3
ACAD_XREC_ROUNDTRIP
360
3BA
  0
DICTIONARY
  5
3D7
330
42
100
AcDbDictionary
280
     1
281
     1
  3
ACAD_XREC_ROUNDTRIP
360
3D8
  0
DICTIONARY
  5
3D5
330
41
100
AcDbDictionary
280
     1
281
     1
  3
ACAD_XREC_ROUNDTRIP
360
3D6
  0
DICTIONARY
  5
3CF
330
3E
100
AcDbDictionary
280
     1
281
     1
  3
ACAD_XREC_ROUNDTRIP
360
3D0
  0
DICTIONARY
  5
3D1
330
3F
100
AcDbDictionary
280
     1
281
     1
  3
ACAD_XREC_ROUNDTRIP
360
3D2
  0
DICTIONARY
  5
3C1
330
37
100
AcDbDictionary
280
     1
281
     1
  3
ACAD_XREC_ROUNDTRIP
360
3C2
  0
DICTIONARY
  5
3B3
330
30
100
AcDbDictionary
280
     1
281
     1
  3
ACAD_XREC_ROUNDTRIP
360
3B4
  0
DICTIONARY
  5
3D3
330
40
100
AcDbDictionary
280
     1
281
     1
  3
ACAD_XREC_ROUNDTRIP
360
3D4
  0
XRECORD
  5
3DD
102
{ACAD_REACTORS
330
3DC
102
}
330
3DC
100
AcDbXrecord
280
     1
102
ACAD_ROUNDTRIP_2010_MLEADER_STYLE
  0
CELLSTYLEMAP
  5
3DA
102
{ACAD_REACTORS
330
3D9
102
}
330
3D9
100
AcDbCellStyleMap
 90
        3
300
CELLSTYLE
  1
TABLEFORMAT_BEGIN
 90
        5
170
     1
 91
        0
 92
    32768
 62
   257
 93
        1
300
CONTENTFORMAT
  1
CONTENTFORMAT_BEGIN
 90
        0
 91
        0
 92
        4
 93
        0
300

 40
0.0
140
1.0
 94
        5
 62
     0
340
11
144
0.25
309
CONTENTFORMAT_END
171
     1
301
MARGIN
  1
CELLMARGIN_BEGIN
 40
0.06
 40
0.06
 40
0.06
 40
0.06
 40
0.06
 40
0.06
309
CELLMARGIN_END
 94
        6
 95
        1
302
GRIDFORMAT
  1
GRIDFORMAT_BEGIN
 90
        0
 91
        1
 62
     0
 92
       -2
340
14
 93
        0
 40
0.045
309
GRIDFORMAT_END
 95
        2
302
GRIDFORMAT
  1
GRIDFORMAT_BEGIN
 90
        0
 91
        1
 62
     0
 92
       -2
340
14
 93
        0
 40
0.045
309
GRIDFORMAT_END
 95
        4
302
GRIDFORMAT
  1
GRIDFORMAT_BEGIN
 90
        0
 91
        1
 62
     0
 92
       -2
340
14
 93
        0
 40
0.045
309
GRIDFORMAT_END
 95
        8
302
GRIDFORMAT
  1
GRIDFORMAT_BEGIN
 90
        0
 91
        1
 62
     0
 92
       -2
340
14
 93
        0
 40
0.045
309
GRIDFORMAT_END
 95
       16
302
GRIDFORMAT
  1
GRIDFORMAT_BEGIN
 90
        0
 91
        1
 62
     0
 92
       -2
340
14
 93
        0
 40
0.045
309
GRIDFORMAT_END
 95
       32
302
GRIDFORMAT
  1
GRIDFORMAT_BEGIN
 90
        0
 91
        1
 62
     0
 92
       -2
340
14
 93
        0
 40
0.045
309
GRIDFORMAT_END
309
TABLEFORMAT_END
  1
CELLSTYLE_BEGIN
 90
        1
 91
        1
300
_TITLE
309
CELLSTYLE_END
300
CELLSTYLE
  1
TABLEFORMAT_BEGIN
 90
        5
170
     1
 91
        0
 92
        0
 62
   257
 93
        1
300
CONTENTFORMAT
  1
CONTENTFORMAT_BEGIN
 90
        0
 91
        0
 92
        4
 93
        0
300

 40
0.0
140
1.0
 94
        5
 62
     0
340
11
144
0.18
309
CONTENTFORMAT_END
171
     1
301
MARGIN
  1
CELLMARGIN_BEGIN
 40
0.06
 40
0.06
 40
0.06
 40
0.06
 40
0.06
 40
0.06
309
CELLMARGIN_END
 94
        6
 95
        1
302
GRIDFORMAT
  1
GRIDFORMAT_BEGIN
 90
        0
 91
        1
 62
     0
 92
       -2
340
14
 93
        0
 40
0.045
309
GRIDFORMAT_END
 95
        2
302
GRIDFORMAT
  1
GRIDFORMAT_BEGIN
 90
        0
 91
        1
 62
     0
 92
       -2
340
14
 93
        0
 40
0.045
309
GRIDFORMAT_END
 95
        4
302
GRIDFORMAT
  1
GRIDFORMAT_BEGIN
 90
        0
 91
        1
 62
     0
 92
       -2
340
14
 93
        0
 40
0.045
309
GRIDFORMAT_END
 95
        8
302
GRIDFORMAT
  1
GRIDFORMAT_BEGIN
 90
        0
 91
        1
 62
     0
 92
       -2
340
14
 93
        0
 40
0.045
309
GRIDFORMAT_END
 95
       16
302
GRIDFORMAT
  1
GRIDFORMAT_BEGIN
 90
        0
 91
        1
 62
     0
 92
       -2
340
14
 93
        0
 40
0.045
309
GRIDFORMAT_END
 95
       32
302
GRIDFORMAT
  1
GRIDFORMAT_BEGIN
 90
        0
 91
        1
 62
     0
 92
       -2
340
14
 93
        0
 40
0.045
309
GRIDFORMAT_END
309
TABLEFORMAT_END
  1
CELLSTYLE_BEGIN
 90
        2
 91
        1
300
_HEADER
309
CELLSTYLE_END
300
CELLSTYLE
  1
TABLEFORMAT_BEGIN
 90
        5
170
     1
 91
        0
 92
        0
 62
   257
 93
        1
300
CONTENTFORMAT
  1
CONTENTFORMAT_BEGIN
 90
        0
 91
        0
 92
        4
 93
        0
300

 40
0.0
140
1.0
 94
        2
 62
     0
340
11
144
0.18
309
CONTENTFORMAT_END
171
     1
301
MARGIN
  1
CELLMARGIN_BEGIN
 40
0.06
 40
0.06
 40
0.06
 40
0.06
 40
0.06
 40
0.06
309
CELLMARGIN_END
 94
        6
 95
        1
302
GRIDFORMAT
  1
GRIDFORMAT_BEGIN
 90
        0
 91
        1
 62
     0
 92
       -2
340
14
 93
        0
 40
0.045
309
GRIDFORMAT_END
 95
        2
302
GRIDFORMAT
  1
GRIDFORMAT_BEGIN
 90
        0
 91
        1
 62
     0
 92
       -2
340
14
 93
        0
 40
0.045
309
GRIDFORMAT_END
 95
        4
302
GRIDFORMAT
  1
GRIDFORMAT_BEGIN
 90
        0
 91
        1
 62
     0
 92
       -2
340
14
 93
        0
 40
0.045
309
GRIDFORMAT_END
 95
        8
302
GRIDFORMAT
  1
GRIDFORMAT_BEGIN
 90
        0
 91
        1
 62
     0
 92
       -2
340
14
 93
        0
 40
0.045
309
GRIDFORMAT_END
 95
       16
302
GRIDFORMAT
  1
GRIDFORMAT_BEGIN
 90
        0
 91
        1
 62
     0
 92
       -2
340
14
 93
        0
 40
0.045
309
GRIDFORMAT_END
 95
       32
302
GRIDFORMAT
  1
GRIDFORMAT_BEGIN
 90
        0
 91
        1
 62
     0
 92
       -2
340
14
 93
        0
 40
0.045
309
GRIDFORMAT_END
309
TABLEFORMAT_END
  1
CELLSTYLE_BEGIN
 90
        3
 91
        2
300
_DATA
309
CELLSTYLE_END
  0
XRECORD
  5
3B2
102
{ACAD_REACTORS
330
3B1
102
}
330
3B1
100
AcDbXrecord
280
     1
102
RTVSPropertyOp0
 70
     1
102
RTVSPropertyOp1
 70
     1
102
RTVSPropertyOp2
 70
     1
102
RTVSPropertyOp3
 70
     1
102
RTVSPropertyOp4
 70
     1
102
RTVSPropertyOp5
 70
     1
102
RTVSPropertyOp6
 70
     1
102
RTVSPropertyOp7
 70
     1
102
RTVSPropertyOp8
 70
     1
102
RTVSPropertyOp9
 70
     1
102
RTVSPropertyOp10
 70
     1
102
RTVSPropertyOp11
 70
     1
102
RTVSPropertyOp12
 70
     1
102
RTVSPropertyOp13
 70
     1
102
RTVSPropertyOp14
 70
     1
102
RTVSPropertyOp15
 70
     1
102
RTVSPropertyOp16
 70
     1
102
RTVSPropertyOp17
 70
     1
102
RTVSPropertyOp18
 70
     1
102
RTVSPropertyOp19
 70
     1
102
RTVSPropertyOp20
 70
     1
102
RTVSPropertyOp21
 70
     1
102
RTVSPropertyOp22
 70
     1
102
RTVSPropertyOp23
 70
     1
102
RTVSPropertyOp24
 70
     1
102
RTVSPropertyOp25
 70
     1
102
RTVSPropertyOp26
 70
     1
102
RTVSPropertyOp27
 70
     1
102
RTVSPropertyOp28
 70
     1
102
RTVSPropertyOp29
 70
     1
102
RTVSPropertyOp30
 70
     1
102
RTVSPropertyOp31
 70
     1
102
RTVSPropertyOp32
 70
     1
102
RTVSPropertyOp33
 70
     1
102
RTVSPropertyOp34
 70
     1
102
RTVSPropertyOp35
 70
     1
102
RTVSPropertyOp36
 70
     1
102
RTVSPropertyOp37
 70
     1
102
RTVSPropertyOp38
 70
     1
102
RTVSPropertyOp39
 70
     1
102
RTVSPropertyOp40
 70
     1
102
RTVSPropertyOp41
 70
     1
102
RTVSPropertyOp42
 70
     1
102
RTVSPropertyOp43
 70
     1
102
RTVSPropertyOp44
 70
     1
102
RTVSPropertyOp45
 70
     1
102
RTVSPropertyOp46
 70
     1
102
RTVSPropertyOp47
 70
     1
102
RTVSPropertyOp48
 70
     1
102
RTVSPropertyOp49
 70
     1
102
RTVSPropertyOp50
 70
     1
102
RTVSPropertyOp51
 70
     0
102
RTVSPropertyOp52
 70
     0
102
RTVSPropertyOp53
 70
     1
102
RTVSPropertyOp54
 70
     1
102
RTVSPropertyOp55
 70
     1
102
RTVSPropertyOp56
 70
     1
102
RTVSPropertyOp57
 70
     1
102
RTVSPost2010Prop28
280
     1
102
RTVSPost2010PropOp28
 70
     1
102
RTVSPost2010Prop29
280
     1
102
RTVSPost2010PropOp29
 70
     1
102
RTVSPost2010Prop30
280
     0
102
RTVSPost2010PropOp30
 70
     1
102
RTVSPost2010Prop31
280
     0
102
RTVSPost2010PropOp31
 70
     1
102
RTVSPost2010Prop32
280
     0
102
RTVSPost2010PropOp32
 70
     1
102
RTVSPost2010Prop33
280
     0
102
RTVSPost2010PropOp33
 70
     1
102
RTVSPost2010Prop34
280
     0
102
RTVSPost2010PropOp34
 70
     1
102
RTVSPost2010Prop35
280
     0
102
RTVSPost2010PropOp35
 70
     1
102
RTVSPost2010Prop36
280
     0
102
RTVSPost2010PropOp36
 70
     1
102
RTVSPost2010Prop37
 90
       50
102
RTVSPost2010PropOp37
 70
     1
102
RTVSPost2010Prop38
140
0.0
102
RTVSPost2010PropOp38
 70
     1
102
RTVSPost2010Prop39
140
1.0
102
RTVSPost2010PropOp39
 70
     1
102
RTVSPost2010Prop40
 90
        0
102
RTVSPost2010PropOp40
 70
     1
102
RTVSPost2010Prop41ColorIndex
 90
       18
102
RTVSPost2010Prop41ColorRGB
 90
        0
102
RTVSPost2010PropOp41
 70
     1
102
RTVSPost2010Prop42
 90
       50
102
RTVSPost2010PropOp42
 70
     1
102
RTVSPost2010Prop43
 90
        3
102
RTVSPost2010PropOp43
 70
     1
102
RTVSPost2010Prop44ColorIndex
 90
        5
102
RTVSPost2010Prop44ColorRGB
 90
      255
102
RTVSPost2010PropOp44
 70
     1
102
RTVSPost2010Prop45
280
     0
102
RTVSPost2010PropOp45
 70
     1
102
RTVSPost2010Prop46
 90
       50
102
RTVSPost2010PropOp46
 70
     1
102
RTVSPost2010Prop47
 90
       50
102
RTVSPost2010PropOp47
 70
     1
102
RTVSPost2010Prop48
 90
       50
102
RTVSPost2010PropOp48
 70
     1
102
RTVSPost2010Prop49
280
     0
102
RTVSPost2010PropOp49
 70
     1
102
RTVSPost2010Prop50
 90
       50
102
RTVSPost2010PropOp50
 70
     1
102
RTVSPost2010Prop51ColorIndex
 90
      256
102
RTVSPost2010Prop51ColorRGB
 90
-16777216
102
RTVSPost2010PropOp51
 70
     0
102
RTVSPost2010Prop52
140
1.0
102
RTVSPost2010PropOp52
 70
     0
102
RTVSPost2010Prop53
 90
        2
102
RTVSPost2010PropOp53
 70
     1
102
RTVSPost2010Prop54
  1
strokes_ogs.tif
102
RTVSPost2010PropOp54
 70
     1
102
RTVSPost2010Prop55
280
     0
102
RTVSPost2010PropOp55
 70
     1
102
RTVSPost2010Prop56
140
1.0
102
RTVSPost2010PropOp56
 70
     1
102
RTVSPost2010Prop57
140
1.0
102
RTVSPost2010PropOp57
 70
     1
  0
XRECORD
  5
3B8
102
{ACAD_REACTORS
330
3B7
102
}
330
3B7
100
AcDbXrecord
280
     1
102
RTVSPropertyOp0
 70
     1
102
RTVSPropertyOp1
 70
     1
102
RTVSPropertyOp2
 70
     1
102
RTVSPropertyOp3
 70
     1
102
RTVSPropertyOp4
 70
     1
102
RTVSPropertyOp5
 70
     1
102
RTVSPropertyOp6
 70
     1
102
RTVSPropertyOp7
 70
     1
102
RTVSPropertyOp8
 70
     1
102
RTVSPropertyOp9
 70
     1
102
RTVSPropertyOp10
 70
     1
102
RTVSPropertyOp11
 70
     1
102
RTVSPropertyOp12
 70
     1
102
RTVSPropertyOp13
 70
     1
102
RTVSPropertyOp14
 70
     1
102
RTVSPropertyOp15
 70
     1
102
RTVSPropertyOp16
 70
     1
102
RTVSPropertyOp17
 70
     1
102
RTVSPropertyOp18
 70
     1
102
RTVSPropertyOp19
 70
     1
102
RTVSPropertyOp20
 70
     1
102
RTVSPropertyOp21
 70
     1
102
RTVSPropertyOp22
 70
     1
102
RTVSPropertyOp23
 70
     1
102
RTVSPropertyOp24
 70
     1
102
RTVSPropertyOp25
 70
     1
102
RTVSPropertyOp26
 70
     1
102
RTVSPropertyOp27
 70
     1
102
RTVSPropertyOp28
 70
     1
102
RTVSPropertyOp29
 70
     1
102
RTVSPropertyOp30
 70
     1
102
RTVSPropertyOp31
 70
     1
102
RTVSPropertyOp32
 70
     1
102
RTVSPropertyOp33
 70
     1
102
RTVSPropertyOp34
 70
     1
102
RTVSPropertyOp35
 70
     1
102
RTVSPropertyOp36
 70
     1
102
RTVSPropertyOp37
 70
     1
102
RTVSPropertyOp38
 70
     1
102
RTVSPropertyOp39
 70
     1
102
RTVSPropertyOp40
 70
     1
102
RTVSPropertyOp41
 70
     1
102
RTVSPropertyOp42
 70
     1
102
RTVSPropertyOp43
 70
     1
102
RTVSPropertyOp44
 70
     1
102
RTVSPropertyOp45
 70
     1
102
RTVSPropertyOp46
 70
     1
102
RTVSPropertyOp47
 70
     1
102
RTVSPropertyOp48
 70
     1
102
RTVSPropertyOp49
 70
     1
102
RTVSPropertyOp50
 70
     1
102
RTVSPropertyOp51
 70
     0
102
RTVSPropertyOp52
 70
     0
102
RTVSPropertyOp53
 70
     1
102
RTVSPropertyOp54
 70
     1
102
RTVSPropertyOp55
 70
     1
102
RTVSPropertyOp56
 70
     1
102
RTVSPropertyOp57
 70
     1
102
RTVSPost2010Prop28
280
     0
102
RTVSPost2010PropOp28
 70
     1
102
RTVSPost2010Prop29
280
     1
102
RTVSPost2010PropOp29
 70
     1
102
RTVSPost2010Prop30
280
     1
102
RTVSPost2010PropOp30
 70
     1
102
RTVSPost2010Prop31
280
     0
102
RTVSPost2010PropOp31
 70
     1
102
RTVSPost2010Prop32
280
     0
102
RTVSPost2010PropOp32
 70
     1
102
RTVSPost2010Prop33
280
     0
102
RTVSPost2010PropOp33
 70
     1
102
RTVSPost2010Prop34
280
     0
102
RTVSPost2010PropOp34
 70
     1
102
RTVSPost2010Prop35
280
     0
102
RTVSPost2010PropOp35
 70
     1
102
RTVSPost2010Prop36
280
     0
102
RTVSPost2010PropOp36
 70
     1
102
RTVSPost2010Prop37
 90
       50
102
RTVSPost2010PropOp37
 70
     1
102
RTVSPost2010Prop38
140
0.0
102
RTVSPost2010PropOp38
 70
     1
102
RTVSPost2010Prop39
140
1.0
102
RTVSPost2010PropOp39
 70
     1
102
RTVSPost2010Prop40
 90
        0
102
RTVSPost2010PropOp40
 70
     1
102
RTVSPost2010Prop41ColorIndex
 90
       18
102
RTVSPost2010Prop41ColorRGB
 90
        0
102
RTVSPost2010PropOp41
 70
     1
102
RTVSPost2010Prop42
 90
       50
102
RTVSPost2010PropOp42
 70
     1
102
RTVSPost2010Prop43
 90
        3
102
RTVSPost2010PropOp43
 70
     1
102
RTVSPost2010Prop44ColorIndex
 90
        5
102
RTVSPost2010Prop44ColorRGB
 90
      255
102
RTVSPost2010PropOp44
 70
     1
102
RTVSPost2010Prop45
280
     0
102
RTVSPost2010PropOp45
 70
     1
102
RTVSPost2010Prop46
 90
       50
102
RTVSPost2010PropOp46
 70
     1
102
RTVSPost2010Prop47
 90
       50
102
RTVSPost2010PropOp47
 70
     1
102
RTVSPost2010Prop48
 90
       50
102
RTVSPost2010PropOp48
 70
     1
102
RTVSPost2010Prop49
280
     0
102
RTVSPost2010PropOp49
 70
     1
102
RTVSPost2010Prop50
 90
       50
102
RTVSPost2010PropOp50
 70
     1
102
RTVSPost2010Prop51ColorIndex
 90
      256
102
RTVSPost2010Prop51ColorRGB
 90
-16777216
102
RTVSPost2010PropOp51
 70
     0
102
RTVSPost2010Prop52
140
1.0
102
RTVSPost2010PropOp52
 70
     0
102
RTVSPost2010Prop53
 90
        2
102
RTVSPost2010PropOp53
 70
     1
102
RTVSPost2010Prop54
  1
strokes_ogs.tif
102
RTVSPost2010PropOp54
 70
     1
102
RTVSPost2010Prop55
280
     0
102
RTVSPost2010PropOp55
 70
     1
102
RTVSPost2010Prop56
140
1.0
102
RTVSPost2010PropOp56
 70
     1
102
RTVSPost2010Prop57
140
1.0
102
RTVSPost2010PropOp57
 70
     1
  0
XRECORD
  5
3C0
102
{ACAD_REACTORS
330
3BF
102
}
330
3BF
100
AcDbXrecord
280
     1
102
RTVSPropertyOp0
 70
     1
102
RTVSPropertyOp1
 70
     1
102
RTVSPropertyOp2
 70
     1
102
RTVSPropertyOp3
 70
     1
102
RTVSPropertyOp4
 70
     1
102
RTVSPropertyOp5
 70
     1
102
RTVSPropertyOp6
 70
     1
102
RTVSPropertyOp7
 70
     1
102
RTVSPropertyOp8
 70
     1
102
RTVSPropertyOp9
 70
     1
102
RTVSPropertyOp10
 70
     1
102
RTVSPropertyOp11
 70
     1
102
RTVSPropertyOp12
 70
     1
102
RTVSPropertyOp13
 70
     1
102
RTVSPropertyOp14
 70
     1
102
RTVSPropertyOp15
 70
     1
102
RTVSPropertyOp16
 70
     1
102
RTVSPropertyOp17
 70
     1
102
RTVSPropertyOp18
 70
     1
102
RTVSPropertyOp19
 70
     1
102
RTVSPropertyOp20
 70
     1
102
RTVSPropertyOp21
 70
     1
102
RTVSPropertyOp22
 70
     1
102
RTVSPropertyOp23
 70
     1
102
RTVSPropertyOp24
 70
     1
102
RTVSPropertyOp25
 70
     1
102
RTVSPropertyOp26
 70
     1
102
RTVSPropertyOp27
 70
     1
102
RTVSPropertyOp28
 70
     1
102
RTVSPropertyOp29
 70
     1
102
RTVSPropertyOp30
 70
     1
102
RTVSPropertyOp31
 70
     1
102
RTVSPropertyOp32
 70
     1
102
RTVSPropertyOp33
 70
     1
102
RTVSPropertyOp34
 70
     1
102
RTVSPropertyOp35
 70
     1
102
RTVSPropertyOp36
 70
     1
102
RTVSPropertyOp37
 70
     1
102
RTVSPropertyOp38
 70
     1
102
RTVSPropertyOp39
 70
     1
102
RTVSPropertyOp40
 70
     1
102
RTVSPropertyOp41
 70
     1
102
RTVSPropertyOp42
 70
     1
102
RTVSPropertyOp43
 70
     1
102
RTVSPropertyOp44
 70
     1
102
RTVSPropertyOp45
 70
     1
102
RTVSPropertyOp46
 70
     1
102
RTVSPropertyOp47
 70
     1
102
RTVSPropertyOp48
 70
     1
102
RTVSPropertyOp49
 70
     1
102
RTVSPropertyOp50
 70
     1
102
RTVSPropertyOp51
 70
     0
102
RTVSPropertyOp52
 70
     0
102
RTVSPropertyOp53
 70
     1
102
RTVSPropertyOp54
 70
     1
102
RTVSPropertyOp55
 70
     1
102
RTVSPropertyOp56
 70
     1
102
RTVSPropertyOp57
 70
     1
102
RTVSPost2010Prop28
280
     0
102
RTVSPost2010PropOp28
 70
     1
102
RTVSPost2010Prop29
280
     1
102
RTVSPost2010PropOp29
 70
     1
102
RTVSPost2010Prop30
280
     1
102
RTVSPost2010PropOp30
 70
     1
102
RTVSPost2010Prop31
280
     0
102
RTVSPost2010PropOp31
 70
     1
102
RTVSPost2010Prop32
280
     0
102
RTVSPost2010PropOp32
 70
     1
102
RTVSPost2010Prop33
280
     0
102
RTVSPost2010PropOp33
 70
     1
102
RTVSPost2010Prop34
280
     0
102
RTVSPost2010PropOp34
 70
     1
102
RTVSPost2010Prop35
280
     0
102
RTVSPost2010PropOp35
 70
     1
102
RTVSPost2010Prop36
280
     0
102
RTVSPost2010PropOp36
 70
     1
102
RTVSPost2010Prop37
 90
       50
102
RTVSPost2010PropOp37
 70
     1
102
RTVSPost2010Prop38
140
0.0
102
RTVSPost2010PropOp38
 70
     1
102
RTVSPost2010Prop39
140
1.0
102
RTVSPost2010PropOp39
 70
     1
102
RTVSPost2010Prop40
 90
        0
102
RTVSPost2010PropOp40
 70
     1
102
RTVSPost2010Prop41ColorIndex
 90
       18
102
RTVSPost2010Prop41ColorRGB
 90
        0
102
RTVSPost2010PropOp41
 70
     1
102
RTVSPost2010Prop42
 90
       50
102
RTVSPost2010PropOp42
 70
     1
102
RTVSPost2010Prop43
 90
        3
102
RTVSPost2010PropOp43
 70
     1
102
RTVSPost2010Prop44ColorIndex
 90
        5
102
RTVSPost2010Prop44ColorRGB
 90
      255
102
RTVSPost2010PropOp44
 70
     1
102
RTVSPost2010Prop45
280
     0
102
RTVSPost2010PropOp45
 70
     1
102
RTVSPost2010Prop46
 90
       50
102
RTVSPost2010PropOp46
 70
     1
102
RTVSPost2010Prop47
 90
       50
102
RTVSPost2010PropOp47
 70
     1
102
RTVSPost2010Prop48
 90
       50
102
RTVSPost2010PropOp48
 70
     1
102
RTVSPost2010Prop49
280
     0
102
RTVSPost2010PropOp49
 70
     1
102
RTVSPost2010Prop50
 90
       50
102
RTVSPost2010PropOp50
 70
     1
102
RTVSPost2010Prop51ColorIndex
 90
      256
102
RTVSPost2010Prop51ColorRGB
 90
-16777216
102
RTVSPost2010PropOp51
 70
     0
102
RTVSPost2010Prop52
140
1.0
102
RTVSPost2010PropOp52
 70
     0
102
RTVSPost2010Prop53
 90
        2
102
RTVSPost2010PropOp53
 70
     1
102
RTVSPost2010Prop54
  1
strokes_ogs.tif
102
RTVSPost2010PropOp54
 70
     1
102
RTVSPost2010Prop55
280
     0
102
RTVSPost2010PropOp55
 70
     1
102
RTVSPost2010Prop56
140
1.0
102
RTVSPost2010PropOp56
 70
     1
102
RTVSPost2010Prop57
140
1.0
102
RTVSPost2010PropOp57
 70
     1
  0
XRECORD
  5
3C8
102
{ACAD_REACTORS
330
3C7
102
}
330
3C7
100
AcDbXrecord
280
     1
102
RTVSPropertyOp0
 70
     1
102
RTVSPropertyOp1
 70
     1
102
RTVSPropertyOp2
 70
     1
102
RTVSPropertyOp3
 70
     1
102
RTVSPropertyOp4
 70
     1
102
RTVSPropertyOp5
 70
     1
102
RTVSPropertyOp6
 70
     1
102
RTVSPropertyOp7
 70
     1
102
RTVSPropertyOp8
 70
     1
102
RTVSPropertyOp9
 70
     1
102
RTVSPropertyOp10
 70
     1
102
RTVSPropertyOp11
 70
     1
102
RTVSPropertyOp12
 70
     1
102
RTVSPropertyOp13
 70
     1
102
RTVSPropertyOp14
 70
     1
102
RTVSPropertyOp15
 70
     1
102
RTVSPropertyOp16
 70
     1
102
RTVSPropertyOp17
 70
     1
102
RTVSPropertyOp18
 70
     1
102
RTVSPropertyOp19
 70
     1
102
RTVSPropertyOp20
 70
     1
102
RTVSPropertyOp21
 70
     1
102
RTVSPropertyOp22
 70
     1
102
RTVSPropertyOp23
 70
     1
102
RTVSPropertyOp24
 70
     1
102
RTVSPropertyOp25
 70
     1
102
RTVSPropertyOp26
 70
     1
102
RTVSPropertyOp27
 70
     1
102
RTVSPropertyOp28
 70
     1
102
RTVSPropertyOp29
 70
     1
102
RTVSPropertyOp30
 70
     1
102
RTVSPropertyOp31
 70
     1
102
RTVSPropertyOp32
 70
     1
102
RTVSPropertyOp33
 70
     1
102
RTVSPropertyOp34
 70
     1
102
RTVSPropertyOp35
 70
     1
102
RTVSPropertyOp36
 70
     1
102
RTVSPropertyOp37
 70
     1
102
RTVSPropertyOp38
 70
     1
102
RTVSPropertyOp39
 70
     1
102
RTVSPropertyOp40
 70
     1
102
RTVSPropertyOp41
 70
     1
102
RTVSPropertyOp42
 70
     1
102
RTVSPropertyOp43
 70
     1
102
RTVSPropertyOp44
 70
     1
102
RTVSPropertyOp45
 70
     1
102
RTVSPropertyOp46
 70
     1
102
RTVSPropertyOp47
 70
     1
102
RTVSPropertyOp48
 70
     1
102
RTVSPropertyOp49
 70
     1
102
RTVSPropertyOp50
 70
     1
102
RTVSPropertyOp51
 70
     0
102
RTVSPropertyOp52
 70
     0
102
RTVSPropertyOp53
 70
     1
102
RTVSPropertyOp54
 70
     1
102
RTVSPropertyOp55
 70
     1
102
RTVSPropertyOp56
 70
     1
102
RTVSPropertyOp57
 70
     1
102
RTVSPost2010Prop28
280
     0
102
RTVSPost2010PropOp28
 70
     1
102
RTVSPost2010Prop29
280
     1
102
RTVSPost2010PropOp29
 70
     1
102
RTVSPost2010Prop30
280
     1
102
RTVSPost2010PropOp30
 70
     1
102
RTVSPost2010Prop31
280
     0
102
RTVSPost2010PropOp31
 70
     1
102
RTVSPost2010Prop32
280
     0
102
RTVSPost2010PropOp32
 70
     1
102
RTVSPost2010Prop33
280
     0
102
RTVSPost2010PropOp33
 70
     1
102
RTVSPost2010Prop34
280
     0
102
RTVSPost2010PropOp34
 70
     1
102
RTVSPost2010Prop35
280
     0
102
RTVSPost2010PropOp35
 70
     1
102
RTVSPost2010Prop36
280
     0
102
RTVSPost2010PropOp36
 70
     1
102
RTVSPost2010Prop37
 90
       50
102
RTVSPost2010PropOp37
 70
     1
102
RTVSPost2010Prop38
140
0.0
102
RTVSPost2010PropOp38
 70
     1
102
RTVSPost2010Prop39
140
1.0
102
RTVSPost2010PropOp39
 70
     1
102
RTVSPost2010Prop40
 90
        0
102
RTVSPost2010PropOp40
 70
     1
102
RTVSPost2010Prop41ColorIndex
 90
       18
102
RTVSPost2010Prop41ColorRGB
 90
        0
102
RTVSPost2010PropOp41
 70
     1
102
RTVSPost2010Prop42
 90
       50
102
RTVSPost2010PropOp42
 70
     1
102
RTVSPost2010Prop43
 90
        3
102
RTVSPost2010PropOp43
 70
     1
102
RTVSPost2010Prop44ColorIndex
 90
        5
102
RTVSPost2010Prop44ColorRGB
 90
      255
102
RTVSPost2010PropOp44
 70
     1
102
RTVSPost2010Prop45
280
     0
102
RTVSPost2010PropOp45
 70
     1
102
RTVSPost2010Prop46
 90
       50
102
RTVSPost2010PropOp46
 70
     1
102
RTVSPost2010Prop47
 90
       50
102
RTVSPost2010PropOp47
 70
     1
102
RTVSPost2010Prop48
 90
       50
102
RTVSPost2010PropOp48
 70
     1
102
RTVSPost2010Prop49
280
     0
102
RTVSPost2010PropOp49
 70
     1
102
RTVSPost2010Prop50
 90
       50
102
RTVSPost2010PropOp50
 70
     1
102
RTVSPost2010Prop51ColorIndex
 90
      256
102
RTVSPost2010Prop51ColorRGB
 90
-16777216
102
RTVSPost2010PropOp51
 70
     0
102
RTVSPost2010Prop52
140
1.0
102
RTVSPost2010PropOp52
 70
     0
102
RTVSPost2010Prop53
 90
        2
102
RTVSPost2010PropOp53
 70
     1
102
RTVSPost2010Prop54
  1
strokes_ogs.tif
102
RTVSPost2010PropOp54
 70
     1
102
RTVSPost2010Prop55
280
     0
102
RTVSPost2010PropOp55
 70
     1
102
RTVSPost2010Prop56
140
1.0
102
RTVSPost2010PropOp56
 70
     1
102
RTVSPost2010Prop57
140
1.0
102
RTVSPost2010PropOp57
 70
     1
  0
XRECORD
  5
3BC
102
{ACAD_REACTORS
330
3BB
102
}
330
3BB
100
AcDbXrecord
280
     1
102
RTVSPropertyOp0
 70
     1
102
RTVSPropertyOp1
 70
     1
102
RTVSPropertyOp2
 70
     1
102
RTVSPropertyOp3
 70
     1
102
RTVSPropertyOp4
 70
     1
102
RTVSPropertyOp5
 70
     1
102
RTVSPropertyOp6
 70
     1
102
RTVSPropertyOp7
 70
     1
102
RTVSPropertyOp8
 70
     1
102
RTVSPropertyOp9
 70
     1
102
RTVSPropertyOp10
 70
     1
102
RTVSPropertyOp11
 70
     1
102
RTVSPropertyOp12
 70
     1
102
RTVSPropertyOp13
 70
     1
102
RTVSPropertyOp14
 70
     1
102
RTVSPropertyOp15
 70
     1
102
RTVSPropertyOp16
 70
     1
102
RTVSPropertyOp17
 70
     1
102
RTVSPropertyOp18
 70
     1
102
RTVSPropertyOp19
 70
     1
102
RTVSPropertyOp20
 70
     1
102
RTVSPropertyOp21
 70
     1
102
RTVSPropertyOp22
 70
     1
102
RTVSPropertyOp23
 70
     1
102
RTVSPropertyOp24
 70
     1
102
RTVSPropertyOp25
 70
     1
102
RTVSPropertyOp26
 70
     1
102
RTVSPropertyOp27
 70
     1
102
RTVSPropertyOp28
 70
     1
102
RTVSPropertyOp29
 70
     1
102
RTVSPropertyOp30
 70
     1
102
RTVSPropertyOp31
 70
     1
102
RTVSPropertyOp32
 70
     1
102
RTVSPropertyOp33
 70
     1
102
RTVSPropertyOp34
 70
     1
102
RTVSPropertyOp35
 70
     1
102
RTVSPropertyOp36
 70
     1
102
RTVSPropertyOp37
 70
     1
102
RTVSPropertyOp38
 70
     1
102
RTVSPropertyOp39
 70
     1
102
RTVSPropertyOp40
 70
     1
102
RTVSPropertyOp41
 70
     1
102
RTVSPropertyOp42
 70
     1
102
RTVSPropertyOp43
 70
     1
102
RTVSPropertyOp44
 70
     1
102
RTVSPropertyOp45
 70
     1
102
RTVSPropertyOp46
 70
     1
102
RTVSPropertyOp47
 70
     1
102
RTVSPropertyOp48
 70
     1
102
RTVSPropertyOp49
 70
     1
102
RTVSPropertyOp50
 70
     1
102
RTVSPropertyOp51
 70
     0
102
RTVSPropertyOp52
 70
     0
102
RTVSPropertyOp53
 70
     1
102
RTVSPropertyOp54
 70
     1
102
RTVSPropertyOp55
 70
     1
102
RTVSPropertyOp56
 70
     1
102
RTVSPropertyOp57
 70
     1
102
RTVSPost2010Prop28
280
     0
102
RTVSPost2010PropOp28
 70
     1
102
RTVSPost2010Prop29
280
     1
102
RTVSPost2010PropOp29
 70
     1
102
RTVSPost2010Prop30
280
     1
102
RTVSPost2010PropOp30
 70
     1
102
RTVSPost2010Prop31
280
     0
102
RTVSPost2010PropOp31
 70
     1
102
RTVSPost2010Prop32
280
     0
102
RTVSPost2010PropOp32
 70
     1
102
RTVSPost2010Prop33
280
     0
102
RTVSPost2010PropOp33
 70
     1
102
RTVSPost2010Prop34
280
     0
102
RTVSPost2010PropOp34
 70
     1
102
RTVSPost2010Prop35
280
     0
102
RTVSPost2010PropOp35
 70
     1
102
RTVSPost2010Prop36
280
     0
102
RTVSPost2010PropOp36
 70
     1
102
RTVSPost2010Prop37
 90
       50
102
RTVSPost2010PropOp37
 70
     1
102
RTVSPost2010Prop38
140
0.0
102
RTVSPost2010PropOp38
 70
     1
102
RTVSPost2010Prop39
140
1.0
102
RTVSPost2010PropOp39
 70
     1
102
RTVSPost2010Prop40
 90
        0
102
RTVSPost2010PropOp40
 70
     1
102
RTVSPost2010Prop41ColorIndex
 90
       18
102
RTVSPost2010Prop41ColorRGB
 90
        0
102
RTVSPost2010PropOp41
 70
     1
102
RTVSPost2010Prop42
 90
       50
102
RTVSPost2010PropOp42
 70
     1
102
RTVSPost2010Prop43
 90
        3
102
RTVSPost2010PropOp43
 70
     1
102
RTVSPost2010Prop44ColorIndex
 90
        5
102
RTVSPost2010Prop44ColorRGB
 90
      255
102
RTVSPost2010PropOp44
 70
     1
102
RTVSPost2010Prop45
280
     0
102
RTVSPost2010PropOp45
 70
     1
102
RTVSPost2010Prop46
 90
       50
102
RTVSPost2010PropOp46
 70
     1
102
RTVSPost2010Prop47
 90
       50
102
RTVSPost2010PropOp47
 70
     1
102
RTVSPost2010Prop48
 90
       50
102
RTVSPost2010PropOp48
 70
     1
102
RTVSPost2010Prop49
280
     0
102
RTVSPost2010PropOp49
 70
     1
102
RTVSPost2010Prop50
 90
       50
102
RTVSPost2010PropOp50
 70
     1
102
RTVSPost2010Prop51ColorIndex
 90
      256
102
RTVSPost2010Prop51ColorRGB
 90
-16777216
102
RTVSPost2010PropOp51
 70
     0
102
RTVSPost2010Prop52
140
1.0
102
RTVSPost2010PropOp52
 70
     0
102
RTVSPost2010Prop53
 90
        2
102
RTVSPost2010PropOp53
 70
     1
102
RTVSPost2010Prop54
  1
strokes_ogs.tif
102
RTVSPost2010PropOp54
 70
     1
102
RTVSPost2010Prop55
280
     0
102
RTVSPost2010PropOp55
 70
     1
102
RTVSPost2010Prop56
140
1.0
102
RTVSPost2010PropOp56
 70
     1
102
RTVSPost2010Prop57
140
1.0
102
RTVSPost2010PropOp57
 70
     1
  0
XRECORD
  5
3BE
102
{ACAD_REACTORS
330
3BD
102
}
330
3BD
100
AcDbXrecord
280
     1
102
RTVSPropertyOp0
 70
     1
102
RTVSPropertyOp1
 70
     1
102
RTVSPropertyOp2
 70
     1
102
RTVSPropertyOp3
 70
     1
102
RTVSPropertyOp4
 70
     1
102
RTVSPropertyOp5
 70
     1
102
RTVSPropertyOp6
 70
     1
102
RTVSPropertyOp7
 70
     1
102
RTVSPropertyOp8
 70
     1
102
RTVSPropertyOp9
 70
     1
102
RTVSPropertyOp10
 70
     1
102
RTVSPropertyOp11
 70
     1
102
RTVSPropertyOp12
 70
     1
102
RTVSPropertyOp13
 70
     1
102
RTVSPropertyOp14
 70
     1
102
RTVSPropertyOp15
 70
     1
102
RTVSPropertyOp16
 70
     1
102
RTVSPropertyOp17
 70
     1
102
RTVSPropertyOp18
 70
     1
102
RTVSPropertyOp19
 70
     1
102
RTVSPropertyOp20
 70
     1
102
RTVSPropertyOp21
 70
     1
102
RTVSPropertyOp22
 70
     1
102
RTVSPropertyOp23
 70
     1
102
RTVSPropertyOp24
 70
     1
102
RTVSPropertyOp25
 70
     1
102
RTVSPropertyOp26
 70
     1
102
RTVSPropertyOp27
 70
     1
102
RTVSPropertyOp28
 70
     1
102
RTVSPropertyOp29
 70
     1
102
RTVSPropertyOp30
 70
     1
102
RTVSPropertyOp31
 70
     1
102
RTVSPropertyOp32
 70
     1
102
RTVSPropertyOp33
 70
     1
102
RTVSPropertyOp34
 70
     1
102
RTVSPropertyOp35
 70
     1
102
RTVSPropertyOp36
 70
     1
102
RTVSPropertyOp37
 70
     1
102
RTVSPropertyOp38
 70
     1
102
RTVSPropertyOp39
 70
     1
102
RTVSPropertyOp40
 70
     1
102
RTVSPropertyOp41
 70
     1
102
RTVSPropertyOp42
 70
     1
102
RTVSPropertyOp43
 70
     1
102
RTVSPropertyOp44
 70
     1
102
RTVSPropertyOp45
 70
     1
102
RTVSPropertyOp46
 70
     1
102
RTVSPropertyOp47
 70
     1
102
RTVSPropertyOp48
 70
     1
102
RTVSPropertyOp49
 70
     1
102
RTVSPropertyOp50
 70
     1
102
RTVSPropertyOp51
 70
     0
102
RTVSPropertyOp52
 70
     0
102
RTVSPropertyOp53
 70
     1
102
RTVSPropertyOp54
 70
     1
102
RTVSPropertyOp55
 70
     1
102
RTVSPropertyOp56
 70
     1
102
RTVSPropertyOp57
 70
     1
102
RTVSPost2010Prop28
280
     0
102
RTVSPost2010PropOp28
 70
     1
102
RTVSPost2010Prop29
280
     1
102
RTVSPost2010PropOp29
 70
     1
102
RTVSPost2010Prop30
280
     1
102
RTVSPost2010PropOp30
 70
     1
102
RTVSPost2010Prop31
280
     0
102
RTVSPost2010PropOp31
 70
     1
102
RTVSPost2010Prop32
280
     0
102
RTVSPost2010PropOp32
 70
     1
102
RTVSPost2010Prop33
280
     0
102
RTVSPost2010PropOp33
 70
     1
102
RTVSPost2010Prop34
280
     0
102
RTVSPost2010PropOp34
 70
     1
102
RTVSPost2010Prop35
280
     0
102
RTVSPost2010PropOp35
 70
     1
102
RTVSPost2010Prop36
280
     0
102
RTVSPost2010PropOp36
 70
     1
102
RTVSPost2010Prop37
 90
       50
102
RTVSPost2010PropOp37
 70
     1
102
RTVSPost2010Prop38
140
0.0
102
RTVSPost2010PropOp38
 70
     1
102
RTVSPost2010Prop39
140
1.0
102
RTVSPost2010PropOp39
 70
     1
102
RTVSPost2010Prop40
 90
        0
102
RTVSPost2010PropOp40
 70
     1
102
RTVSPost2010Prop41ColorIndex
 90
       18
102
RTVSPost2010Prop41ColorRGB
 90
        0
102
RTVSPost2010PropOp41
 70
     1
102
RTVSPost2010Prop42
 90
       50
102
RTVSPost2010PropOp42
 70
     1
102
RTVSPost2010Prop43
 90
        3
102
RTVSPost2010PropOp43
 70
     1
102
RTVSPost2010Prop44ColorIndex
 90
        5
102
RTVSPost2010Prop44ColorRGB
 90
      255
102
RTVSPost2010PropOp44
 70
     1
102
RTVSPost2010Prop45
280
     0
102
RTVSPost2010PropOp45
 70
     1
102
RTVSPost2010Prop46
 90
       50
102
RTVSPost2010PropOp46
 70
     1
102
RTVSPost2010Prop47
 90
       50
102
RTVSPost2010PropOp47
 70
     1
102
RTVSPost2010Prop48
 90
       50
102
RTVSPost2010PropOp48
 70
     1
102
RTVSPost2010Prop49
280
     0
102
RTVSPost2010PropOp49
 70
     1
102
RTVSPost2010Prop50
 90
       50
102
RTVSPost2010PropOp50
 70
     1
102
RTVSPost2010Prop51ColorIndex
 90
      256
102
RTVSPost2010Prop51ColorRGB
 90
-16777216
102
RTVSPost2010PropOp51
 70
     0
102
RTVSPost2010Prop52
140
1.0
102
RTVSPost2010PropOp52
 70
     0
102
RTVSPost2010Prop53
 90
        2
102
RTVSPost2010PropOp53
 70
     1
102
RTVSPost2010Prop54
  1
strokes_ogs.tif
102
RTVSPost2010PropOp54
 70
     1
102
RTVSPost2010Prop55
280
     0
102
RTVSPost2010PropOp55
 70
     1
102
RTVSPost2010Prop56
140
1.0
102
RTVSPost2010PropOp56
 70
     1
102
RTVSPost2010Prop57
140
1.0
102
RTVSPost2010PropOp57
 70
     1
  0
XRECORD
  5
3CE
102
{ACAD_REACTORS
330
3CD
102
}
330
3CD
100
AcDbXrecord
280
     1
102
RTVSPropertyOp0
 70
     0
102
RTVSPropertyOp1
 70
     0
102
RTVSPropertyOp2
 70
     0
102
RTVSPropertyOp3
 70
     0
102
RTVSPropertyOp4
 70
     0
102
RTVSPropertyOp5
 70
     0
102
RTVSPropertyOp6
 70
     0
102
RTVSPropertyOp7
 70
     0
102
RTVSPropertyOp8
 70
     0
102
RTVSPropertyOp9
 70
     0
102
RTVSPropertyOp10
 70
     0
102
RTVSPropertyOp11
 70
     0
102
RTVSPropertyOp12
 70
     0
102
RTVSPropertyOp13
 70
     0
102
RTVSPropertyOp14
 70
     2
102
RTVSPropertyOp15
 70
     0
102
RTVSPropertyOp16
 70
     0
102
RTVSPropertyOp17
 70
     0
102
RTVSPropertyOp18
 70
     0
102
RTVSPropertyOp19
 70
     0
102
RTVSPropertyOp20
 70
     0
102
RTVSPropertyOp21
 70
     0
102
RTVSPropertyOp22
 70
     0
102
RTVSPropertyOp23
 70
     0
102
RTVSPropertyOp24
 70
     0
102
RTVSPropertyOp25
 70
     0
102
RTVSPropertyOp26
 70
     0
102
RTVSPropertyOp27
 70
     0
102
RTVSPropertyOp28
 70
     0
102
RTVSPropertyOp29
 70
     0
102
RTVSPropertyOp30
 70
     0
102
RTVSPropertyOp31
 70
     0
102
RTVSPropertyOp32
 70
     0
102
RTVSPropertyOp33
 70
     0
102
RTVSPropertyOp34
 70
     0
102
RTVSPropertyOp35
 70
     0
102
RTVSPropertyOp36
 70
     0
102
RTVSPropertyOp37
 70
     0
102
RTVSPropertyOp38
 70
     0
102
RTVSPropertyOp39
 70
     0
102
RTVSPropertyOp40
 70
     0
102
RTVSPropertyOp41
 70
     0
102
RTVSPropertyOp42
 70
     0
102
RTVSPropertyOp43
 70
     0
102
RTVSPropertyOp44
 70
     0
102
RTVSPropertyOp45
 70
     0
102
RTVSPropertyOp46
 70
     0
102
RTVSPropertyOp47
 70
     0
102
RTVSPropertyOp48
 70
     0
102
RTVSPropertyOp49
 70
     0
102
RTVSPropertyOp50
 70
     0
102
RTVSPropertyOp51
 70
     0
102
RTVSPropertyOp52
 70
     0
102
RTVSPropertyOp53
 70
     0
102
RTVSPropertyOp54
 70
     0
102
RTVSPropertyOp55
 70
     0
102
RTVSPropertyOp56
 70
     0
102
RTVSPropertyOp57
 70
     0
102
RTVSPost2010Prop28
280
     0
102
RTVSPost2010PropOp28
 70
     0
102
RTVSPost2010Prop29
280
     1
102
RTVSPost2010PropOp29
 70
     0
102
RTVSPost2010Prop30
280
     1
102
RTVSPost2010PropOp30
 70
     0
102
RTVSPost2010Prop31
280
     0
102
RTVSPost2010PropOp31
 70
     0
102
RTVSPost2010Prop32
280
     0
102
RTVSPost2010PropOp32
 70
     0
102
RTVSPost2010Prop33
280
     0
102
RTVSPost2010PropOp33
 70
     0
102
RTVSPost2010Prop34
280
     0
102
RTVSPost2010PropOp34
 70
     0
102
RTVSPost2010Prop35
280
     0
102
RTVSPost2010PropOp35
 70
     0
102
RTVSPost2010Prop36
280
     0
102
RTVSPost2010PropOp36
 70
     0
102
RTVSPost2010Prop37
 90
       50
102
RTVSPost2010PropOp37
 70
     0
102
RTVSPost2010Prop38
140
0.0
102
RTVSPost2010PropOp38
 70
     0
102
RTVSPost2010Prop39
140
1.0
102
RTVSPost2010PropOp39
 70
     0
102
RTVSPost2010Prop40
 90
        0
102
RTVSPost2010PropOp40
 70
     0
102
RTVSPost2010Prop41ColorIndex
 90
       18
102
RTVSPost2010Prop41ColorRGB
 90
        0
102
RTVSPost2010PropOp41
 70
     0
102
RTVSPost2010Prop42
 90
       50
102
RTVSPost2010PropOp42
 70
     0
102
RTVSPost2010Prop43
 90
        3
102
RTVSPost2010PropOp43
 70
     0
102
RTVSPost2010Prop44ColorIndex
 90
        5
102
RTVSPost2010Prop44ColorRGB
 90
      255
102
RTVSPost2010PropOp44
 70
     0
102
RTVSPost2010Prop45
280
     0
102
RTVSPost2010PropOp45
 70
     0
102
RTVSPost2010Prop46
 90
       50
102
RTVSPost2010PropOp46
 70
     0
102
RTVSPost2010Prop47
 90
       50
102
RTVSPost2010PropOp47
 70
     0
102
RTVSPost2010Prop48
 90
       50
102
RTVSPost2010PropOp48
 70
     0
102
RTVSPost2010Prop49
280
     0
102
RTVSPost2010PropOp49
 70
     0
102
RTVSPost2010Prop50
 90
       50
102
RTVSPost2010PropOp50
 70
     0
102
RTVSPost2010Prop51ColorIndex
 90
      256
102
RTVSPost2010Prop51ColorRGB
 90
-16777216
102
RTVSPost2010PropOp51
 70
     0
102
RTVSPost2010Prop52
140
1.0
102
RTVSPost2010PropOp52
 70
     0
102
RTVSPost2010Prop53
 90
        2
102
RTVSPost2010PropOp53
 70
     0
102
RTVSPost2010Prop54
  1
strokes_ogs.tif
102
RTVSPost2010PropOp54
 70
     0
102
RTVSPost2010Prop55
280
     0
102
RTVSPost2010PropOp55
 70
     0
102
RTVSPost2010Prop56
140
1.0
102
RTVSPost2010PropOp56
 70
     0
102
RTVSPost2010Prop57
140
1.0
102
RTVSPost2010PropOp57
 70
     0
  0
XRECORD
  5
3C6
102
{ACAD_REACTORS
330
3C5
102
}
330
3C5
100
AcDbXrecord
280
     1
102
RTVSPropertyOp0
 70
     1
102
RTVSPropertyOp1
 70
     1
102
RTVSPropertyOp2
 70
     1
102
RTVSPropertyOp3
 70
     1
102
RTVSPropertyOp4
 70
     1
102
RTVSPropertyOp5
 70
     1
102
RTVSPropertyOp6
 70
     1
102
RTVSPropertyOp7
 70
     1
102
RTVSPropertyOp8
 70
     1
102
RTVSPropertyOp9
 70
     1
102
RTVSPropertyOp10
 70
     1
102
RTVSPropertyOp11
 70
     1
102
RTVSPropertyOp12
 70
     1
102
RTVSPropertyOp13
 70
     1
102
RTVSPropertyOp14
 70
     1
102
RTVSPropertyOp15
 70
     1
102
RTVSPropertyOp16
 70
     1
102
RTVSPropertyOp17
 70
     1
102
RTVSPropertyOp18
 70
     1
102
RTVSPropertyOp19
 70
     1
102
RTVSPropertyOp20
 70
     1
102
RTVSPropertyOp21
 70
     1
102
RTVSPropertyOp22
 70
     1
102
RTVSPropertyOp23
 70
     1
102
RTVSPropertyOp24
 70
     1
102
RTVSPropertyOp25
 70
     1
102
RTVSPropertyOp26
 70
     1
102
RTVSPropertyOp27
 70
     1
102
RTVSPropertyOp28
 70
     1
102
RTVSPropertyOp29
 70
     1
102
RTVSPropertyOp30
 70
     1
102
RTVSPropertyOp31
 70
     1
102
RTVSPropertyOp32
 70
     1
102
RTVSPropertyOp33
 70
     1
102
RTVSPropertyOp34
 70
     1
102
RTVSPropertyOp35
 70
     1
102
RTVSPropertyOp36
 70
     1
102
RTVSPropertyOp37
 70
     1
102
RTVSPropertyOp38
 70
     1
102
RTVSPropertyOp39
 70
     1
102
RTVSPropertyOp40
 70
     1
102
RTVSPropertyOp41
 70
     1
102
RTVSPropertyOp42
 70
     1
102
RTVSPropertyOp43
 70
     1
102
RTVSPropertyOp44
 70
     1
102
RTVSPropertyOp45
 70
     1
102
RTVSPropertyOp46
 70
     1
102
RTVSPropertyOp47
 70
     1
102
RTVSPropertyOp48
 70
     1
102
RTVSPropertyOp49
 70
     1
102
RTVSPropertyOp50
 70
     1
102
RTVSPropertyOp51
 70
     0
102
RTVSPropertyOp52
 70
     0
102
RTVSPropertyOp53
 70
     1
102
RTVSPropertyOp54
 70
     1
102
RTVSPropertyOp55
 70
     1
102
RTVSPropertyOp56
 70
     1
102
RTVSPropertyOp57
 70
     1
102
RTVSPost2010Prop28
280
     0
102
RTVSPost2010PropOp28
 70
     1
102
RTVSPost2010Prop29
280
     1
102
RTVSPost2010PropOp29
 70
     1
102
RTVSPost2010Prop30
280
     1
102
RTVSPost2010PropOp30
 70
     1
102
RTVSPost2010Prop31
280
     0
102
RTVSPost2010PropOp31
 70
     1
102
RTVSPost2010Prop32
280
     0
102
RTVSPost2010PropOp32
 70
     1
102
RTVSPost2010Prop33
280
     0
102
RTVSPost2010PropOp33
 70
     1
102
RTVSPost2010Prop34
280
     0
102
RTVSPost2010PropOp34
 70
     1
102
RTVSPost2010Prop35
280
     0
102
RTVSPost2010PropOp35
 70
     1
102
RTVSPost2010Prop36
280
     0
102
RTVSPost2010PropOp36
 70
     1
102
RTVSPost2010Prop37
 90
       50
102
RTVSPost2010PropOp37
 70
     1
102
RTVSPost2010Prop38
140
0.0
102
RTVSPost2010PropOp38
 70
     1
102
RTVSPost2010Prop39
140
1.0
102
RTVSPost2010PropOp39
 70
     1
102
RTVSPost2010Prop40
 90
        0
102
RTVSPost2010PropOp40
 70
     1
102
RTVSPost2010Prop41ColorIndex
 90
       18
102
RTVSPost2010Prop41ColorRGB
 90
        0
102
RTVSPost2010PropOp41
 70
     1
102
RTVSPost2010Prop42
 90
       50
102
RTVSPost2010PropOp42
 70
     1
102
RTVSPost2010Prop43
 90
        3
102
RTVSPost2010PropOp43
 70
     1
102
RTVSPost2010Prop44ColorIndex
 90
        5
102
RTVSPost2010Prop44ColorRGB
 90
      255
102
RTVSPost2010PropOp44
 70
     1
102
RTVSPost2010Prop45
280
     0
102
RTVSPost2010PropOp45
 70
     1
102
RTVSPost2010Prop46
 90
       50
102
RTVSPost2010PropOp46
 70
     1
102
RTVSPost2010Prop47
 90
       50
102
RTVSPost2010PropOp47
 70
     1
102
RTVSPost2010Prop48
 90
       50
102
RTVSPost2010PropOp48
 70
     1
102
RTVSPost2010Prop49
280
     0
102
RTVSPost2010PropOp49
 70
     1
102
RTVSPost2010Prop50
 90
       50
102
RTVSPost2010PropOp50
 70
     1
102
RTVSPost2010Prop51ColorIndex
 90
      256
102
RTVSPost2010Prop51ColorRGB
 90
-16777216
102
RTVSPost2010PropOp51
 70
     0
102
RTVSPost2010Prop52
140
1.0
102
RTVSPost2010PropOp52
 70
     0
102
RTVSPost2010Prop53
 90
        2
102
RTVSPost2010PropOp53
 70
     1
102
RTVSPost2010Prop54
  1
strokes_ogs.tif
102
RTVSPost2010PropOp54
 70
     1
102
RTVSPost2010Prop55
280
     0
102
RTVSPost2010PropOp55
 70
     1
102
RTVSPost2010Prop56
140
1.0
102
RTVSPost2010PropOp56
 70
     1
102
RTVSPost2010Prop57
140
1.0
102
RTVSPost2010PropOp57
 70
     1
  0
XRECORD
  5
3AA
102
{ACAD_REACTORS
330
3A9
102
}
330
3A9
100
AcDbXrecord
280
     1
102
RTVSPropertyOp0
 70
     1
102
RTVSPropertyOp1
 70
     1
102
RTVSPropertyOp2
 70
     1
102
RTVSPropertyOp3
 70
     1
102
RTVSPropertyOp4
 70
     1
102
RTVSPropertyOp5
 70
     1
102
RTVSPropertyOp6
 70
     1
102
RTVSPropertyOp7
 70
     1
102
RTVSPropertyOp8
 70
     1
102
RTVSPropertyOp9
 70
     1
102
RTVSPropertyOp10
 70
     1
102
RTVSPropertyOp11
 70
     1
102
RTVSPropertyOp12
 70
     1
102
RTVSPropertyOp13
 70
     1
102
RTVSPropertyOp14
 70
     1
102
RTVSPropertyOp15
 70
     1
102
RTVSPropertyOp16
 70
     1
102
RTVSPropertyOp17
 70
     1
102
RTVSPropertyOp18
 70
     1
102
RTVSPropertyOp19
 70
     1
102
RTVSPropertyOp20
 70
     1
102
RTVSPropertyOp21
 70
     1
102
RTVSPropertyOp22
 70
     1
102
RTVSPropertyOp23
 70
     1
102
RTVSPropertyOp24
 70
     1
102
RTVSPropertyOp25
 70
     1
102
RTVSPropertyOp26
 70
     1
102
RTVSPropertyOp27
 70
     1
102
RTVSPropertyOp28
 70
     1
102
RTVSPropertyOp29
 70
     1
102
RTVSPropertyOp30
 70
     1
102
RTVSPropertyOp31
 70
     1
102
RTVSPropertyOp32
 70
     1
102
RTVSPropertyOp33
 70
     1
102
RTVSPropertyOp34
 70
     1
102
RTVSPropertyOp35
 70
     1
102
RTVSPropertyOp36
 70
     1
102
RTVSPropertyOp37
 70
     1
102
RTVSPropertyOp38
 70
     1
102
RTVSPropertyOp39
 70
     1
102
RTVSPropertyOp40
 70
     1
102
RTVSPropertyOp41
 70
     1
102
RTVSPropertyOp42
 70
     1
102
RTVSPropertyOp43
 70
     1
102
RTVSPropertyOp44
 70
     1
102
RTVSPropertyOp45
 70
     1
102
RTVSPropertyOp46
 70
     1
102
RTVSPropertyOp47
 70
     1
102
RTVSPropertyOp48
 70
     1
102
RTVSPropertyOp49
 70
     1
102
RTVSPropertyOp50
 70
     1
102
RTVSPropertyOp51
 70
     0
102
RTVSPropertyOp52
 70
     0
102
RTVSPropertyOp53
 70
     1
102
RTVSPropertyOp54
 70
     1
102
RTVSPropertyOp55
 70
     1
102
RTVSPropertyOp56
 70
     1
102
RTVSPropertyOp57
 70
     1
102
RTVSPost2010Prop28
280
     0
102
RTVSPost2010PropOp28
 70
     1
102
RTVSPost2010Prop29
280
     1
102
RTVSPost2010PropOp29
 70
     1
102
RTVSPost2010Prop30
280
     1
102
RTVSPost2010PropOp30
 70
     1
102
RTVSPost2010Prop31
280
     0
102
RTVSPost2010PropOp31
 70
     1
102
RTVSPost2010Prop32
280
     0
102
RTVSPost2010PropOp32
 70
     1
102
RTVSPost2010Prop33
280
     0
102
RTVSPost2010PropOp33
 70
     1
102
RTVSPost2010Prop34
280
     0
102
RTVSPost2010PropOp34
 70
     1
102
RTVSPost2010Prop35
280
     0
102
RTVSPost2010PropOp35
 70
     1
102
RTVSPost2010Prop36
280
     0
102
RTVSPost2010PropOp36
 70
     1
102
RTVSPost2010Prop37
 90
       50
102
RTVSPost2010PropOp37
 70
     1
102
RTVSPost2010Prop38
140
0.0
102
RTVSPost2010PropOp38
 70
     1
102
RTVSPost2010Prop39
140
1.0
102
RTVSPost2010PropOp39
 70
     1
102
RTVSPost2010Prop40
 90
        0
102
RTVSPost2010PropOp40
 70
     1
102
RTVSPost2010Prop41ColorIndex
 90
       18
102
RTVSPost2010Prop41ColorRGB
 90
        0
102
RTVSPost2010PropOp41
 70
     1
102
RTVSPost2010Prop42
 90
       50
102
RTVSPost2010PropOp42
 70
     1
102
RTVSPost2010Prop43
 90
        3
102
RTVSPost2010PropOp43
 70
     1
102
RTVSPost2010Prop44ColorIndex
 90
        5
102
RTVSPost2010Prop44ColorRGB
 90
      255
102
RTVSPost2010PropOp44
 70
     1
102
RTVSPost2010Prop45
280
     0
102
RTVSPost2010PropOp45
 70
     1
102
RTVSPost2010Prop46
 90
       50
102
RTVSPost2010PropOp46
 70
     1
102
RTVSPost2010Prop47
 90
       50
102
RTVSPost2010PropOp47
 70
     1
102
RTVSPost2010Prop48
 90
       50
102
RTVSPost2010PropOp48
 70
     1
102
RTVSPost2010Prop49
280
     0
102
RTVSPost2010PropOp49
 70
     1
102
RTVSPost2010Prop50
 90
       50
102
RTVSPost2010PropOp50
 70
     1
102
RTVSPost2010Prop51ColorIndex
 90
      256
102
RTVSPost2010Prop51ColorRGB
 90
-16777216
102
RTVSPost2010PropOp51
 70
     0
102
RTVSPost2010Prop52
140
1.0
102
RTVSPost2010PropOp52
 70
     0
102
RTVSPost2010Prop53
 90
        2
102
RTVSPost2010PropOp53
 70
     1
102
RTVSPost2010Prop54
  1
strokes_ogs.tif
102
RTVSPost2010PropOp54
 70
     1
102
RTVSPost2010Prop55
280
     0
102
RTVSPost2010PropOp55
 70
     1
102
RTVSPost2010Prop56
140
1.0
102
RTVSPost2010PropOp56
 70
     1
102
RTVSPost2010Prop57
140
1.0
102
RTVSPost2010PropOp57
 70
     1
  0
XRECORD
  5
3AC
102
{ACAD_REACTORS
330
3AB
102
}
330
3AB
100
AcDbXrecord
280
     1
102
RTVSPropertyOp0
 70
     1
102
RTVSPropertyOp1
 70
     1
102
RTVSPropertyOp2
 70
     1
102
RTVSPropertyOp3
 70
     1
102
RTVSPropertyOp4
 70
     1
102
RTVSPropertyOp5
 70
     1
102
RTVSPropertyOp6
 70
     1
102
RTVSPropertyOp7
 70
     1
102
RTVSPropertyOp8
 70
     1
102
RTVSPropertyOp9
 70
     1
102
RTVSPropertyOp10
 70
     1
102
RTVSPropertyOp11
 70
     1
102
RTVSPropertyOp12
 70
     1
102
RTVSPropertyOp13
 70
     1
102
RTVSPropertyOp14
 70
     1
102
RTVSPropertyOp15
 70
     1
102
RTVSPropertyOp16
 70
     1
102
RTVSPropertyOp17
 70
     1
102
RTVSPropertyOp18
 70
     1
102
RTVSPropertyOp19
 70
     1
102
RTVSPropertyOp20
 70
     1
102
RTVSPropertyOp21
 70
     1
102
RTVSPropertyOp22
 70
     1
102
RTVSPropertyOp23
 70
     1
102
RTVSPropertyOp24
 70
     1
102
RTVSPropertyOp25
 70
     1
102
RTVSPropertyOp26
 70
     1
102
RTVSPropertyOp27
 70
     1
102
RTVSPropertyOp28
 70
     1
102
RTVSPropertyOp29
 70
     1
102
RTVSPropertyOp30
 70
     1
102
RTVSPropertyOp31
 70
     1
102
RTVSPropertyOp32
 70
     1
102
RTVSPropertyOp33
 70
     1
102
RTVSPropertyOp34
 70
     1
102
RTVSPropertyOp35
 70
     1
102
RTVSPropertyOp36
 70
     1
102
RTVSPropertyOp37
 70
     1
102
RTVSPropertyOp38
 70
     1
102
RTVSPropertyOp39
 70
     1
102
RTVSPropertyOp40
 70
     1
102
RTVSPropertyOp41
 70
     1
102
RTVSPropertyOp42
 70
     1
102
RTVSPropertyOp43
 70
     1
102
RTVSPropertyOp44
 70
     1
102
RTVSPropertyOp45
 70
     1
102
RTVSPropertyOp46
 70
     1
102
RTVSPropertyOp47
 70
     1
102
RTVSPropertyOp48
 70
     1
102
RTVSPropertyOp49
 70
     1
102
RTVSPropertyOp50
 70
     1
102
RTVSPropertyOp51
 70
     0
102
RTVSPropertyOp52
 70
     0
102
RTVSPropertyOp53
 70
     1
102
RTVSPropertyOp54
 70
     1
102
RTVSPropertyOp55
 70
     1
102
RTVSPropertyOp56
 70
     1
102
RTVSPropertyOp57
 70
     1
102
RTVSPost2010Prop28
280
     0
102
RTVSPost2010PropOp28
 70
     1
102
RTVSPost2010Prop29
280
     1
102
RTVSPost2010PropOp29
 70
     1
102
RTVSPost2010Prop30
280
     1
102
RTVSPost2010PropOp30
 70
     1
102
RTVSPost2010Prop31
280
     0
102
RTVSPost2010PropOp31
 70
     1
102
RTVSPost2010Prop32
280
     0
102
RTVSPost2010PropOp32
 70
     1
102
RTVSPost2010Prop33
280
     0
102
RTVSPost2010PropOp33
 70
     1
102
RTVSPost2010Prop34
280
     0
102
RTVSPost2010PropOp34
 70
     1
102
RTVSPost2010Prop35
280
     0
102
RTVSPost2010PropOp35
 70
     1
102
RTVSPost2010Prop36
280
     0
102
RTVSPost2010PropOp36
 70
     1
102
RTVSPost2010Prop37
 90
       50
102
RTVSPost2010PropOp37
 70
     1
102
RTVSPost2010Prop38
140
0.0
102
RTVSPost2010PropOp38
 70
     1
102
RTVSPost2010Prop39
140
1.0
102
RTVSPost2010PropOp39
 70
     1
102
RTVSPost2010Prop40
 90
        0
102
RTVSPost2010PropOp40
 70
     1
102
RTVSPost2010Prop41ColorIndex
 90
       18
102
RTVSPost2010Prop41ColorRGB
 90
        0
102
RTVSPost2010PropOp41
 70
     1
102
RTVSPost2010Prop42
 90
       50
102
RTVSPost2010PropOp42
 70
     1
102
RTVSPost2010Prop43
 90
        3
102
RTVSPost2010PropOp43
 70
     1
102
RTVSPost2010Prop44ColorIndex
 90
        5
102
RTVSPost2010Prop44ColorRGB
 90
      255
102
RTVSPost2010PropOp44
 70
     1
102
RTVSPost2010Prop45
280
     0
102
RTVSPost2010PropOp45
 70
     1
102
RTVSPost2010Prop46
 90
       50
102
RTVSPost2010PropOp46
 70
     1
102
RTVSPost2010Prop47
 90
       50
102
RTVSPost2010PropOp47
 70
     1
102
RTVSPost2010Prop48
 90
       50
102
RTVSPost2010PropOp48
 70
     1
102
RTVSPost2010Prop49
280
     0
102
RTVSPost2010PropOp49
 70
     1
102
RTVSPost2010Prop50
 90
       50
102
RTVSPost2010PropOp50
 70
     1
102
RTVSPost2010Prop51ColorIndex
 90
      256
102
RTVSPost2010Prop51ColorRGB
 90
-16777216
102
RTVSPost2010PropOp51
 70
     0
102
RTVSPost2010Prop52
140
1.0
102
RTVSPost2010PropOp52
 70
     0
102
RTVSPost2010Prop53
 90
        2
102
RTVSPost2010PropOp53
 70
     1
102
RTVSPost2010Prop54
  1
strokes_ogs.tif
102
RTVSPost2010PropOp54
 70
     1
102
RTVSPost2010Prop55
280
     0
102
RTVSPost2010PropOp55
 70
     1
102
RTVSPost2010Prop56
140
1.0
102
RTVSPost2010PropOp56
 70
     1
102
RTVSPost2010Prop57
140
1.0
102
RTVSPost2010PropOp57
 70
     1
  0
XRECORD
  5
3AE
102
{ACAD_REACTORS
330
3AD
102
}
330
3AD
100
AcDbXrecord
280
     1
102
RTVSPropertyOp0
 70
     1
102
RTVSPropertyOp1
 70
     1
102
RTVSPropertyOp2
 70
     1
102
RTVSPropertyOp3
 70
     1
102
RTVSPropertyOp4
 70
     1
102
RTVSPropertyOp5
 70
     1
102
RTVSPropertyOp6
 70
     1
102
RTVSPropertyOp7
 70
     1
102
RTVSPropertyOp8
 70
     1
102
RTVSPropertyOp9
 70
     1
102
RTVSPropertyOp10
 70
     1
102
RTVSPropertyOp11
 70
     1
102
RTVSPropertyOp12
 70
     1
102
RTVSPropertyOp13
 70
     1
102
RTVSPropertyOp14
 70
     1
102
RTVSPropertyOp15
 70
     1
102
RTVSPropertyOp16
 70
     1
102
RTVSPropertyOp17
 70
     1
102
RTVSPropertyOp18
 70
     1
102
RTVSPropertyOp19
 70
     1
102
RTVSPropertyOp20
 70
     1
102
RTVSPropertyOp21
 70
     1
102
RTVSPropertyOp22
 70
     1
102
RTVSPropertyOp23
 70
     1
102
RTVSPropertyOp24
 70
     1
102
RTVSPropertyOp25
 70
     1
102
RTVSPropertyOp26
 70
     1
102
RTVSPropertyOp27
 70
     1
102
RTVSPropertyOp28
 70
     1
102
RTVSPropertyOp29
 70
     1
102
RTVSPropertyOp30
 70
     1
102
RTVSPropertyOp31
 70
     1
102
RTVSPropertyOp32
 70
     1
102
RTVSPropertyOp33
 70
     1
102
RTVSPropertyOp34
 70
     1
102
RTVSPropertyOp35
 70
     1
102
RTVSPropertyOp36
 70
     1
102
RTVSPropertyOp37
 70
     1
102
RTVSPropertyOp38
 70
     1
102
RTVSPropertyOp39
 70
     1
102
RTVSPropertyOp40
 70
     1
102
RTVSPropertyOp41
 70
     1
102
RTVSPropertyOp42
 70
     1
102
RTVSPropertyOp43
 70
     1
102
RTVSPropertyOp44
 70
     1
102
RTVSPropertyOp45
 70
     1
102
RTVSPropertyOp46
 70
     1
102
RTVSPropertyOp47
 70
     1
102
RTVSPropertyOp48
 70
     1
102
RTVSPropertyOp49
 70
     1
102
RTVSPropertyOp50
 70
     1
102
RTVSPropertyOp51
 70
     0
102
RTVSPropertyOp52
 70
     0
102
RTVSPropertyOp53
 70
     1
102
RTVSPropertyOp54
 70
     1
102
RTVSPropertyOp55
 70
     1
102
RTVSPropertyOp56
 70
     1
102
RTVSPropertyOp57
 70
     1
102
RTVSPost2010Prop28
280
     0
102
RTVSPost2010PropOp28
 70
     1
102
RTVSPost2010Prop29
280
     1
102
RTVSPost2010PropOp29
 70
     1
102
RTVSPost2010Prop30
280
     1
102
RTVSPost2010PropOp30
 70
     1
102
RTVSPost2010Prop31
280
     0
102
RTVSPost2010PropOp31
 70
     1
102
RTVSPost2010Prop32
280
     0
102
RTVSPost2010PropOp32
 70
     1
102
RTVSPost2010Prop33
280
     0
102
RTVSPost2010PropOp33
 70
     1
102
RTVSPost2010Prop34
280
     0
102
RTVSPost2010PropOp34
 70
     1
102
RTVSPost2010Prop35
280
     0
102
RTVSPost2010PropOp35
 70
     1
102
RTVSPost2010Prop36
280
     0
102
RTVSPost2010PropOp36
 70
     1
102
RTVSPost2010Prop37
 90
       50
102
RTVSPost2010PropOp37
 70
     1
102
RTVSPost2010Prop38
140
0.0
102
RTVSPost2010PropOp38
 70
     1
102
RTVSPost2010Prop39
140
1.0
102
RTVSPost2010PropOp39
 70
     1
102
RTVSPost2010Prop40
 90
        0
102
RTVSPost2010PropOp40
 70
     1
102
RTVSPost2010Prop41ColorIndex
 90
       18
102
RTVSPost2010Prop41ColorRGB
 90
        0
102
RTVSPost2010PropOp41
 70
     1
102
RTVSPost2010Prop42
 90
       50
102
RTVSPost2010PropOp42
 70
     1
102
RTVSPost2010Prop43
 90
        3
102
RTVSPost2010PropOp43
 70
     1
102
RTVSPost2010Prop44ColorIndex
 90
        5
102
RTVSPost2010Prop44ColorRGB
 90
      255
102
RTVSPost2010PropOp44
 70
     1
102
RTVSPost2010Prop45
280
     0
102
RTVSPost2010PropOp45
 70
     1
102
RTVSPost2010Prop46
 90
       50
102
RTVSPost2010PropOp46
 70
     1
102
RTVSPost2010Prop47
 90
       50
102
RTVSPost2010PropOp47
 70
     1
102
RTVSPost2010Prop48
 90
       50
102
RTVSPost2010PropOp48
 70
     1
102
RTVSPost2010Prop49
280
     0
102
RTVSPost2010PropOp49
 70
     1
102
RTVSPost2010Prop50
 90
       50
102
RTVSPost2010PropOp50
 70
     1
102
RTVSPost2010Prop51ColorIndex
 90
      256
102
RTVSPost2010Prop51ColorRGB
 90
-16777216
102
RTVSPost2010PropOp51
 70
     0
102
RTVSPost2010Prop52
140
1.0
102
RTVSPost2010PropOp52
 70
     0
102
RTVSPost2010Prop53
 90
        2
102
RTVSPost2010PropOp53
 70
     1
102
RTVSPost2010Prop54
  1
strokes_ogs.tif
102
RTVSPost2010PropOp54
 70
     1
102
RTVSPost2010Prop55
280
     0
102
RTVSPost2010PropOp55
 70
     1
102
RTVSPost2010Prop56
140
1.0
102
RTVSPost2010PropOp56
 70
     1
102
RTVSPost2010Prop57
140
1.0
102
RTVSPost2010PropOp57
 70
     1
  0
XRECORD
  5
3B0
102
{ACAD_REACTORS
330
3AF
102
}
330
3AF
100
AcDbXrecord
280
     1
102
RTVSPropertyOp0
 70
     1
102
RTVSPropertyOp1
 70
     1
102
RTVSPropertyOp2
 70
     1
102
RTVSPropertyOp3
 70
     1
102
RTVSPropertyOp4
 70
     1
102
RTVSPropertyOp5
 70
     1
102
RTVSPropertyOp6
 70
     1
102
RTVSPropertyOp7
 70
     1
102
RTVSPropertyOp8
 70
     1
102
RTVSPropertyOp9
 70
     1
102
RTVSPropertyOp10
 70
     1
102
RTVSPropertyOp11
 70
     1
102
RTVSPropertyOp12
 70
     1
102
RTVSPropertyOp13
 70
     1
102
RTVSPropertyOp14
 70
     1
102
RTVSPropertyOp15
 70
     1
102
RTVSPropertyOp16
 70
     1
102
RTVSPropertyOp17
 70
     1
102
RTVSPropertyOp18
 70
     1
102
RTVSPropertyOp19
 70
     1
102
RTVSPropertyOp20
 70
     1
102
RTVSPropertyOp21
 70
     1
102
RTVSPropertyOp22
 70
     1
102
RTVSPropertyOp23
 70
     1
102
RTVSPropertyOp24
 70
     1
102
RTVSPropertyOp25
 70
     1
102
RTVSPropertyOp26
 70
     1
102
RTVSPropertyOp27
 70
     1
102
RTVSPropertyOp28
 70
     1
102
RTVSPropertyOp29
 70
     1
102
RTVSPropertyOp30
 70
     1
102
RTVSPropertyOp31
 70
     1
102
RTVSPropertyOp32
 70
     1
102
RTVSPropertyOp33
 70
     1
102
RTVSPropertyOp34
 70
     1
102
RTVSPropertyOp35
 70
     1
102
RTVSPropertyOp36
 70
     1
102
RTVSPropertyOp37
 70
     1
102
RTVSPropertyOp38
 70
     1
102
RTVSPropertyOp39
 70
     1
102
RTVSPropertyOp40
 70
     1
102
RTVSPropertyOp41
 70
     1
102
RTVSPropertyOp42
 70
     1
102
RTVSPropertyOp43
 70
     1
102
RTVSPropertyOp44
 70
     1
102
RTVSPropertyOp45
 70
     1
102
RTVSPropertyOp46
 70
     1
102
RTVSPropertyOp47
 70
     1
102
RTVSPropertyOp48
 70
     1
102
RTVSPropertyOp49
 70
     1
102
RTVSPropertyOp50
 70
     1
102
RTVSPropertyOp51
 70
     0
102
RTVSPropertyOp52
 70
     0
102
RTVSPropertyOp53
 70
     1
102
RTVSPropertyOp54
 70
     1
102
RTVSPropertyOp55
 70
     1
102
RTVSPropertyOp56
 70
     1
102
RTVSPropertyOp57
 70
     1
102
RTVSPost2010Prop28
280
     0
102
RTVSPost2010PropOp28
 70
     1
102
RTVSPost2010Prop29
280
     1
102
RTVSPost2010PropOp29
 70
     1
102
RTVSPost2010Prop30
280
     1
102
RTVSPost2010PropOp30
 70
     1
102
RTVSPost2010Prop31
280
     0
102
RTVSPost2010PropOp31
 70
     1
102
RTVSPost2010Prop32
280
     0
102
RTVSPost2010PropOp32
 70
     1
102
RTVSPost2010Prop33
280
     0
102
RTVSPost2010PropOp33
 70
     1
102
RTVSPost2010Prop34
280
     0
102
RTVSPost2010PropOp34
 70
     1
102
RTVSPost2010Prop35
280
     0
102
RTVSPost2010PropOp35
 70
     1
102
RTVSPost2010Prop36
280
     0
102
RTVSPost2010PropOp36
 70
     1
102
RTVSPost2010Prop37
 90
       50
102
RTVSPost2010PropOp37
 70
     1
102
RTVSPost2010Prop38
140
0.0
102
RTVSPost2010PropOp38
 70
     1
102
RTVSPost2010Prop39
140
1.0
102
RTVSPost2010PropOp39
 70
     1
102
RTVSPost2010Prop40
 90
        0
102
RTVSPost2010PropOp40
 70
     1
102
RTVSPost2010Prop41ColorIndex
 90
       18
102
RTVSPost2010Prop41ColorRGB
 90
        0
102
RTVSPost2010PropOp41
 70
     1
102
RTVSPost2010Prop42
 90
       50
102
RTVSPost2010PropOp42
 70
     1
102
RTVSPost2010Prop43
 90
        3
102
RTVSPost2010PropOp43
 70
     1
102
RTVSPost2010Prop44ColorIndex
 90
        5
102
RTVSPost2010Prop44ColorRGB
 90
      255
102
RTVSPost2010PropOp44
 70
     1
102
RTVSPost2010Prop45
280
     0
102
RTVSPost2010PropOp45
 70
     1
102
RTVSPost2010Prop46
 90
       50
102
RTVSPost2010PropOp46
 70
     1
102
RTVSPost2010Prop47
 90
       50
102
RTVSPost2010PropOp47
 70
     1
102
RTVSPost2010Prop48
 90
       50
102
RTVSPost2010PropOp48
 70
     1
102
RTVSPost2010Prop49
280
     0
102
RTVSPost2010PropOp49
 70
     1
102
RTVSPost2010Prop50
 90
       50
102
RTVSPost2010PropOp50
 70
     1
102
RTVSPost2010Prop51ColorIndex
 90
      256
102
RTVSPost2010Prop51ColorRGB
 90
-16777216
102
RTVSPost2010PropOp51
 70
     0
102
RTVSPost2010Prop52
140
1.0
102
RTVSPost2010PropOp52
 70
     0
102
RTVSPost2010Prop53
 90
        2
102
RTVSPost2010PropOp53
 70
     1
102
RTVSPost2010Prop54
  1
strokes_ogs.tif
102
RTVSPost2010PropOp54
 70
     1
102
RTVSPost2010Prop55
280
     0
102
RTVSPost2010PropOp55
 70
     1
102
RTVSPost2010Prop56
140
1.0
102
RTVSPost2010PropOp56
 70
     1
102
RTVSPost2010Prop57
140
1.0
102
RTVSPost2010PropOp57
 70
     1
  0
XRECORD
  5
3B6
102
{ACAD_REACTORS
330
3B5
102
}
330
3B5
100
AcDbXrecord
280
     1
102
RTVSPropertyOp0
 70
     1
102
RTVSPropertyOp1
 70
     1
102
RTVSPropertyOp2
 70
     1
102
RTVSPropertyOp3
 70
     1
102
RTVSPropertyOp4
 70
     1
102
RTVSPropertyOp5
 70
     1
102
RTVSPropertyOp6
 70
     1
102
RTVSPropertyOp7
 70
     1
102
RTVSPropertyOp8
 70
     1
102
RTVSPropertyOp9
 70
     1
102
RTVSPropertyOp10
 70
     1
102
RTVSPropertyOp11
 70
     1
102
RTVSPropertyOp12
 70
     1
102
RTVSPropertyOp13
 70
     1
102
RTVSPropertyOp14
 70
     1
102
RTVSPropertyOp15
 70
     1
102
RTVSPropertyOp16
 70
     1
102
RTVSPropertyOp17
 70
     1
102
RTVSPropertyOp18
 70
     1
102
RTVSPropertyOp19
 70
     1
102
RTVSPropertyOp20
 70
     1
102
RTVSPropertyOp21
 70
     1
102
RTVSPropertyOp22
 70
     1
102
RTVSPropertyOp23
 70
     1
102
RTVSPropertyOp24
 70
     1
102
RTVSPropertyOp25
 70
     1
102
RTVSPropertyOp26
 70
     1
102
RTVSPropertyOp27
 70
     1
102
RTVSPropertyOp28
 70
     1
102
RTVSPropertyOp29
 70
     1
102
RTVSPropertyOp30
 70
     1
102
RTVSPropertyOp31
 70
     1
102
RTVSPropertyOp32
 70
     1
102
RTVSPropertyOp33
 70
     1
102
RTVSPropertyOp34
 70
     1
102
RTVSPropertyOp35
 70
     1
102
RTVSPropertyOp36
 70
     1
102
RTVSPropertyOp37
 70
     1
102
RTVSPropertyOp38
 70
     1
102
RTVSPropertyOp39
 70
     1
102
RTVSPropertyOp40
 70
     1
102
RTVSPropertyOp41
 70
     1
102
RTVSPropertyOp42
 70
     1
102
RTVSPropertyOp43
 70
     1
102
RTVSPropertyOp44
 70
     1
102
RTVSPropertyOp45
 70
     1
102
RTVSPropertyOp46
 70
     1
102
RTVSPropertyOp47
 70
     1
102
RTVSPropertyOp48
 70
     1
102
RTVSPropertyOp49
 70
     1
102
RTVSPropertyOp50
 70
     1
102
RTVSPropertyOp51
 70
     0
102
RTVSPropertyOp52
 70
     0
102
RTVSPropertyOp53
 70
     1
102
RTVSPropertyOp54
 70
     1
102
RTVSPropertyOp55
 70
     1
102
RTVSPropertyOp56
 70
     1
102
RTVSPropertyOp57
 70
     1
102
RTVSPost2010Prop28
280
     0
102
RTVSPost2010PropOp28
 70
     1
102
RTVSPost2010Prop29
280
     1
102
RTVSPost2010PropOp29
 70
     1
102
RTVSPost2010Prop30
280
     1
102
RTVSPost2010PropOp30
 70
     1
102
RTVSPost2010Prop31
280
     0
102
RTVSPost2010PropOp31
 70
     1
102
RTVSPost2010Prop32
280
     0
102
RTVSPost2010PropOp32
 70
     1
102
RTVSPost2010Prop33
280
     0
102
RTVSPost2010PropOp33
 70
     1
102
RTVSPost2010Prop34
280
     0
102
RTVSPost2010PropOp34
 70
     1
102
RTVSPost2010Prop35
280
     0
102
RTVSPost2010PropOp35
 70
     1
102
RTVSPost2010Prop36
280
     0
102
RTVSPost2010PropOp36
 70
     1
102
RTVSPost2010Prop37
 90
       50
102
RTVSPost2010PropOp37
 70
     1
102
RTVSPost2010Prop38
140
0.0
102
RTVSPost2010PropOp38
 70
     1
102
RTVSPost2010Prop39
140
1.0
102
RTVSPost2010PropOp39
 70
     1
102
RTVSPost2010Prop40
 90
        0
102
RTVSPost2010PropOp40
 70
     1
102
RTVSPost2010Prop41ColorIndex
 90
       18
102
RTVSPost2010Prop41ColorRGB
 90
        0
102
RTVSPost2010PropOp41
 70
     1
102
RTVSPost2010Prop42
 90
       50
102
RTVSPost2010PropOp42
 70
     1
102
RTVSPost2010Prop43
 90
        3
102
RTVSPost2010PropOp43
 70
     1
102
RTVSPost2010Prop44ColorIndex
 90
        5
102
RTVSPost2010Prop44ColorRGB
 90
      255
102
RTVSPost2010PropOp44
 70
     1
102
RTVSPost2010Prop45
280
     0
102
RTVSPost2010PropOp45
 70
     1
102
RTVSPost2010Prop46
 90
       50
102
RTVSPost2010PropOp46
 70
     1
102
RTVSPost2010Prop47
 90
       50
102
RTVSPost2010PropOp47
 70
     1
102
RTVSPost2010Prop48
 90
       50
102
RTVSPost2010PropOp48
 70
     1
102
RTVSPost2010Prop49
280
     0
102
RTVSPost2010PropOp49
 70
     1
102
RTVSPost2010Prop50
 90
       50
102
RTVSPost2010PropOp50
 70
     1
102
RTVSPost2010Prop51ColorIndex
 90
      256
102
RTVSPost2010Prop51ColorRGB
 90
-16777216
102
RTVSPost2010PropOp51
 70
     0
102
RTVSPost2010Prop52
140
1.0
102
RTVSPost2010PropOp52
 70
     0
102
RTVSPost2010Prop53
 90
        2
102
RTVSPost2010PropOp53
 70
     1
102
RTVSPost2010Prop54
  1
strokes_ogs.tif
102
RTVSPost2010PropOp54
 70
     1
102
RTVSPost2010Prop55
280
     0
102
RTVSPost2010PropOp55
 70
     1
102
RTVSPost2010Prop56
140
1.0
102
RTVSPost2010PropOp56
 70
     1
102
RTVSPost2010Prop57
140
1.0
102
RTVSPost2010PropOp57
 70
     1
  0
XRECORD
  5
3CA
102
{ACAD_REACTORS
330
3C9
102
}
330
3C9
100
AcDbXrecord
280
     1
102
RTVSPropertyOp0
 70
     0
102
RTVSPropertyOp1
 70
     0
102
RTVSPropertyOp2
 70
     0
102
RTVSPropertyOp3
 70
     0
102
RTVSPropertyOp4
 70
     0
102
RTVSPropertyOp5
 70
     0
102
RTVSPropertyOp6
 70
     0
102
RTVSPropertyOp7
 70
     0
102
RTVSPropertyOp8
 70
     0
102
RTVSPropertyOp9
 70
     0
102
RTVSPropertyOp10
 70
     0
102
RTVSPropertyOp11
 70
     0
102
RTVSPropertyOp12
 70
     0
102
RTVSPropertyOp13
 70
     0
102
RTVSPropertyOp14
 70
     2
102
RTVSPropertyOp15
 70
     0
102
RTVSPropertyOp16
 70
     0
102
RTVSPropertyOp17
 70
     0
102
RTVSPropertyOp18
 70
     0
102
RTVSPropertyOp19
 70
     0
102
RTVSPropertyOp20
 70
     0
102
RTVSPropertyOp21
 70
     0
102
RTVSPropertyOp22
 70
     0
102
RTVSPropertyOp23
 70
     0
102
RTVSPropertyOp24
 70
     0
102
RTVSPropertyOp25
 70
     0
102
RTVSPropertyOp26
 70
     0
102
RTVSPropertyOp27
 70
     0
102
RTVSPropertyOp28
 70
     0
102
RTVSPropertyOp29
 70
     0
102
RTVSPropertyOp30
 70
     0
102
RTVSPropertyOp31
 70
     0
102
RTVSPropertyOp32
 70
     0
102
RTVSPropertyOp33
 70
     0
102
RTVSPropertyOp34
 70
     0
102
RTVSPropertyOp35
 70
     0
102
RTVSPropertyOp36
 70
     0
102
RTVSPropertyOp37
 70
     0
102
RTVSPropertyOp38
 70
     0
102
RTVSPropertyOp39
 70
     0
102
RTVSPropertyOp40
 70
     0
102
RTVSPropertyOp41
 70
     0
102
RTVSPropertyOp42
 70
     0
102
RTVSPropertyOp43
 70
     0
102
RTVSPropertyOp44
 70
     0
102
RTVSPropertyOp45
 70
     0
102
RTVSPropertyOp46
 70
     0
102
RTVSPropertyOp47
 70
     0
102
RTVSPropertyOp48
 70
     0
102
RTVSPropertyOp49
 70
     0
102
RTVSPropertyOp50
 70
     0
102
RTVSPropertyOp51
 70
     0
102
RTVSPropertyOp52
 70
     0
102
RTVSPropertyOp53
 70
     0
102
RTVSPropertyOp54
 70
     0
102
RTVSPropertyOp55
 70
     0
102
RTVSPropertyOp56
 70
     0
102
RTVSPropertyOp57
 70
     0
102
RTVSPost2010Prop28
280
     0
102
RTVSPost2010PropOp28
 70
     0
102
RTVSPost2010Prop29
280
     1
102
RTVSPost2010PropOp29
 70
     0
102
RTVSPost2010Prop30
280
     1
102
RTVSPost2010PropOp30
 70
     0
102
RTVSPost2010Prop31
280
     0
102
RTVSPost2010PropOp31
 70
     0
102
RTVSPost2010Prop32
280
     0
102
RTVSPost2010PropOp32
 70
     0
102
RTVSPost2010Prop33
280
     0
102
RTVSPost2010PropOp33
 70
     0
102
RTVSPost2010Prop34
280
     0
102
RTVSPost2010PropOp34
 70
     0
102
RTVSPost2010Prop35
280
     0
102
RTVSPost2010PropOp35
 70
     0
102
RTVSPost2010Prop36
280
     0
102
RTVSPost2010PropOp36
 70
     0
102
RTVSPost2010Prop37
 90
       50
102
RTVSPost2010PropOp37
 70
     0
102
RTVSPost2010Prop38
140
0.0
102
RTVSPost2010PropOp38
 70
     0
102
RTVSPost2010Prop39
140
1.0
102
RTVSPost2010PropOp39
 70
     0
102
RTVSPost2010Prop40
 90
        0
102
RTVSPost2010PropOp40
 70
     0
102
RTVSPost2010Prop41ColorIndex
 90
       18
102
RTVSPost2010Prop41ColorRGB
 90
        0
102
RTVSPost2010PropOp41
 70
     0
102
RTVSPost2010Prop42
 90
       50
102
RTVSPost2010PropOp42
 70
     0
102
RTVSPost2010Prop43
 90
        3
102
RTVSPost2010PropOp43
 70
     0
102
RTVSPost2010Prop44ColorIndex
 90
        5
102
RTVSPost2010Prop44ColorRGB
 90
      255
102
RTVSPost2010PropOp44
 70
     0
102
RTVSPost2010Prop45
280
     0
102
RTVSPost2010PropOp45
 70
     0
102
RTVSPost2010Prop46
 90
       50
102
RTVSPost2010PropOp46
 70
     0
102
RTVSPost2010Prop47
 90
       50
102
RTVSPost2010PropOp47
 70
     0
102
RTVSPost2010Prop48
 90
       50
102
RTVSPost2010PropOp48
 70
     0
102
RTVSPost2010Prop49
280
     0
102
RTVSPost2010PropOp49
 70
     0
102
RTVSPost2010Prop50
 90
       50
102
RTVSPost2010PropOp50
 70
     0
102
RTVSPost2010Prop51ColorIndex
 90
      256
102
RTVSPost2010Prop51ColorRGB
 90
-16777216
102
RTVSPost2010PropOp51
 70
     0
102
RTVSPost2010Prop52
140
1.0
102
RTVSPost2010PropOp52
 70
     0
102
RTVSPost2010Prop53
 90
        2
102
RTVSPost2010PropOp53
 70
     0
102
RTVSPost2010Prop54
  1
strokes_ogs.tif
102
RTVSPost2010PropOp54
 70
     0
102
RTVSPost2010Prop55
280
     0
102
RTVSPost2010PropOp55
 70
     0
102
RTVSPost2010Prop56
140
1.0
102
RTVSPost2010PropOp56
 70
     0
102
RTVSPost2010Prop57
140
1.0
102
RTVSPost2010PropOp57
 70
     0
  0
XRECORD
  5
3C4
102
{ACAD_REACTORS
330
3C3
102
}
330
3C3
100
AcDbXrecord
280
     1
102
RTVSPropertyOp0
 70
     1
102
RTVSPropertyOp1
 70
     1
102
RTVSPropertyOp2
 70
     1
102
RTVSPropertyOp3
 70
     1
102
RTVSPropertyOp4
 70
     1
102
RTVSPropertyOp5
 70
     1
102
RTVSPropertyOp6
 70
     1
102
RTVSPropertyOp7
 70
     1
102
RTVSPropertyOp8
 70
     1
102
RTVSPropertyOp9
 70
     1
102
RTVSPropertyOp10
 70
     1
102
RTVSPropertyOp11
 70
     1
102
RTVSPropertyOp12
 70
     1
102
RTVSPropertyOp13
 70
     1
102
RTVSPropertyOp14
 70
     1
102
RTVSPropertyOp15
 70
     1
102
RTVSPropertyOp16
 70
     1
102
RTVSPropertyOp17
 70
     1
102
RTVSPropertyOp18
 70
     1
102
RTVSPropertyOp19
 70
     1
102
RTVSPropertyOp20
 70
     1
102
RTVSPropertyOp21
 70
     1
102
RTVSPropertyOp22
 70
     1
102
RTVSPropertyOp23
 70
     1
102
RTVSPropertyOp24
 70
     1
102
RTVSPropertyOp25
 70
     1
102
RTVSPropertyOp26
 70
     1
102
RTVSPropertyOp27
 70
     1
102
RTVSPropertyOp28
 70
     1
102
RTVSPropertyOp29
 70
     1
102
RTVSPropertyOp30
 70
     1
102
RTVSPropertyOp31
 70
     1
102
RTVSPropertyOp32
 70
     1
102
RTVSPropertyOp33
 70
     1
102
RTVSPropertyOp34
 70
     1
102
RTVSPropertyOp35
 70
     1
102
RTVSPropertyOp36
 70
     1
102
RTVSPropertyOp37
 70
     1
102
RTVSPropertyOp38
 70
     1
102
RTVSPropertyOp39
 70
     1
102
RTVSPropertyOp40
 70
     1
102
RTVSPropertyOp41
 70
     1
102
RTVSPropertyOp42
 70
     1
102
RTVSPropertyOp43
 70
     1
102
RTVSPropertyOp44
 70
     1
102
RTVSPropertyOp45
 70
     1
102
RTVSPropertyOp46
 70
     1
102
RTVSPropertyOp47
 70
     1
102
RTVSPropertyOp48
 70
     1
102
RTVSPropertyOp49
 70
     1
102
RTVSPropertyOp50
 70
     1
102
RTVSPropertyOp51
 70
     0
102
RTVSPropertyOp52
 70
     0
102
RTVSPropertyOp53
 70
     1
102
RTVSPropertyOp54
 70
     1
102
RTVSPropertyOp55
 70
     1
102
RTVSPropertyOp56
 70
     1
102
RTVSPropertyOp57
 70
     1
102
RTVSPost2010Prop28
280
     0
102
RTVSPost2010PropOp28
 70
     1
102
RTVSPost2010Prop29
280
     1
102
RTVSPost2010PropOp29
 70
     1
102
RTVSPost2010Prop30
280
     1
102
RTVSPost2010PropOp30
 70
     1
102
RTVSPost2010Prop31
280
     0
102
RTVSPost2010PropOp31
 70
     1
102
RTVSPost2010Prop32
280
     0
102
RTVSPost2010PropOp32
 70
     1
102
RTVSPost2010Prop33
280
     0
102
RTVSPost2010PropOp33
 70
     1
102
RTVSPost2010Prop34
280
     0
102
RTVSPost2010PropOp34
 70
     1
102
RTVSPost2010Prop35
280
     0
102
RTVSPost2010PropOp35
 70
     1
102
RTVSPost2010Prop36
280
     0
102
RTVSPost2010PropOp36
 70
     1
102
RTVSPost2010Prop37
 90
       50
102
RTVSPost2010PropOp37
 70
     1
102
RTVSPost2010Prop38
140
0.0
102
RTVSPost2010PropOp38
 70
     1
102
RTVSPost2010Prop39
140
1.0
102
RTVSPost2010PropOp39
 70
     1
102
RTVSPost2010Prop40
 90
        0
102
RTVSPost2010PropOp40
 70
     1
102
RTVSPost2010Prop41ColorIndex
 90
       18
102
RTVSPost2010Prop41ColorRGB
 90
        0
102
RTVSPost2010PropOp41
 70
     1
102
RTVSPost2010Prop42
 90
       50
102
RTVSPost2010PropOp42
 70
     1
102
RTVSPost2010Prop43
 90
        3
102
RTVSPost2010PropOp43
 70
     1
102
RTVSPost2010Prop44ColorIndex
 90
        5
102
RTVSPost2010Prop44ColorRGB
 90
      255
102
RTVSPost2010PropOp44
 70
     1
102
RTVSPost2010Prop45
280
     0
102
RTVSPost2010PropOp45
 70
     1
102
RTVSPost2010Prop46
 90
       50
102
RTVSPost2010PropOp46
 70
     1
102
RTVSPost2010Prop47
 90
       50
102
RTVSPost2010PropOp47
 70
     1
102
RTVSPost2010Prop48
 90
       50
102
RTVSPost2010PropOp48
 70
     1
102
RTVSPost2010Prop49
280
     0
102
RTVSPost2010PropOp49
 70
     1
102
RTVSPost2010Prop50
 90
       50
102
RTVSPost2010PropOp50
 70
     1
102
RTVSPost2010Prop51ColorIndex
 90
      256
102
RTVSPost2010Prop51ColorRGB
 90
-16777216
102
RTVSPost2010PropOp51
 70
     0
102
RTVSPost2010Prop52
140
1.0
102
RTVSPost2010PropOp52
 70
     0
102
RTVSPost2010Prop53
 90
        2
102
RTVSPost2010PropOp53
 70
     1
102
RTVSPost2010Prop54
  1
strokes_ogs.tif
102
RTVSPost2010PropOp54
 70
     1
102
RTVSPost2010Prop55
280
     0
102
RTVSPost2010PropOp55
 70
     1
102
RTVSPost2010Prop56
140
1.0
102
RTVSPost2010PropOp56
 70
     1
102
RTVSPost2010Prop57
140
1.0
102
RTVSPost2010PropOp57
 70
     1
  0
XRECORD
  5
3CC
102
{ACAD_REACTORS
330
3CB
102
}
330
3CB
100
AcDbXrecord
280
     1
102
RTVSPropertyOp0
 70
     0
102
RTVSPropertyOp1
 70
     0
102
RTVSPropertyOp2
 70
     0
102
RTVSPropertyOp3
 70
     0
102
RTVSPropertyOp4
 70
     0
102
RTVSPropertyOp5
 70
     0
102
RTVSPropertyOp6
 70
     0
102
RTVSPropertyOp7
 70
     0
102
RTVSPropertyOp8
 70
     0
102
RTVSPropertyOp9
 70
     0
102
RTVSPropertyOp10
 70
     0
102
RTVSPropertyOp11
 70
     0
102
RTVSPropertyOp12
 70
     0
102
RTVSPropertyOp13
 70
     0
102
RTVSPropertyOp14
 70
     2
102
RTVSPropertyOp15
 70
     0
102
RTVSPropertyOp16
 70
     0
102
RTVSPropertyOp17
 70
     0
102
RTVSPropertyOp18
 70
     0
102
RTVSPropertyOp19
 70
     0
102
RTVSPropertyOp20
 70
     0
102
RTVSPropertyOp21
 70
     0
102
RTVSPropertyOp22
 70
     0
102
RTVSPropertyOp23
 70
     0
102
RTVSPropertyOp24
 70
     0
102
RTVSPropertyOp25
 70
     0
102
RTVSPropertyOp26
 70
     0
102
RTVSPropertyOp27
 70
     0
102
RTVSPropertyOp28
 70
     0
102
RTVSPropertyOp29
 70
     0
102
RTVSPropertyOp30
 70
     0
102
RTVSPropertyOp31
 70
     0
102
RTVSPropertyOp32
 70
     0
102
RTVSPropertyOp33
 70
     0
102
RTVSPropertyOp34
 70
     0
102
RTVSPropertyOp35
 70
     0
102
RTVSPropertyOp36
 70
     0
102
RTVSPropertyOp37
 70
     0
102
RTVSPropertyOp38
 70
     0
102
RTVSPropertyOp39
 70
     0
102
RTVSPropertyOp40
 70
     0
102
RTVSPropertyOp41
 70
     0
102
RTVSPropertyOp42
 70
     0
102
RTVSPropertyOp43
 70
     0
102
RTVSPropertyOp44
 70
     0
102
RTVSPropertyOp45
 70
     0
102
RTVSPropertyOp46
 70
     0
102
RTVSPropertyOp47
 70
     0
102
RTVSPropertyOp48
 70
     0
102
RTVSPropertyOp49
 70
     0
102
RTVSPropertyOp50
 70
     0
102
RTVSPropertyOp51
 70
     0
102
RTVSPropertyOp52
 70
     0
102
RTVSPropertyOp53
 70
     0
102
RTVSPropertyOp54
 70
     0
102
RTVSPropertyOp55
 70
     0
102
RTVSPropertyOp56
 70
     0
102
RTVSPropertyOp57
 70
     0
102
RTVSPost2010Prop28
280
     0
102
RTVSPost2010PropOp28
 70
     0
102
RTVSPost2010Prop29
280
     1
102
RTVSPost2010PropOp29
 70
     0
102
RTVSPost2010Prop30
280
     1
102
RTVSPost2010PropOp30
 70
     0
102
RTVSPost2010Prop31
280
     0
102
RTVSPost2010PropOp31
 70
     0
102
RTVSPost2010Prop32
280
     0
102
RTVSPost2010PropOp32
 70
     0
102
RTVSPost2010Prop33
280
     0
102
RTVSPost2010PropOp33
 70
     0
102
RTVSPost2010Prop34
280
     0
102
RTVSPost2010PropOp34
 70
     0
102
RTVSPost2010Prop35
280
     0
102
RTVSPost2010PropOp35
 70
     0
102
RTVSPost2010Prop36
280
     0
102
RTVSPost2010PropOp36
 70
     0
102
RTVSPost2010Prop37
 90
       50
102
RTVSPost2010PropOp37
 70
     0
102
RTVSPost2010Prop38
140
0.0
102
RTVSPost2010PropOp38
 70
     0
102
RTVSPost2010Prop39
140
1.0
102
RTVSPost2010PropOp39
 70
     0
102
RTVSPost2010Prop40
 90
        0
102
RTVSPost2010PropOp40
 70
     0
102
RTVSPost2010Prop41ColorIndex
 90
       18
102
RTVSPost2010Prop41ColorRGB
 90
        0
102
RTVSPost2010PropOp41
 70
     0
102
RTVSPost2010Prop42
 90
       50
102
RTVSPost2010PropOp42
 70
     0
102
RTVSPost2010Prop43
 90
        3
102
RTVSPost2010PropOp43
 70
     0
102
RTVSPost2010Prop44ColorIndex
 90
        5
102
RTVSPost2010Prop44ColorRGB
 90
      255
102
RTVSPost2010PropOp44
 70
     0
102
RTVSPost2010Prop45
280
     0
102
RTVSPost2010PropOp45
 70
     0
102
RTVSPost2010Prop46
 90
       50
102
RTVSPost2010PropOp46
 70
     0
102
RTVSPost2010Prop47
 90
       50
102
RTVSPost2010PropOp47
 70
     0
102
RTVSPost2010Prop48
 90
       50
102
RTVSPost2010PropOp48
 70
     0
102
RTVSPost2010Prop49
280
     0
102
RTVSPost2010PropOp49
 70
     0
102
RTVSPost2010Prop50
 90
       50
102
RTVSPost2010PropOp50
 70
     0
102
RTVSPost2010Prop51ColorIndex
 90
      256
102
RTVSPost2010Prop51ColorRGB
 90
-16777216
102
RTVSPost2010PropOp51
 70
     0
102
RTVSPost2010Prop52
140
1.0
102
RTVSPost2010PropOp52
 70
     0
102
RTVSPost2010Prop53
 90
        2
102
RTVSPost2010PropOp53
 70
     0
102
RTVSPost2010Prop54
  1
strokes_ogs.tif
102
RTVSPost2010PropOp54
 70
     0
102
RTVSPost2010Prop55
280
     0
102
RTVSPost2010PropOp55
 70
     0
102
RTVSPost2010Prop56
140
1.0
102
RTVSPost2010PropOp56
 70
     0
102
RTVSPost2010Prop57
140
1.0
102
RTVSPost2010PropOp57
 70
     0
  0
XRECORD
  5
3BA
102
{ACAD_REACTORS
330
3B9
102
}
330
3B9
100
AcDbXrecord
280
     1
102
RTVSPropertyOp0
 70
     1
102
RTVSPropertyOp1
 70
     1
102
RTVSPropertyOp2
 70
     1
102
RTVSPropertyOp3
 70
     1
102
RTVSPropertyOp4
 70
     1
102
RTVSPropertyOp5
 70
     1
102
RTVSPropertyOp6
 70
     1
102
RTVSPropertyOp7
 70
     1
102
RTVSPropertyOp8
 70
     1
102
RTVSPropertyOp9
 70
     1
102
RTVSPropertyOp10
 70
     1
102
RTVSPropertyOp11
 70
     1
102
RTVSPropertyOp12
 70
     1
102
RTVSPropertyOp13
 70
     1
102
RTVSPropertyOp14
 70
     1
102
RTVSPropertyOp15
 70
     1
102
RTVSPropertyOp16
 70
     1
102
RTVSPropertyOp17
 70
     1
102
RTVSPropertyOp18
 70
     1
102
RTVSPropertyOp19
 70
     1
102
RTVSPropertyOp20
 70
     1
102
RTVSPropertyOp21
 70
     1
102
RTVSPropertyOp22
 70
     1
102
RTVSPropertyOp23
 70
     1
102
RTVSPropertyOp24
 70
     1
102
RTVSPropertyOp25
 70
     1
102
RTVSPropertyOp26
 70
     1
102
RTVSPropertyOp27
 70
     1
102
RTVSPropertyOp28
 70
     1
102
RTVSPropertyOp29
 70
     1
102
RTVSPropertyOp30
 70
     1
102
RTVSPropertyOp31
 70
     1
102
RTVSPropertyOp32
 70
     1
102
RTVSPropertyOp33
 70
     1
102
RTVSPropertyOp34
 70
     1
102
RTVSPropertyOp35
 70
     1
102
RTVSPropertyOp36
 70
     1
102
RTVSPropertyOp37
 70
     1
102
RTVSPropertyOp38
 70
     1
102
RTVSPropertyOp39
 70
     1
102
RTVSPropertyOp40
 70
     1
102
RTVSPropertyOp41
 70
     1
102
RTVSPropertyOp42
 70
     1
102
RTVSPropertyOp43
 70
     1
102
RTVSPropertyOp44
 70
     1
102
RTVSPropertyOp45
 70
     1
102
RTVSPropertyOp46
 70
     1
102
RTVSPropertyOp47
 70
     1
102
RTVSPropertyOp48
 70
     1
102
RTVSPropertyOp49
 70
     1
102
RTVSPropertyOp50
 70
     1
102
RTVSPropertyOp51
 70
     0
102
RTVSPropertyOp52
 70
     0
102
RTVSPropertyOp53
 70
     1
102
RTVSPropertyOp54
 70
     1
102
RTVSPropertyOp55
 70
     1
102
RTVSPropertyOp56
 70
     1
102
RTVSPropertyOp57
 70
     1
102
RTVSPost2010Prop28
280
     0
102
RTVSPost2010PropOp28
 70
     1
102
RTVSPost2010Prop29
280
     1
102
RTVSPost2010PropOp29
 70
     1
102
RTVSPost2010Prop30
280
     1
102
RTVSPost2010PropOp30
 70
     1
102
RTVSPost2010Prop31
280
     0
102
RTVSPost2010PropOp31
 70
     1
102
RTVSPost2010Prop32
280
     0
102
RTVSPost2010PropOp32
 70
     1
102
RTVSPost2010Prop33
280
     0
102
RTVSPost2010PropOp33
 70
     1
102
RTVSPost2010Prop34
280
     0
102
RTVSPost2010PropOp34
 70
     1
102
RTVSPost2010Prop35
280
     0
102
RTVSPost2010PropOp35
 70
     1
102
RTVSPost2010Prop36
280
     0
102
RTVSPost2010PropOp36
 70
     1
102
RTVSPost2010Prop37
 90
       50
102
RTVSPost2010PropOp37
 70
     1
102
RTVSPost2010Prop38
140
0.0
102
RTVSPost2010PropOp38
 70
     1
102
RTVSPost2010Prop39
140
1.0
102
RTVSPost2010PropOp39
 70
     1
102
RTVSPost2010Prop40
 90
        0
102
RTVSPost2010PropOp40
 70
     1
102
RTVSPost2010Prop41ColorIndex
 90
       18
102
RTVSPost2010Prop41ColorRGB
 90
        0
102
RTVSPost2010PropOp41
 70
     1
102
RTVSPost2010Prop42
 90
       50
102
RTVSPost2010PropOp42
 70
     1
102
RTVSPost2010Prop43
 90
        3
102
RTVSPost2010PropOp43
 70
     1
102
RTVSPost2010Prop44ColorIndex
 90
        5
102
RTVSPost2010Prop44ColorRGB
 90
      255
102
RTVSPost2010PropOp44
 70
     1
102
RTVSPost2010Prop45
280
     0
102
RTVSPost2010PropOp45
 70
     1
102
RTVSPost2010Prop46
 90
       50
102
RTVSPost2010PropOp46
 70
     1
102
RTVSPost2010Prop47
 90
       50
102
RTVSPost2010PropOp47
 70
     1
102
RTVSPost2010Prop48
 90
       50
102
RTVSPost2010PropOp48
 70
     1
102
RTVSPost2010Prop49
280
     0
102
RTVSPost2010PropOp49
 70
     1
102
RTVSPost2010Prop50
 90
       50
102
RTVSPost2010PropOp50
 70
     1
102
RTVSPost2010Prop51ColorIndex
 90
      256
102
RTVSPost2010Prop51ColorRGB
 90
-16777216
102
RTVSPost2010PropOp51
 70
     0
102
RTVSPost2010Prop52
140
1.0
102
RTVSPost2010PropOp52
 70
     0
102
RTVSPost2010Prop53
 90
        2
102
RTVSPost2010PropOp53
 70
     1
102
RTVSPost2010Prop54
  1
strokes_ogs.tif
102
RTVSPost2010PropOp54
 70
     1
102
RTVSPost2010Prop55
280
     0
102
RTVSPost2010PropOp55
 70
     1
102
RTVSPost2010Prop56
140
1.0
102
RTVSPost2010PropOp56
 70
     1
102
RTVSPost2010Prop57
140
1.0
102
RTVSPost2010PropOp57
 70
     1
  0
XRECORD
  5
3D8
102
{ACAD_REACTORS
330
3D7
102
}
330
3D7
100
AcDbXrecord
280
     1
102
RTVSPropertyOp0
 70
     1
102
RTVSPropertyOp1
 70
     1
102
RTVSPropertyOp2
 70
     1
102
RTVSPropertyOp3
 70
     1
102
RTVSPropertyOp4
 70
     1
102
RTVSPropertyOp5
 70
     1
102
RTVSPropertyOp6
 70
     1
102
RTVSPropertyOp7
 70
     1
102
RTVSPropertyOp8
 70
     1
102
RTVSPropertyOp9
 70
     1
102
RTVSPropertyOp10
 70
     1
102
RTVSPropertyOp11
 70
     1
102
RTVSPropertyOp12
 70
     1
102
RTVSPropertyOp13
 70
     1
102
RTVSPropertyOp14
 70
     1
102
RTVSPropertyOp15
 70
     1
102
RTVSPropertyOp16
 70
     1
102
RTVSPropertyOp17
 70
     1
102
RTVSPropertyOp18
 70
     1
102
RTVSPropertyOp19
 70
     1
102
RTVSPropertyOp20
 70
     1
102
RTVSPropertyOp21
 70
     1
102
RTVSPropertyOp22
 70
     1
102
RTVSPropertyOp23
 70
     1
102
RTVSPropertyOp24
 70
     1
102
RTVSPropertyOp25
 70
     1
102
RTVSPropertyOp26
 70
     1
102
RTVSPropertyOp27
 70
     1
102
RTVSPropertyOp28
 70
     1
102
RTVSPropertyOp29
 70
     1
102
RTVSPropertyOp30
 70
     1
102
RTVSPropertyOp31
 70
     1
102
RTVSPropertyOp32
 70
     1
102
RTVSPropertyOp33
 70
     1
102
RTVSPropertyOp34
 70
     1
102
RTVSPropertyOp35
 70
     1
102
RTVSPropertyOp36
 70
     1
102
RTVSPropertyOp37
 70
     1
102
RTVSPropertyOp38
 70
     1
102
RTVSPropertyOp39
 70
     1
102
RTVSPropertyOp40
 70
     1
102
RTVSPropertyOp41
 70
     1
102
RTVSPropertyOp42
 70
     1
102
RTVSPropertyOp43
 70
     1
102
RTVSPropertyOp44
 70
     1
102
RTVSPropertyOp45
 70
     1
102
RTVSPropertyOp46
 70
     1
102
RTVSPropertyOp47
 70
     1
102
RTVSPropertyOp48
 70
     1
102
RTVSPropertyOp49
 70
     1
102
RTVSPropertyOp50
 70
     1
102
RTVSPropertyOp51
 70
     0
102
RTVSPropertyOp52
 70
     0
102
RTVSPropertyOp53
 70
     1
102
RTVSPropertyOp54
 70
     1
102
RTVSPropertyOp55
 70
     1
102
RTVSPropertyOp56
 70
     1
102
RTVSPropertyOp57
 70
     1
102
RTVSPost2010Prop28
280
     0
102
RTVSPost2010PropOp28
 70
     1
102
RTVSPost2010Prop29
280
     1
102
RTVSPost2010PropOp29
 70
     1
102
RTVSPost2010Prop30
280
     1
102
RTVSPost2010PropOp30
 70
     1
102
RTVSPost2010Prop31
280
     0
102
RTVSPost2010PropOp31
 70
     1
102
RTVSPost2010Prop32
280
     0
102
RTVSPost2010PropOp32
 70
     1
102
RTVSPost2010Prop33
280
     0
102
RTVSPost2010PropOp33
 70
     1
102
RTVSPost2010Prop34
280
     0
102
RTVSPost2010PropOp34
 70
     1
102
RTVSPost2010Prop35
280
     0
102
RTVSPost2010PropOp35
 70
     1
102
RTVSPost2010Prop36
280
     0
102
RTVSPost2010PropOp36
 70
     1
102
RTVSPost2010Prop37
 90
       50
102
RTVSPost2010PropOp37
 70
     1
102
RTVSPost2010Prop38
140
0.0
102
RTVSPost2010PropOp38
 70
     1
102
RTVSPost2010Prop39
140
1.0
102
RTVSPost2010PropOp39
 70
     1
102
RTVSPost2010Prop40
 90
        0
102
RTVSPost2010PropOp40
 70
     1
102
RTVSPost2010Prop41ColorIndex
 90
       18
102
RTVSPost2010Prop41ColorRGB
 90
        0
102
RTVSPost2010PropOp41
 70
     1
102
RTVSPost2010Prop42
 90
       50
102
RTVSPost2010PropOp42
 70
     1
102
RTVSPost2010Prop43
 90
        3
102
RTVSPost2010PropOp43
 70
     1
102
RTVSPost2010Prop44ColorIndex
 90
        5
102
RTVSPost2010Prop44ColorRGB
 90
      255
102
RTVSPost2010PropOp44
 70
     1
102
RTVSPost2010Prop45
280
     0
102
RTVSPost2010PropOp45
 70
     1
102
RTVSPost2010Prop46
 90
       50
102
RTVSPost2010PropOp46
 70
     1
102
RTVSPost2010Prop47
 90
       50
102
RTVSPost2010PropOp47
 70
     1
102
RTVSPost2010Prop48
 90
       50
102
RTVSPost2010PropOp48
 70
     1
102
RTVSPost2010Prop49
280
     0
102
RTVSPost2010PropOp49
 70
     1
102
RTVSPost2010Prop50
 90
       50
102
RTVSPost2010PropOp50
 70
     1
102
RTVSPost2010Prop51ColorIndex
 90
      256
102
RTVSPost2010Prop51ColorRGB
 90
-16777216
102
RTVSPost2010PropOp51
 70
     0
102
RTVSPost2010Prop52
140
1.0
102
RTVSPost2010PropOp52
 70
     0
102
RTVSPost2010Prop53
 90
        2
102
RTVSPost2010PropOp53
 70
     1
102
RTVSPost2010Prop54
  1
strokes_ogs.tif
102
RTVSPost2010PropOp54
 70
     1
102
RTVSPost2010Prop55
280
     0
102
RTVSPost2010PropOp55
 70
     1
102
RTVSPost2010Prop56
140
1.0
102
RTVSPost2010PropOp56
 70
     1
102
RTVSPost2010Prop57
140
1.0
102
RTVSPost2010PropOp57
 70
     1
  0
XRECORD
  5
3D6
102
{ACAD_REACTORS
330
3D5
102
}
330
3D5
100
AcDbXrecord
280
     1
102
RTVSPropertyOp0
 70
     1
102
RTVSPropertyOp1
 70
     1
102
RTVSPropertyOp2
 70
     1
102
RTVSPropertyOp3
 70
     1
102
RTVSPropertyOp4
 70
     1
102
RTVSPropertyOp5
 70
     1
102
RTVSPropertyOp6
 70
     1
102
RTVSPropertyOp7
 70
     1
102
RTVSPropertyOp8
 70
     1
102
RTVSPropertyOp9
 70
     1
102
RTVSPropertyOp10
 70
     1
102
RTVSPropertyOp11
 70
     1
102
RTVSPropertyOp12
 70
     1
102
RTVSPropertyOp13
 70
     1
102
RTVSPropertyOp14
 70
     1
102
RTVSPropertyOp15
 70
     1
102
RTVSPropertyOp16
 70
     1
102
RTVSPropertyOp17
 70
     1
102
RTVSPropertyOp18
 70
     1
102
RTVSPropertyOp19
 70
     1
102
RTVSPropertyOp20
 70
     1
102
RTVSPropertyOp21
 70
     1
102
RTVSPropertyOp22
 70
     1
102
RTVSPropertyOp23
 70
     1
102
RTVSPropertyOp24
 70
     1
102
RTVSPropertyOp25
 70
     1
102
RTVSPropertyOp26
 70
     1
102
RTVSPropertyOp27
 70
     1
102
RTVSPropertyOp28
 70
     1
102
RTVSPropertyOp29
 70
     1
102
RTVSPropertyOp30
 70
     1
102
RTVSPropertyOp31
 70
     1
102
RTVSPropertyOp32
 70
     1
102
RTVSPropertyOp33
 70
     1
102
RTVSPropertyOp34
 70
     1
102
RTVSPropertyOp35
 70
     1
102
RTVSPropertyOp36
 70
     1
102
RTVSPropertyOp37
 70
     1
102
RTVSPropertyOp38
 70
     1
102
RTVSPropertyOp39
 70
     1
102
RTVSPropertyOp40
 70
     1
102
RTVSPropertyOp41
 70
     1
102
RTVSPropertyOp42
 70
     1
102
RTVSPropertyOp43
 70
     1
102
RTVSPropertyOp44
 70
     1
102
RTVSPropertyOp45
 70
     1
102
RTVSPropertyOp46
 70
     1
102
RTVSPropertyOp47
 70
     1
102
RTVSPropertyOp48
 70
     1
102
RTVSPropertyOp49
 70
     1
102
RTVSPropertyOp50
 70
     1
102
RTVSPropertyOp51
 70
     0
102
RTVSPropertyOp52
 70
     0
102
RTVSPropertyOp53
 70
     1
102
RTVSPropertyOp54
 70
     1
102
RTVSPropertyOp55
 70
     1
102
RTVSPropertyOp56
 70
     1
102
RTVSPropertyOp57
 70
     1
102
RTVSPost2010Prop28
280
     0
102
RTVSPost2010PropOp28
 70
     1
102
RTVSPost2010Prop29
280
     1
102
RTVSPost2010PropOp29
 70
     1
102
RTVSPost2010Prop30
280
     1
102
RTVSPost2010PropOp30
 70
     1
102
RTVSPost2010Prop31
280
     0
102
RTVSPost2010PropOp31
 70
     1
102
RTVSPost2010Prop32
280
     0
102
RTVSPost2010PropOp32
 70
     1
102
RTVSPost2010Prop33
280
     0
102
RTVSPost2010PropOp33
 70
     1
102
RTVSPost2010Prop34
280
     0
102
RTVSPost2010PropOp34
 70
     1
102
RTVSPost2010Prop35
280
     0
102
RTVSPost2010PropOp35
 70
     1
102
RTVSPost2010Prop36
280
     0
102
RTVSPost2010PropOp36
 70
     1
102
RTVSPost2010Prop37
 90
       50
102
RTVSPost2010PropOp37
 70
     1
102
RTVSPost2010Prop38
140
0.0
102
RTVSPost2010PropOp38
 70
     1
102
RTVSPost2010Prop39
140
1.0
102
RTVSPost2010PropOp39
 70
     1
102
RTVSPost2010Prop40
 90
        0
102
RTVSPost2010PropOp40
 70
     1
102
RTVSPost2010Prop41ColorIndex
 90
       18
102
RTVSPost2010Prop41ColorRGB
 90
        0
102
RTVSPost2010PropOp41
 70
     1
102
RTVSPost2010Prop42
 90
       50
102
RTVSPost2010PropOp42
 70
     1
102
RTVSPost2010Prop43
 90
        3
102
RTVSPost2010PropOp43
 70
     1
102
RTVSPost2010Prop44ColorIndex
 90
        5
102
RTVSPost2010Prop44ColorRGB
 90
      255
102
RTVSPost2010PropOp44
 70
     1
102
RTVSPost2010Prop45
280
     0
102
RTVSPost2010PropOp45
 70
     1
102
RTVSPost2010Prop46
 90
       50
102
RTVSPost2010PropOp46
 70
     1
102
RTVSPost2010Prop47
 90
       50
102
RTVSPost2010PropOp47
 70
     1
102
RTVSPost2010Prop48
 90
       50
102
RTVSPost2010PropOp48
 70
     1
102
RTVSPost2010Prop49
280
     0
102
RTVSPost2010PropOp49
 70
     1
102
RTVSPost2010Prop50
 90
       50
102
RTVSPost2010PropOp50
 70
     1
102
RTVSPost2010Prop51ColorIndex
 90
      256
102
RTVSPost2010Prop51ColorRGB
 90
-16777216
102
RTVSPost2010PropOp51
 70
     0
102
RTVSPost2010Prop52
140
1.0
102
RTVSPost2010PropOp52
 70
     0
102
RTVSPost2010Prop53
 90
        2
102
RTVSPost2010PropOp53
 70
     1
102
RTVSPost2010Prop54
  1
strokes_ogs.tif
102
RTVSPost2010PropOp54
 70
     1
102
RTVSPost2010Prop55
280
     0
102
RTVSPost2010PropOp55
 70
     1
102
RTVSPost2010Prop56
140
1.0
102
RTVSPost2010PropOp56
 70
     1
102
RTVSPost2010Prop57
140
1.0
102
RTVSPost2010PropOp57
 70
     1
  0
XRECORD
  5
3D0
102
{ACAD_REACTORS
330
3CF
102
}
330
3CF
100
AcDbXrecord
280
     1
102
RTVSPropertyOp0
 70
     1
102
RTVSPropertyOp1
 70
     1
102
RTVSPropertyOp2
 70
     1
102
RTVSPropertyOp3
 70
     1
102
RTVSPropertyOp4
 70
     1
102
RTVSPropertyOp5
 70
     1
102
RTVSPropertyOp6
 70
     1
102
RTVSPropertyOp7
 70
     1
102
RTVSPropertyOp8
 70
     1
102
RTVSPropertyOp9
 70
     1
102
RTVSPropertyOp10
 70
     1
102
RTVSPropertyOp11
 70
     1
102
RTVSPropertyOp12
 70
     1
102
RTVSPropertyOp13
 70
     1
102
RTVSPropertyOp14
 70
     1
102
RTVSPropertyOp15
 70
     1
102
RTVSPropertyOp16
 70
     1
102
RTVSPropertyOp17
 70
     1
102
RTVSPropertyOp18
 70
     1
102
RTVSPropertyOp19
 70
     1
102
RTVSPropertyOp20
 70
     1
102
RTVSPropertyOp21
 70
     1
102
RTVSPropertyOp22
 70
     1
102
RTVSPropertyOp23
 70
     1
102
RTVSPropertyOp24
 70
     1
102
RTVSPropertyOp25
 70
     1
102
RTVSPropertyOp26
 70
     1
102
RTVSPropertyOp27
 70
     1
102
RTVSPropertyOp28
 70
     1
102
RTVSPropertyOp29
 70
     1
102
RTVSPropertyOp30
 70
     1
102
RTVSPropertyOp31
 70
     1
102
RTVSPropertyOp32
 70
     1
102
RTVSPropertyOp33
 70
     1
102
RTVSPropertyOp34
 70
     1
102
RTVSPropertyOp35
 70
     1
102
RTVSPropertyOp36
 70
     1
102
RTVSPropertyOp37
 70
     1
102
RTVSPropertyOp38
 70
     1
102
RTVSPropertyOp39
 70
     1
102
RTVSPropertyOp40
 70
     1
102
RTVSPropertyOp41
 70
     1
102
RTVSPropertyOp42
 70
     1
102
RTVSPropertyOp43
 70
     1
102
RTVSPropertyOp44
 70
     1
102
RTVSPropertyOp45
 70
     1
102
RTVSPropertyOp46
 70
     1
102
RTVSPropertyOp47
 70
     1
102
RTVSPropertyOp48
 70
     1
102
RTVSPropertyOp49
 70
     1
102
RTVSPropertyOp50
 70
     1
102
RTVSPropertyOp51
 70
     0
102
RTVSPropertyOp52
 70
     0
102
RTVSPropertyOp53
 70
     1
102
RTVSPropertyOp54
 70
     1
102
RTVSPropertyOp55
 70
     1
102
RTVSPropertyOp56
 70
     1
102
RTVSPropertyOp57
 70
     1
102
RTVSPost2010Prop28
280
     0
102
RTVSPost2010PropOp28
 70
     1
102
RTVSPost2010Prop29
280
     1
102
RTVSPost2010PropOp29
 70
     1
102
RTVSPost2010Prop30
280
     1
102
RTVSPost2010PropOp30
 70
     1
102
RTVSPost2010Prop31
280
     0
102
RTVSPost2010PropOp31
 70
     1
102
RTVSPost2010Prop32
280
     0
102
RTVSPost2010PropOp32
 70
     1
102
RTVSPost2010Prop33
280
     0
102
RTVSPost2010PropOp33
 70
     1
102
RTVSPost2010Prop34
280
     0
102
RTVSPost2010PropOp34
 70
     1
102
RTVSPost2010Prop35
280
     0
102
RTVSPost2010PropOp35
 70
     1
102
RTVSPost2010Prop36
280
     0
102
RTVSPost2010PropOp36
 70
     1
102
RTVSPost2010Prop37
 90
       50
102
RTVSPost2010PropOp37
 70
     1
102
RTVSPost2010Prop38
140
0.0
102
RTVSPost2010PropOp38
 70
     1
102
RTVSPost2010Prop39
140
1.0
102
RTVSPost2010PropOp39
 70
     1
102
RTVSPost2010Prop40
 90
        0
102
RTVSPost2010PropOp40
 70
     1
102
RTVSPost2010Prop41ColorIndex
 90
       18
102
RTVSPost2010Prop41ColorRGB
 90
        0
102
RTVSPost2010PropOp41
 70
     1
102
RTVSPost2010Prop42
 90
       50
102
RTVSPost2010PropOp42
 70
     1
102
RTVSPost2010Prop43
 90
        3
102
RTVSPost2010PropOp43
 70
     1
102
RTVSPost2010Prop44ColorIndex
 90
        5
102
RTVSPost2010Prop44ColorRGB
 90
      255
102
RTVSPost2010PropOp44
 70
     1
102
RTVSPost2010Prop45
280
     0
102
RTVSPost2010PropOp45
 70
     1
102
RTVSPost2010Prop46
 90
       50
102
RTVSPost2010PropOp46
 70
     1
102
RTVSPost2010Prop47
 90
       50
102
RTVSPost2010PropOp47
 70
     1
102
RTVSPost2010Prop48
 90
       50
102
RTVSPost2010PropOp48
 70
     1
102
RTVSPost2010Prop49
280
     0
102
RTVSPost2010PropOp49
 70
     1
102
RTVSPost2010Prop50
 90
       50
102
RTVSPost2010PropOp50
 70
     1
102
RTVSPost2010Prop51ColorIndex
 90
      256
102
RTVSPost2010Prop51ColorRGB
 90
-16777216
102
RTVSPost2010PropOp51
 70
     0
102
RTVSPost2010Prop52
140
1.0
102
RTVSPost2010PropOp52
 70
     0
102
RTVSPost2010Prop53
 90
        2
102
RTVSPost2010PropOp53
 70
     1
102
RTVSPost2010Prop54
  1
strokes_ogs.tif
102
RTVSPost2010PropOp54
 70
     1
102
RTVSPost2010Prop55
280
     0
102
RTVSPost2010PropOp55
 70
     1
102
RTVSPost2010Prop56
140
1.0
102
RTVSPost2010PropOp56
 70
     1
102
RTVSPost2010Prop57
140
1.0
102
RTVSPost2010PropOp57
 70
     1
  0
XRECORD
  5
3D2
102
{ACAD_REACTORS
330
3D1
102
}
330
3D1
100
AcDbXrecord
280
     1
102
RTVSPropertyOp0
 70
     1
102
RTVSPropertyOp1
 70
     1
102
RTVSPropertyOp2
 70
     1
102
RTVSPropertyOp3
 70
     1
102
RTVSPropertyOp4
 70
     1
102
RTVSPropertyOp5
 70
     1
102
RTVSPropertyOp6
 70
     1
102
RTVSPropertyOp7
 70
     1
102
RTVSPropertyOp8
 70
     1
102
RTVSPropertyOp9
 70
     1
102
RTVSPropertyOp10
 70
     1
102
RTVSPropertyOp11
 70
     1
102
RTVSPropertyOp12
 70
     1
102
RTVSPropertyOp13
 70
     1
102
RTVSPropertyOp14
 70
     1
102
RTVSPropertyOp15
 70
     1
102
RTVSPropertyOp16
 70
     1
102
RTVSPropertyOp17
 70
     1
102
RTVSPropertyOp18
 70
     1
102
RTVSPropertyOp19
 70
     1
102
RTVSPropertyOp20
 70
     1
102
RTVSPropertyOp21
 70
     1
102
RTVSPropertyOp22
 70
     1
102
RTVSPropertyOp23
 70
     1
102
RTVSPropertyOp24
 70
     1
102
RTVSPropertyOp25
 70
     1
102
RTVSPropertyOp26
 70
     1
102
RTVSPropertyOp27
 70
     1
102
RTVSPropertyOp28
 70
     1
102
RTVSPropertyOp29
 70
     1
102
RTVSPropertyOp30
 70
     1
102
RTVSPropertyOp31
 70
     1
102
RTVSPropertyOp32
 70
     1
102
RTVSPropertyOp33
 70
     1
102
RTVSPropertyOp34
 70
     1
102
RTVSPropertyOp35
 70
     1
102
RTVSPropertyOp36
 70
     1
102
RTVSPropertyOp37
 70
     1
102
RTVSPropertyOp38
 70
     1
102
RTVSPropertyOp39
 70
     1
102
RTVSPropertyOp40
 70
     1
102
RTVSPropertyOp41
 70
     1
102
RTVSPropertyOp42
 70
     1
102
RTVSPropertyOp43
 70
     1
102
RTVSPropertyOp44
 70
     1
102
RTVSPropertyOp45
 70
     1
102
RTVSPropertyOp46
 70
     1
102
RTVSPropertyOp47
 70
     1
102
RTVSPropertyOp48
 70
     1
102
RTVSPropertyOp49
 70
     1
102
RTVSPropertyOp50
 70
     1
102
RTVSPropertyOp51
 70
     0
102
RTVSPropertyOp52
 70
     0
102
RTVSPropertyOp53
 70
     1
102
RTVSPropertyOp54
 70
     1
102
RTVSPropertyOp55
 70
     1
102
RTVSPropertyOp56
 70
     1
102
RTVSPropertyOp57
 70
     1
102
RTVSPost2010Prop28
280
     0
102
RTVSPost2010PropOp28
 70
     1
102
RTVSPost2010Prop29
280
     1
102
RTVSPost2010PropOp29
 70
     1
102
RTVSPost2010Prop30
280
     1
102
RTVSPost2010PropOp30
 70
     1
102
RTVSPost2010Prop31
280
     0
102
RTVSPost2010PropOp31
 70
     1
102
RTVSPost2010Prop32
280
     0
102
RTVSPost2010PropOp32
 70
     1
102
RTVSPost2010Prop33
280
     0
102
RTVSPost2010PropOp33
 70
     1
102
RTVSPost2010Prop34
280
     0
102
RTVSPost2010PropOp34
 70
     1
102
RTVSPost2010Prop35
280
     0
102
RTVSPost2010PropOp35
 70
     1
102
RTVSPost2010Prop36
280
     0
102
RTVSPost2010PropOp36
 70
     1
102
RTVSPost2010Prop37
 90
       50
102
RTVSPost2010PropOp37
 70
     1
102
RTVSPost2010Prop38
140
0.0
102
RTVSPost2010PropOp38
 70
     1
102
RTVSPost2010Prop39
140
1.0
102
RTVSPost2010PropOp39
 70
     1
102
RTVSPost2010Prop40
 90
        0
102
RTVSPost2010PropOp40
 70
     1
102
RTVSPost2010Prop41ColorIndex
 90
       18
102
RTVSPost2010Prop41ColorRGB
 90
        0
102
RTVSPost2010PropOp41
 70
     1
102
RTVSPost2010Prop42
 90
       50
102
RTVSPost2010PropOp42
 70
     1
102
RTVSPost2010Prop43
 90
        3
102
RTVSPost2010PropOp43
 70
     1
102
RTVSPost2010Prop44ColorIndex
 90
        5
102
RTVSPost2010Prop44ColorRGB
 90
      255
102
RTVSPost2010PropOp44
 70
     1
102
RTVSPost2010Prop45
280
     0
102
RTVSPost2010PropOp45
 70
     1
102
RTVSPost2010Prop46
 90
       50
102
RTVSPost2010PropOp46
 70
     1
102
RTVSPost2010Prop47
 90
       50
102
RTVSPost2010PropOp47
 70
     1
102
RTVSPost2010Prop48
 90
       50
102
RTVSPost2010PropOp48
 70
     1
102
RTVSPost2010Prop49
280
     0
102
RTVSPost2010PropOp49
 70
     1
102
RTVSPost2010Prop50
 90
       50
102
RTVSPost2010PropOp50
 70
     1
102
RTVSPost2010Prop51ColorIndex
 90
      256
102
RTVSPost2010Prop51ColorRGB
 90
-16777216
102
RTVSPost2010PropOp51
 70
     0
102
RTVSPost2010Prop52
140
1.0
102
RTVSPost2010PropOp52
 70
     0
102
RTVSPost2010Prop53
 90
        2
102
RTVSPost2010PropOp53
 70
     1
102
RTVSPost2010Prop54
  1
strokes_ogs.tif
102
RTVSPost2010PropOp54
 70
     1
102
RTVSPost2010Prop55
280
     0
102
RTVSPost2010PropOp55
 70
     1
102
RTVSPost2010Prop56
140
1.0
102
RTVSPost2010PropOp56
 70
     1
102
RTVSPost2010Prop57
140
1.0
102
RTVSPost2010PropOp57
 70
     1
  0
XRECORD
  5
3C2
102
{ACAD_REACTORS
330
3C1
102
}
330
3C1
100
AcDbXrecord
280
     1
102
RTVSPropertyOp0
 70
     1
102
RTVSPropertyOp1
 70
     1
102
RTVSPropertyOp2
 70
     1
102
RTVSPropertyOp3
 70
     1
102
RTVSPropertyOp4
 70
     1
102
RTVSPropertyOp5
 70
     1
102
RTVSPropertyOp6
 70
     1
102
RTVSPropertyOp7
 70
     1
102
RTVSPropertyOp8
 70
     1
102
RTVSPropertyOp9
 70
     1
102
RTVSPropertyOp10
 70
     1
102
RTVSPropertyOp11
 70
     1
102
RTVSPropertyOp12
 70
     1
102
RTVSPropertyOp13
 70
     1
102
RTVSPropertyOp14
 70
     1
102
RTVSPropertyOp15
 70
     1
102
RTVSPropertyOp16
 70
     1
102
RTVSPropertyOp17
 70
     1
102
RTVSPropertyOp18
 70
     1
102
RTVSPropertyOp19
 70
     1
102
RTVSPropertyOp20
 70
     1
102
RTVSPropertyOp21
 70
     1
102
RTVSPropertyOp22
 70
     1
102
RTVSPropertyOp23
 70
     1
102
RTVSPropertyOp24
 70
     1
102
RTVSPropertyOp25
 70
     1
102
RTVSPropertyOp26
 70
     1
102
RTVSPropertyOp27
 70
     1
102
RTVSPropertyOp28
 70
     1
102
RTVSPropertyOp29
 70
     1
102
RTVSPropertyOp30
 70
     1
102
RTVSPropertyOp31
 70
     1
102
RTVSPropertyOp32
 70
     1
102
RTVSPropertyOp33
 70
     1
102
RTVSPropertyOp34
 70
     1
102
RTVSPropertyOp35
 70
     1
102
RTVSPropertyOp36
 70
     1
102
RTVSPropertyOp37
 70
     1
102
RTVSPropertyOp38
 70
     1
102
RTVSPropertyOp39
 70
     1
102
RTVSPropertyOp40
 70
     1
102
RTVSPropertyOp41
 70
     1
102
RTVSPropertyOp42
 70
     1
102
RTVSPropertyOp43
 70
     1
102
RTVSPropertyOp44
 70
     1
102
RTVSPropertyOp45
 70
     1
102
RTVSPropertyOp46
 70
     1
102
RTVSPropertyOp47
 70
     1
102
RTVSPropertyOp48
 70
     1
102
RTVSPropertyOp49
 70
     1
102
RTVSPropertyOp50
 70
     1
102
RTVSPropertyOp51
 70
     0
102
RTVSPropertyOp52
 70
     0
102
RTVSPropertyOp53
 70
     1
102
RTVSPropertyOp54
 70
     1
102
RTVSPropertyOp55
 70
     1
102
RTVSPropertyOp56
 70
     1
102
RTVSPropertyOp57
 70
     1
102
RTVSPost2010Prop28
280
     0
102
RTVSPost2010PropOp28
 70
     1
102
RTVSPost2010Prop29
280
     1
102
RTVSPost2010PropOp29
 70
     1
102
RTVSPost2010Prop30
280
     1
102
RTVSPost2010PropOp30
 70
     1
102
RTVSPost2010Prop31
280
     0
102
RTVSPost2010PropOp31
 70
     1
102
RTVSPost2010Prop32
280
     0
102
RTVSPost2010PropOp32
 70
     1
102
RTVSPost2010Prop33
280
     0
102
RTVSPost2010PropOp33
 70
     1
102
RTVSPost2010Prop34
280
     0
102
RTVSPost2010PropOp34
 70
     1
102
RTVSPost2010Prop35
280
     0
102
RTVSPost2010PropOp35
 70
     1
102
RTVSPost2010Prop36
280
     0
102
RTVSPost2010PropOp36
 70
     1
102
RTVSPost2010Prop37
 90
       50
102
RTVSPost2010PropOp37
 70
     1
102
RTVSPost2010Prop38
140
0.0
102
RTVSPost2010PropOp38
 70
     1
102
RTVSPost2010Prop39
140
1.0
102
RTVSPost2010PropOp39
 70
     1
102
RTVSPost2010Prop40
 90
        0
102
RTVSPost2010PropOp40
 70
     1
102
RTVSPost2010Prop41ColorIndex
 90
       18
102
RTVSPost2010Prop41ColorRGB
 90
        0
102
RTVSPost2010PropOp41
 70
     1
102
RTVSPost2010Prop42
 90
       50
102
RTVSPost2010PropOp42
 70
     1
102
RTVSPost2010Prop43
 90
        3
102
RTVSPost2010PropOp43
 70
     1
102
RTVSPost2010Prop44ColorIndex
 90
        5
102
RTVSPost2010Prop44ColorRGB
 90
      255
102
RTVSPost2010PropOp44
 70
     1
102
RTVSPost2010Prop45
280
     0
102
RTVSPost2010PropOp45
 70
     1
102
RTVSPost2010Prop46
 90
       50
102
RTVSPost2010PropOp46
 70
     1
102
RTVSPost2010Prop47
 90
       50
102
RTVSPost2010PropOp47
 70
     1
102
RTVSPost2010Prop48
 90
       50
102
RTVSPost2010PropOp48
 70
     1
102
RTVSPost2010Prop49
280
     0
102
RTVSPost2010PropOp49
 70
     1
102
RTVSPost2010Prop50
 90
       50
102
RTVSPost2010PropOp50
 70
     1
102
RTVSPost2010Prop51ColorIndex
 90
      256
102
RTVSPost2010Prop51ColorRGB
 90
-16777216
102
RTVSPost2010PropOp51
 70
     0
102
RTVSPost2010Prop52
140
1.0
102
RTVSPost2010PropOp52
 70
     0
102
RTVSPost2010Prop53
 90
        2
102
RTVSPost2010PropOp53
 70
     1
102
RTVSPost2010Prop54
  1
strokes_ogs.tif
102
RTVSPost2010PropOp54
 70
     1
102
RTVSPost2010Prop55
280
     0
102
RTVSPost2010PropOp55
 70
     1
102
RTVSPost2010Prop56
140
1.0
102
RTVSPost2010PropOp56
 70
     1
102
RTVSPost2010Prop57
140
1.0
102
RTVSPost2010PropOp57
 70
     1
  0
XRECORD
  5
3B4
102
{ACAD_REACTORS
330
3B3
102
}
330
3B3
100
AcDbXrecord
280
     1
102
RTVSPropertyOp0
 70
     1
102
RTVSPropertyOp1
 70
     1
102
RTVSPropertyOp2
 70
     1
102
RTVSPropertyOp3
 70
     1
102
RTVSPropertyOp4
 70
     1
102
RTVSPropertyOp5
 70
     1
102
RTVSPropertyOp6
 70
     1
102
RTVSPropertyOp7
 70
     1
102
RTVSPropertyOp8
 70
     1
102
RTVSPropertyOp9
 70
     1
102
RTVSPropertyOp10
 70
     1
102
RTVSPropertyOp11
 70
     1
102
RTVSPropertyOp12
 70
     1
102
RTVSPropertyOp13
 70
     1
102
RTVSPropertyOp14
 70
     1
102
RTVSPropertyOp15
 70
     1
102
RTVSPropertyOp16
 70
     1
102
RTVSPropertyOp17
 70
     1
102
RTVSPropertyOp18
 70
     1
102
RTVSPropertyOp19
 70
     1
102
RTVSPropertyOp20
 70
     1
102
RTVSPropertyOp21
 70
     1
102
RTVSPropertyOp22
 70
     1
102
RTVSPropertyOp23
 70
     1
102
RTVSPropertyOp24
 70
     1
102
RTVSPropertyOp25
 70
     1
102
RTVSPropertyOp26
 70
     1
102
RTVSPropertyOp27
 70
     1
102
RTVSPropertyOp28
 70
     1
102
RTVSPropertyOp29
 70
     1
102
RTVSPropertyOp30
 70
     1
102
RTVSPropertyOp31
 70
     1
102
RTVSPropertyOp32
 70
     1
102
RTVSPropertyOp33
 70
     1
102
RTVSPropertyOp34
 70
     1
102
RTVSPropertyOp35
 70
     1
102
RTVSPropertyOp36
 70
     1
102
RTVSPropertyOp37
 70
     1
102
RTVSPropertyOp38
 70
     1
102
RTVSPropertyOp39
 70
     1
102
RTVSPropertyOp40
 70
     1
102
RTVSPropertyOp41
 70
     1
102
RTVSPropertyOp42
 70
     1
102
RTVSPropertyOp43
 70
     1
102
RTVSPropertyOp44
 70
     1
102
RTVSPropertyOp45
 70
     1
102
RTVSPropertyOp46
 70
     1
102
RTVSPropertyOp47
 70
     1
102
RTVSPropertyOp48
 70
     1
102
RTVSPropertyOp49
 70
     1
102
RTVSPropertyOp50
 70
     1
102
RTVSPropertyOp51
 70
     0
102
RTVSPropertyOp52
 70
     0
102
RTVSPropertyOp53
 70
     1
102
RTVSPropertyOp54
 70
     1
102
RTVSPropertyOp55
 70
     1
102
RTVSPropertyOp56
 70
     1
102
RTVSPropertyOp57
 70
     1
102
RTVSPost2010Prop28
280
     0
102
RTVSPost2010PropOp28
 70
     1
102
RTVSPost2010Prop29
280
     1
102
RTVSPost2010PropOp29
 70
     1
102
RTVSPost2010Prop30
280
     1
102
RTVSPost2010PropOp30
 70
     1
102
RTVSPost2010Prop31
280
     0
102
RTVSPost2010PropOp31
 70
     1
102
RTVSPost2010Prop32
280
     0
102
RTVSPost2010PropOp32
 70
     1
102
RTVSPost2010Prop33
280
     0
102
RTVSPost2010PropOp33
 70
     1
102
RTVSPost2010Prop34
280
     0
102
RTVSPost2010PropOp34
 70
     1
102
RTVSPost2010Prop35
280
     0
102
RTVSPost2010PropOp35
 70
     1
102
RTVSPost2010Prop36
280
     0
102
RTVSPost2010PropOp36
 70
     1
102
RTVSPost2010Prop37
 90
       50
102
RTVSPost2010PropOp37
 70
     1
102
RTVSPost2010Prop38
140
0.0
102
RTVSPost2010PropOp38
 70
     1
102
RTVSPost2010Prop39
140
1.0
102
RTVSPost2010PropOp39
 70
     1
102
RTVSPost2010Prop40
 90
        0
102
RTVSPost2010PropOp40
 70
     1
102
RTVSPost2010Prop41ColorIndex
 90
       18
102
RTVSPost2010Prop41ColorRGB
 90
        0
102
RTVSPost2010PropOp41
 70
     1
102
RTVSPost2010Prop42
 90
       50
102
RTVSPost2010PropOp42
 70
     1
102
RTVSPost2010Prop43
 90
        3
102
RTVSPost2010PropOp43
 70
     1
102
RTVSPost2010Prop44ColorIndex
 90
        5
102
RTVSPost2010Prop44ColorRGB
 90
      255
102
RTVSPost2010PropOp44
 70
     1
102
RTVSPost2010Prop45
280
     0
102
RTVSPost2010PropOp45
 70
     1
102
RTVSPost2010Prop46
 90
       50
102
RTVSPost2010PropOp46
 70
     1
102
RTVSPost2010Prop47
 90
       50
102
RTVSPost2010PropOp47
 70
     1
102
RTVSPost2010Prop48
 90
       50
102
RTVSPost2010PropOp48
 70
     1
102
RTVSPost2010Prop49
280
     0
102
RTVSPost2010PropOp49
 70
     1
102
RTVSPost2010Prop50
 90
       50
102
RTVSPost2010PropOp50
 70
     1
102
RTVSPost2010Prop51ColorIndex
 90
      256
102
RTVSPost2010Prop51ColorRGB
 90
-16777216
102
RTVSPost2010PropOp51
 70
     0
102
RTVSPost2010Prop52
140
1.0
102
RTVSPost2010PropOp52
 70
     0
102
RTVSPost2010Prop53
 90
        2
102
RTVSPost2010PropOp53
 70
     1
102
RTVSPost2010Prop54
  1
strokes_ogs.tif
102
RTVSPost2010PropOp54
 70
     1
102
RTVSPost2010Prop55
280
     0
102
RTVSPost2010PropOp55
 70
     1
102
RTVSPost2010Prop56
140
1.0
102
RTVSPost2010PropOp56
 70
     1
102
RTVSPost2010Prop57
140
1.0
102
RTVSPost2010PropOp57
 70
     1
  0
XRECORD
  5
3D4
102
{ACAD_REACTORS
330
3D3
102
}
330
3D3
100
AcDbXrecord
280
     1
102
RTVSPropertyOp0
 70
     1
102
RTVSPropertyOp1
 70
     1
102
RTVSPropertyOp2
 70
     1
102
RTVSPropertyOp3
 70
     1
102
RTVSPropertyOp4
 70
     1
102
RTVSPropertyOp5
 70
     1
102
RTVSPropertyOp6
 70
     1
102
RTVSPropertyOp7
 70
     1
102
RTVSPropertyOp8
 70
     1
102
RTVSPropertyOp9
 70
     1
102
RTVSPropertyOp10
 70
     1
102
RTVSPropertyOp11
 70
     1
102
RTVSPropertyOp12
 70
     1
102
RTVSPropertyOp13
 70
     1
102
RTVSPropertyOp14
 70
     1
102
RTVSPropertyOp15
 70
     1
102
RTVSPropertyOp16
 70
     1
102
RTVSPropertyOp17
 70
     1
102
RTVSPropertyOp18
 70
     1
102
RTVSPropertyOp19
 70
     1
102
RTVSPropertyOp20
 70
     1
102
RTVSPropertyOp21
 70
     1
102
RTVSPropertyOp22
 70
     1
102
RTVSPropertyOp23
 70
     1
102
RTVSPropertyOp24
 70
     1
102
RTVSPropertyOp25
 70
     1
102
RTVSPropertyOp26
 70
     1
102
RTVSPropertyOp27
 70
     1
102
RTVSPropertyOp28
 70
     1
102
RTVSPropertyOp29
 70
     1
102
RTVSPropertyOp30
 70
     1
102
RTVSPropertyOp31
 70
     1
102
RTVSPropertyOp32
 70
     1
102
RTVSPropertyOp33
 70
     1
102
RTVSPropertyOp34
 70
     1
102
RTVSPropertyOp35
 70
     1
102
RTVSPropertyOp36
 70
     1
102
RTVSPropertyOp37
 70
     1
102
RTVSPropertyOp38
 70
     1
102
RTVSPropertyOp39
 70
     1
102
RTVSPropertyOp40
 70
     1
102
RTVSPropertyOp41
 70
     1
102
RTVSPropertyOp42
 70
     1
102
RTVSPropertyOp43
 70
     1
102
RTVSPropertyOp44
 70
     1
102
RTVSPropertyOp45
 70
     1
102
RTVSPropertyOp46
 70
     1
102
RTVSPropertyOp47
 70
     1
102
RTVSPropertyOp48
 70
     1
102
RTVSPropertyOp49
 70
     1
102
RTVSPropertyOp50
 70
     1
102
RTVSPropertyOp51
 70
     0
102
RTVSPropertyOp52
 70
     0
102
RTVSPropertyOp53
 70
     1
102
RTVSPropertyOp54
 70
     1
102
RTVSPropertyOp55
 70
     1
102
RTVSPropertyOp56
 70
     1
102
RTVSPropertyOp57
 70
     1
102
RTVSPost2010Prop28
280
     0
102
RTVSPost2010PropOp28
 70
     1
102
RTVSPost2010Prop29
280
     1
102
RTVSPost2010PropOp29
 70
     1
102
RTVSPost2010Prop30
280
     1
102
RTVSPost2010PropOp30
 70
     1
102
RTVSPost2010Prop31
280
     0
102
RTVSPost2010PropOp31
 70
     1
102
RTVSPost2010Prop32
280
     0
102
RTVSPost2010PropOp32
 70
     1
102
RTVSPost2010Prop33
280
     0
102
RTVSPost2010PropOp33
 70
     1
102
RTVSPost2010Prop34
280
     0
102
RTVSPost2010PropOp34
 70
     1
102
RTVSPost2010Prop35
280
     0
102
RTVSPost2010PropOp35
 70
     1
102
RTVSPost2010Prop36
280
     0
102
RTVSPost2010PropOp36
 70
     1
102
RTVSPost2010Prop37
 90
       50
102
RTVSPost2010PropOp37
 70
     1
102
RTVSPost2010Prop38
140
0.0
102
RTVSPost2010PropOp38
 70
     1
102
RTVSPost2010Prop39
140
1.0
102
RTVSPost2010PropOp39
 70
     1
102
RTVSPost2010Prop40
 90
        0
102
RTVSPost2010PropOp40
 70
     1
102
RTVSPost2010Prop41ColorIndex
 90
       18
102
RTVSPost2010Prop41ColorRGB
 90
        0
102
RTVSPost2010PropOp41
 70
     1
102
RTVSPost2010Prop42
 90
       50
102
RTVSPost2010PropOp42
 70
     1
102
RTVSPost2010Prop43
 90
        3
102
RTVSPost2010PropOp43
 70
     1
102
RTVSPost2010Prop44ColorIndex
 90
        5
102
RTVSPost2010Prop44ColorRGB
 90
      255
102
RTVSPost2010PropOp44
 70
     1
102
RTVSPost2010Prop45
280
     0
102
RTVSPost2010PropOp45
 70
     1
102
RTVSPost2010Prop46
 90
       50
102
RTVSPost2010PropOp46
 70
     1
102
RTVSPost2010Prop47
 90
       50
102
RTVSPost2010PropOp47
 70
     1
102
RTVSPost2010Prop48
 90
       50
102
RTVSPost2010PropOp48
 70
     1
102
RTVSPost2010Prop49
280
     0
102
RTVSPost2010PropOp49
 70
     1
102
RTVSPost2010Prop50
 90
       50
102
RTVSPost2010PropOp50
 70
     1
102
RTVSPost2010Prop51ColorIndex
 90
      256
102
RTVSPost2010Prop51ColorRGB
 90
-16777216
102
RTVSPost2010PropOp51
 70
     0
102
RTVSPost2010Prop52
140
1.0
102
RTVSPost2010PropOp52
 70
     0
102
RTVSPost2010Prop53
 90
        2
102
RTVSPost2010PropOp53
 70
     1
102
RTVSPost2010Prop54
  1
strokes_ogs.tif
102
RTVSPost2010PropOp54
 70
     1
102
RTVSPost2010Prop55
280
     0
102
RTVSPost2010PropOp55
 70
     1
102
RTVSPost2010Prop56
140
1.0
102
RTVSPost2010PropOp56
 70
     1
102
RTVSPost2010Prop57
140
1.0
102
RTVSPost2010PropOp57
 70
     1
  0
ENDSEC
  0
EOF
