999
Erzeugt mit innoplus bad 
0
SECTION
2
HEADER
9
$ACADVER
1
AC1009
9
$DWGCODEPAGE
3
ISO8859-1
0
ENDSEC
0
SECTION
2
TABLES
0
TABLE
2
LAYER
70
1
0
LAYER
2
0
70
0
62
7
6
CONTINUOUS
0
ENDTAB
0
ENDSEC
0
SECTION
2
ENTITIES
0
LINE
8
0
6
CONTINUOUS
10
151.928203
20
210.500000
30
0.0
11
149.000860
21
213.429063
31
0.0
0
LINE
8
0
6
CONTINUOUS
10
149.000000
20
213.428203
30
0.0
11
151.928203
21
210.500000
31
0.0
0
LINE
8
0
6
CONTINUOUS
10
149.000860
20
213.429063
30
0.0
11
145.000000
21
214.500000
31
0.0
0
LINE
8
0
6
CONTINUOUS
10
145.000000
20
214.500000
30
0.0
11
149.000000
21
213.428203
31
0.0
0
LINE
8
0
6
CONTINUOUS
10
153.000000
20
-112.500000
30
0.0
11
153.000000
21
206.500000
31
0.0
0
LINE
8
0
6
CONTINUOUS
10
145.090532
20
205.459168
30
0.0
11
146.680520
21
-112.500000
31
0.0
0
LINE
8
0
6
CONTINUOUS
10
149.830914
20
-112.500000
30
0.0
11
149.046973
21
205.979808
31
0.0
0
LINE
8
0
6
CONTINUOUS
10
153.000000
20
206.500000
30
0.0
11
151.928203
21
210.500000
31
0.0
0
LINE
8
0
6
CONTINUOUS
10
145.073395
20
206.544066
30
0.0
11
145.090532
21
205.459168
31
0.0
0
LINE
8
0
6
CONTINUOUS
10
151.928203
20
210.500000
30
0.0
11
149.000000
21
213.428203
31
0.0
0
LINE
8
0
6
CONTINUOUS
10
145.072876
20
206.629131
30
0.0
11
145.073395
21
206.544066
31
0.0
0
LINE
8
0
6
CONTINUOUS
10
149.000000
20
213.428203
30
0.0
11
145.000000
21
214.500000
31
0.0
0
LINE
8
0
6
CONTINUOUS
10
143.977495
20
206.736798
30
0.0
11
145.072876
21
206.629131
31
0.0
0
LINE
8
0
6
CONTINUOUS
10
145.000000
20
214.500000
30
0.0
11
-145.000000
21
214.500000
31
0.0
0
LINE
8
0
6
CONTINUOUS
10
-143.977495
20
206.736798
30
0.0
11
143.977495
21
206.736798
31
0.0
0
LINE
8
0
6
CONTINUOUS
10
-153.000000
20
206.500000
30
0.0
11
-153.000000
21
-112.500000
31
0.0
0
LINE
8
0
6
CONTINUOUS
10
-146.680520
20
-112.500000
30
0.0
11
-145.090532
21
205.459168
31
0.0
0
LINE
8
0
6
CONTINUOUS
10
-149.046973
20
205.979808
30
0.0
11
-149.830914
21
-112.500000
31
0.0
0
LINE
8
0
6
CONTINUOUS
10
-151.928203
20
210.500000
30
0.0
11
-153.000000
21
206.500000
31
0.0
0
LINE
8
0
6
CONTINUOUS
10
-145.090532
20
205.459168
30
0.0
11
-145.073395
21
206.544066
31
0.0
0
LINE
8
0
6
CONTINUOUS
10
-149.000860
20
213.429063
30
0.0
11
-151.928203
21
210.500000
31
0.0
0
LINE
8
0
6
CONTINUOUS
10
-145.073395
20
206.544066
30
0.0
11
-145.072876
21
206.629131
31
0.0
0
LINE
8
0
6
CONTINUOUS
10
-145.000000
20
214.500000
30
0.0
11
-149.000860
21
213.429063
31
0.0
0
LINE
8
0
6
CONTINUOUS
10
-145.072876
20
206.629131
30
0.0
11
-143.977495
21
206.736798
31
0.0
0
LINE
8
0
6
CONTINUOUS
10
-153.000000
20
-112.500000
30
0.0
11
-153.000000
21
-119.541156
31
0.0
0
LINE
8
0
6
CONTINUOUS
10
-153.000000
20
-119.541156
30
0.0
11
-153.000000
21
-124.695640
31
0.0
0
LINE
8
0
6
CONTINUOUS
10
-153.000000
20
-126.582312
30
0.0
11
-152.708697
21
-125.484546
31
0.0
0
LINE
8
0
6
CONTINUOUS
10
-153.000000
20
-124.695640
30
0.0
11
-153.000000
21
-126.582312
31
0.0
0
LINE
8
0
6
CONTINUOUS
10
-152.708697
20
-125.484546
30
0.0
11
-152.149217
21
-122.547721
31
0.0
0
LINE
8
0
6
CONTINUOUS
10
-152.149217
20
-122.547721
30
0.0
11
-151.356026
21
-121.747737
31
0.0
0
LINE
8
0
6
CONTINUOUS
10
-151.356026
20
-121.747737
30
0.0
11
-149.830914
21
-119.585666
31
0.0
0
LINE
8
0
6
CONTINUOUS
10
-149.830914
20
-112.500000
30
0.0
11
-149.830914
21
-116.042833
31
0.0
0
LINE
8
0
6
CONTINUOUS
10
-149.830914
20
-116.042833
30
0.0
11
-149.830914
21
-118.636367
31
0.0
0
LINE
8
0
6
CONTINUOUS
10
-149.830914
20
-119.585666
30
0.0
11
-148.758877
21
-119.296345
31
0.0
0
LINE
8
0
6
CONTINUOUS
10
-149.830914
20
-118.636367
30
0.0
11
-149.830914
21
-119.585666
31
0.0
0
LINE
8
0
6
CONTINUOUS
10
-148.758877
20
-119.296345
30
0.0
11
-146.680520
21
-118.500000
31
0.0
0
LINE
8
0
6
CONTINUOUS
10
146.680520
20
-112.500000
30
0.0
11
-146.680520
21
-112.500000
31
0.0
0
LINE
8
0
6
CONTINUOUS
10
-146.680520
20
-118.500000
30
0.0
11
146.680520
21
-118.500000
31
0.0
0
LINE
8
0
6
CONTINUOUS
10
146.680520
20
-118.500000
30
0.0
11
148.758877
21
-119.296345
31
0.0
0
LINE
8
0
6
CONTINUOUS
10
148.758877
20
-119.296345
30
0.0
11
149.830914
21
-119.585666
31
0.0
0
LINE
8
0
6
CONTINUOUS
10
149.830914
20
-112.500000
30
0.0
11
149.830914
21
-116.042833
31
0.0
0
LINE
8
0
6
CONTINUOUS
10
149.830914
20
-116.042833
30
0.0
11
149.830914
21
-118.636367
31
0.0
0
LINE
8
0
6
CONTINUOUS
10
149.830914
20
-119.585666
30
0.0
11
151.356026
21
-121.747737
31
0.0
0
LINE
8
0
6
CONTINUOUS
10
149.830914
20
-118.636367
30
0.0
11
149.830914
21
-119.585666
31
0.0
0
LINE
8
0
6
CONTINUOUS
10
151.356026
20
-121.747737
30
0.0
11
152.149217
21
-122.547721
31
0.0
0
LINE
8
0
6
CONTINUOUS
10
152.149217
20
-122.547721
30
0.0
11
152.708697
21
-125.484546
31
0.0
0
LINE
8
0
6
CONTINUOUS
10
153.000000
20
-119.541156
30
0.0
11
153.000000
21
-112.500000
31
0.0
0
LINE
8
0
6
CONTINUOUS
10
153.000000
20
-124.695640
30
0.0
11
153.000000
21
-119.541156
31
0.0
0
LINE
8
0
6
CONTINUOUS
10
152.708697
20
-125.484546
30
0.0
11
153.000000
21
-126.582312
31
0.0
0
LINE
8
0
6
CONTINUOUS
10
153.000000
20
-126.582312
30
0.0
11
153.000000
21
-124.695640
31
0.0
0
LINE
8
0
6
CONTINUOUS
10
-162.403001
20
228.464724
30
0.0
11
-163.000000
21
226.236695
31
0.0
0
LINE
8
0
6
CONTINUOUS
10
-160.964724
20
229.903001
30
0.0
11
-162.403001
21
228.464724
31
0.0
0
LINE
8
0
6
CONTINUOUS
10
-158.736695
20
230.500000
30
0.0
11
-160.964724
21
229.903001
31
0.0
0
LINE
8
0
6
CONTINUOUS
10
158.736695
20
230.500000
30
0.0
11
-158.736695
21
230.500000
31
0.0
0
LINE
8
0
6
CONTINUOUS
10
160.964724
20
229.903001
30
0.0
11
158.736695
21
230.500000
31
0.0
0
LINE
8
0
6
CONTINUOUS
10
162.403001
20
228.464724
30
0.0
11
160.964724
21
229.903001
31
0.0
0
LINE
8
0
6
CONTINUOUS
10
163.000000
20
226.236695
30
0.0
11
162.403001
21
228.464724
31
0.0
0
LINE
8
0
6
CONTINUOUS
10
163.000000
20
-225.500000
30
0.0
11
163.000000
21
226.236695
31
0.0
0
LINE
8
0
6
CONTINUOUS
10
155.000000
20
-225.500000
30
0.0
11
163.000000
21
-225.500000
31
0.0
0
LINE
8
0
6
CONTINUOUS
10
155.000000
20
206.763305
30
0.0
11
155.000000
21
-225.500000
31
0.0
0
LINE
8
0
6
CONTINUOUS
10
153.721354
20
211.535276
30
0.0
11
155.000000
21
206.763305
31
0.0
0
LINE
8
0
6
CONTINUOUS
10
150.035276
20
215.221354
30
0.0
11
153.721354
21
211.535276
31
0.0
0
LINE
8
0
6
CONTINUOUS
10
145.263305
20
216.500000
30
0.0
11
150.035276
21
215.221354
31
0.0
0
LINE
8
0
6
CONTINUOUS
10
-145.263305
20
216.500000
30
0.0
11
145.263305
21
216.500000
31
0.0
0
LINE
8
0
6
CONTINUOUS
10
-150.035276
20
215.221354
30
0.0
11
-145.263305
21
216.500000
31
0.0
0
LINE
8
0
6
CONTINUOUS
10
-153.721354
20
211.535276
30
0.0
11
-150.035276
21
215.221354
31
0.0
0
LINE
8
0
6
CONTINUOUS
10
-155.000000
20
206.763305
30
0.0
11
-153.721354
21
211.535276
31
0.0
0
LINE
8
0
6
CONTINUOUS
10
-155.000000
20
-225.500000
30
0.0
11
-155.000000
21
206.763305
31
0.0
0
LINE
8
0
6
CONTINUOUS
10
-163.000000
20
-225.500000
30
0.0
11
-155.000000
21
-225.500000
31
0.0
0
LINE
8
0
6
CONTINUOUS
10
-163.000000
20
226.236695
30
0.0
11
-163.000000
21
-225.500000
31
0.0
0
LINE
8
0
6
CONTINUOUS
10
-155.000000
20
-225.500000
30
0.0
11
-163.000000
21
-225.500000
31
0.0
0
LINE
8
0
6
CONTINUOUS
10
-165.000000
20
-227.500000
30
0.0
11
-153.000000
21
-227.500000
31
0.0
0
LINE
8
0
6
CONTINUOUS
10
163.000000
20
-225.500000
30
0.0
11
155.000000
21
-225.500000
31
0.0
0
LINE
8
0
6
CONTINUOUS
10
153.000000
20
-227.500000
30
0.0
11
165.000000
21
-227.500000
31
0.0
0
LINE
8
0
6
CONTINUOUS
10
163.000000
20
-225.500000
30
0.0
11
165.000000
21
-227.500000
31
0.0
0
LINE
8
0
6
CONTINUOUS
10
163.000000
20
226.236695
30
0.0
11
163.000000
21
-225.500000
31
0.0
0
LINE
8
0
6
CONTINUOUS
10
165.000000
20
-227.500000
30
0.0
11
165.000000
21
226.500000
31
0.0
0
LINE
8
0
6
CONTINUOUS
10
162.403001
20
228.464724
30
0.0
11
163.000000
21
226.236695
31
0.0
0
LINE
8
0
6
CONTINUOUS
10
165.000000
20
226.500000
30
0.0
11
164.196152
21
229.500000
31
0.0
0
LINE
8
0
6
CONTINUOUS
10
160.964724
20
229.903001
30
0.0
11
162.403001
21
228.464724
31
0.0
0
LINE
8
0
6
CONTINUOUS
10
164.196152
20
229.500000
30
0.0
11
162.000000
21
231.696152
31
0.0
0
LINE
8
0
6
CONTINUOUS
10
158.736695
20
230.500000
30
0.0
11
160.964724
21
229.903001
31
0.0
0
LINE
8
0
6
CONTINUOUS
10
162.000000
20
231.696152
30
0.0
11
159.000000
21
232.500000
31
0.0
0
LINE
8
0
6
CONTINUOUS
10
-158.736695
20
230.500000
30
0.0
11
158.736695
21
230.500000
31
0.0
0
LINE
8
0
6
CONTINUOUS
10
159.000000
20
232.500000
30
0.0
11
-159.000000
21
232.500000
31
0.0
0
LINE
8
0
6
CONTINUOUS
10
-160.964724
20
229.903001
30
0.0
11
-158.736695
21
230.500000
31
0.0
0
LINE
8
0
6
CONTINUOUS
10
-159.000000
20
232.500000
30
0.0
11
-162.000000
21
231.696152
31
0.0
0
LINE
8
0
6
CONTINUOUS
10
-162.403001
20
228.464724
30
0.0
11
-160.964724
21
229.903001
31
0.0
0
LINE
8
0
6
CONTINUOUS
10
-162.000000
20
231.696152
30
0.0
11
-164.196152
21
229.500000
31
0.0
0
LINE
8
0
6
CONTINUOUS
10
-163.000000
20
226.236695
30
0.0
11
-162.403001
21
228.464724
31
0.0
0
LINE
8
0
6
CONTINUOUS
10
-164.196152
20
229.500000
30
0.0
11
-165.000000
21
226.500000
31
0.0
0
LINE
8
0
6
CONTINUOUS
10
-163.000000
20
-225.500000
30
0.0
11
-163.000000
21
226.236695
31
0.0
0
LINE
8
0
6
CONTINUOUS
10
-165.000000
20
-227.500000
30
0.0
11
-163.000000
21
-225.500000
31
0.0
0
LINE
8
0
6
CONTINUOUS
10
-165.000000
20
226.500000
30
0.0
11
-165.000000
21
-227.500000
31
0.0
0
LINE
8
0
6
CONTINUOUS
10
-155.000000
20
-225.500000
30
0.0
11
-153.000000
21
-227.500000
31
0.0
0
LINE
8
0
6
CONTINUOUS
10
-155.000000
20
206.763305
30
0.0
11
-155.000000
21
-225.500000
31
0.0
0
LINE
8
0
6
CONTINUOUS
10
-153.000000
20
-227.500000
30
0.0
11
-153.000000
21
206.500000
31
0.0
0
LINE
8
0
6
CONTINUOUS
10
-153.721354
20
211.535276
30
0.0
11
-155.000000
21
206.763305
31
0.0
0
LINE
8
0
6
CONTINUOUS
10
-153.000000
20
206.500000
30
0.0
11
-151.928203
21
210.500000
31
0.0
0
LINE
8
0
6
CONTINUOUS
10
-150.035276
20
215.221354
30
0.0
11
-153.721354
21
211.535276
31
0.0
0
LINE
8
0
6
CONTINUOUS
10
-151.928203
20
210.500000
30
0.0
11
-149.000000
21
213.428203
31
0.0
0
LINE
8
0
6
CONTINUOUS
10
-145.263305
20
216.500000
30
0.0
11
-150.035276
21
215.221354
31
0.0
0
LINE
8
0
6
CONTINUOUS
10
-149.000000
20
213.428203
30
0.0
11
-145.000000
21
214.500000
31
0.0
0
LINE
8
0
6
CONTINUOUS
10
145.263305
20
216.500000
30
0.0
11
-145.263305
21
216.500000
31
0.0
0
LINE
8
0
6
CONTINUOUS
10
-145.000000
20
214.500000
30
0.0
11
145.000000
21
214.500000
31
0.0
0
LINE
8
0
6
CONTINUOUS
10
150.035276
20
215.221354
30
0.0
11
145.263305
21
216.500000
31
0.0
0
LINE
8
0
6
CONTINUOUS
10
145.000000
20
214.500000
30
0.0
11
149.000000
21
213.428203
31
0.0
0
LINE
8
0
6
CONTINUOUS
10
153.721354
20
211.535276
30
0.0
11
150.035276
21
215.221354
31
0.0
0
LINE
8
0
6
CONTINUOUS
10
149.000000
20
213.428203
30
0.0
11
151.928203
21
210.500000
31
0.0
0
LINE
8
0
6
CONTINUOUS
10
155.000000
20
206.763305
30
0.0
11
153.721354
21
211.535276
31
0.0
0
LINE
8
0
6
CONTINUOUS
10
151.928203
20
210.500000
30
0.0
11
153.000000
21
206.500000
31
0.0
0
LINE
8
0
6
CONTINUOUS
10
155.000000
20
-225.500000
30
0.0
11
155.000000
21
206.763305
31
0.0
0
LINE
8
0
6
CONTINUOUS
10
153.000000
20
-227.500000
30
0.0
11
155.000000
21
-225.500000
31
0.0
0
LINE
8
0
6
CONTINUOUS
10
153.000000
20
206.500000
30
0.0
11
153.000000
21
-227.500000
31
0.0
0
LINE
8
0
6
CONTINUOUS
10
146.680520
20
-112.500000
30
0.0
11
145.090532
21
205.459168
31
0.0
0
LINE
8
0
6
CONTINUOUS
10
-146.680520
20
-112.500000
30
0.0
11
146.680520
21
-112.500000
31
0.0
0
LINE
8
0
6
CONTINUOUS
10
-145.090532
20
205.459168
30
0.0
11
-146.680520
21
-112.500000
31
0.0
0
LINE
8
0
6
CONTINUOUS
10
-145.072876
20
206.629131
30
0.0
11
-145.090532
21
205.459168
31
0.0
0
LINE
8
0
6
CONTINUOUS
10
-143.977495
20
206.736798
30
0.0
11
-145.072876
21
206.629131
31
0.0
0
LINE
8
0
6
CONTINUOUS
10
143.977495
20
206.736798
30
0.0
11
-143.977495
21
206.736798
31
0.0
0
LINE
8
0
6
CONTINUOUS
10
145.072876
20
206.629131
30
0.0
11
143.977495
21
206.736798
31
0.0
0
LINE
8
0
6
CONTINUOUS
10
145.090532
20
205.459168
30
0.0
11
145.072876
21
206.629131
31
0.0
0
LINE
8
0
6
CONTINUOUS
10
163.000000
20
-232.500000
30
0.0
11
165.000000
21
-229.500000
31
0.0
0
LINE
8
0
6
CONTINUOUS
10
155.000000
20
-232.500000
30
0.0
11
163.000000
21
-232.500000
31
0.0
0
LINE
8
0
6
CONTINUOUS
10
153.000000
20
-229.500000
30
0.0
11
155.000000
21
-232.500000
31
0.0
0
LINE
8
0
6
CONTINUOUS
10
165.000000
20
-229.500000
30
0.0
11
165.000000
21
-227.500000
31
0.0
0
LINE
8
0
6
CONTINUOUS
10
153.000000
20
-227.500000
30
0.0
11
153.000000
21
-229.500000
31
0.0
0
LINE
8
0
6
CONTINUOUS
10
165.000000
20
-227.500000
30
0.0
11
153.000000
21
-227.500000
31
0.0
0
LINE
8
0
6
CONTINUOUS
10
163.000000
20
-232.500000
30
0.0
11
165.000000
21
-229.500000
31
0.0
0
LINE
8
0
6
CONTINUOUS
10
155.000000
20
-232.500000
30
0.0
11
163.000000
21
-232.500000
31
0.0
0
LINE
8
0
6
CONTINUOUS
10
153.000000
20
-229.500000
30
0.0
11
155.000000
21
-232.500000
31
0.0
0
LINE
8
0
6
CONTINUOUS
10
165.000000
20
-229.500000
30
0.0
11
165.000000
21
-227.500000
31
0.0
0
LINE
8
0
6
CONTINUOUS
10
153.000000
20
-227.500000
30
0.0
11
153.000000
21
-229.500000
31
0.0
0
LINE
8
0
6
CONTINUOUS
10
165.000000
20
-227.500000
30
0.0
11
153.000000
21
-227.500000
31
0.0
0
LINE
8
0
6
CONTINUOUS
10
-155.000000
20
-232.500000
30
0.0
11
-153.000000
21
-229.500000
31
0.0
0
LINE
8
0
6
CONTINUOUS
10
-163.000000
20
-232.500000
30
0.0
11
-155.000000
21
-232.500000
31
0.0
0
LINE
8
0
6
CONTINUOUS
10
-165.000000
20
-229.500000
30
0.0
11
-163.000000
21
-232.500000
31
0.0
0
LINE
8
0
6
CONTINUOUS
10
-153.000000
20
-229.500000
30
0.0
11
-153.000000
21
-227.500000
31
0.0
0
LINE
8
0
6
CONTINUOUS
10
-165.000000
20
-227.500000
30
0.0
11
-165.000000
21
-229.500000
31
0.0
0
LINE
8
0
6
CONTINUOUS
10
-153.000000
20
-227.500000
30
0.0
11
-165.000000
21
-227.500000
31
0.0
0
LINE
8
0
6
CONTINUOUS
10
-155.000000
20
-232.500000
30
0.0
11
-153.000000
21
-229.500000
31
0.0
0
LINE
8
0
6
CONTINUOUS
10
-163.000000
20
-232.500000
30
0.0
11
-155.000000
21
-232.500000
31
0.0
0
LINE
8
0
6
CONTINUOUS
10
-165.000000
20
-229.500000
30
0.0
11
-163.000000
21
-232.500000
31
0.0
0
LINE
8
0
6
CONTINUOUS
10
-153.000000
20
-229.500000
30
0.0
11
-153.000000
21
-227.500000
31
0.0
0
LINE
8
0
6
CONTINUOUS
10
-165.000000
20
-227.500000
30
0.0
11
-165.000000
21
-229.500000
31
0.0
0
LINE
8
0
6
CONTINUOUS
10
-153.000000
20
-227.500000
30
0.0
11
-165.000000
21
-227.500000
31
0.0
0
ENDSEC
0
EOF
