  0
SECTION
  2
HEADER
  9
$ACADVER
  1
AC1021
  9
$ACADMAINTVER
 70
    25
  9
$DWGCODEPAGE
  3
ANSI_932
  9
$LASTSAVEDBY
  1
bliu
  9
$INSBASE
 10
0.0
 20
0.0
 30
0.0
  9
$EXTMIN
 10
35.59334800000001
 20
78.388669
 30
0.0
  9
$EXTMAX
 10
266.144306
 20
139.5423190224337
 30
0.0
  9
$LIMMIN
 10
35.41696
 20
78.335615
  9
$LIMMAX
 10
266.320695
 20
139.845383
  9
$ORTHOMODE
 70
     0
  9
$REGENMODE
 70
     1
  9
$FILLMODE
 70
     1
  9
$QTEXTMODE
 70
     0
  9
$MIRRTEXT
 70
     1
  9
$LTSCALE
 40
1.0
  9
$ATTMODE
 70
     1
  9
$TEXTSIZE
 40
0.2
  9
$TRACEWID
 40
0.05
  9
$TEXTSTYLE
  7
Standard
  9
$CLAYER
  8
0
  9
$CELTYPE
  6
Continuous
  9
$CECOLOR
 62
   256
  9
$CELTSCALE
 40
1.0
  9
$DISPSILH
 70
     0
  9
$DIMSCALE
 40
1.0
  9
$DIMASZ
 40
0.18
  9
$DIMEXO
 40
0.0625
  9
$DIMDLI
 40
0.38
  9
$DIMRND
 40
0.0
  9
$DIMDLE
 40
0.0
  9
$DIMEXE
 40
0.18
  9
$DIMTP
 40
0.0
  9
$DIMTM
 40
0.0
  9
$DIMTXT
 40
0.18
  9
$DIMCEN
 40
0.09
  9
$DIMTSZ
 40
0.0
  9
$DIMTOL
 70
     0
  9
$DIMLIM
 70
     0
  9
$DIMTIH
 70
     1
  9
$DIMTOH
 70
     1
  9
$DIMSE1
 70
     0
  9
$DIMSE2
 70
     0
  9
$DIMTAD
 70
     0
  9
$DIMZIN
 70
     0
  9
$DIMBLK
  1

  9
$DIMASO
 70
     1
  9
$DIMSHO
 70
     1
  9
$DIMPOST
  1

  9
$DIMAPOST
  1

  9
$DIMALT
 70
     0
  9
$DIMALTD
 70
     2
  9
$DIMALTF
 40
25.4
  9
$DIMLFAC
 40
1.0
  9
$DIMTOFL
 70
     0
  9
$DIMTVP
 40
0.0
  9
$DIMTIX
 70
     0
  9
$DIMSOXD
 70
     0
  9
$DIMSAH
 70
     0
  9
$DIMBLK1
  1

  9
$DIMBLK2
  1

  9
$DIMSTYLE
  2
Standard
  9
$DIMCLRD
 70
     0
  9
$DIMCLRE
 70
     0
  9
$DIMCLRT
 70
     0
  9
$DIMTFAC
 40
1.0
  9
$DIMGAP
 40
0.09
  9
$DIMJUST
 70
     0
  9
$DIMSD1
 70
     0
  9
$DIMSD2
 70
     0
  9
$DIMTOLJ
 70
     1
  9
$DIMTZIN
 70
     0
  9
$DIMALTZ
 70
     0
  9
$DIMALTTZ
 70
     0
  9
$DIMUPT
 70
     0
  9
$DIMDEC
 70
     4
  9
$DIMTDEC
 70
     4
  9
$DIMALTU
 70
     2
  9
$DIMALTTD
 70
     2
  9
$DIMTXSTY
  7
Standard
  9
$DIMAUNIT
 70
     0
  9
$DIMADEC
 70
     0
  9
$DIMALTRND
 40
0.0
  9
$DIMAZIN
 70
     0
  9
$DIMDSEP
 70
     0
  9
$DIMATFIT
 70
     3
  9
$DIMFRAC
 70
     0
  9
$DIMLDRBLK
  1

  9
$DIMLUNIT
 70
     2
  9
$DIMLWD
 70
     0
  9
$DIMLWE
 70
     0
  9
$DIMTMOVE
 70
     0
  9
$DIMFXL
 40
1.0
  9
$DIMFXLON
 70
     0
  9
$DIMJOGANG
 40
0.7853981633974483
  9
$DIMTFILL
 70
     0
  9
$DIMTFILLCLR
 70
     0
  9
$DIMARCSYM
 70
     0
  9
$DIMLTYPE
  6

  9
$DIMLTEX1
  6

  9
$DIMLTEX2
  6

  9
$LUNITS
 70
     2
  9
$LUPREC
 70
     4
  9
$SKETCHINC
 40
0.1
  9
$FILLETRAD
 40
0.0
  9
$AUNITS
 70
     0
  9
$AUPREC
 70
     0
  9
$MENU
  1
.
  9
$ELEVATION
 40
0.0
  9
$PELEVATION
 40
0.0
  9
$THICKNESS
 40
0.0
  9
$LIMCHECK
 70
     0
  9
$CHAMFERA
 40
0.0
  9
$CHAMFERB
 40
0.0
  9
$CHAMFERC
 40
0.0
  9
$CHAMFERD
 40
0.0
  9
$SKPOLY
 70
     0
  9
$TDCREATE
 40
2453354.133792488
  9
$TDUCREATE
 40
2453353.717125822
  9
$TDUPDATE
 40
2447893.459039364
  9
$TDUUPDATE
 40
2447893.042372697
  9
$TDINDWG
 40
0.0425231597
  9
$TDUSRTIMER
 40
0.0425115856
  9
$USRTIMER
 70
     1
  9
$ANGBASE
 50
0.0
  9
$ANGDIR
 70
     0
  9
$PDMODE
 70
     0
  9
$PDSIZE
 40
0.0
  9
$PLINEWID
 40
0.0
  9
$SPLFRAME
 70
     0
  9
$SPLINETYPE
 70
     6
  9
$SPLINESEGS
 70
     8
  9
$HANDSEED
  5
2C5
  9
$SURFTAB1
 70
     6
  9
$SURFTAB2
 70
     6
  9
$SURFTYPE
 70
     6
  9
$SURFU
 70
     6
  9
$SURFV
 70
     6
  9
$UCSBASE
  2

  9
$UCSNAME
  2

  9
$UCSORG
 10
0.0
 20
0.0
 30
0.0
  9
$UCSXDIR
 10
1.0
 20
0.0
 30
0.0
  9
$UCSYDIR
 10
0.0
 20
1.0
 30
0.0
  9
$UCSORTHOREF
  2

  9
$UCSORTHOVIEW
 70
     0
  9
$UCSORGTOP
 10
0.0
 20
0.0
 30
0.0
  9
$UCSORGBOTTOM
 10
0.0
 20
0.0
 30
0.0
  9
$UCSORGLEFT
 10
0.0
 20
0.0
 30
0.0
  9
$UCSORGRIGHT
 10
0.0
 20
0.0
 30
0.0
  9
$UCSORGFRONT
 10
0.0
 20
0.0
 30
0.0
  9
$UCSORGBACK
 10
0.0
 20
0.0
 30
0.0
  9
$PUCSBASE
  2

  9
$PUCSNAME
  2

  9
$PUCSORG
 10
0.0
 20
0.0
 30
0.0
  9
$PUCSXDIR
 10
1.0
 20
0.0
 30
0.0
  9
$PUCSYDIR
 10
0.0
 20
1.0
 30
0.0
  9
$PUCSORTHOREF
  2

  9
$PUCSORTHOVIEW
 70
     0
  9
$PUCSORGTOP
 10
0.0
 20
0.0
 30
0.0
  9
$PUCSORGBOTTOM
 10
0.0
 20
0.0
 30
0.0
  9
$PUCSORGLEFT
 10
0.0
 20
0.0
 30
0.0
  9
$PUCSORGRIGHT
 10
0.0
 20
0.0
 30
0.0
  9
$PUCSORGFRONT
 10
0.0
 20
0.0
 30
0.0
  9
$PUCSORGBACK
 10
0.0
 20
0.0
 30
0.0
  9
$USERI1
 70
     0
  9
$USERI2
 70
     0
  9
$USERI3
 70
     0
  9
$USERI4
 70
     0
  9
$USERI5
 70
     0
  9
$USERR1
 40
0.0
  9
$USERR2
 40
0.0
  9
$USERR3
 40
0.0
  9
$USERR4
 40
0.0
  9
$USERR5
 40
0.0
  9
$WORLDVIEW
 70
     1
  9
$SHADEDGE
 70
     3
  9
$SHADEDIF
 70
    70
  9
$TILEMODE
 70
     1
  9
$MAXACTVP
 70
    16
  9
$PINSBASE
 10
0.0
 20
0.0
 30
0.0
  9
$PLIMCHECK
 70
     0
  9
$PEXTMIN
 10
0.0
 20
0.0
 30
0.0
  9
$PEXTMAX
 10
0.0
 20
0.0
 30
0.0
  9
$PLIMMIN
 10
0.0
 20
0.0
  9
$PLIMMAX
 10
0.0
 20
0.0
  9
$UNITMODE
 70
     0
  9
$VISRETAIN
 70
     0
  9
$PLINEGEN
 70
     1
  9
$PSLTSCALE
 70
     0
  9
$TREEDEPTH
 70
  3020
  9
$CMLSTYLE
  2
Standard
  9
$CMLJUST
 70
     0
  9
$CMLSCALE
 40
1.0
  9
$PROXYGRAPHICS
 70
     0
  9
$MEASUREMENT
 70
     1
  9
$CELWEIGHT
370
     0
  9
$ENDCAPS
280
     0
  9
$JOINSTYLE
280
     0
  9
$LWDISPLAY
290
     0
  9
$INSUNITS
 70
     0
  9
$HYPERLINKBASE
  1

  9
$STYLESHEET
  1

  9
$XEDIT
290
     0
  9
$CEPSNTYPE
380
     0
  9
$PSTYLEMODE
290
     1
  9
$FINGERPRINTGUID
  2

  9
$VERSIONGUID
  2

  9
$EXTNAMES
290
     1
  9
$PSVPSCALE
 40
0.0
  9
$OLESTARTUP
290
     0
  9
$SORTENTS
280
   127
  9
$INDEXCTL
280
     0
  9
$HIDETEXT
280
     1
  9
$XCLIPFRAME
290
     0
  9
$HALOGAP
280
     0
  9
$OBSCOLOR
 70
   257
  9
$OBSLTYPE
280
     0
  9
$INTERSECTIONDISPLAY
280
     0
  9
$INTERSECTIONCOLOR
 70
   257
  9
$DIMASSOC
280
     2
  9
$PROJECTNAME
  1

  9
$CAMERADISPLAY
290
     0
  9
$LENSLENGTH
 40
50.0
  9
$CAMERAHEIGHT
 40
0.0
  9
$STEPSPERSEC
 40
2.0
  9
$STEPSIZE
 40
6.0
  9
$3DDWFPREC
 40
2.0
  9
$PSOLWIDTH
 40
0.25
  9
$PSOLHEIGHT
 40
4.0
  9
$LOFTANG1
 40
1.570796326794897
  9
$LOFTANG2
 40
1.570796326794897
  9
$LOFTMAG1
 40
0.0
  9
$LOFTMAG2
 40
0.0
  9
$LOFTPARAM
 70
     7
  9
$LOFTNORMALS
280
     1
  9
$LATITUDE
 40
37.795
  9
$LONGITUDE
 40
-122.394
  9
$NORTHDIRECTION
 40
0.0
  9
$TIMEZONE
 70
 -8000
  9
$LIGHTGLYPHDISPLAY
280
     1
  9
$TILEMODELIGHTSYNCH
280
     1
  9
$SOLIDHIST
280
     1
  9
$SHOWHIST
280
     1
  9
$DWFFRAME
280
     2
  9
$DGNFRAME
280
     2
  9
$REALWORLDSCALE
290
     1
  9
$INTERFERECOLOR
 62
   256
  9
$CSHADOW
280
     0
  9
$SHADOWPLANELOCATION
 40
0.0
  0
ENDSEC
  0
SECTION
  2
CLASSES
  0
CLASS
  1
ACDBDICTIONARYWDFLT
  2
AcDbDictionaryWithDefault
  3
ObjectDBX Classes
 90
        0
 91
        4
280
     0
281
     0
  0
CLASS
  1
ACDBPLACEHOLDER
  2
AcDbPlaceHolder
  3
ObjectDBX Classes
 90
        0
 91
        1
280
     0
281
     0
  0
CLASS
  1
LAYOUT
  2
AcDbLayout
  3
ObjectDBX Classes
 90
        0
 91
        1
280
     0
281
     0
  0
CLASS
  1
DICTIONARYVAR
  2
AcDbDictionaryVar
  3
ObjectDBX Classes
 90
        0
 91
        4
280
     0
281
     0
  0
CLASS
  1
TABLESTYLE
  2
AcDbTableStyle
  3
ObjectDBX Classes
 90
     4095
 91
        4
280
     0
281
     0
  0
CLASS
  1
SCALE
  2
AcDbScale
  3
ObjectDBX Classes
 90
     1153
 91
        4
280
     0
281
     0
  0
CLASS
  1
WIPEOUTVARIABLES
  2
AcDbWipeoutVariables
  3
WipeOut|AutoCAD Express Tool|expresstools@autodesk.com
 90
        0
 91
        4
280
     0
281
     0
  0
ENDSEC
  0
SECTION
  2
TABLES
  0
TABLE
  2
VPORT
  5
8
330
0
100
AcDbSymbolTable
 70
     2
  0
VPORT
  5
97
330
8
100
AcDbSymbolTableRecord
100
AcDbViewportTableRecord
  2
*ACTIVE
 70
     0
 10
0.0
 20
0.0
 11
1.0
 21
1.0
 12
150.8688275
 22
109.090499
 13
0.0
 23
0.0
 14
1.0
 24
1.0
 15
0.0
 25
0.0
 16
0.0
 26
0.0
 36
1.0
 17
0.0
 27
0.0
 37
0.0
 40
114.7669835402542
 41
0.688564
 42
50.0
 43
0.0
 44
0.0
 50
0.0
 51
0.0
 71
    16
 72
   100
 73
     1
 74
     1
 75
     0
 76
     0
 77
     0
 78
     0
281
     0
 65
     0
110
0.0
120
0.0
130
0.0
111
1.0
121
0.0
131
0.0
112
0.0
122
1.0
132
0.0
 79
     0
146
0.0
 60
     3
 61
     5
292
     1
282
     1
141
0.0
142
0.0
 63
   256
  0
ENDTAB
  0
TABLE
  2
LTYPE
  5
5
330
0
100
AcDbSymbolTable
 70
     1
  0
LTYPE
  5
14
330
5
100
AcDbSymbolTableRecord
100
AcDbLinetypeTableRecord
  2
ByBlock
 70
     0
  3

 72
    65
 73
     0
 40
0.0
  0
LTYPE
  5
15
330
5
100
AcDbSymbolTableRecord
100
AcDbLinetypeTableRecord
  2
ByLayer
 70
     0
  3

 72
    65
 73
     0
 40
0.0
  0
LTYPE
  5
16
330
5
100
AcDbSymbolTableRecord
100
AcDbLinetypeTableRecord
  2
Continuous
 70
     0
  3
Solid line
 72
    65
 73
     0
 40
0.0
  0
ENDTAB
  0
TABLE
  2
LAYER
  5
2
330
0
100
AcDbSymbolTable
 70
     2
  0
LAYER
  5
10
330
2
100
AcDbSymbolTableRecord
100
AcDbLayerTableRecord
  2
0
 70
     0
 62
     7
  6
Continuous
370
    -3
390
F
347
0
  0
LAYER
  5
28
330
2
100
AcDbSymbolTableRecord
100
AcDbLayerTableRecord
  2
LAYER_1
 70
     0
 62
   160
  6
Continuous
370
    -3
390
F
347
0
  0
ENDTAB
  0
TABLE
  2
STYLE
  5
3
330
0
100
AcDbSymbolTable
 70
     5
  0
STYLE
  5
11
330
3
100
AcDbSymbolTableRecord
100
AcDbTextStyleTableRecord
  2
Standard
 70
     0
 40
0.0
 41
1.0
 50
0.0
 71
     0
 42
0.2
  3
txt
  4

  0
STYLE
  5
24
330
3
100
AcDbSymbolTableRecord
100
AcDbTextStyleTableRecord
  2
STD
 70
     0
 40
0.0
 41
1.0
 50
0.0
 71
     0
 42
0.2
  3
txt
  4

  0
STYLE
  5
25
330
3
100
AcDbSymbolTableRecord
100
AcDbTextStyleTableRecord
  2
TATESTD
 70
     4
 40
0.0
 41
1.0
 50
0.0
 71
     0
 42
0.2
  3
txt
  4

  0
STYLE
  5
26
330
3
100
AcDbSymbolTableRecord
100
AcDbTextStyleTableRecord
  2
KANJISTD
 70
     0
 40
0.0
 41
1.0
 50
0.0
 71
     0
 42
0.2
  3
txt
  4
extfont
  0
STYLE
  5
2B6
330
3
100
AcDbSymbolTableRecord
100
AcDbTextStyleTableRecord
  2
KANJITATE
 70
     4
 40
0.0
 41
1.0
 50
0.0
 71
     0
 42
0.2
  3
txt
  4
extfont
  0
ENDTAB
  0
TABLE
  2
VIEW
  5
6
330
0
100
AcDbSymbolTable
 70
     0
  0
ENDTAB
  0
TABLE
  2
UCS
  5
7
330
0
100
AcDbSymbolTable
 70
     0
  0
ENDTAB
  0
TABLE
  2
APPID
  5
9
330
0
100
AcDbSymbolTable
 70
     1
  0
APPID
  5
12
330
9
100
AcDbSymbolTableRecord
100
AcDbRegAppTableRecord
  2
ACAD
 70
     0
  0
ENDTAB
  0
TABLE
  2
DIMSTYLE
  5
A
330
0
100
AcDbSymbolTable
 70
     1
100
AcDbDimStyleTable
  0
DIMSTYLE
105
27
330
A
100
AcDbSymbolTableRecord
100
AcDbDimStyleTableRecord
  2
Standard
 70
     0
340
11
  0
ENDTAB
  0
TABLE
  2
BLOCK_RECORD
  5
1
330
0
100
AcDbSymbolTable
 70
     3
  0
BLOCK_RECORD
  5
1F
102
{ACAD_XDICTIONARY
360
2C2
102
}
330
1
100
AcDbSymbolTableRecord
100
AcDbBlockTableRecord
  2
*Model_Space
340
22
 70
     0
280
     1
281
     0
  0
BLOCK_RECORD
  5
73
330
1
100
AcDbSymbolTableRecord
100
AcDbBlockTableRecord
  2
*Paper_Space
340
74
 70
     0
280
     1
281
     0
  0
BLOCK_RECORD
  5
29
330
1
100
AcDbSymbolTableRecord
100
AcDbBlockTableRecord
  2
AI9-BLK1
340
0
102
{BLKREFS
331
2A
102
}
 70
     0
280
     1
281
     0
  0
BLOCK_RECORD
  5
246
330
1
100
AcDbSymbolTableRecord
100
AcDbBlockTableRecord
  2
AI9-BLK2
340
0
102
{BLKREFS
331
247
102
}
 70
     0
280
     1
281
     0
  0
BLOCK_RECORD
  5
288
330
1
100
AcDbSymbolTableRecord
100
AcDbBlockTableRecord
  2
AI9-BLK3
340
0
102
{BLKREFS
331
289
102
}
 70
     0
280
     1
281
     0
  0
ENDTAB
  0
ENDSEC
  0
SECTION
  2
BLOCKS
  0
BLOCK
  5
20
330
1F
100
AcDbEntity
  8
0
100
AcDbBlockBegin
  2
*Model_Space
 70
     0
 10
0.0
 20
0.0
 30
0.0
  3
*Model_Space
  1

  0
ENDBLK
  5
21
330
1F
100
AcDbEntity
  8
0
100
AcDbBlockEnd
  0
BLOCK
  5
75
330
73
100
AcDbEntity
 67
     1
  8
0
100
AcDbBlockBegin
  2
*Paper_Space
 70
     0
 10
0.0
 20
0.0
 30
0.0
  3
*Paper_Space
  1

  0
ENDBLK
  5
76
330
73
100
AcDbEntity
 67
     1
  8
0
100
AcDbBlockEnd
  0
BLOCK
  5
2B8
330
29
100
AcDbEntity
  8
LAYER_1
100
AcDbBlockBegin
  2
AI9-BLK1
 70
     0
 10
0.0
 20
0.0
 30
0.0
  3
AI9-BLK1
  1

  0
INSERT
  5
289
330
29
100
AcDbEntity
  8
LAYER_1
 62
     7
100
AcDbBlockReference
  2
AI9-BLK3
 10
-107.077271
 20
29.164456
 30
0.0
  0
MTEXT
  5
287
330
29
100
AcDbEntity
  8
LAYER_1
 62
     7
100
AcDbMText
 10
-95.160926
 20
1.33997
 30
0.0
 40
1.990902
 41
0.0
 46
0.0
 71
     1
 72
     2
  1
\fCentury Gothic|b0|i0;\H1.9909;\W1.02;\C7;140
  7
STD
 11
0.0
 21
1.0
 31
0.0
 73
     1
 44
1.0
  0
LINE
  5
286
330
29
100
AcDbEntity
  8
LAYER_1
 62
     7
100
AcDbLine
 10
-98.870795
 20
-29.776477
 30
0.0
 11
-97.81918
 21
-27.12651
 31
0.0
  0
LWPOLYLINE
  5
24C
330
29
100
AcDbEntity
  8
LAYER_1
 62
     7
100
AcDbPolyline
 90
       56
 70
     0
 43
0.0
 10
-97.419377
 20
-28.451149
 10
-97.419377
 20
-28.346073
 10
-97.440392
 20
-28.240998
 10
-97.482422
 20
-28.156938
 10
-97.503609
 20
-28.051862
 10
-97.566654
 20
-27.967802
 10
-97.6297
 20
-27.862382
 10
-97.692745
 20
-27.799337
 10
-97.776978
 20
-27.714932
 10
-97.861038
 20
-27.673246
 10
-97.966113
 20
-27.609856
 10
-98.050346
 20
-27.568171
 10
-98.155594
 20
-27.547156
 10
-98.260669
 20
-27.525796
 10
-98.365917
 20
-27.525796
 10
-98.470992
 20
-27.547156
 10
-98.57624
 20
-27.568171
 10
-98.681315
 20
-27.588841
 10
-98.786563
 20
-27.631216
 10
-98.870795
 20
-27.694261
 10
-98.954683
 20
-27.757307
 10
-99.038916
 20
-27.841367
 10
-99.101961
 20
-27.904412
 10
-99.144164
 20
-28.009488
 10
-99.207209
 20
-28.093892
 10
-99.228052
 20
-28.198968
 10
-99.249239
 20
-28.304043
 10
-99.270254
 20
-28.409119
 10
-99.270254
 20
-28.514539
 10
-99.249239
 20
-28.619614
 10
-99.228052
 20
-28.724689
 10
-99.207209
 20
-28.829765
 10
-99.144164
 20
-28.91417
 10
-99.101961
 20
-28.99823
 10
-99.038916
 20
-29.08229
 10
-98.954683
 20
-29.166351
 10
-98.870795
 20
-29.22974
 10
-98.786563
 20
-29.271426
 10
-98.681315
 20
-29.313456
 10
-98.57624
 20
-29.355831
 10
-98.470992
 20
-29.376501
 10
-98.365917
 20
-29.376501
 10
-98.260669
 20
-29.376501
 10
-98.155594
 20
-29.376501
 10
-98.050346
 20
-29.334816
 10
-97.966113
 20
-29.313456
 10
-97.861038
 20
-29.250411
 10
-97.776978
 20
-29.187366
 10
-97.692745
 20
-29.12432
 10
-97.6297
 20
-29.04026
 10
-97.566654
 20
-28.955855
 10
-97.503609
 20
-28.871795
 10
-97.482422
 20
-28.76672
 10
-97.440392
 20
-28.661644
 10
-97.419377
 20
-28.556224
 10
-97.419377
 20
-28.451149
  0
INSERT
  5
247
330
29
100
AcDbEntity
  8
LAYER_1
 62
     7
100
AcDbBlockReference
  2
AI9-BLK2
 10
-95.28092
 20
-28.792213
 30
0.0
  0
MTEXT
  5
245
330
29
100
AcDbEntity
  8
LAYER_1
 62
     7
100
AcDbMText
 10
-72.36714
 20
0.734322
 30
0.0
 40
1.990902
 41
0.0
 46
0.0
 71
     1
 72
     2
  1
\fCentury Gothic|b0|i0;\H1.9909;\W1.02;\C7;140
  7
STD
 11
0.0
 21
1.0
 31
0.0
 73
     1
 44
1.0
  0
LWPOLYLINE
  5
23F
330
29
100
AcDbEntity
  8
LAYER_1
 62
   184
100
AcDbPolyline
 90
        4
 70
     0
 43
0.0
 10
-100.300854
 20
22.571921
 10
-100.658455
 20
22.488033
 10
-100.658455
 20
22.656154
 10
-100.300854
 20
22.571921
  0
LINE
  5
23E
330
29
100
AcDbEntity
  8
LAYER_1
 62
   253
100
AcDbLine
 10
-107.262359
 20
22.27771
 30
0.0
 11
-107.262359
 21
22.887492
 31
0.0
  0
LINE
  5
23D
330
29
100
AcDbEntity
  8
LAYER_1
 62
   253
100
AcDbLine
 10
-107.556742
 20
22.571921
 30
0.0
 11
-106.967976
 21
22.571921
 31
0.0
  0
LINE
  5
23C
330
29
100
AcDbEntity
  8
LAYER_1
 62
   253
100
AcDbLine
 10
-107.472682
 20
22.782244
 30
0.0
 11
-107.052036
 21
22.361598
 31
0.0
  0
LINE
  5
23B
330
29
100
AcDbEntity
  8
LAYER_1
 62
   253
100
AcDbLine
 10
-107.052036
 20
22.782244
 30
0.0
 11
-107.472682
 21
22.361598
 31
0.0
  0
LINE
  5
23A
330
29
100
AcDbEntity
  8
LAYER_1
 62
   184
100
AcDbLine
 10
-107.262359
 20
22.571921
 30
0.0
 11
-100.300854
 21
22.571921
 31
0.0
  0
LINE
  5
239
330
29
100
AcDbEntity
  8
LAYER_1
 62
     7
100
AcDbLine
 10
-69.867742
 20
20.468863
 30
0.0
 11
-69.636576
 21
22.571921
 31
0.0
  0
LINE
  5
238
330
29
100
AcDbEntity
  8
LAYER_1
 62
     7
100
AcDbLine
 10
-69.426081
 20
20.468863
 30
0.0
 11
-69.867742
 21
20.468863
 31
0.0
  0
LINE
  5
237
330
29
100
AcDbEntity
  8
LAYER_1
 62
     7
100
AcDbLine
 10
-69.636576
 20
22.571921
 30
0.0
 11
-69.426081
 21
20.468863
 31
0.0
  0
LINE
  5
236
330
29
100
AcDbEntity
  8
LAYER_1
 62
     7
100
AcDbLine
 10
-69.426081
 20
-17.998385
 30
0.0
 11
-69.636576
 21
-20.12263
 31
0.0
  0
LINE
  5
235
330
29
100
AcDbEntity
  8
LAYER_1
 62
     7
100
AcDbLine
 10
-69.867742
 20
-17.998385
 30
0.0
 11
-69.426081
 21
-17.998385
 31
0.0
  0
LINE
  5
234
330
29
100
AcDbEntity
  8
LAYER_1
 62
     7
100
AcDbLine
 10
-69.636576
 20
-20.12263
 30
0.0
 11
-69.867742
 21
-17.998385
 31
0.0
  0
LINE
  5
233
330
29
100
AcDbEntity
  8
LAYER_1
 62
     7
100
AcDbLine
 10
-69.636576
 20
-20.12263
 30
0.0
 11
-69.636576
 21
22.571921
 31
0.0
  0
LINE
  5
232
330
29
100
AcDbEntity
  8
LAYER_1
 62
     7
100
AcDbLine
 10
-64.273252
 20
22.571921
 30
0.0
 11
-70.246358
 21
22.571921
 31
0.0
  0
LINE
  5
231
330
29
100
AcDbEntity
  8
LAYER_1
 62
     7
100
AcDbLine
 10
-59.79325
 20
-20.12263
 30
0.0
 11
-70.246358
 21
-20.12263
 31
0.0
  0
LINE
  5
230
330
29
100
AcDbEntity
  8
LAYER_1
 62
     7
100
AcDbLine
 10
-92.098427
 20
-17.998385
 30
0.0
 11
-92.329765
 21
-20.12263
 31
0.0
  0
LINE
  5
22F
330
29
100
AcDbEntity
  8
LAYER_1
 62
     7
100
AcDbLine
 10
-92.561103
 20
-17.998385
 30
0.0
 11
-92.098427
 21
-17.998385
 31
0.0
  0
LINE
  5
22E
330
29
100
AcDbEntity
  8
LAYER_1
 62
     7
100
AcDbLine
 10
-92.329765
 20
-20.12263
 30
0.0
 11
-92.561103
 21
-17.998385
 31
0.0
  0
LINE
  5
22D
330
29
100
AcDbEntity
  8
LAYER_1
 62
     7
100
AcDbLine
 10
-92.561103
 20
20.468863
 30
0.0
 11
-92.329765
 21
22.571921
 31
0.0
  0
LINE
  5
22C
330
29
100
AcDbEntity
  8
LAYER_1
 62
     7
100
AcDbLine
 10
-92.098427
 20
20.468863
 30
0.0
 11
-92.561103
 21
20.468863
 31
0.0
  0
LINE
  5
22B
330
29
100
AcDbEntity
  8
LAYER_1
 62
     7
100
AcDbLine
 10
-92.329765
 20
22.571921
 30
0.0
 11
-92.098427
 21
20.468863
 31
0.0
  0
LINE
  5
22A
330
29
100
AcDbEntity
  8
LAYER_1
 62
     7
100
AcDbLine
 10
-92.329765
 20
22.571921
 30
0.0
 11
-92.329765
 21
-20.12263
 31
0.0
  0
LINE
  5
229
330
29
100
AcDbEntity
  8
LAYER_1
 62
     7
100
AcDbLine
 10
-103.14013
 20
-20.12263
 30
0.0
 11
-91.719983
 21
-20.12263
 31
0.0
  0
LINE
  5
228
330
29
100
AcDbEntity
  8
LAYER_1
 62
     7
100
AcDbLine
 10
-98.660472
 20
22.571921
 30
0.0
 11
-91.719983
 21
22.571921
 31
0.0
  0
LINE
  5
227
330
29
100
AcDbEntity
  8
LAYER_1
 62
     7
100
AcDbLine
 10
-108.65056
 20
-30.343884
 30
0.0
 11
-110.774634
 21
-30.112718
 31
0.0
  0
LINE
  5
226
330
29
100
AcDbEntity
  8
LAYER_1
 62
     7
100
AcDbLine
 10
-108.65056
 20
-29.881552
 30
0.0
 11
-108.65056
 21
-30.343884
 31
0.0
  0
LINE
  5
225
330
29
100
AcDbEntity
  8
LAYER_1
 62
     7
100
AcDbLine
 10
-110.774634
 20
-30.112718
 30
0.0
 11
-108.65056
 21
-29.881552
 31
0.0
  0
LINE
  5
224
330
29
100
AcDbEntity
  8
LAYER_1
 62
     7
100
AcDbLine
 10
-105.87433
 20
-29.881552
 30
0.0
 11
-103.749912
 21
-30.112718
 31
0.0
  0
LINE
  5
223
330
29
100
AcDbEntity
  8
LAYER_1
 62
     7
100
AcDbLine
 10
-105.87433
 20
-30.343884
 30
0.0
 11
-105.87433
 21
-29.881552
 31
0.0
  0
LINE
  5
222
330
29
100
AcDbEntity
  8
LAYER_1
 62
     7
100
AcDbLine
 10
-103.749912
 20
-30.112718
 30
0.0
 11
-105.87433
 21
-30.343884
 31
0.0
  0
LINE
  5
221
330
29
100
AcDbEntity
  8
LAYER_1
 62
     7
100
AcDbLine
 10
-103.749912
 20
-30.112718
 30
0.0
 11
-110.774634
 21
-30.112718
 31
0.0
  0
LINE
  5
220
330
29
100
AcDbEntity
  8
LAYER_1
 62
     7
100
AcDbLine
 10
-103.749912
 20
-30.112718
 30
0.0
 11
-92.855486
 21
-30.112718
 31
0.0
  0
LINE
  5
21F
330
29
100
AcDbEntity
  8
LAYER_1
 62
     7
100
AcDbLine
 10
-110.774634
 20
-20.711742
 30
0.0
 11
-110.774634
 21
-30.70183
 31
0.0
  0
LINE
  5
21E
330
29
100
AcDbEntity
  8
LAYER_1
 62
     7
100
AcDbLine
 10
-103.749912
 20
-20.711742
 30
0.0
 11
-103.749912
 21
-30.70183
 31
0.0
  0
LINE
  5
21D
330
29
100
AcDbEntity
  8
LAYER_1
 62
     7
100
AcDbLine
 10
-113.151233
 20
27.619675
 30
0.0
 11
-115.275479
 21
27.851013
 31
0.0
  0
LINE
  5
21C
330
29
100
AcDbEntity
  8
LAYER_1
 62
     7
100
AcDbLine
 10
-113.151233
 20
28.061336
 30
0.0
 11
-113.151233
 21
27.619675
 31
0.0
  0
LINE
  5
21B
330
29
100
AcDbEntity
  8
LAYER_1
 62
     7
100
AcDbLine
 10
-115.275479
 20
27.851013
 30
0.0
 11
-113.151233
 21
28.061336
 31
0.0
  0
LINE
  5
21A
330
29
100
AcDbEntity
  8
LAYER_1
 62
     7
100
AcDbLine
 10
-101.373313
 20
28.061336
 30
0.0
 11
-99.249239
 21
27.851013
 31
0.0
  0
LINE
  5
219
330
29
100
AcDbEntity
  8
LAYER_1
 62
     7
100
AcDbLine
 10
-101.373313
 20
27.619675
 30
0.0
 11
-101.373313
 21
28.061336
 31
0.0
  0
LINE
  5
218
330
29
100
AcDbEntity
  8
LAYER_1
 62
     7
100
AcDbLine
 10
-99.249239
 20
27.851013
 30
0.0
 11
-101.373313
 21
27.619675
 31
0.0
  0
LINE
  5
217
330
29
100
AcDbEntity
  8
LAYER_1
 62
     7
100
AcDbLine
 10
-99.249239
 20
27.851013
 30
0.0
 11
-115.275479
 21
27.851013
 31
0.0
  0
LINE
  5
216
330
29
100
AcDbEntity
  8
LAYER_1
 62
     7
100
AcDbLine
 10
-115.275479
 20
23.182048
 30
0.0
 11
-115.275479
 21
28.439952
 31
0.0
  0
LINE
  5
215
330
29
100
AcDbEntity
  8
LAYER_1
 62
     7
100
AcDbLine
 10
-99.249239
 20
23.182048
 30
0.0
 11
-99.249239
 21
28.439952
 31
0.0
  0
HATCH
  5
214
330
29
100
AcDbEntity
  8
LAYER_1
 62
   184
100
AcDbHatch
 10
0.0
 20
0.0
 30
0.0
210
0.0
220
0.0
230
1.0
  2
SOLID
 70
     1
 71
     0
 91
        1
 92
        1
 93
        1
 72
     4
 94
        3
 73
     0
 74
     0
 95
       11
 96
        7
 40
0.0
 40
0.0
 40
0.0
 40
0.0
 40
1.0
 40
1.0
 40
1.0
 40
2.0
 40
2.0
 40
2.0
 40
2.0
 10
-100.3008544921875
 20
22.57192111545139
 10
-100.3008544921875
 20
22.57192111545139
 10
-100.6584554036458
 20
22.48803304036458
 10
-100.6584554036458
 20
22.48803304036458
 10
-100.6584554036458
 20
22.48803304036458
 10
-100.6584554036458
 20
22.6561537000868
 10
-100.6584554036458
 20
22.6561537000868
 97
        0
 75
     2
 76
     1
 98
        1
 10
0.0
 20
0.0
  0
LWPOLYLINE
  5
206
330
29
100
AcDbEntity
  8
LAYER_1
 62
     7
100
AcDbPolyline
 90
       12
 70
     0
 43
0.0
 10
-110.774634
 20
-20.12263
 10
-110.753791
 20
-20.12263
 10
-110.669558
 20
-20.12263
 10
-110.501265
 20
-20.12263
 10
-110.269755
 20
-20.12263
 10
-109.975544
 20
-20.12263
 10
-109.617943
 20
-20.12263
 10
-109.197297
 20
-20.12263
 10
-108.755636
 20
-20.12263
 10
-108.271772
 20
-20.12263
 10
-107.767065
 20
-20.12263
 10
-107.262359
 20
-20.12263
  0
LWPOLYLINE
  5
1F8
330
29
100
AcDbEntity
  8
LAYER_1
 62
     7
100
AcDbPolyline
 90
       12
 70
     0
 43
0.0
 10
-107.262359
 20
-20.12263
 10
-106.757652
 20
-20.12263
 10
-106.252774
 20
-20.12263
 10
-105.769082
 20
-20.12263
 10
-105.327249
 20
-20.12263
 10
-104.906775
 20
-20.12263
 10
-104.549346
 20
-20.12263
 10
-104.254791
 20
-20.12263
 10
-104.023452
 20
-20.12263
 10
-103.85516
 20
-20.12263
 10
-103.771099
 20
-20.12263
 10
-103.749912
 20
-20.12263
  0
LWPOLYLINE
  5
1E8
330
29
100
AcDbEntity
  8
LAYER_1
 62
     7
100
AcDbPolyline
 90
       14
 70
     0
 43
0.0
 10
-112.18385
 20
12.434555
 10
-112.162663
 20
12.434555
 10
-112.057587
 20
12.434555
 10
-111.910482
 20
12.434555
 10
-111.657956
 20
12.434555
 10
-111.363573
 20
12.434555
 10
-111.005972
 20
12.434555
 10
-110.585326
 20
12.434555
 10
-110.101634
 20
12.434555
 10
-109.596928
 20
12.434555
 10
-109.050019
 20
12.434555
 10
-108.46108
 20
12.434555
 10
-107.872313
 20
12.434555
 10
-107.262359
 20
12.434555
  0
LWPOLYLINE
  5
1D8
330
29
100
AcDbEntity
  8
LAYER_1
 62
     7
100
AcDbPolyline
 90
       14
 70
     0
 43
0.0
 10
-107.262359
 20
12.434555
 10
-106.652577
 20
12.434555
 10
-106.063466
 20
12.434555
 10
-105.495714
 20
12.434555
 10
-104.92779
 20
12.434555
 10
-104.423083
 20
12.434555
 10
-103.939392
 20
12.434555
 10
-103.518746
 20
12.434555
 10
-103.161145
 20
12.434555
 10
-102.866762
 20
12.434555
 10
-102.614408
 20
12.434555
 10
-102.467131
 20
12.434555
 10
-102.361883
 20
12.434555
 10
-102.34104
 20
12.434555
  0
LWPOLYLINE
  5
1C4
330
29
100
AcDbEntity
  8
LAYER_1
 62
     7
100
AcDbPolyline
 90
       18
 70
     0
 43
0.0
 10
-115.275479
 20
22.571921
 10
-115.254464
 20
22.571921
 10
-115.191418
 20
22.571921
 10
-115.044141
 20
22.571921
 10
-114.833818
 20
22.571921
 10
-114.539434
 20
22.571921
 10
-114.202848
 20
22.571921
 10
-113.782202
 20
22.571921
 10
-113.319354
 20
22.571921
 10
-112.793632
 20
22.571921
 10
-112.204865
 20
22.571921
 10
-111.594911
 20
22.571921
 10
-110.921912
 20
22.571921
 10
-110.227897
 20
22.571921
 10
-109.512695
 20
22.571921
 10
-108.776651
 20
22.571921
 10
-108.019591
 20
22.571921
 10
-107.262359
 20
22.571921
  0
LWPOLYLINE
  5
1B0
330
29
100
AcDbEntity
  8
LAYER_1
 62
     7
100
AcDbPolyline
 90
       18
 70
     0
 43
0.0
 10
-107.262359
 20
22.571921
 10
-106.505299
 20
22.571921
 10
-105.747895
 20
22.571921
 10
-105.01185
 20
22.571921
 10
-104.296821
 20
22.571921
 10
-103.602806
 20
22.571921
 10
-102.929807
 20
22.571921
 10
-102.319853
 20
22.571921
 10
-101.730914
 20
22.571921
 10
-101.205192
 20
22.571921
 10
-100.742343
 20
22.571921
 10
-100.32187
 20
22.571921
 10
-99.985284
 20
22.571921
 10
-99.6909
 20
22.571921
 10
-99.480577
 20
22.571921
 10
-99.333299
 20
22.571921
 10
-99.270254
 20
22.571921
 10
-99.249239
 20
22.571921
  0
LWPOLYLINE
  5
19C
330
29
100
AcDbEntity
  8
LAYER_1
 62
     7
100
AcDbPolyline
 90
       18
 70
     0
 43
0.0
 10
-115.023126
 20
20.489878
 10
-115.001938
 20
20.489878
 10
-114.96008
 20
20.489878
 10
-114.833818
 20
20.489878
 10
-114.623494
 20
20.489878
 10
-114.370969
 20
20.489878
 10
-114.034555
 20
20.489878
 10
-113.634924
 20
20.489878
 10
-113.193263
 20
20.489878
 10
-112.667542
 20
20.489878
 10
-112.120805
 20
20.489878
 10
-111.510678
 20
20.489878
 10
-110.858866
 20
20.489878
 10
-110.185867
 20
20.489878
 10
-109.470665
 20
20.489878
 10
-108.755636
 20
20.489878
 10
-108.019591
 20
20.489878
 10
-107.262359
 20
20.489878
  0
LWPOLYLINE
  5
189
330
29
100
AcDbEntity
  8
LAYER_1
 62
     7
100
AcDbPolyline
 90
       17
 70
     0
 43
0.0
 10
-107.262359
 20
20.489878
 10
-106.505299
 20
20.489878
 10
-105.769082
 20
20.489878
 10
-105.05388
 20
20.489878
 10
-104.339023
 20
20.489878
 10
-103.665852
 20
20.489878
 10
-103.013867
 20
20.489878
 10
-102.404085
 20
20.489878
 10
-101.857004
 20
20.489878
 10
-101.331283
 20
20.489878
 10
-100.889621
 20
20.489878
 10
-100.48999
 20
20.489878
 10
-100.153577
 20
20.489878
 10
-99.901223
 20
20.489878
 10
-99.6909
 20
20.489878
 10
-99.56481
 20
20.489878
 10
-99.522607
 20
20.489878
  0
LINE
  5
188
330
29
100
AcDbEntity
  8
LAYER_1
 62
     7
100
AcDbLine
 10
-103.749912
 20
-20.12263
 30
0.0
 11
-103.749912
 21
12.434555
 31
0.0
  0
LINE
  5
187
330
29
100
AcDbEntity
  8
LAYER_1
 62
     7
100
AcDbLine
 10
-110.774634
 20
12.434555
 30
0.0
 11
-110.774634
 21
-20.12263
 31
0.0
  0
LINE
  5
186
330
29
100
AcDbEntity
  8
LAYER_1
 62
     7
100
AcDbLine
 10
-102.34104
 20
12.434555
 30
0.0
 11
-102.34104
 21
20.489878
 31
0.0
  0
LINE
  5
185
330
29
100
AcDbEntity
  8
LAYER_1
 62
     7
100
AcDbLine
 10
-112.18385
 20
20.489878
 30
0.0
 11
-112.18385
 21
12.434555
 31
0.0
  0
LINE
  5
184
330
29
100
AcDbEntity
  8
LAYER_1
 62
     7
100
AcDbLine
 10
-99.522607
 20
20.489878
 30
0.0
 11
-99.249239
 21
22.571921
 31
0.0
  0
LINE
  5
183
330
29
100
AcDbEntity
  8
LAYER_1
 62
     7
100
AcDbLine
 10
-115.275479
 20
22.571921
 30
0.0
 11
-115.023126
 21
20.489878
 31
0.0
  0
LWPOLYLINE
  5
16A
330
29
100
AcDbEntity
  8
LAYER_1
 62
     7
100
AcDbPolyline
 90
       23
 70
     0
 43
0.0
 10
-59.204483
 20
-20.12263
 10
-59.162453
 20
-20.12263
 10
-59.057377
 20
-20.12263
 10
-58.868241
 20
-20.12263
 10
-58.615716
 20
-20.12263
 10
-58.300145
 20
-20.12263
 10
-57.921529
 20
-20.12263
 10
-57.501227
 20
-20.12263
 10
-57.059222
 20
-20.12263
 10
-56.57553
 20
-20.12263
 10
-56.070824
 20
-20.12263
 10
-55.545102
 20
-20.12263
 10
-55.040396
 20
-20.12263
 10
-54.535345
 20
-20.12263
 10
-54.073013
 20
-20.12263
 10
-53.631007
 20
-20.12263
 10
-53.231721
 20
-20.12263
 10
-52.895135
 20
-20.12263
 10
-52.621594
 20
-20.12263
 10
-52.390428
 20
-20.12263
 10
-52.242978
 20
-20.12263
 10
-52.179933
 20
-20.12263
 10
-52.158918
 20
-20.12263
  0
LWPOLYLINE
  5
15A
330
29
100
AcDbEntity
  8
LAYER_1
 62
     7
100
AcDbPolyline
 90
       14
 70
     0
 43
0.0
 10
-52.158918
 20
-13.560757
 10
-52.221963
 20
-13.666177
 10
-52.411443
 20
-13.960388
 10
-52.684639
 20
-14.44408
 10
-52.85276
 20
-14.801681
 10
-52.979195
 20
-15.200967
 10
-53.084271
 20
-15.811093
 10
-53.04224
 20
-16.442235
 10
-52.895135
 20
-16.988972
 10
-52.747685
 20
-17.346573
 10
-52.579564
 20
-17.662143
 10
-52.432114
 20
-17.914324
 10
-52.285353
 20
-18.14549
 10
-52.179933
 20
-18.313955
  0
LWPOLYLINE
  5
141
330
29
100
AcDbEntity
  8
LAYER_1
 62
     7
100
AcDbPolyline
 90
       23
 70
     0
 43
0.0
 10
110.795821
 20
-20.12263
 10
110.753791
 20
-20.12263
 10
110.648371
 20
-20.12263
 10
110.459235
 20
-20.12263
 10
110.207054
 20
-20.12263
 10
109.891484
 20
-20.12263
 10
109.512868
 20
-20.12263
 10
109.092221
 20
-20.12263
 10
108.65056
 20
-20.12263
 10
108.166869
 20
-20.12263
 10
107.661818
 20
-20.12263
 10
107.136096
 20
-20.12263
 10
106.63139
 20
-20.12263
 10
106.126683
 20
-20.12263
 10
105.664007
 20
-20.12263
 10
105.222346
 20
-20.12263
 10
104.822715
 20
-20.12263
 10
104.486129
 20
-20.12263
 10
104.212933
 20
-20.12263
 10
103.981422
 20
-20.12263
 10
103.834317
 20
-20.12263
 10
103.770927
 20
-20.12263
 10
103.749912
 20
-20.12263
  0
LWPOLYLINE
  5
131
330
29
100
AcDbEntity
  8
LAYER_1
 62
     7
100
AcDbPolyline
 90
       14
 70
     0
 43
0.0
 10
103.749912
 20
-13.560757
 10
103.813302
 20
-13.666177
 10
104.002437
 20
-13.960388
 10
104.275978
 20
-14.44408
 10
104.444099
 20
-14.801681
 10
104.570534
 20
-15.200967
 10
104.675609
 20
-15.811093
 10
104.633579
 20
-16.442235
 10
104.486129
 20
-16.988972
 10
104.339023
 20
-17.346573
 10
104.170558
 20
-17.662143
 10
104.023452
 20
-17.914324
 10
103.876347
 20
-18.14549
 10
103.770927
 20
-18.313955
  0
LWPOLYLINE
  5
115
330
29
100
AcDbEntity
  8
LAYER_1
 62
     7
100
AcDbPolyline
 90
       26
 70
     0
 43
0.0
 10
-60.592856
 20
12.434555
 10
-60.550826
 20
12.434555
 10
-60.445406
 20
12.434555
 10
-60.25627
 20
12.434555
 10
-60.003745
 20
12.434555
 10
-59.688174
 20
12.434555
 10
-59.309558
 20
12.434555
 10
-58.888912
 20
12.434555
 10
-58.405221
 20
12.434555
 10
-57.879499
 20
12.434555
 10
-57.311747
 20
12.434555
 10
-56.72298
 20
12.434555
 10
-56.133869
 20
12.434555
 10
-55.524087
 20
12.434555
 10
-54.914305
 20
12.434555
 10
-54.325194
 20
12.434555
 10
-53.757442
 20
12.434555
 10
-53.210361
 20
12.434555
 10
-52.705999
 20
12.434555
 10
-52.263993
 20
12.434555
 10
-51.843347
 20
12.434555
 10
-51.507106
 20
12.434555
 10
-51.21255
 20
12.434555
 10
-51.002055
 20
12.434555
 10
-50.833934
 20
12.434555
 10
-50.770889
 20
12.434555
  0
LWPOLYLINE
  5
F8
330
29
100
AcDbEntity
  8
LAYER_1
 62
     7
100
AcDbPolyline
 90
       27
 70
     0
 43
0.0
 10
112.18385
 20
12.434555
 10
112.14182
 20
12.434555
 10
112.036745
 20
12.434555
 10
111.847264
 20
12.434555
 10
111.595083
 20
12.434555
 10
111.279513
 20
12.434555
 10
110.900897
 20
12.434555
 10
110.48025
 20
12.434555
 10
109.996559
 20
12.434555
 10
109.470837
 20
12.434555
 10
108.902741
 20
12.434555
 10
108.313974
 20
12.434555
 10
107.725208
 20
12.434555
 10
107.115081
 20
12.434555
 10
106.505299
 20
12.434555
 10
105.916188
 20
12.434555
 10
105.348436
 20
12.434555
 10
104.801699
 20
12.434555
 10
104.296993
 20
12.434555
 10
103.855332
 20
12.434555
 10
103.434686
 20
12.434555
 10
103.0981
 20
12.434555
 10
102.803544
 20
12.434555
 10
102.572378
 20
12.434555
 10
102.425273
 20
12.434555
 10
102.362227
 20
12.434555
 10
102.340868
 20
12.434555
  0
LWPOLYLINE
  5
D4
330
29
100
AcDbEntity
  8
LAYER_1
 62
     7
100
AcDbPolyline
 90
       34
 70
     0
 43
0.0
 10
-63.68414
 20
22.571921
 10
-63.642455
 20
22.571921
 10
-63.537379
 20
22.571921
 10
-63.368914
 20
22.571921
 10
-63.116733
 20
22.571921
 10
-62.801162
 20
22.571921
 10
-62.422202
 20
22.571921
 10
-61.980885
 20
22.571921
 10
-61.475834
 20
22.571921
 10
-60.929097
 20
22.571921
 10
-60.319316
 20
22.571921
 10
-59.688174
 20
22.571921
 10
-58.994332
 20
22.571921
 10
-58.300145
 20
22.571921
 10
-57.564273
 20
22.571921
 10
-56.828056
 20
22.571921
 10
-56.049809
 20
22.571921
 10
-55.292577
 20
22.571921
 10
-54.535345
 20
22.571921
 10
-53.799472
 20
22.571921
 10
-53.063255
 20
22.571921
 10
-52.348398
 20
22.571921
 10
-51.675227
 20
22.571921
 10
-51.044085
 20
22.571921
 10
-50.434303
 20
22.571921
 10
-49.887566
 20
22.571921
 10
-49.382515
 20
22.571921
 10
-48.941199
 20
22.571921
 10
-48.562583
 20
22.571921
 10
-48.247012
 20
22.571921
 10
-47.994486
 20
22.571921
 10
-47.826366
 20
22.571921
 10
-47.72129
 20
22.571921
 10
-47.67926
 20
22.571921
  0
LWPOLYLINE
  5
2BE
330
29
100
AcDbEntity
  8
LAYER_1
 62
     7
100
AcDbPolyline
 90
       33
 70
     0
 43
0.0
 10
-63.431959
 20
20.489878
 10
-63.389929
 20
20.489878
 10
-63.284854
 20
20.489878
 10
-63.095374
 20
20.489878
 10
-62.864208
 20
20.489878
 10
-62.548637
 20
20.489878
 10
-62.170021
 20
20.489878
 10
-61.72836
 20
20.489878
 10
-61.223653
 20
20.489878
 10
-60.676917
 20
20.489878
 10
-60.087805
 20
20.489878
 10
-59.435993
 20
20.489878
 10
-58.783837
 20
20.489878
 10
-58.068979
 20
20.489878
 10
-57.353777
 20
20.489878
 10
-56.61756
 20
20.489878
 10
-55.860673
 20
20.489878
 10
-55.124456
 20
20.489878
 10
-54.367224
 20
20.489878
 10
-53.652367
 20
20.489878
 10
-52.937165
 20
20.489878
 10
-52.242978
 20
20.489878
 10
-51.590822
 20
20.489878
 10
-50.98104
 20
20.489878
 10
-50.392273
 20
20.489878
 10
-49.887566
 20
20.489878
 10
-49.403875
 20
20.489878
 10
-49.004244
 20
20.489878
 10
-48.646643
 20
20.489878
 10
-48.373102
 20
20.489878
 10
-48.162952
 20
20.489878
 10
-48.015502
 20
20.489878
 10
-47.931441
 20
20.489878
  0
LWPOLYLINE
  5
8D
330
29
100
AcDbEntity
  8
LAYER_1
 62
     7
100
AcDbPolyline
 90
       34
 70
     0
 43
0.0
 10
115.275479
 20
22.571921
 10
115.233449
 20
22.571921
 10
115.128373
 20
22.571921
 10
114.938893
 20
22.571921
 10
114.707727
 20
22.571921
 10
114.392156
 20
22.571921
 10
113.992525
 20
22.571921
 10
113.550864
 20
22.571921
 10
113.067173
 20
22.571921
 10
112.520436
 20
22.571921
 10
111.91031
 20
22.571921
 10
111.279513
 20
22.571921
 10
110.585326
 20
22.571921
 10
109.891484
 20
22.571921
 10
109.155267
 20
22.571921
 10
108.41905
 20
22.571921
 10
107.640803
 20
22.571921
 10
106.883915
 20
22.571921
 10
106.126683
 20
22.571921
 10
105.390466
 20
22.571921
 10
104.654249
 20
22.571921
 10
103.939392
 20
22.571921
 10
103.26622
 20
22.571921
 10
102.635423
 20
22.571921
 10
102.025297
 20
22.571921
 10
101.47856
 20
22.571921
 10
100.973854
 20
22.571921
 10
100.532193
 20
22.571921
 10
100.153577
 20
22.571921
 10
99.83835
 20
22.571921
 10
99.585825
 20
22.571921
 10
99.417704
 20
22.571921
 10
99.312629
 20
22.571921
 10
99.270254
 20
22.571921
  0
LWPOLYLINE
  5
6A
330
29
100
AcDbEntity
  8
LAYER_1
 62
     7
100
AcDbPolyline
 90
       33
 70
     0
 43
0.0
 10
115.022953
 20
20.489878
 10
114.981268
 20
20.489878
 10
114.875848
 20
20.489878
 10
114.686712
 20
20.489878
 10
114.455202
 20
20.489878
 10
114.139975
 20
20.489878
 10
113.761015
 20
20.489878
 10
113.319698
 20
20.489878
 10
112.814647
 20
20.489878
 10
112.26791
 20
20.489878
 10
111.679144
 20
20.489878
 10
111.026987
 20
20.489878
 10
110.375175
 20
20.489878
 10
109.659973
 20
20.489878
 10
108.945116
 20
20.489878
 10
108.208899
 20
20.489878
 10
107.451667
 20
20.489878
 10
106.71545
 20
20.489878
 10
105.958563
 20
20.489878
 10
105.243361
 20
20.489878
 10
104.528159
 20
20.489878
 10
103.834317
 20
20.489878
 10
103.18216
 20
20.489878
 10
102.572378
 20
20.489878
 10
101.983267
 20
20.489878
 10
101.47856
 20
20.489878
 10
100.994869
 20
20.489878
 10
100.595238
 20
20.489878
 10
100.237637
 20
20.489878
 10
99.964441
 20
20.489878
 10
99.753946
 20
20.489878
 10
99.60684
 20
20.489878
 10
99.52278
 20
20.489878
  0
LINE
  5
69
330
29
100
AcDbEntity
  8
LAYER_1
 62
     7
100
AcDbLine
 10
-52.179933
 20
-18.33497
 30
0.0
 11
103.770927
 21
-18.33497
 31
0.0
  0
LINE
  5
68
330
29
100
AcDbEntity
  8
LAYER_1
 62
     7
100
AcDbLine
 10
103.749912
 20
-13.560757
 30
0.0
 11
-52.158918
 21
-13.560757
 31
0.0
  0
LINE
  5
67
330
29
100
AcDbEntity
  8
LAYER_1
 62
     7
100
AcDbLine
 10
-52.158918
 20
-20.12263
 30
0.0
 11
-52.158918
 21
-18.313955
 31
0.0
  0
LINE
  5
66
330
29
100
AcDbEntity
  8
LAYER_1
 62
     7
100
AcDbLine
 10
-52.158918
 20
5.577437
 30
0.0
 11
-52.158918
 21
12.434555
 31
0.0
  0
LINE
  5
65
330
29
100
AcDbEntity
  8
LAYER_1
 62
     7
100
AcDbLine
 10
-52.158918
 20
-13.560757
 30
0.0
 11
-52.158918
 21
0.455269
 31
0.0
  0
LINE
  5
64
330
29
100
AcDbEntity
  8
LAYER_1
 62
     7
100
AcDbLine
 10
-59.204483
 20
12.434555
 30
0.0
 11
-59.204483
 21
-20.12263
 31
0.0
  0
LINE
  5
63
330
29
100
AcDbEntity
  8
LAYER_1
 62
     7
100
AcDbLine
 10
110.795821
 20
-20.12263
 30
0.0
 11
110.795821
 21
12.434555
 31
0.0
  0
LINE
  5
62
330
29
100
AcDbEntity
  8
LAYER_1
 62
     7
100
AcDbLine
 10
103.749912
 20
0.453547
 30
0.0
 11
103.749912
 21
-13.560757
 31
0.0
  0
LINE
  5
61
330
29
100
AcDbEntity
  8
LAYER_1
 62
     7
100
AcDbLine
 10
103.749912
 20
12.434555
 30
0.0
 11
103.749912
 21
5.580193
 31
0.0
  0
LINE
  5
60
330
29
100
AcDbEntity
  8
LAYER_1
 62
     7
100
AcDbLine
 10
103.749912
 20
-18.313955
 30
0.0
 11
103.749912
 21
-20.12263
 31
0.0
  0
LINE
  5
5F
330
29
100
AcDbEntity
  8
LAYER_1
 62
     7
100
AcDbLine
 10
-50.770889
 20
12.434555
 30
0.0
 11
-50.770889
 21
20.489878
 31
0.0
  0
LINE
  5
2BF
330
29
100
AcDbEntity
  8
LAYER_1
 62
     7
100
AcDbLine
 10
-60.592856
 20
20.489878
 30
0.0
 11
-60.592856
 21
12.434555
 31
0.0
  0
LINE
  5
5D
330
29
100
AcDbEntity
  8
LAYER_1
 62
     7
100
AcDbLine
 10
112.18385
 20
12.434555
 30
0.0
 11
112.18385
 21
20.489878
 31
0.0
  0
LINE
  5
5C
330
29
100
AcDbEntity
  8
LAYER_1
 62
     7
100
AcDbLine
 10
102.340868
 20
20.489878
 30
0.0
 11
102.340868
 21
12.434555
 31
0.0
  0
LINE
  5
5B
330
29
100
AcDbEntity
  8
LAYER_1
 62
     7
100
AcDbLine
 10
-47.931441
 20
20.489878
 30
0.0
 11
-47.67926
 21
22.571921
 31
0.0
  0
LINE
  5
2C0
330
29
100
AcDbEntity
  8
LAYER_1
 62
     7
100
AcDbLine
 10
-63.68414
 20
22.571921
 30
0.0
 11
-63.431959
 21
20.489878
 31
0.0
  0
LINE
  5
2C1
330
29
100
AcDbEntity
  8
LAYER_1
 62
     7
100
AcDbLine
 10
115.022953
 20
20.489878
 30
0.0
 11
115.275479
 21
22.571921
 31
0.0
  0
LINE
  5
58
330
29
100
AcDbEntity
  8
LAYER_1
 62
     7
100
AcDbLine
 10
99.270254
 20
22.571921
 30
0.0
 11
99.52278
 21
20.489878
 31
0.0
  0
MTEXT
  5
57
330
29
100
AcDbEntity
  8
LAYER_1
 62
     7
100
AcDbMText
 10
21.250899
 20
-26.568078
 30
0.0
 40
1.990902
 41
0.0
 46
0.0
 71
     1
 72
     2
  1
\fCentury Gothic|b0|i0;\H1.9909;\W1.02;\C7;760
  7
STD
 73
     1
 44
1.0
  0
LINE
  5
56
330
29
100
AcDbEntity
  8
LAYER_1
 62
     7
100
AcDbLine
 10
-53.849426
 20
-29.631439
 30
0.0
 11
-55.952657
 21
-29.399928
 31
0.0
  0
LINE
  5
55
330
29
100
AcDbEntity
  8
LAYER_1
 62
     7
100
AcDbLine
 10
-53.849426
 20
-29.189777
 30
0.0
 11
-53.849426
 21
-29.631439
 31
0.0
  0
LINE
  5
54
330
29
100
AcDbEntity
  8
LAYER_1
 62
     7
100
AcDbLine
 10
-55.952657
 20
-29.399928
 30
0.0
 11
-53.849426
 21
-29.189777
 31
0.0
  0
LINE
  5
53
330
29
100
AcDbEntity
  8
LAYER_1
 62
     7
100
AcDbLine
 10
105.329833
 20
-29.189777
 30
0.0
 11
107.453734
 21
-29.399928
 31
0.0
  0
LINE
  5
52
330
29
100
AcDbEntity
  8
LAYER_1
 62
     7
100
AcDbLine
 10
105.329833
 20
-29.631439
 30
0.0
 11
105.329833
 21
-29.189777
 31
0.0
  0
LINE
  5
51
330
29
100
AcDbEntity
  8
LAYER_1
 62
     7
100
AcDbLine
 10
107.453734
 20
-29.399928
 30
0.0
 11
105.329833
 21
-29.631439
 31
0.0
  0
LINE
  5
50
330
29
100
AcDbEntity
  8
LAYER_1
 62
     7
100
AcDbLine
 10
107.453734
 20
-29.399928
 30
0.0
 11
-55.952657
 21
-29.399928
 31
0.0
  0
LINE
  5
4F
330
29
100
AcDbEntity
  8
LAYER_1
 62
     7
100
AcDbLine
 10
-55.952657
 20
-21.30292
 30
0.0
 11
-55.952657
 21
-30.00971
 31
0.0
  0
LINE
  5
4E
330
29
100
AcDbEntity
  8
LAYER_1
 62
     7
100
AcDbLine
 10
107.453734
 20
-22.080823
 30
0.0
 11
107.453734
 21
-30.00971
 31
0.0
  0
LWPOLYLINE
  5
3E
330
29
100
AcDbEntity
  8
LAYER_1
 62
     7
100
AcDbPolyline
 90
       14
 70
     0
 43
0.0
 10
-52.046263
 20
5.397948
 10
-52.109309
 20
5.292872
 10
-52.298789
 20
4.998317
 10
-52.571985
 20
4.514625
 10
-52.740106
 20
4.157369
 10
-52.866541
 20
3.757738
 10
-52.971616
 20
3.147611
 10
-52.929586
 20
2.516815
 10
-52.78248
 20
1.970078
 10
-52.63503
 20
1.612132
 10
-52.466909
 20
1.296906
 10
-52.319459
 20
1.044381
 10
-52.172698
 20
0.813215
 10
-52.067278
 20
0.64475
  0
LWPOLYLINE
  5
2E
330
29
100
AcDbEntity
  8
LAYER_1
 62
     7
100
AcDbPolyline
 90
       14
 70
     0
 43
0.0
 10
103.862566
 20
5.397948
 10
103.925956
 20
5.292872
 10
104.115092
 20
4.998317
 10
104.388288
 20
4.514625
 10
104.556753
 20
4.157369
 10
104.682844
 20
3.757738
 10
104.788264
 20
3.147611
 10
104.746233
 20
2.516815
 10
104.598783
 20
1.970078
 10
104.451678
 20
1.612132
 10
104.283213
 20
1.296906
 10
104.136107
 20
1.044381
 10
103.988657
 20
0.813215
 10
103.883582
 20
0.64475
  0
LINE
  5
2D
330
29
100
AcDbEntity
  8
LAYER_1
 62
     7
100
AcDbLine
 10
-52.067278
 20
0.623735
 30
0.0
 11
103.883582
 21
0.623735
 31
0.0
  0
LINE
  5
2C
330
29
100
AcDbEntity
  8
LAYER_1
 62
     7
100
AcDbLine
 10
103.862566
 20
5.397948
 30
0.0
 11
-52.046263
 21
5.397948
 31
0.0
  0
ENDBLK
  5
2B9
330
29
100
AcDbEntity
  8
LAYER_1
100
AcDbBlockEnd
  0
BLOCK
  5
2BA
330
246
100
AcDbEntity
  8
LAYER_1
100
AcDbBlockBegin
  2
AI9-BLK2
 70
     0
 10
0.0
 20
0.0
 30
0.0
  3
AI9-BLK2
  1

  0
MTEXT
  5
24A
330
246
100
AcDbEntity
  8
LAYER_1
 62
     7
100
AcDbMText
 10
-0.000431
 20
1.237115
 30
0.0
 40
1.990902
 41
0.0
 46
0.0
 71
     1
 72
     2
  1
\fCentury Gothic|b0|i0;\H1.9909;\W1.02;\C7;4
  7
STD
 73
     1
 44
1.0
  0
MTEXT
  5
249
330
246
100
AcDbEntity
  8
LAYER_1
 62
     7
100
AcDbMText
 10
-1.541939
 20
1.23746
 30
0.0
 40
1.990902
 41
0.0
 46
0.0
 71
     1
 72
     2
  1
\fCentury Gothic|b0|i0;\H1.9909;\W1.02;\C7;2
  7
STD
 73
     1
 44
1.0
  0
ENDBLK
  5
2BB
330
246
100
AcDbEntity
  8
LAYER_1
100
AcDbBlockEnd
  0
BLOCK
  5
2BC
330
288
100
AcDbEntity
  8
LAYER_1
100
AcDbBlockBegin
  2
AI9-BLK3
 70
     0
 10
0.0
 20
0.0
 30
0.0
  3
AI9-BLK3
  1

  0
MTEXT
  5
28C
330
288
100
AcDbEntity
  8
LAYER_1
 62
     7
100
AcDbMText
 10
-0.000258
 20
1.237287
 30
0.0
 40
1.990902
 41
0.0
 46
0.0
 71
     1
 72
     2
  1
\fCentury Gothic|b0|i0;\H1.9909;\W1.02;\C7;4
  7
STD
 73
     1
 44
1.0
  0
MTEXT
  5
28B
330
288
100
AcDbEntity
  8
LAYER_1
 62
     7
100
AcDbMText
 10
-1.542111
 20
1.237287
 30
0.0
 40
1.990902
 41
0.0
 46
0.0
 71
     1
 72
     2
  1
\fCentury Gothic|b0|i0;\H1.9909;\W1.02;\C7;5
  7
STD
 73
     1
 44
1.0
  0
ENDBLK
  5
2BD
330
288
100
AcDbEntity
  8
LAYER_1
100
AcDbBlockEnd
  0
ENDSEC
  0
SECTION
  2
ENTITIES
  0
INSERT
  5
2A
330
1F
100
AcDbEntity
  8
LAYER_1
 62
     7
100
AcDbBlockReference
  2
AI9-BLK1
 10
150.868827
 20
109.090499
 30
0.0
  0
ENDSEC
  0
SECTION
  2
OBJECTS
  0
DICTIONARY
  5
C
330
0
100
AcDbDictionary
281
     1
  3
ACAD_COLOR
350
6C
  3
ACAD_GROUP
350
D
  3
ACAD_LAYOUT
350
1A
  3
ACAD_MATERIAL
350
6B
  3
ACAD_MLEADERSTYLE
350
2C3
  3
ACAD_MLINESTYLE
350
17
  3
ACAD_PLOTSETTINGS
350
19
  3
ACAD_PLOTSTYLENAME
350
E
  3
ACAD_SCALELIST
350
99
  3
ACAD_TABLESTYLE
350
92
  3
ACAD_WIPEOUT_VARS
350
2B7
  3
AcDbVariableDictionary
350
59
  0
DICTIONARY
  5
2C2
330
1F
100
AcDbDictionary
280
     1
281
     1
  0
DICTIONARY
  5
6C
102
{ACAD_REACTORS
330
C
102
}
330
C
100
AcDbDictionary
281
     1
  0
DICTIONARY
  5
D
102
{ACAD_REACTORS
330
C
102
}
330
C
100
AcDbDictionary
281
     1
  0
DICTIONARY
  5
1A
102
{ACAD_REACTORS
330
C
102
}
330
C
100
AcDbDictionary
281
     1
  3
Layout1
350
74
  3
Model
350
22
  0
DICTIONARY
  5
6B
102
{ACAD_REACTORS
330
C
102
}
330
C
100
AcDbDictionary
281
     1
  0
DICTIONARY
  5
2C3
102
{ACAD_REACTORS
330
C
102
}
330
C
100
AcDbDictionary
281
     1
  0
DICTIONARY
  5
17
102
{ACAD_REACTORS
330
C
102
}
330
C
100
AcDbDictionary
281
     1
  3
Standard
350
18
  0
DICTIONARY
  5
19
102
{ACAD_REACTORS
330
C
102
}
330
C
100
AcDbDictionary
281
     1
  0
ACDBDICTIONARYWDFLT
  5
E
102
{ACAD_REACTORS
330
C
102
}
330
C
100
AcDbDictionary
281
     1
  3
Normal
350
F
100
AcDbDictionaryWithDefault
340
F
  0
DICTIONARY
  5
99
102
{ACAD_REACTORS
330
C
102
}
330
C
100
AcDbDictionary
281
     1
  3
A0
350
9A
  3
A1
350
9B
  3
A2
350
9C
  3
A3
350
9D
  3
A4
350
9E
  3
A5
350
9F
  3
A6
350
A0
  3
A7
350
A1
  3
A8
350
A2
  3
A9
350
A3
  3
B0
350
A4
  3
B1
350
A5
  3
B2
350
A6
  3
B3
350
A7
  3
B4
350
A8
  3
B5
350
A9
  3
B6
350
AA
  3
B7
350
AB
  3
B8
350
AC
  3
B9
350
AD
  3
C0
350
AE
  3
C1
350
AF
  3
C2
350
B0
  3
C3
350
B1
  3
C4
350
B2
  3
C5
350
B3
  3
C6
350
B4
  3
C7
350
B5
  3
C8
350
B6
  3
C9
350
B7
  3
D0
350
B8
  3
D1
350
B9
  3
D2
350
BA
  0
DICTIONARY
  5
92
102
{ACAD_REACTORS
330
C
102
}
330
C
100
AcDbDictionary
281
     1
  3
Standard
350
93
  0
WIPEOUTVARIABLES
  5
2B7
102
{ACAD_REACTORS
330
C
102
}
330
C
100
AcDbWipeoutVariables
 70
     1
  0
DICTIONARY
  5
59
102
{ACAD_REACTORS
330
C
102
}
330
C
100
AcDbDictionary
281
     1
  3
CANNOSCALE
350
2C4
  3
CTABLESTYLE
350
98
  3
DIMASSOC
350
2B2
  3
HIDETEXT
350
5E
  0
LAYOUT
  5
74
102
{ACAD_REACTORS
330
1A
102
}
330
1A
100
AcDbPlotSettings
  1

  2
none_device
  4
ISO_C5_(229.00_x_162.00_MM)
  6

 40
0.0
 41
0.0
 42
0.0
 43
0.0
 44
229.0
 45
162.0
 46
0.0
 47
0.0
 48
0.0
 49
0.0
140
0.0
141
0.0
142
1.0
143
1.0
 70
   544
 72
     1
 73
     0
 74
     0
  7

 75
    16
 76
     0
 77
     2
 78
   300
147
1.0
148
0.0
149
0.0
100
AcDbLayout
  1
Layout1
 70
     0
 71
     0
 10
0.0
 20
0.0
 11
0.0
 21
0.0
 12
0.0
 22
0.0
 32
0.0
 14
0.0
 24
0.0
 34
0.0
 15
0.0
 25
0.0
 35
0.0
146
0.0
 13
0.0
 23
0.0
 33
0.0
 16
1.0
 26
0.0
 36
0.0
 17
0.0
 27
1.0
 37
0.0
 76
     0
330
73
  0
LAYOUT
  5
22
102
{ACAD_REACTORS
330
1A
102
}
330
1A
100
AcDbPlotSettings
  1

  2
none_device
  4
ISO_C5_(229.00_x_162.00_MM)
  6

 40
0.0
 41
0.0
 42
0.0
 43
0.0
 44
229.0
 45
162.0
 46
0.0
 47
0.0
 48
0.0
 49
0.0
140
0.0
141
0.0
142
1.0
143
1.0
 70
 11936
 72
     1
 73
     0
 74
     0
  7

 75
     0
 76
     0
 77
     2
 78
   300
147
1.063023495404572
148
0.0
149
0.0
100
AcDbLayout
  1
Model
 70
     1
 71
     0
 10
35.41696
 20
78.335615
 11
266.320695
 21
139.845383
 12
0.0
 22
0.0
 32
0.0
 14
35.59334800000001
 24
78.388669
 34
0.0
 15
266.144306
 25
139.5423190224337
 35
0.0
146
0.0
 13
0.0
 23
0.0
 33
0.0
 16
1.0
 26
0.0
 36
0.0
 17
0.0
 27
1.0
 37
0.0
 76
     0
330
1F
331
97
  0
MLINESTYLE
  5
18
102
{ACAD_REACTORS
330
17
102
}
330
17
100
AcDbMlineStyle
  2
Standard
 70
     0
  3

 62
     0
 51
90.0
 52
90.0
 71
     2
 49
0.5
 62
   256
  6
BYLAYER
 49
-0.5
 62
   256
  6
BYLAYER
  0
ACDBPLACEHOLDER
  5
F
102
{ACAD_REACTORS
330
E
102
}
330
E
  0
SCALE
  5
9A
102
{ACAD_REACTORS
330
99
102
}
330
99
100
AcDbScale
 70
     0
300
1:1
140
1.0
141
1.0
290
     1
  0
SCALE
  5
9B
102
{ACAD_REACTORS
330
99
102
}
330
99
100
AcDbScale
 70
     0
300
1:2
140
1.0
141
2.0
290
     0
  0
SCALE
  5
9C
102
{ACAD_REACTORS
330
99
102
}
330
99
100
AcDbScale
 70
     0
300
1:4
140
1.0
141
4.0
290
     0
  0
SCALE
  5
9D
102
{ACAD_REACTORS
330
99
102
}
330
99
100
AcDbScale
 70
     0
300
1:5
140
1.0
141
5.0
290
     0
  0
SCALE
  5
9E
102
{ACAD_REACTORS
330
99
102
}
330
99
100
AcDbScale
 70
     0
300
1:8
140
1.0
141
8.0
290
     0
  0
SCALE
  5
9F
102
{ACAD_REACTORS
330
99
102
}
330
99
100
AcDbScale
 70
     0
300
1:10
140
1.0
141
10.0
290
     0
  0
SCALE
  5
A0
102
{ACAD_REACTORS
330
99
102
}
330
99
100
AcDbScale
 70
     0
300
1:16
140
1.0
141
16.0
290
     0
  0
SCALE
  5
A1
102
{ACAD_REACTORS
330
99
102
}
330
99
100
AcDbScale
 70
     0
300
1:20
140
1.0
141
20.0
290
     0
  0
SCALE
  5
A2
102
{ACAD_REACTORS
330
99
102
}
330
99
100
AcDbScale
 70
     0
300
1:30
140
1.0
141
30.0
290
     0
  0
SCALE
  5
A3
102
{ACAD_REACTORS
330
99
102
}
330
99
100
AcDbScale
 70
     0
300
1:40
140
1.0
141
40.0
290
     0
  0
SCALE
  5
A4
102
{ACAD_REACTORS
330
99
102
}
330
99
100
AcDbScale
 70
     0
300
1:50
140
1.0
141
50.0
290
     0
  0
SCALE
  5
A5
102
{ACAD_REACTORS
330
99
102
}
330
99
100
AcDbScale
 70
     0
300
1:100
140
1.0
141
100.0
290
     0
  0
SCALE
  5
A6
102
{ACAD_REACTORS
330
99
102
}
330
99
100
AcDbScale
 70
     0
300
2:1
140
2.0
141
1.0
290
     0
  0
SCALE
  5
A7
102
{ACAD_REACTORS
330
99
102
}
330
99
100
AcDbScale
 70
     0
300
4:1
140
4.0
141
1.0
290
     0
  0
SCALE
  5
A8
102
{ACAD_REACTORS
330
99
102
}
330
99
100
AcDbScale
 70
     0
300
8:1
140
8.0
141
1.0
290
     0
  0
SCALE
  5
A9
102
{ACAD_REACTORS
330
99
102
}
330
99
100
AcDbScale
 70
     0
300
10:1
140
10.0
141
1.0
290
     0
  0
SCALE
  5
AA
102
{ACAD_REACTORS
330
99
102
}
330
99
100
AcDbScale
 70
     0
300
100:1
140
100.0
141
1.0
290
     0
  0
SCALE
  5
AB
102
{ACAD_REACTORS
330
99
102
}
330
99
100
AcDbScale
 70
     0
300
1/128" = 1'-0"
140
0.0078125
141
12.0
290
     0
  0
SCALE
  5
AC
102
{ACAD_REACTORS
330
99
102
}
330
99
100
AcDbScale
 70
     0
300
1/64" = 1'-0"
140
0.015625
141
12.0
290
     0
  0
SCALE
  5
AD
102
{ACAD_REACTORS
330
99
102
}
330
99
100
AcDbScale
 70
     0
300
1/32" = 1'-0"
140
0.03125
141
12.0
290
     0
  0
SCALE
  5
AE
102
{ACAD_REACTORS
330
99
102
}
330
99
100
AcDbScale
 70
     0
300
1/16" = 1'-0"
140
0.0625
141
12.0
290
     0
  0
SCALE
  5
AF
102
{ACAD_REACTORS
330
99
102
}
330
99
100
AcDbScale
 70
     0
300
3/32" = 1'-0"
140
0.09375
141
12.0
290
     0
  0
SCALE
  5
B0
102
{ACAD_REACTORS
330
99
102
}
330
99
100
AcDbScale
 70
     0
300
1/8" = 1'-0"
140
0.125
141
12.0
290
     0
  0
SCALE
  5
B1
102
{ACAD_REACTORS
330
99
102
}
330
99
100
AcDbScale
 70
     0
300
3/16" = 1'-0"
140
0.1875
141
12.0
290
     0
  0
SCALE
  5
B2
102
{ACAD_REACTORS
330
99
102
}
330
99
100
AcDbScale
 70
     0
300
1/4" = 1'-0"
140
0.25
141
12.0
290
     0
  0
SCALE
  5
B3
102
{ACAD_REACTORS
330
99
102
}
330
99
100
AcDbScale
 70
     0
300
3/8" = 1'-0"
140
0.375
141
12.0
290
     0
  0
SCALE
  5
B4
102
{ACAD_REACTORS
330
99
102
}
330
99
100
AcDbScale
 70
     0
300
1/2" = 1'-0"
140
0.5
141
12.0
290
     0
  0
SCALE
  5
B5
102
{ACAD_REACTORS
330
99
102
}
330
99
100
AcDbScale
 70
     0
300
3/4" = 1'-0"
140
0.75
141
12.0
290
     0
  0
SCALE
  5
B6
102
{ACAD_REACTORS
330
99
102
}
330
99
100
AcDbScale
 70
     0
300
1" = 1'-0"
140
1.0
141
12.0
290
     0
  0
SCALE
  5
B7
102
{ACAD_REACTORS
330
99
102
}
330
99
100
AcDbScale
 70
     0
300
1-1/2" = 1'-0"
140
1.5
141
12.0
290
     0
  0
SCALE
  5
B8
102
{ACAD_REACTORS
330
99
102
}
330
99
100
AcDbScale
 70
     0
300
3" = 1'-0"
140
3.0
141
12.0
290
     0
  0
SCALE
  5
B9
102
{ACAD_REACTORS
330
99
102
}
330
99
100
AcDbScale
 70
     0
300
6" = 1'-0"
140
6.0
141
12.0
290
     0
  0
SCALE
  5
BA
102
{ACAD_REACTORS
330
99
102
}
330
99
100
AcDbScale
 70
     0
300
1'-0" = 1'-0"
140
12.0
141
12.0
290
     0
  0
TABLESTYLE
  5
93
102
{ACAD_REACTORS
330
92
102
}
330
92
100
AcDbTableStyle
  3
Standard
 70
     0
 71
     0
 40
0.06
 41
0.06
280
     0
281
     0
  7
Standard
140
0.18
170
     2
 62
     0
 63
     7
283
     0
 90
      512
 91
        0
  1

274
    -2
284
     1
 64
     0
275
    -2
285
     1
 65
     0
276
    -2
286
     1
 66
     0
277
    -2
287
     1
 67
     0
278
    -2
288
     1
 68
     0
279
    -2
289
     1
 69
     0
  7
Standard
140
0.25
170
     5
 62
     0
 63
     7
283
     0
 90
      512
 91
        0
  1

274
    -2
284
     1
 64
     0
275
    -2
285
     1
 65
     0
276
    -2
286
     1
 66
     0
277
    -2
287
     1
 67
     0
278
    -2
288
     1
 68
     0
279
    -2
289
     1
 69
     0
  7
Standard
140
0.18
170
     5
 62
     0
 63
     7
283
     0
 90
      512
 91
        0
  1

274
    -2
284
     1
 64
     0
275
    -2
285
     1
 65
     0
276
    -2
286
     1
 66
     0
277
    -2
287
     1
 67
     0
278
    -2
288
     1
 68
     0
279
    -2
289
     1
 69
     0
  0
DICTIONARYVAR
  5
2C4
102
{ACAD_REACTORS
330
59
102
}
330
59
100
DictionaryVariables
280
     0
  1
1:1
  0
DICTIONARYVAR
  5
98
102
{ACAD_REACTORS
330
59
102
}
330
59
100
DictionaryVariables
280
     0
  1
Standard
  0
DICTIONARYVAR
  5
2B2
102
{ACAD_REACTORS
330
59
102
}
330
59
100
DictionaryVariables
280
     0
  1
2
  0
DICTIONARYVAR
  5
5E
102
{ACAD_REACTORS
330
59
102
}
330
59
100
DictionaryVariables
280
     0
  1
1
  0
ENDSEC
  0
EOF
