  0
SECTION
  2
HEADER
  9
$ACADVER
  1
AC1027
  9
$ACADMAINTVER
 70
   125
  9
$DWGCODEPAGE
  3
ANSI_1252
  9
$LASTSAVEDBY
  1
fleminab
  9
$REQUIREDVERSIONS
160
                 0
  9
$INSBASE
 10
0.0
 20
0.0
 30
0.0
  9
$EXTMIN
 10
0.4679076591136067
 20
0.3310918296034444
 30
-0.0000000349181948
  9
$EXTMAX
 10
16.1857133832467
 20
12.1674297447777
 30
0.0000000814935746
  9
$LIMMIN
 10
0.0
 20
0.0
  9
$LIMMAX
 10
12.0
 20
9.0
  9
$ORTHOMODE
 70
     0
  9
$REGENMODE
 70
     1
  9
$FILLMODE
 70
     1
  9
$QTEXTMODE
 70
     0
  9
$MIRRTEXT
 70
     0
  9
$LTSCALE
 40
1.0
  9
$ATTMODE
 70
     1
  9
$TEXTSIZE
 40
0.2
  9
$TRACEWID
 40
0.05
  9
$TEXTSTYLE
  7
Standard
  9
$CLAYER
  8
0
  9
$CELTYPE
  6
ByLayer
  9
$CECOLOR
 62
   256
  9
$CELTSCALE
 40
1.0
  9
$DISPSILH
 70
     0
  9
$DIMSCALE
 40
1.0
  9
$DIMASZ
 40
0.18
  9
$DIMEXO
 40
0.0625
  9
$DIMDLI
 40
0.38
  9
$DIMRND
 40
0.0
  9
$DIMDLE
 40
0.0
  9
$DIMEXE
 40
0.18
  9
$DIMTP
 40
0.0
  9
$DIMTM
 40
0.0
  9
$DIMTXT
 40
0.18
  9
$DIMCEN
 40
0.09
  9
$DIMTSZ
 40
0.0
  9
$DIMTOL
 70
     0
  9
$DIMLIM
 70
     0
  9
$DIMTIH
 70
     1
  9
$DIMTOH
 70
     1
  9
$DIMSE1
 70
     0
  9
$DIMSE2
 70
     0
  9
$DIMTAD
 70
     0
  9
$DIMZIN
 70
     0
  9
$DIMBLK
  1

  9
$DIMASO
 70
     1
  9
$DIMSHO
 70
     1
  9
$DIMPOST
  1

  9
$DIMAPOST
  1

  9
$DIMALT
 70
     0
  9
$DIMALTD
 70
     2
  9
$DIMALTF
 40
25.4
  9
$DIMLFAC
 40
1.0
  9
$DIMTOFL
 70
     0
  9
$DIMTVP
 40
0.0
  9
$DIMTIX
 70
     0
  9
$DIMSOXD
 70
     0
  9
$DIMSAH
 70
     0
  9
$DIMBLK1
  1

  9
$DIMBLK2
  1

  9
$DIMSTYLE
  2
Standard
  9
$DIMCLRD
 70
     0
  9
$DIMCLRE
 70
     0
  9
$DIMCLRT
 70
     0
  9
$DIMTFAC
 40
1.0
  9
$DIMGAP
 40
0.09
  9
$DIMJUST
 70
     0
  9
$DIMSD1
 70
     0
  9
$DIMSD2
 70
     0
  9
$DIMTOLJ
 70
     1
  9
$DIMTZIN
 70
     0
  9
$DIMALTZ
 70
     0
  9
$DIMALTTZ
 70
     0
  9
$DIMUPT
 70
     0
  9
$DIMDEC
 70
     4
  9
$DIMTDEC
 70
     4
  9
$DIMALTU
 70
     2
  9
$DIMALTTD
 70
     2
  9
$DIMTXSTY
  7
Standard
  9
$DIMAUNIT
 70
     0
  9
$DIMADEC
 70
     0
  9
$DIMALTRND
 40
0.0
  9
$DIMAZIN
 70
     0
  9
$DIMDSEP
 70
    46
  9
$DIMATFIT
 70
     3
  9
$DIMFRAC
 70
     0
  9
$DIMLDRBLK
  1

  9
$DIMLUNIT
 70
     2
  9
$DIMLWD
 70
    -2
  9
$DIMLWE
 70
    -2
  9
$DIMTMOVE
 70
     0
  9
$DIMFXL
 40
1.0
  9
$DIMFXLON
 70
     0
  9
$DIMJOGANG
 40
0.7853981633974483
  9
$DIMTFILL
 70
     0
  9
$DIMTFILLCLR
 70
     0
  9
$DIMARCSYM
 70
     0
  9
$DIMLTYPE
  6

  9
$DIMLTEX1
  6

  9
$DIMLTEX2
  6

  9
$DIMTXTDIRECTION
 70
     0
  9
$LUNITS
 70
     2
  9
$LUPREC
 70
     4
  9
$SKETCHINC
 40
0.1
  9
$FILLETRAD
 40
0.0
  9
$AUNITS
 70
     0
  9
$AUPREC
 70
     0
  9
$MENU
  1
.
  9
$ELEVATION
 40
0.0
  9
$PELEVATION
 40
0.0
  9
$THICKNESS
 40
0.0
  9
$LIMCHECK
 70
     0
  9
$CHAMFERA
 40
0.0
  9
$CHAMFERB
 40
0.0
  9
$CHAMFERC
 40
0.0
  9
$CHAMFERD
 40
0.0
  9
$SKPOLY
 70
     0
  9
$TDCREATE
 40
2458248.544780093
  9
$TDUCREATE
 40
2458248.128113426
  9
$TDUPDATE
 40
2458248.545115741
  9
$TDUUPDATE
 40
2458248.128449074
  9
$TDINDWG
 40
0.0003356481
  9
$TDUSRTIMER
 40
0.0003356481
  9
$USRTIMER
 70
     1
  9
$ANGBASE
 50
0.0
  9
$ANGDIR
 70
     0
  9
$PDMODE
 70
     0
  9
$PDSIZE
 40
0.0
  9
$PLINEWID
 40
0.0
  9
$SPLFRAME
 70
     0
  9
$SPLINETYPE
 70
     6
  9
$SPLINESEGS
 70
     8
  9
$HANDSEED
  5
565
  9
$SURFTAB1
 70
     6
  9
$SURFTAB2
 70
     6
  9
$SURFTYPE
 70
     6
  9
$SURFU
 70
     6
  9
$SURFV
 70
     6
  9
$UCSBASE
  2

  9
$UCSNAME
  2

  9
$UCSORG
 10
0.0
 20
0.0
 30
0.0
  9
$UCSXDIR
 10
1.0
 20
0.0
 30
0.0
  9
$UCSYDIR
 10
0.0
 20
1.0
 30
0.0
  9
$UCSORTHOREF
  2

  9
$UCSORTHOVIEW
 70
     0
  9
$UCSORGTOP
 10
0.0
 20
0.0
 30
0.0
  9
$UCSORGBOTTOM
 10
0.0
 20
0.0
 30
0.0
  9
$UCSORGLEFT
 10
0.0
 20
0.0
 30
0.0
  9
$UCSORGRIGHT
 10
0.0
 20
0.0
 30
0.0
  9
$UCSORGFRONT
 10
0.0
 20
0.0
 30
0.0
  9
$UCSORGBACK
 10
0.0
 20
0.0
 30
0.0
  9
$PUCSBASE
  2

  9
$PUCSNAME
  2

  9
$PUCSORG
 10
0.0
 20
0.0
 30
0.0
  9
$PUCSXDIR
 10
1.0
 20
0.0
 30
0.0
  9
$PUCSYDIR
 10
0.0
 20
1.0
 30
0.0
  9
$PUCSORTHOREF
  2

  9
$PUCSORTHOVIEW
 70
     0
  9
$PUCSORGTOP
 10
0.0
 20
0.0
 30
0.0
  9
$PUCSORGBOTTOM
 10
0.0
 20
0.0
 30
0.0
  9
$PUCSORGLEFT
 10
0.0
 20
0.0
 30
0.0
  9
$PUCSORGRIGHT
 10
0.0
 20
0.0
 30
0.0
  9
$PUCSORGFRONT
 10
0.0
 20
0.0
 30
0.0
  9
$PUCSORGBACK
 10
0.0
 20
0.0
 30
0.0
  9
$USERI1
 70
     0
  9
$USERI2
 70
     0
  9
$USERI3
 70
     0
  9
$USERI4
 70
     0
  9
$USERI5
 70
     0
  9
$USERR1
 40
0.0
  9
$USERR2
 40
0.0
  9
$USERR3
 40
0.0
  9
$USERR4
 40
0.0
  9
$USERR5
 40
0.0
  9
$WORLDVIEW
 70
     1
  9
$SHADEDGE
 70
     3
  9
$SHADEDIF
 70
    70
  9
$TILEMODE
 70
     1
  9
$MAXACTVP
 70
    64
  9
$PINSBASE
 10
0.0
 20
0.0
 30
0.0
  9
$PLIMCHECK
 70
     0
  9
$PEXTMIN
 10
1.000000000000000E+20
 20
1.000000000000000E+20
 30
1.000000000000000E+20
  9
$PEXTMAX
 10
-1.000000000000000E+20
 20
-1.000000000000000E+20
 30
-1.000000000000000E+20
  9
$PLIMMIN
 10
-0.7524054877282309
 20
-0.5025428238148726
  9
$PLIMMAX
 10
35.24759547345533
 20
23.49745621500156
  9
$UNITMODE
 70
     0
  9
$VISRETAIN
 70
     1
  9
$PLINEGEN
 70
     0
  9
$PSLTSCALE
 70
     1
  9
$TREEDEPTH
 70
  3020
  9
$CMLSTYLE
  2
Standard
  9
$CMLJUST
 70
     0
  9
$CMLSCALE
 40
1.0
  9
$PROXYGRAPHICS
 70
     1
  9
$MEASUREMENT
 70
     0
  9
$CELWEIGHT
370
    -1
  9
$ENDCAPS
280
     0
  9
$JOINSTYLE
280
     0
  9
$LWDISPLAY
290
     0
  9
$INSUNITS
 70
     1
  9
$HYPERLINKBASE
  1

  9
$STYLESHEET
  1

  9
$XEDIT
290
     1
  9
$CEPSNTYPE
380
     0
  9
$PSTYLEMODE
290
     1
  9
$FINGERPRINTGUID
  2
{1B128E4D-FF9F-514A-8856-EE6A0C2728B4}
  9
$VERSIONGUID
  2
{02B969D4-D95A-2440-BAFD-9F7E66A3081F}
  9
$EXTNAMES
290
     1
  9
$PSVPSCALE
 40
0.0
  9
$OLESTARTUP
290
     0
  9
$SORTENTS
280
   127
  9
$INDEXCTL
280
     0
  9
$HIDETEXT
280
     0
  9
$XCLIPFRAME
280
     0
  9
$HALOGAP
280
     0
  9
$OBSCOLOR
 70
   257
  9
$OBSLTYPE
280
     0
  9
$INTERSECTIONDISPLAY
280
     0
  9
$INTERSECTIONCOLOR
 70
   257
  9
$DIMASSOC
280
     1
  9
$PROJECTNAME
  1

  9
$CAMERADISPLAY
290
     0
  9
$LENSLENGTH
 40
50.0
  9
$CAMERAHEIGHT
 40
0.0
  9
$STEPSPERSEC
 40
2.0
  9
$STEPSIZE
 40
6.0
  9
$3DDWFPREC
 40
2.0
  9
$PSOLWIDTH
 40
0.25
  9
$PSOLHEIGHT
 40
4.0
  9
$LOFTANG1
 40
1.570796326794896
  9
$LOFTANG2
 40
1.570796326794896
  9
$LOFTMAG1
 40
0.0
  9
$LOFTMAG2
 40
0.0
  9
$LOFTPARAM
 70
     7
  9
$LOFTNORMALS
280
     1
  9
$LATITUDE
 40
37.795
  9
$LONGITUDE
 40
-122.394
  9
$NORTHDIRECTION
 40
0.0
  9
$TIMEZONE
 70
 -8000
  9
$LIGHTGLYPHDISPLAY
280
     1
  9
$TILEMODELIGHTSYNCH
280
     1
  9
$CMATERIAL
347
7F
  9
$SOLIDHIST
280
     1
  9
$SHOWHIST
280
     1
  9
$DWFFRAME
280
     2
  9
$DGNFRAME
280
     0
  9
$REALWORLDSCALE
290
     1
  9
$INTERFERECOLOR
 62
     1
  9
$INTERFEREOBJVS
345
8C
  9
$INTERFEREVPVS
346
A5
  9
$CSHADOW
280
     0
  9
$SHADOWPLANELOCATION
 40
0.0
  0
ENDSEC
  0
SECTION
  2
CLASSES
  0
CLASS
  1
ACDBDICTIONARYWDFLT
  2
AcDbDictionaryWithDefault
  3
ObjectDBX Classes
 90
        0
 91
        1
280
     0
281
     0
  0
CLASS
  1
PLOTSETTINGS
  2
AcDbPlotSettings
  3
ObjectDBX Classes
 90
        0
 91
        0
280
     0
281
     0
  0
CLASS
  1
MATERIAL
  2
AcDbMaterial
  3
ObjectDBX Classes
 90
     1153
 91
        3
280
     0
281
     0
  0
CLASS
  1
VISUALSTYLE
  2
AcDbVisualStyle
  3
ObjectDBX Classes
 90
     4095
 91
       26
280
     0
281
     0
  0
CLASS
  1
TABLESTYLE
  2
AcDbTableStyle
  3
ObjectDBX Classes
 90
     4095
 91
        1
280
     0
281
     0
  0
CLASS
  1
DICTIONARYVAR
  2
AcDbDictionaryVar
  3
ObjectDBX Classes
 90
        0
 91
       17
280
     0
281
     0
  0
CLASS
  1
SCALE
  2
AcDbScale
  3
ObjectDBX Classes
 90
     1153
 91
       17
280
     0
281
     0
  0
CLASS
  1
MLEADERSTYLE
  2
AcDbMLeaderStyle
  3
ACDB_MLEADERSTYLE_CLASS
 90
     4095
 91
        1
280
     0
281
     0
  0
CLASS
  1
ACDBSECTIONVIEWSTYLE
  2
AcDbSectionViewStyle
  3
ObjectDBX Classes
 90
     1025
 91
        1
280
     0
281
     0
  0
CLASS
  1
ACDBDETAILVIEWSTYLE
  2
AcDbDetailViewStyle
  3
ObjectDBX Classes
 90
     1025
 91
        1
280
     0
281
     0
  0
CLASS
  1
CELLSTYLEMAP
  2
AcDbCellStyleMap
  3
ObjectDBX Classes
 90
     1152
 91
        1
280
     0
281
     0
  0
ENDSEC
  0
SECTION
  2
TABLES
  0
TABLE
  2
VPORT
  5
19
330
0
100
AcDbSymbolTable
 70
     1
1001
ACAD
1000
DbSaveVer
1071
        5
  0
VPORT
  5
7D
330
19
100
AcDbSymbolTableRecord
100
AcDbViewportTableRecord
  2
*Active
 70
     0
 10
0.0
 20
0.0
 11
1.0
 21
1.0
 12
8.326810521180156
 22
6.249260787190576
 13
0.0
 23
0.0
 14
0.5
 24
0.5
 15
0.5
 25
0.5
 16
0.0
 26
0.0
 36
1.0
 17
0.0
 27
0.0
 37
0.0
 40
11.92108496468625
 41
2.292712066905615
 42
50.0
 43
0.0
 44
0.0
 50
0.0
 51
0.0
 71
     0
 72
  1000
 73
     1
 74
     3
 75
     0
 76
     0
 77
     0
 78
     0
281
     0
 65
     1
110
0.0
120
0.0
130
0.0
111
1.0
121
0.0
131
0.0
112
0.0
122
1.0
132
0.0
 79
     0
146
0.0
348
88
 60
     3
 61
     5
292
     1
282
     1
141
0.0
142
0.0
 63
   250
421
  3355443
1001
ACAD_NAV_VCDISPLAY
1070
     3
  0
ENDTAB
  0
TABLE
  2
LTYPE
  5
14
330
0
100
AcDbSymbolTable
 70
     1
  0
LTYPE
  5
15
330
14
100
AcDbSymbolTableRecord
100
AcDbLinetypeTableRecord
  2
ByBlock
 70
     0
  3

 72
    65
 73
     0
 40
0.0
  0
LTYPE
  5
16
330
14
100
AcDbSymbolTableRecord
100
AcDbLinetypeTableRecord
  2
ByLayer
 70
     0
  3

 72
    65
 73
     0
 40
0.0
  0
LTYPE
  5
8
330
14
100
AcDbSymbolTableRecord
100
AcDbLinetypeTableRecord
  2
Continuous
 70
     0
  3
Solid line
 72
    65
 73
     0
 40
0.0
  0
ENDTAB
  0
TABLE
  2
LAYER
  5
10
330
0
100
AcDbSymbolTable
 70
     4
  0
LAYER
  5
4
102
{ACAD_XDICTIONARY
360
540
102
}
330
10
100
AcDbSymbolTableRecord
100
AcDbLayerTableRecord
  2
0
 70
     0
 62
     7
  6
Continuous
370
    -3
390
5
347
81
348
0
  0
LAYER
  5
25
102
{ACAD_XDICTIONARY
360
542
102
}
330
10
100
AcDbSymbolTableRecord
100
AcDbLayerTableRecord
  2
Title Block
 70
     0
 62
     7
  6
Continuous
370
    -3
390
5
347
81
348
0
  0
LAYER
  5
CE
102
{ACAD_XDICTIONARY
360
544
102
}
330
10
100
AcDbSymbolTableRecord
100
AcDbLayerTableRecord
  2
PDF_Layer 1
 70
     0
 62
    28
420
  1052429
  6
Continuous
370
    -3
390
5
347
81
348
0
  0
LAYER
  5
DD
102
{ACAD_XDICTIONARY
360
546
102
}
330
10
100
AcDbSymbolTableRecord
100
AcDbLayerTableRecord
  2
PDF_Text
 70
     0
 62
   250
420
  2301728
  6
Continuous
370
    -3
390
5
347
81
348
0
  0
ENDTAB
  0
TABLE
  2
STYLE
  5
11
330
0
100
AcDbSymbolTable
 70
     3
  0
STYLE
  5
12
330
11
100
AcDbSymbolTableRecord
100
AcDbTextStyleTableRecord
  2
Standard
 70
     0
 40
0.0
 41
1.0
 50
0.0
 71
     0
 42
0.2
  3
txt
  4

  0
STYLE
  5
27
330
11
100
AcDbSymbolTableRecord
100
AcDbTextStyleTableRecord
  2
Roman
 70
     0
 40
0.0
 41
1.0
 50
0.0
 71
     0
 42
0.2
  3
ROMANS.SHX
  4

  0
STYLE
  5
DC
330
11
100
AcDbSymbolTableRecord
100
AcDbTextStyleTableRecord
  2
PDF Arial
 70
     0
 40
0.0
 41
1.0
 50
0.0
 71
     0
 42
0.2
  3
arial.ttf
  4

1001
ACAD
1000
Arial
1071
       34
  0
ENDTAB
  0
TABLE
  2
VIEW
  5
17
330
0
100
AcDbSymbolTable
 70
     0
  0
ENDTAB
  0
TABLE
  2
UCS
  5
18
330
0
100
AcDbSymbolTable
 70
     0
  0
ENDTAB
  0
TABLE
  2
APPID
  5
1B
330
0
100
AcDbSymbolTable
 70
     2
  0
APPID
  5
1C
330
1B
100
AcDbSymbolTableRecord
100
AcDbRegAppTableRecord
  2
ACAD
 70
     0
  0
APPID
  5
548
330
1B
100
AcDbSymbolTableRecord
100
AcDbRegAppTableRecord
  2
ACAD_NAV_VCDISPLAY
 70
     0
  0
ENDTAB
  0
TABLE
  2
DIMSTYLE
  5
1D
330
0
100
AcDbSymbolTable
 70
     1
100
AcDbDimStyleTable
 71
     0
  0
DIMSTYLE
105
23
330
1D
100
AcDbSymbolTableRecord
100
AcDbDimStyleTableRecord
  2
Standard
 70
     0
340
12
  0
ENDTAB
  0
TABLE
  2
BLOCK_RECORD
  5
1
330
0
100
AcDbSymbolTable
 70
     0
  0
BLOCK_RECORD
  5
2
330
1
100
AcDbSymbolTableRecord
100
AcDbBlockTableRecord
  2
*Model_Space
340
A
 70
     0
280
     1
281
     0
  0
BLOCK_RECORD
  5
C
330
1
100
AcDbSymbolTableRecord
100
AcDbBlockTableRecord
  2
*Paper_Space
340
F
 70
     0
280
     1
281
     0
  0
ENDTAB
  0
ENDSEC
  0
SECTION
  2
BLOCKS
  0
BLOCK
  5
3
330
2
100
AcDbEntity
  8
0
100
AcDbBlockBegin
  2
*Model_Space
 70
     2
 10
0.0
 20
0.0
 30
0.0
  3
*Model_Space
  1

  0
ENDBLK
  5
9
330
2
100
AcDbEntity
  8
0
100
AcDbBlockEnd
  0
BLOCK
  5
D
330
C
100
AcDbEntity
 67
     1
  8
0
100
AcDbBlockBegin
  2
*Paper_Space
 70
     0
 10
0.0
 20
0.0
 30
0.0
  3
*Paper_Space
  1

  0
ENDBLK
  5
E
330
C
100
AcDbEntity
 67
     1
  8
0
100
AcDbBlockEnd
  0
ENDSEC
  0
SECTION
  2
ENTITIES
  0
SOLID
  5
CF
330
2
100
AcDbEntity
  8
PDF_Layer 1
 62
     7
420
 16777215
440
 33554559
370
    30
100
AcDbTrace
 10
0.8236694444444443
 20
12.06494861111111
 30
0.0
 11
0.8651972222222221
 21
12.08260138888889
 31
0.0
 12
0.8651694444444443
 22
12.16340694444444
 32
0.0
 13
0.9067249999999999
 23
12.0649625
 33
0.0
  0
SOLID
  5
D0
330
2
100
AcDbEntity
  8
PDF_Layer 1
 62
     7
420
 16777215
440
 33554559
370
    30
100
AcDbTrace
 10
0.824911111111111
 20
6.810872222222222
 30
0.0
 11
0.8664527777777777
 21
6.793233333333334
 31
0.0
 12
0.8664666666666665
 22
6.712441666666666
 32
0.0
 13
0.9079666666666666
 23
6.810886111111111
 33
0.0
  0
SOLID
  5
D1
330
2
100
AcDbEntity
  8
PDF_Layer 1
 62
     7
420
 16777215
440
 33554559
370
    30
100
AcDbTrace
 10
2.979044444444444
 20
5.509630555555554
 30
0.0
 11
2.961405555555555
 21
5.551144444444443
 31
0.0
 12
2.880599999999999
 22
5.551144444444443
 32
0.0
 13
2.979044444444444
 23
5.592672222222221
 33
0.0
  0
SOLID
  5
D2
330
2
100
AcDbEntity
  8
PDF_Layer 1
 62
     7
420
 16777215
440
 33554559
370
    30
100
AcDbTrace
 10
14.89583333333333
 20
5.509630555555554
 30
0.0
 11
14.91347222222222
 21
5.551144444444443
 31
0.0
 12
14.99427777777778
 22
5.551144444444443
 32
0.0
 13
14.89583333333333
 23
5.592672222222221
 33
0.0
  0
SOLID
  5
D3
330
2
100
AcDbEntity
  8
PDF_Layer 1
 62
     7
420
 16777215
440
 33554559
370
    30
100
AcDbTrace
 10
16.18423055555555
 20
0.4310569444444444
 30
0.0
 11
16.14270277777778
 21
0.4134041666666667
 31
0.0
 12
16.14270277777778
 22
0.3326125
 32
0.0
 13
16.101175
 23
0.4310569444444444
 33
0.0
  0
SOLID
  5
D4
330
2
100
AcDbEntity
  8
PDF_Layer 1
 62
     7
420
 16777215
440
 33554559
370
    30
100
AcDbTrace
 10
16.18423055555555
 20
2.739108333333332
 30
0.0
 11
16.14270277777778
 21
2.756747222222221
 31
0.0
 12
16.14270277777778
 22
2.837552777777777
 32
0.0
 13
16.101175
 23
2.739108333333332
 33
0.0
  0
SOLID
  5
D5
330
2
100
AcDbEntity
  8
PDF_Layer 1
 62
     7
420
 16777215
440
 33554559
370
    30
100
AcDbTrace
 10
3.439038888888888
 20
2.586859722222222
 30
0.0
 11
3.45263611111111
 21
2.543831944444444
 31
0.0
 12
3.391233333333332
 22
2.491304166666666
 32
0.0
 13
3.493038888888888
 23
2.52374861111111
 33
0.0
  0
SOLID
  5
D6
330
2
100
AcDbEntity
  8
PDF_Layer 1
 62
     7
420
 16777215
440
 33554559
370
    30
100
AcDbTrace
 10
1.734897222222222
 20
1.128973611111111
 30
0.0
 11
1.775369444444444
 21
1.109029166666666
 31
0.0
 12
1.836577777777777
 22
1.161779166666666
 32
0.0
 13
1.789119444444444
 23
1.066056944444444
 33
0.0
  0
SOLID
  5
D7
330
2
100
AcDbEntity
  8
PDF_Layer 1
 62
     7
420
 16777215
440
 33554559
370
    30
100
AcDbTrace
 10
6.245184722222221
 20
6.597791666666665
 30
0.0
 11
6.286712499999999
 21
6.615444444444444
 31
0.0
 12
6.286712499999999
 22
6.69623611111111
 32
0.0
 13
6.328240277777776
 23
6.597791666666665
 33
0.0
  0
SOLID
  5
D8
330
2
100
AcDbEntity
  8
PDF_Layer 1
 62
     7
420
 16777215
440
 33554559
370
    30
100
AcDbTrace
 10
6.328247222222222
 20
7.201531944444444
 30
0.0
 11
6.286719444444444
 21
7.183879166666666
 31
0.0
 12
6.286719444444444
 22
7.103087499999999
 32
0.0
 13
6.245191666666666
 23
7.201531944444444
 33
0.0
  0
SOLID
  5
D9
330
2
100
AcDbEntity
  8
PDF_Layer 1
 62
     7
420
 16777215
440
 33554559
370
    30
100
AcDbTrace
 10
14.24565972222222
 20
3.675956944444444
 30
0.0
 11
14.26329861111111
 21
3.634429166666666
 31
0.0
 12
14.34410416666666
 22
3.634429166666666
 32
0.0
 13
14.24565972222222
 23
3.592901388888888
 33
0.0
  0
SOLID
  5
DA
330
2
100
AcDbEntity
  8
PDF_Layer 1
 62
     7
420
 16777215
440
 33554559
370
    30
100
AcDbTrace
 10
2.712918055555555
 20
3.675956944444444
 30
0.0
 11
2.695265277777777
 21
3.634429166666666
 31
0.0
 12
2.61447361111111
 22
3.634429166666666
 32
0.0
 13
2.712918055555555
 23
3.592901388888888
 33
0.0
  0
LWPOLYLINE
  5
DE
330
2
100
AcDbEntity
  8
PDF_Layer 1
 62
     7
420
 16777215
370
    30
100
AcDbPolyline
 90
        2
 70
     0
 43
0.0
 10
14.93556111111111
 20
8.902168055555552
 10
14.87490833333333
 20
8.902168055555552
  0
LWPOLYLINE
  5
DF
330
2
100
AcDbEntity
  8
PDF_Layer 1
 62
     7
420
 16777215
370
    30
100
AcDbPolyline
 90
        2
 70
     0
 43
0.0
 10
14.87490555555555
 20
8.902168055555552
 10
14.81425277777777
 20
8.902168055555552
  0
LWPOLYLINE
  5
E0
330
2
100
AcDbEntity
  8
PDF_Layer 1
 62
     7
420
 16777215
370
    30
100
AcDbPolyline
 90
        2
 70
     0
 43
0.0
 10
14.81425
 20
8.902168055555552
 10
14.09604166666666
 20
8.902168055555552
  0
LWPOLYLINE
  5
E1
330
2
100
AcDbEntity
  8
PDF_Layer 1
 62
     7
420
 16777215
370
    30
100
AcDbPolyline
 90
        2
 70
     0
 43
0.0
 10
14.05590833333333
 20
8.902168055555552
 10
13.93454722222222
 20
8.902168055555552
  0
LWPOLYLINE
  5
E2
330
2
100
AcDbEntity
  8
PDF_Layer 1
 62
     7
420
 16777215
370
    30
100
AcDbPolyline
 90
        2
 70
     0
 43
0.0
 10
13.89446388888889
 20
8.902168055555552
 10
13.17722777777778
 20
8.902168055555552
  0
LWPOLYLINE
  5
E3
330
2
100
AcDbEntity
  8
PDF_Layer 1
 62
     7
420
 16777215
370
    30
100
AcDbPolyline
 90
        2
 70
     0
 43
0.0
 10
13.13612222222222
 20
8.902168055555552
 10
13.01578888888889
 20
8.902168055555552
  0
LWPOLYLINE
  5
E4
330
2
100
AcDbEntity
  8
PDF_Layer 1
 62
     7
420
 16777215
370
    30
100
AcDbPolyline
 90
        2
 70
     0
 43
0.0
 10
12.97467777777778
 20
8.902168055555552
 10
12.25744166666667
 20
8.902168055555552
  0
LWPOLYLINE
  5
E5
330
2
100
AcDbEntity
  8
PDF_Layer 1
 62
     7
420
 16777215
370
    30
100
AcDbPolyline
 90
        2
 70
     0
 43
0.0
 10
12.21633611111111
 20
8.902168055555552
 10
12.09600277777777
 20
8.902168055555552
  0
LWPOLYLINE
  5
E6
330
2
100
AcDbEntity
  8
PDF_Layer 1
 62
     7
420
 16777215
370
    30
100
AcDbPolyline
 90
        2
 70
     0
 43
0.0
 10
12.05489027777777
 20
8.902168055555552
 10
11.33765416666666
 20
8.902168055555552
  0
LWPOLYLINE
  5
E7
330
2
100
AcDbEntity
  8
PDF_Layer 1
 62
     7
420
 16777215
370
    30
100
AcDbPolyline
 90
        2
 70
     0
 43
0.0
 10
11.29752638888888
 20
8.902168055555552
 10
11.17622083333333
 20
8.902168055555552
  0
LWPOLYLINE
  5
E8
330
2
100
AcDbEntity
  8
PDF_Layer 1
 62
     7
420
 16777215
370
    30
100
AcDbPolyline
 90
        2
 70
     0
 43
0.0
 10
11.13510416666666
 20
8.902168055555552
 10
10.41786805555555
 20
8.902168055555552
  0
LWPOLYLINE
  5
E9
330
2
100
AcDbEntity
  8
PDF_Layer 1
 62
     7
420
 16777215
370
    30
100
AcDbPolyline
 90
        2
 70
     0
 43
0.0
 10
10.37774027777778
 20
8.902168055555552
 10
10.25643472222222
 20
8.902168055555552
  0
LWPOLYLINE
  5
EA
330
2
100
AcDbEntity
  8
PDF_Layer 1
 62
     7
420
 16777215
370
    30
100
AcDbPolyline
 90
        2
 70
     0
 43
0.0
 10
10.21629444444444
 20
8.902168055555552
 10
9.498086111111112
 20
8.902168055555552
  0
LWPOLYLINE
  5
EB
330
2
100
AcDbEntity
  8
PDF_Layer 1
 62
     7
420
 16777215
370
    30
100
AcDbPolyline
 90
        2
 70
     0
 43
0.0
 10
9.457954166666667
 20
8.902168055555552
 10
9.336648611111112
 20
8.902168055555552
  0
LWPOLYLINE
  5
EC
330
2
100
AcDbEntity
  8
PDF_Layer 1
 62
     7
420
 16777215
370
    30
100
AcDbPolyline
 90
        2
 70
     0
 43
0.0
 10
9.296508333333331
 20
8.902168055555552
 10
8.578313888888887
 20
8.902168055555552
  0
LWPOLYLINE
  5
ED
330
2
100
AcDbEntity
  8
PDF_Layer 1
 62
     7
420
 16777215
370
    30
100
AcDbPolyline
 90
        2
 70
     0
 43
0.0
 10
8.538208333333333
 20
8.902168055555552
 10
8.416874999999999
 20
8.902168055555552
  0
LWPOLYLINE
  5
EE
330
2
100
AcDbEntity
  8
PDF_Layer 1
 62
     7
420
 16777215
370
    30
100
AcDbPolyline
 90
        2
 70
     0
 43
0.0
 10
8.37673611111111
 20
8.902168055555552
 10
7.658569444444443
 20
8.902168055555552
  0
LWPOLYLINE
  5
EF
330
2
100
AcDbEntity
  8
PDF_Layer 1
 62
     7
420
 16777215
370
    30
100
AcDbPolyline
 90
        2
 70
     0
 43
0.0
 10
7.618429166666665
 20
8.902168055555552
 10
7.497095833333331
 20
8.902168055555552
  0
LWPOLYLINE
  5
F0
330
2
100
AcDbEntity
  8
PDF_Layer 1
 62
     7
420
 16777215
370
    30
100
AcDbPolyline
 90
        2
 70
     0
 43
0.0
 10
7.456983333333332
 20
8.902168055555552
 10
6.738774999999999
 20
8.902168055555552
  0
LWPOLYLINE
  5
F1
330
2
100
AcDbEntity
  8
PDF_Layer 1
 62
     7
420
 16777215
370
    30
100
AcDbPolyline
 90
        2
 70
     0
 43
0.0
 10
6.69864861111111
 20
8.902168055555552
 10
6.577329166666666
 20
8.902168055555552
  0
LWPOLYLINE
  5
F2
330
2
100
AcDbEntity
  8
PDF_Layer 1
 62
     7
420
 16777215
370
    30
100
AcDbPolyline
 90
        2
 70
     0
 43
0.0
 10
6.537204166666666
 20
8.902168055555552
 10
5.818995833333333
 20
8.902168055555552
  0
LWPOLYLINE
  5
F3
330
2
100
AcDbEntity
  8
PDF_Layer 1
 62
     7
420
 16777215
370
    30
100
AcDbPolyline
 90
        2
 70
     0
 43
0.0
 10
5.778876388888888
 20
8.902168055555552
 10
5.657529166666666
 20
8.902168055555552
  0
LWPOLYLINE
  5
F4
330
2
100
AcDbEntity
  8
PDF_Layer 1
 62
     7
420
 16777215
370
    30
100
AcDbPolyline
 90
        2
 70
     0
 43
0.0
 10
5.617418055555554
 20
8.902168055555552
 10
4.89922361111111
 20
8.902168055555552
  0
LWPOLYLINE
  5
F5
330
2
100
AcDbEntity
  8
PDF_Layer 1
 62
     7
420
 16777215
370
    30
100
AcDbPolyline
 90
        2
 70
     0
 43
0.0
 10
4.859090277777777
 20
8.902168055555552
 10
4.737770833333333
 20
8.902168055555552
  0
LWPOLYLINE
  5
F6
330
2
100
AcDbEntity
  8
PDF_Layer 1
 62
     7
420
 16777215
370
    30
100
AcDbPolyline
 90
        2
 70
     0
 43
0.0
 10
4.697645833333332
 20
8.902168055555552
 10
3.980409722222221
 20
8.902168055555552
  0
LWPOLYLINE
  5
F7
330
2
100
AcDbEntity
  8
PDF_Layer 1
 62
     7
420
 16777215
370
    30
100
AcDbPolyline
 90
        2
 70
     0
 43
0.0
 10
3.939318055555555
 20
8.902168055555552
 10
3.81799861111111
 20
8.902168055555552
  0
LWPOLYLINE
  5
F8
330
2
100
AcDbEntity
  8
PDF_Layer 1
 62
     7
420
 16777215
370
    30
100
AcDbPolyline
 90
        2
 70
     0
 43
0.0
 10
3.777872222222221
 20
8.902168055555552
 10
3.06063611111111
 20
8.902168055555552
  0
LWPOLYLINE
  5
F9
330
2
100
AcDbEntity
  8
PDF_Layer 1
 62
     7
420
 16777215
370
    30
100
AcDbPolyline
 90
        2
 70
     0
 43
0.0
 10
3.060634722222222
 20
8.902168055555552
 10
2.999968055555555
 20
8.902168055555552
  0
LWPOLYLINE
  5
FA
330
2
100
AcDbEntity
  8
PDF_Layer 1
 62
     7
420
 16777215
370
    30
100
AcDbPolyline
 90
        2
 70
     0
 43
0.0
 10
2.999966666666666
 20
8.902168055555552
 10
2.939299999999999
 20
8.902168055555552
  0
LWPOLYLINE
  5
FB
330
2
100
AcDbEntity
  8
PDF_Layer 1
 62
     7
420
 16777215
370
    30
100
AcDbPolyline
 90
        2
 70
     0
 43
0.0
 10
2.352240277777778
 20
1.826768055555555
 10
2.291559722222222
 20
1.826768055555555
  0
LWPOLYLINE
  5
FC
330
2
100
AcDbEntity
  8
PDF_Layer 1
 62
     7
420
 16777215
370
    30
100
AcDbPolyline
 90
        3
 70
     0
 43
0.0
 10
2.675127777777777
 20
1.826768055555555
 10
2.614474999999999
 20
1.826768055555555
 10
2.553808333333333
 20
1.826768055555555
  0
LWPOLYLINE
  5
FD
330
2
100
AcDbEntity
  8
PDF_Layer 1
 62
     7
420
 16777215
370
    30
100
AcDbPolyline
 90
        2
 70
     0
 43
0.0
 10
2.513672222222222
 20
1.826768055555555
 10
2.392366666666667
 20
1.826768055555555
  0
LWPOLYLINE
  5
FF
330
2
100
AcDbEntity
  8
PDF_Layer 1
 62
     7
420
 16777215
370
    30
100
AcDbPolyline
 90
        2
 70
     0
 43
0.0
 10
2.71525
 20
1.826768055555555
 10
2.836569444444444
 20
1.826768055555555
  0
LWPOLYLINE
  5
100
330
2
100
AcDbEntity
  8
PDF_Layer 1
 62
     7
420
 16777215
370
    30
100
AcDbPolyline
 90
        2
 70
     0
 43
0.0
 10
2.876695833333333
 20
1.826768055555555
 10
2.937362499999999
 20
1.826768055555555
  0
LWPOLYLINE
  5
101
330
2
100
AcDbEntity
  8
PDF_Layer 1
 62
     7
420
 16777215
370
    30
100
AcDbPolyline
 90
        2
 70
     0
 43
0.0
 10
2.614474999999999
 20
2.089002777777777
 10
2.614474999999999
 20
2.149669444444444
  0
LWPOLYLINE
  5
102
330
2
100
AcDbEntity
  8
PDF_Layer 1
 62
     7
420
 16777215
370
    30
100
AcDbPolyline
 90
        3
 70
     0
 43
0.0
 10
2.614474999999999
 20
1.766101388888889
 10
2.614474999999999
 20
1.826768055555555
 10
2.614474999999999
 20
1.887434722222222
  0
LWPOLYLINE
  5
103
330
2
100
AcDbEntity
  8
PDF_Layer 1
 62
     7
420
 16777215
370
    30
100
AcDbPolyline
 90
        2
 70
     0
 43
0.0
 10
2.614474999999999
 20
1.927544444444444
 10
2.614474999999999
 20
2.048877777777777
  0
LWPOLYLINE
  5
105
330
2
100
AcDbEntity
  8
PDF_Layer 1
 62
     7
420
 16777215
370
    30
100
AcDbPolyline
 90
        2
 70
     0
 43
0.0
 10
2.614474999999999
 20
1.725002777777777
 10
2.614474999999999
 20
1.604655555555555
  0
LWPOLYLINE
  5
106
330
2
100
AcDbEntity
  8
PDF_Layer 1
 62
     7
420
 16777215
370
    30
100
AcDbPolyline
 90
        2
 70
     0
 43
0.0
 10
2.614474999999999
 20
1.563558333333333
 10
2.614474999999999
 20
1.502891666666666
  0
LWPOLYLINE
  5
107
330
2
100
AcDbEntity
  8
PDF_Layer 1
 62
     7
420
 16777215
370
    30
100
AcDbPolyline
 90
        2
 70
     0
 43
0.0
 10
14.08232916666666
 20
1.826768055555555
 10
14.02167638888889
 20
1.826768055555555
  0
LWPOLYLINE
  5
108
330
2
100
AcDbEntity
  8
PDF_Layer 1
 62
     7
420
 16777215
370
    30
100
AcDbPolyline
 90
        3
 70
     0
 43
0.0
 10
14.40521666666666
 20
1.826768055555555
 10
14.34456388888889
 20
1.826768055555555
 10
14.28391111111111
 20
1.826768055555555
  0
LWPOLYLINE
  5
109
330
2
100
AcDbEntity
  8
PDF_Layer 1
 62
     7
420
 16777215
370
    30
100
AcDbPolyline
 90
        2
 70
     0
 43
0.0
 10
14.243775
 20
1.826768055555555
 10
14.12246944444444
 20
1.826768055555555
  0
LWPOLYLINE
  5
10B
330
2
100
AcDbEntity
  8
PDF_Layer 1
 62
     7
420
 16777215
370
    30
100
AcDbPolyline
 90
        2
 70
     0
 43
0.0
 10
14.44535277777777
 20
1.826768055555555
 10
14.56665833333333
 20
1.826768055555555
  0
LWPOLYLINE
  5
10C
330
2
100
AcDbEntity
  8
PDF_Layer 1
 62
     7
420
 16777215
370
    30
100
AcDbPolyline
 90
        2
 70
     0
 43
0.0
 10
14.60679861111111
 20
1.826768055555555
 10
14.66750694444444
 20
1.826768055555555
  0
LWPOLYLINE
  5
10D
330
2
100
AcDbEntity
  8
PDF_Layer 1
 62
     7
420
 16777215
370
    30
100
AcDbPolyline
 90
        2
 70
     0
 43
0.0
 10
14.34456388888889
 20
2.089002777777777
 10
14.34456388888889
 20
2.149669444444444
  0
LWPOLYLINE
  5
10E
330
2
100
AcDbEntity
  8
PDF_Layer 1
 62
     7
420
 16777215
370
    30
100
AcDbPolyline
 90
        3
 70
     0
 43
0.0
 10
14.34456388888889
 20
1.766101388888889
 10
14.34456388888889
 20
1.826768055555555
 10
14.34456388888889
 20
1.887434722222222
  0
LWPOLYLINE
  5
10F
330
2
100
AcDbEntity
  8
PDF_Layer 1
 62
     7
420
 16777215
370
    30
100
AcDbPolyline
 90
        2
 70
     0
 43
0.0
 10
14.34456388888889
 20
1.927544444444444
 10
14.34456388888889
 20
2.048877777777777
  0
LWPOLYLINE
  5
111
330
2
100
AcDbEntity
  8
PDF_Layer 1
 62
     7
420
 16777215
370
    30
100
AcDbPolyline
 90
        2
 70
     0
 43
0.0
 10
14.34456388888889
 20
1.725002777777777
 10
14.34456388888889
 20
1.604655555555555
  0
LWPOLYLINE
  5
112
330
2
100
AcDbEntity
  8
PDF_Layer 1
 62
     7
420
 16777215
370
    30
100
AcDbPolyline
 90
        2
 70
     0
 43
0.0
 10
14.34456388888889
 20
1.563558333333333
 10
14.34456388888889
 20
1.502891666666666
  0
LWPOLYLINE
  5
113
330
2
100
AcDbEntity
  8
PDF_Layer 1
 62
     7
420
 16777215
370
    30
100
AcDbPolyline
 90
        2
 70
     0
 43
0.0
 10
14.47764722222222
 20
1.680976388888888
 10
14.41699444444444
 20
1.680976388888888
  0
LWPOLYLINE
  5
114
330
2
100
AcDbEntity
  8
PDF_Layer 1
 62
     7
420
 16777215
370
    30
100
AcDbPolyline
 90
        2
 70
     0
 43
0.0
 10
14.41699166666666
 20
1.680976388888888
 10
14.35633888888888
 20
1.680976388888888
  0
LWPOLYLINE
  5
115
330
2
100
AcDbEntity
  8
PDF_Layer 1
 62
     7
420
 16777215
370
    30
100
AcDbPolyline
 90
        2
 70
     0
 43
0.0
 10
14.3563375
 20
1.680976388888888
 10
13.63812916666666
 20
1.680976388888888
  0
LWPOLYLINE
  5
116
330
2
100
AcDbEntity
  8
PDF_Layer 1
 62
     7
420
 16777215
370
    30
100
AcDbPolyline
 90
        2
 70
     0
 43
0.0
 10
13.59799583333333
 20
1.680976388888888
 10
13.47663472222222
 20
1.680976388888888
  0
LWPOLYLINE
  5
117
330
2
100
AcDbEntity
  8
PDF_Layer 1
 62
     7
420
 16777215
370
    30
100
AcDbPolyline
 90
        2
 70
     0
 43
0.0
 10
13.43655
 20
1.680976388888888
 10
12.7193
 20
1.680976388888888
  0
LWPOLYLINE
  5
118
330
2
100
AcDbEntity
  8
PDF_Layer 1
 62
     7
420
 16777215
370
    30
100
AcDbPolyline
 90
        2
 70
     0
 43
0.0
 10
12.67820972222222
 20
1.680976388888888
 10
12.55787638888889
 20
1.680976388888888
  0
LWPOLYLINE
  5
119
330
2
100
AcDbEntity
  8
PDF_Layer 1
 62
     7
420
 16777215
370
    30
100
AcDbPolyline
 90
        2
 70
     0
 43
0.0
 10
12.51676388888889
 20
1.680976388888888
 10
11.79952777777778
 20
1.680976388888888
  0
LWPOLYLINE
  5
11A
330
2
100
AcDbEntity
  8
PDF_Layer 1
 62
     7
420
 16777215
370
    30
100
AcDbPolyline
 90
        2
 70
     0
 43
0.0
 10
11.75842222222222
 20
1.680976388888888
 10
11.63808888888889
 20
1.680976388888888
  0
LWPOLYLINE
  5
11B
330
2
100
AcDbEntity
  8
PDF_Layer 1
 62
     7
420
 16777215
370
    30
100
AcDbPolyline
 90
        2
 70
     0
 43
0.0
 10
11.59697777777777
 20
1.680976388888888
 10
10.87974166666666
 20
1.680976388888888
  0
LWPOLYLINE
  5
11C
330
2
100
AcDbEntity
  8
PDF_Layer 1
 62
     7
420
 16777215
370
    30
100
AcDbPolyline
 90
        2
 70
     0
 43
0.0
 10
10.83961249999999
 20
1.680976388888888
 10
10.71830694444444
 20
1.680976388888888
  0
LWPOLYLINE
  5
11D
330
2
100
AcDbEntity
  8
PDF_Layer 1
 62
     7
420
 16777215
370
    30
100
AcDbPolyline
 90
        2
 70
     0
 43
0.0
 10
10.67719166666666
 20
1.680976388888888
 10
9.959955555555554
 20
1.680976388888888
  0
LWPOLYLINE
  5
11E
330
2
100
AcDbEntity
  8
PDF_Layer 1
 62
     7
420
 16777215
370
    30
100
AcDbPolyline
 90
        2
 70
     0
 43
0.0
 10
9.919826388888887
 20
1.680976388888888
 10
9.798520833333332
 20
1.680976388888888
  0
LWPOLYLINE
  5
11F
330
2
100
AcDbEntity
  8
PDF_Layer 1
 62
     7
420
 16777215
370
    30
100
AcDbPolyline
 90
        2
 70
     0
 43
0.0
 10
9.758381944444444
 20
1.680976388888888
 10
9.040173611111111
 20
1.680976388888888
  0
LWPOLYLINE
  5
120
330
2
100
AcDbEntity
  8
PDF_Layer 1
 62
     7
420
 16777215
370
    30
100
AcDbPolyline
 90
        2
 70
     0
 43
0.0
 10
9.000040277777776
 20
1.680976388888888
 10
8.878734722222221
 20
1.680976388888888
  0
LWPOLYLINE
  5
121
330
2
100
AcDbEntity
  8
PDF_Layer 1
 62
     7
420
 16777215
370
    30
100
AcDbPolyline
 90
        2
 70
     0
 43
0.0
 10
8.838595833333332
 20
1.680976388888888
 10
8.120401388888888
 20
1.680976388888888
  0
LWPOLYLINE
  5
122
330
2
100
AcDbEntity
  8
PDF_Layer 1
 62
     7
420
 16777215
370
    30
100
AcDbPolyline
 90
        2
 70
     0
 43
0.0
 10
8.080301388888889
 20
1.680976388888888
 10
7.958954166666667
 20
1.680976388888888
  0
LWPOLYLINE
  5
123
330
2
100
AcDbEntity
  8
PDF_Layer 1
 62
     7
420
 16777215
370
    30
100
AcDbPolyline
 90
        2
 70
     0
 43
0.0
 10
7.918830555555555
 20
1.680976388888888
 10
7.200649999999999
 20
1.680976388888888
  0
LWPOLYLINE
  5
124
330
2
100
AcDbEntity
  8
PDF_Layer 1
 62
     7
420
 16777215
370
    30
100
AcDbPolyline
 90
        2
 70
     0
 43
0.0
 10
7.160515277777776
 20
1.680976388888888
 10
7.039181944444442
 20
1.680976388888888
  0
LWPOLYLINE
  5
125
330
2
100
AcDbEntity
  8
PDF_Layer 1
 62
     7
420
 16777215
370
    30
100
AcDbPolyline
 90
        2
 70
     0
 43
0.0
 10
6.999070833333331
 20
1.680976388888888
 10
6.280862499999998
 20
1.680976388888888
  0
LWPOLYLINE
  5
126
330
2
100
AcDbEntity
  8
PDF_Layer 1
 62
     7
420
 16777215
370
    30
100
AcDbPolyline
 90
        2
 70
     0
 43
0.0
 10
6.240729166666666
 20
1.680976388888888
 10
6.11942361111111
 20
1.680976388888888
  0
LWPOLYLINE
  5
127
330
2
100
AcDbEntity
  8
PDF_Layer 1
 62
     7
420
 16777215
370
    30
100
AcDbPolyline
 90
        2
 70
     0
 43
0.0
 10
6.079284722222221
 20
1.680976388888888
 10
5.361076388888887
 20
1.680976388888888
  0
LWPOLYLINE
  5
128
330
2
100
AcDbEntity
  8
PDF_Layer 1
 62
     7
420
 16777215
370
    30
100
AcDbPolyline
 90
        2
 70
     0
 43
0.0
 10
5.320963888888889
 20
1.680976388888888
 10
5.199616666666667
 20
1.680976388888888
  0
LWPOLYLINE
  5
129
330
2
100
AcDbEntity
  8
PDF_Layer 1
 62
     7
420
 16777215
370
    30
100
AcDbPolyline
 90
        2
 70
     0
 43
0.0
 10
5.159505555555555
 20
1.680976388888888
 10
4.441311111111111
 20
1.680976388888888
  0
LWPOLYLINE
  5
12A
330
2
100
AcDbEntity
  8
PDF_Layer 1
 62
     7
420
 16777215
370
    30
100
AcDbPolyline
 90
        2
 70
     0
 43
0.0
 10
4.401177777777777
 20
1.680976388888888
 10
4.279844444444444
 20
1.680976388888888
  0
LWPOLYLINE
  5
12B
330
2
100
AcDbEntity
  8
PDF_Layer 1
 62
     7
420
 16777215
370
    30
100
AcDbPolyline
 90
        2
 70
     0
 43
0.0
 10
4.239731944444444
 20
1.680976388888888
 10
3.522495833333333
 20
1.680976388888888
  0
LWPOLYLINE
  5
12C
330
2
100
AcDbEntity
  8
PDF_Layer 1
 62
     7
420
 16777215
370
    30
100
AcDbPolyline
 90
        2
 70
     0
 43
0.0
 10
3.481404166666666
 20
1.680976388888888
 10
3.360084722222222
 20
1.680976388888888
  0
LWPOLYLINE
  5
12D
330
2
100
AcDbEntity
  8
PDF_Layer 1
 62
     7
420
 16777215
370
    30
100
AcDbPolyline
 90
        2
 70
     0
 43
0.0
 10
3.319959722222222
 20
1.680976388888888
 10
2.602723611111111
 20
1.680976388888888
  0
LWPOLYLINE
  5
12E
330
2
100
AcDbEntity
  8
PDF_Layer 1
 62
     7
420
 16777215
370
    30
100
AcDbPolyline
 90
        2
 70
     0
 43
0.0
 10
2.602722222222222
 20
1.680976388888888
 10
2.542055555555555
 20
1.680976388888888
  0
LWPOLYLINE
  5
12F
330
2
100
AcDbEntity
  8
PDF_Layer 1
 62
     7
420
 16777215
370
    30
100
AcDbPolyline
 90
        2
 70
     0
 43
0.0
 10
2.542052777777777
 20
1.680976388888888
 10
2.481386111111111
 20
1.680976388888888
  0
LWPOLYLINE
  5
130
330
2
100
AcDbEntity
  8
PDF_Layer 1
 62
     7
420
 16777215
370
    30
100
AcDbPolyline
 90
        2
 70
     0
 43
0.0
 10
2.614474999999999
 20
3.241658333333333
 10
2.614474999999999
 20
2.837547222222222
  0
LWPOLYLINE
  5
131
330
2
100
AcDbEntity
  8
PDF_Layer 1
 62
     7
420
 16777215
370
    80
100
AcDbPolyline
 90
        3
 70
     0
 43
0.0
 10
3.229911111111111
 20
8.721166666666665
 10
3.240661111111111
 20
8.720194444444443
 10
7.981216666666666
 20
8.720194444444443
  0
LWPOLYLINE
  5
132
330
2
100
AcDbEntity
  8
PDF_Layer 1
 62
     7
420
 16777215
370
    80
100
AcDbPolyline
 90
        2
 70
     0
 43
0.0
 10
7.968729166666666
 20
8.720194444444443
 10
14.63417361111111
 20
8.720194444444443
  0
LWPOLYLINE
  5
133
330
2
100
AcDbEntity
  8
PDF_Layer 1
 62
     7
420
 16777215
370
    80
100
AcDbPolyline
 90
        2
 70
     0
 43
0.0
 10
14.61073194444444
 20
9.083218055555555
 10
8.121370833333333
 20
9.083218055555555
  0
LWPOLYLINE
  5
134
330
2
100
AcDbEntity
  8
PDF_Layer 1
 62
     7
420
 16777215
370
    80
100
AcDbPolyline
 90
        2
 70
     0
 43
0.0
 10
8.121372222222223
 20
9.083218055555555
 10
3.26416388888889
 20
9.083218055555555
  0
LWPOLYLINE
  5
135
330
2
100
AcDbEntity
  8
PDF_Layer 1
 62
     7
420
 16777215
370
    80
100
AcDbPolyline
 90
        2
 70
     0
 43
0.0
 10
2.880601388888888
 20
9.88557222222222
 10
2.880601388888888
 20
9.309252777777777
  0
LWPOLYLINE
  5
136
330
2
100
AcDbEntity
  8
PDF_Layer 1
 62
     7
420
 16777215
370
    80
100
AcDbPolyline
 90
        3
 70
     0
 43
0.0
 10
3.260243055555554
 20
9.309258333333332
 10
3.264159722222221
 20
9.309258333333332
 10
3.264159722222221
 20
9.885577777777776
  0
LWPOLYLINE
  5
137
330
2
100
AcDbEntity
  8
PDF_Layer 1
 62
     7
420
 16777215
370
    80
100
AcDbPolyline
 90
        2
 70
     0
 43
0.0
 10
14.99427638888889
 20
9.309258333333332
 10
14.99427638888889
 20
9.885577777777776
  0
LWPOLYLINE
  5
138
330
2
100
AcDbEntity
  8
PDF_Layer 1
 62
     7
420
 16777215
370
    80
100
AcDbPolyline
 90
        2
 70
     0
 43
0.0
 10
14.61073194444444
 20
9.88557222222222
 10
14.61073194444444
 20
9.309252777777777
  0
LWPOLYLINE
  5
139
330
2
100
AcDbEntity
  8
PDF_Layer 1
 62
     7
420
 16777215
370
    80
100
AcDbPolyline
 90
        2
 70
     0
 43
0.0
 10
2.880601388888888
 20
9.00295
 10
2.880601388888888
 20
8.307269444444445
  0
LWPOLYLINE
  5
13A
330
2
100
AcDbEntity
  8
PDF_Layer 1
 62
     7
420
 16777215
370
    80
100
AcDbPolyline
 90
        2
 70
     0
 43
0.0
 10
3.264159722222221
 20
8.307270833333333
 10
3.264159722222221
 20
8.720187499999999
  0
LWPOLYLINE
  5
13B
330
2
100
AcDbEntity
  8
PDF_Layer 1
 62
     7
420
 16777215
370
    80
100
AcDbPolyline
 90
        2
 70
     0
 43
0.0
 10
14.99427638888889
 20
8.307270833333333
 10
14.99427638888889
 20
9.002951388888888
  0
LWPOLYLINE
  5
13C
330
2
100
AcDbEntity
  8
PDF_Layer 1
 62
     7
420
 16777215
370
    80
100
AcDbPolyline
 90
        2
 70
     0
 43
0.0
 10
14.61073194444444
 20
8.720194444444443
 10
14.61073194444444
 20
8.307277777777777
  0
LWPOLYLINE
  5
13D
330
2
100
AcDbEntity
  8
PDF_Layer 1
 62
     7
420
 16777215
370
    80
100
AcDbPolyline
 90
        2
 70
     0
 43
0.0
 10
4.697645833333332
 20
6.70741111111111
 10
7.983701388888888
 20
6.70741111111111
  0
LWPOLYLINE
  5
13E
330
2
100
AcDbEntity
  8
PDF_Layer 1
 62
     7
420
 16777215
370
    80
100
AcDbPolyline
 90
        3
 70
     0
 43
0.0
 10
7.97167222222222
 20
6.70741111111111
 10
13.17625555555556
 20
6.70741111111111
 10
13.27115833333333
 20
6.709411111111109
  0
LWPOLYLINE
  5
13F
330
2
100
AcDbEntity
  8
PDF_Layer 1
 62
     7
420
 16777215
370
    80
100
AcDbPolyline
 90
        2
 70
     0
 43
0.0
 10
13.17723194444444
 20
7.091009722222222
 10
8.133120833333332
 20
7.091009722222222
  0
LWPOLYLINE
  5
140
330
2
100
AcDbEntity
  8
PDF_Layer 1
 62
     7
420
 16777215
370
    80
100
AcDbPolyline
 90
        2
 70
     0
 43
0.0
 10
8.046997222222222
 20
7.091009722222222
 10
4.69765
 20
7.091009722222222
  0
LWPOLYLINE
  5
141
330
2
100
AcDbEntity
  8
PDF_Layer 1
 62
     7
420
 16777215
370
    80
100
AcDbPolyline
 90
        2
 70
     0
 43
0.0
 10
2.112487499999999
 20
12.01378055555555
 10
2.116418055555555
 20
12.01378055555555
  0
LWPOLYLINE
  5
142
330
2
100
AcDbEntity
  8
PDF_Layer 1
 62
     7
420
 16777215
370
    80
100
AcDbPolyline
 90
        2
 70
     0
 43
0.0
 10
2.116413888888889
 20
12.01378055555555
 10
2.130080555555555
 20
12.01378055555555
  0
LWPOLYLINE
  5
143
330
2
100
AcDbEntity
  8
PDF_Layer 1
 62
     7
420
 16777215
370
    80
100
AcDbPolyline
 90
        2
 70
     0
 43
0.0
 10
2.130079166666666
 20
12.01378055555555
 10
2.151620833333333
 20
12.01378055555555
  0
LWPOLYLINE
  5
144
330
2
100
AcDbEntity
  8
PDF_Layer 1
 62
     7
420
 16777215
370
    80
100
AcDbPolyline
 90
        2
 70
     0
 43
0.0
 10
2.151618055555555
 20
12.01378055555555
 10
2.180965277777777
 20
12.01378055555555
  0
LWPOLYLINE
  5
145
330
2
100
AcDbEntity
  8
PDF_Layer 1
 62
     7
420
 16777215
370
    80
100
AcDbPolyline
 90
        2
 70
     0
 43
0.0
 10
2.180969444444444
 20
12.01378055555555
 10
2.21913611111111
 20
12.01378055555555
  0
LWPOLYLINE
  5
146
330
2
100
AcDbEntity
  8
PDF_Layer 1
 62
     7
420
 16777215
370
    80
100
AcDbPolyline
 90
        2
 70
     0
 43
0.0
 10
2.219129166666666
 20
12.01378055555555
 10
2.265129166666666
 20
12.01378055555555
  0
LWPOLYLINE
  5
147
330
2
100
AcDbEntity
  8
PDF_Layer 1
 62
     7
420
 16777215
370
    80
100
AcDbPolyline
 90
        2
 70
     0
 43
0.0
 10
2.265123611111111
 20
12.01378055555555
 10
2.317970833333333
 20
12.01378055555555
  0
LWPOLYLINE
  5
148
330
2
100
AcDbEntity
  8
PDF_Layer 1
 62
     7
420
 16777215
370
    80
100
AcDbPolyline
 90
        2
 70
     0
 43
0.0
 10
2.317966666666666
 20
12.01378055555555
 10
2.37766111111111
 20
12.01378055555555
  0
LWPOLYLINE
  5
149
330
2
100
AcDbEntity
  8
PDF_Layer 1
 62
     7
420
 16777215
370
    80
100
AcDbPolyline
 90
        2
 70
     0
 43
0.0
 10
2.377658333333333
 20
12.01378055555555
 10
2.4432
 20
12.01378055555555
  0
LWPOLYLINE
  5
14A
330
2
100
AcDbEntity
  8
PDF_Layer 1
 62
     7
420
 16777215
370
    80
100
AcDbPolyline
 90
        2
 70
     0
 43
0.0
 10
2.443202777777777
 20
12.01378055555555
 10
2.515605555555555
 20
12.01378055555555
  0
LWPOLYLINE
  5
14B
330
2
100
AcDbEntity
  8
PDF_Layer 1
 62
     7
420
 16777215
370
    80
100
AcDbPolyline
 90
        2
 70
     0
 43
0.0
 10
2.515604166666666
 20
12.01378055555555
 10
2.591951388888888
 20
12.01378055555555
  0
LWPOLYLINE
  5
14C
330
2
100
AcDbEntity
  8
PDF_Layer 1
 62
     7
420
 16777215
370
    80
100
AcDbPolyline
 90
        2
 70
     0
 43
0.0
 10
2.591945833333333
 20
12.01378055555555
 10
2.673168055555555
 20
12.01378055555555
  0
LWPOLYLINE
  5
14D
330
2
100
AcDbEntity
  8
PDF_Layer 1
 62
     7
420
 16777215
370
    80
100
AcDbPolyline
 90
        2
 70
     0
 43
0.0
 10
2.673163888888888
 20
12.01378055555555
 10
2.758288888888889
 20
12.01378055555555
  0
LWPOLYLINE
  5
14E
330
2
100
AcDbEntity
  8
PDF_Layer 1
 62
     7
420
 16777215
370
    80
100
AcDbPolyline
 90
        2
 70
     0
 43
0.0
 10
2.758287499999999
 20
12.01378055555555
 10
2.846343055555555
 20
12.01378055555555
  0
LWPOLYLINE
  5
14F
330
2
100
AcDbEntity
  8
PDF_Layer 1
 62
     7
420
 16777215
370
    80
100
AcDbPolyline
 90
        3
 70
     0
 43
0.0
 10
2.936354166666666
 20
12.01378055555555
 10
2.846340277777777
 20
12.01378055555555
 10
2.935381944444444
 20
12.01378055555555
  0
LWPOLYLINE
  5
150
330
2
100
AcDbEntity
  8
PDF_Layer 1
 62
     7
420
 16777215
370
    80
100
AcDbPolyline
 90
        2
 70
     0
 43
0.0
 10
2.935384722222222
 20
12.01378055555555
 10
3.02639861111111
 20
12.01378055555555
  0
LWPOLYLINE
  5
151
330
2
100
AcDbEntity
  8
PDF_Layer 1
 62
     7
420
 16777215
370
    80
100
AcDbPolyline
 90
        4
 70
     0
 43
0.0
 10
2.936352777777777
 20
12.01378055555555
 10
3.026394444444444
 20
12.01378055555555
 10
3.118366666666666
 20
12.01378055555555
 10
3.208408333333333
 20
12.01378055555555
  0
LWPOLYLINE
  5
152
330
2
100
AcDbEntity
  8
PDF_Layer 1
 62
     7
420
 16777215
370
    80
100
AcDbPolyline
 90
        3
 70
     0
 43
0.0
 10
3.026395833333333
 20
12.01378055555555
 10
3.118368055555555
 20
12.01378055555555
 10
3.209381944444444
 20
12.01378055555555
  0
LWPOLYLINE
  5
153
330
2
100
AcDbEntity
  8
PDF_Layer 1
 62
     7
420
 16777215
370
    80
100
AcDbPolyline
 90
        2
 70
     0
 43
0.0
 10
3.209377777777777
 20
12.01378055555555
 10
3.298405555555555
 20
12.01378055555555
  0
LWPOLYLINE
  5
154
330
2
100
AcDbEntity
  8
PDF_Layer 1
 62
     7
420
 16777215
370
    80
100
AcDbPolyline
 90
        3
 70
     0
 43
0.0
 10
3.208415277777777
 20
12.01378055555555
 10
3.298401388888888
 20
12.01378055555555
 10
3.386470833333333
 20
12.01378055555555
  0
LWPOLYLINE
  5
155
330
2
100
AcDbEntity
  8
PDF_Layer 1
 62
     7
420
 16777215
370
    80
100
AcDbPolyline
 90
        2
 70
     0
 43
0.0
 10
3.386468055555555
 20
12.01378055555555
 10
3.471593055555555
 20
12.01378055555555
  0
LWPOLYLINE
  5
156
330
2
100
AcDbEntity
  8
PDF_Layer 1
 62
     7
420
 16777215
370
    80
100
AcDbPolyline
 90
        2
 70
     0
 43
0.0
 10
3.471598611111111
 20
12.01378055555555
 10
3.552806944444444
 20
12.01378055555555
  0
LWPOLYLINE
  5
157
330
2
100
AcDbEntity
  8
PDF_Layer 1
 62
     7
420
 16777215
370
    80
100
AcDbPolyline
 90
        3
 70
     0
 43
0.0
 10
3.552802777777777
 20
12.01378055555555
 10
3.629149999999999
 20
12.01378055555555
 10
3.700566666666665
 20
12.01378055555555
  0
LWPOLYLINE
  5
159
330
2
100
AcDbEntity
  8
PDF_Layer 1
 62
     7
420
 16777215
370
    80
100
AcDbPolyline
 90
        2
 70
     0
 43
0.0
 10
3.700568055555555
 20
12.01378055555555
 10
3.767095833333333
 20
12.01378055555555
  0
LWPOLYLINE
  5
15A
330
2
100
AcDbEntity
  8
PDF_Layer 1
 62
     7
420
 16777215
370
    80
100
AcDbPolyline
 90
        2
 70
     0
 43
0.0
 10
3.767097222222221
 20
12.01378055555555
 10
3.826791666666665
 20
12.01378055555555
  0
LWPOLYLINE
  5
15B
330
2
100
AcDbEntity
  8
PDF_Layer 1
 62
     7
420
 16777215
370
    80
100
AcDbPolyline
 90
        2
 70
     0
 43
0.0
 10
3.826795833333332
 20
12.01378055555555
 10
3.879643055555554
 20
12.01378055555555
  0
LWPOLYLINE
  5
15C
330
2
100
AcDbEntity
  8
PDF_Layer 1
 62
     7
420
 16777215
370
    80
100
AcDbPolyline
 90
        3
 70
     0
 43
0.0
 10
3.879638888888888
 20
12.01378055555555
 10
3.925625
 20
12.01378055555555
 10
3.963777777777778
 20
12.01378055555555
  0
LWPOLYLINE
  5
15E
330
2
100
AcDbEntity
  8
PDF_Layer 1
 62
     7
420
 16777215
370
    80
100
AcDbPolyline
 90
        2
 70
     0
 43
0.0
 10
3.963772222222221
 20
12.01378055555555
 10
3.993133333333332
 20
12.01378055555555
  0
LWPOLYLINE
  5
15F
330
2
100
AcDbEntity
  8
PDF_Layer 1
 62
     7
420
 16777215
370
    80
100
AcDbPolyline
 90
        2
 70
     0
 43
0.0
 10
3.993130555555555
 20
12.01378055555555
 10
4.014672222222221
 20
12.01378055555555
  0
LWPOLYLINE
  5
160
330
2
100
AcDbEntity
  8
PDF_Layer 1
 62
     7
420
 16777215
370
    80
100
AcDbPolyline
 90
        2
 70
     0
 43
0.0
 10
4.014669444444444
 20
12.01378055555555
 10
4.028349999999999
 20
12.01378055555555
  0
LWPOLYLINE
  5
161
330
2
100
AcDbEntity
  8
PDF_Layer 1
 62
     7
420
 16777215
370
    80
100
AcDbPolyline
 90
        2
 70
     0
 43
0.0
 10
4.028347222222222
 20
12.01378055555555
 10
4.032277777777777
 20
12.01378055555555
  0
LWPOLYLINE
  5
162
330
2
100
AcDbEntity
  8
PDF_Layer 1
 62
     7
420
 16777215
370
    80
100
AcDbPolyline
 90
        2
 70
     0
 43
0.0
 10
4.030306944444443
 20
12.01378055555555
 10
4.026404166666666
 20
12.01378055555555
  0
LWPOLYLINE
  5
163
330
2
100
AcDbEntity
  8
PDF_Layer 1
 62
     7
420
 16777215
370
    80
100
AcDbPolyline
 90
        3
 70
     0
 43
0.0
 10
4.026401388888888
 20
12.01378055555555
 10
4.013679166666666
 20
12.01378055555555
 10
3.992165277777777
 20
12.01378055555555
  0
LWPOLYLINE
  5
165
330
2
100
AcDbEntity
  8
PDF_Layer 1
 62
     7
420
 16777215
370
    80
100
AcDbPolyline
 90
        3
 70
     0
 43
0.0
 10
3.992159722222221
 20
12.01378055555555
 10
3.961812499999999
 20
12.01378055555555
 10
3.923659722222221
 20
12.01378055555555
  0
LWPOLYLINE
  5
167
330
2
100
AcDbEntity
  8
PDF_Layer 1
 62
     7
420
 16777215
370
    80
100
AcDbPolyline
 90
        2
 70
     0
 43
0.0
 10
3.923658333333333
 20
12.01378055555555
 10
3.878644444444444
 20
12.01378055555555
  0
LWPOLYLINE
  5
168
330
2
100
AcDbEntity
  8
PDF_Layer 1
 62
     7
420
 16777215
370
    80
100
AcDbPolyline
 90
        2
 70
     0
 43
0.0
 10
3.87864861111111
 20
12.01378055555555
 10
3.825815277777777
 20
12.01378055555555
  0
LWPOLYLINE
  5
169
330
2
100
AcDbEntity
  8
PDF_Layer 1
 62
     7
420
 16777215
370
    80
100
AcDbPolyline
 90
        2
 70
     0
 43
0.0
 10
3.825812499999999
 20
12.01378055555555
 10
3.766131944444443
 20
12.01378055555555
  0
LWPOLYLINE
  5
16A
330
2
100
AcDbEntity
  8
PDF_Layer 1
 62
     7
420
 16777215
370
    80
100
AcDbPolyline
 90
        4
 70
     0
 43
0.0
 10
3.766126388888888
 20
12.01378055555555
 10
3.699584722222221
 20
12.01378055555555
 10
3.628154166666665
 20
12.01378055555555
 10
3.551834722222221
 20
12.01378055555555
  0
LWPOLYLINE
  5
16D
330
2
100
AcDbEntity
  8
PDF_Layer 1
 62
     7
420
 16777215
370
    80
100
AcDbPolyline
 90
        2
 70
     0
 43
0.0
 10
3.551831944444444
 20
12.01378055555555
 10
3.47062361111111
 20
12.01378055555555
  0
LWPOLYLINE
  5
16E
330
2
100
AcDbEntity
  8
PDF_Layer 1
 62
     7
420
 16777215
370
    80
100
AcDbPolyline
 90
        3
 70
     0
 43
0.0
 10
3.470622222222222
 20
12.01378055555555
 10
3.38551111111111
 20
12.01378055555555
 10
3.298399999999999
 20
12.01378055555555
  0
LWPOLYLINE
  5
175
330
2
100
AcDbEntity
  8
PDF_Layer 1
 62
     7
420
 16777215
370
    80
100
AcDbPolyline
 90
        2
 70
     0
 43
0.0
 10
2.846340277777777
 20
12.01378055555555
 10
2.759270833333333
 20
12.01378055555555
  0
LWPOLYLINE
  5
176
330
2
100
AcDbEntity
  8
PDF_Layer 1
 62
     7
420
 16777215
370
    80
100
AcDbPolyline
 90
        2
 70
     0
 43
0.0
 10
2.759277777777777
 20
12.01378055555555
 10
2.674125
 20
12.01378055555555
  0
LWPOLYLINE
  5
177
330
2
100
AcDbEntity
  8
PDF_Layer 1
 62
     7
420
 16777215
370
    80
100
AcDbPolyline
 90
        2
 70
     0
 43
0.0
 10
2.674126388888888
 20
12.01378055555555
 10
2.592918055555555
 20
12.01378055555555
  0
LWPOLYLINE
  5
178
330
2
100
AcDbEntity
  8
PDF_Layer 1
 62
     7
420
 16777215
370
    80
100
AcDbPolyline
 90
        2
 70
     0
 43
0.0
 10
2.592915277777777
 20
12.01378055555555
 10
2.516595833333333
 20
12.01378055555555
  0
LWPOLYLINE
  5
179
330
2
100
AcDbEntity
  8
PDF_Layer 1
 62
     7
420
 16777215
370
    80
100
AcDbPolyline
 90
        2
 70
     0
 43
0.0
 10
2.516594444444443
 20
12.01378055555555
 10
2.445177777777777
 20
12.01378055555555
  0
LWPOLYLINE
  5
17A
330
2
100
AcDbEntity
  8
PDF_Layer 1
 62
     7
420
 16777215
370
    80
100
AcDbPolyline
 90
        3
 70
     0
 43
0.0
 10
2.445176388888889
 20
12.01378055555555
 10
2.378634722222221
 20
12.01378055555555
 10
2.318940277777777
 20
12.01378055555555
  0
LWPOLYLINE
  5
17C
330
2
100
AcDbEntity
  8
PDF_Layer 1
 62
     7
420
 16777215
370
    80
100
AcDbPolyline
 90
        2
 70
     0
 43
0.0
 10
2.31893611111111
 20
12.01378055555555
 10
2.266116666666666
 20
12.01378055555555
  0
LWPOLYLINE
  5
17D
330
2
100
AcDbEntity
  8
PDF_Layer 1
 62
     7
420
 16777215
370
    80
100
AcDbPolyline
 90
        2
 70
     0
 43
0.0
 10
2.266113888888888
 20
12.01378055555555
 10
2.220113888888889
 20
12.01378055555555
  0
LWPOLYLINE
  5
17E
330
2
100
AcDbEntity
  8
PDF_Layer 1
 62
     7
420
 16777215
370
    80
100
AcDbPolyline
 90
        2
 70
     0
 43
0.0
 10
2.220119444444444
 20
12.01378055555555
 10
2.182925
 20
12.01378055555555
  0
LWPOLYLINE
  5
17F
330
2
100
AcDbEntity
  8
PDF_Layer 1
 62
     7
420
 16777215
370
    80
100
AcDbPolyline
 90
        2
 70
     0
 43
0.0
 10
2.182929166666666
 20
12.01378055555555
 10
2.152581944444444
 20
12.01378055555555
  0
LWPOLYLINE
  5
180
330
2
100
AcDbEntity
  8
PDF_Layer 1
 62
     7
420
 16777215
370
    80
100
AcDbPolyline
 90
        2
 70
     0
 43
0.0
 10
2.1525875
 20
12.01378055555555
 10
2.131059722222222
 20
12.01378055555555
  0
LWPOLYLINE
  5
181
330
2
100
AcDbEntity
  8
PDF_Layer 1
 62
     7
420
 16777215
370
    80
100
AcDbPolyline
 90
        2
 70
     0
 43
0.0
 10
2.131062499999999
 20
12.01378055555555
 10
2.118354166666666
 20
12.01378055555555
  0
LWPOLYLINE
  5
182
330
2
100
AcDbEntity
  8
PDF_Layer 1
 62
     7
420
 16777215
370
    80
100
AcDbPolyline
 90
        2
 70
     0
 43
0.0
 10
2.118361111111111
 20
12.01378055555555
 10
2.114444444444444
 20
12.01378055555555
  0
LWPOLYLINE
  5
183
330
2
100
AcDbEntity
  8
PDF_Layer 1
 62
     7
420
 16777215
370
    80
100
AcDbPolyline
 90
        2
 70
     0
 43
0.0
 10
13.84261111111111
 20
12.01378055555555
 10
13.8465
 20
12.01378055555555
  0
LWPOLYLINE
  5
184
330
2
100
AcDbEntity
  8
PDF_Layer 1
 62
     7
420
 16777215
370
    80
100
AcDbPolyline
 90
        2
 70
     0
 43
0.0
 10
13.84650277777777
 20
12.01378055555555
 10
13.85919722222222
 20
12.01378055555555
  0
LWPOLYLINE
  5
185
330
2
100
AcDbEntity
  8
PDF_Layer 1
 62
     7
420
 16777215
370
    80
100
AcDbPolyline
 90
        2
 70
     0
 43
0.0
 10
13.85919861111111
 20
12.01378055555555
 10
13.88075416666666
 20
12.01378055555555
  0
LWPOLYLINE
  5
186
330
2
100
AcDbEntity
  8
PDF_Layer 1
 62
     7
420
 16777215
370
    80
100
AcDbPolyline
 90
        2
 70
     0
 43
0.0
 10
13.88075138888889
 20
12.01378055555555
 10
13.9111125
 20
12.01378055555555
  0
LWPOLYLINE
  5
187
330
2
100
AcDbEntity
  8
PDF_Layer 1
 62
     7
420
 16777215
370
    80
100
AcDbPolyline
 90
        2
 70
     0
 43
0.0
 10
13.91110555555555
 20
12.01378055555555
 10
13.94923055555555
 20
12.01378055555555
  0
LWPOLYLINE
  5
188
330
2
100
AcDbEntity
  8
PDF_Layer 1
 62
     7
420
 16777215
370
    80
100
AcDbPolyline
 90
        2
 70
     0
 43
0.0
 10
13.94923194444444
 20
12.01378055555555
 10
13.99427361111111
 20
12.01378055555555
  0
LWPOLYLINE
  5
189
330
2
100
AcDbEntity
  8
PDF_Layer 1
 62
     7
420
 16777215
370
    80
100
AcDbPolyline
 90
        3
 70
     0
 43
0.0
 10
13.99427638888889
 20
12.01378055555555
 10
14.04808194444444
 20
12.01378055555555
 10
14.1077625
 20
12.01378055555555
  0
LWPOLYLINE
  5
18B
330
2
100
AcDbEntity
  8
PDF_Layer 1
 62
     7
420
 16777215
370
    80
100
AcDbPolyline
 90
        2
 70
     0
 43
0.0
 10
14.10776111111111
 20
12.01378055555555
 10
14.17333055555555
 20
12.01378055555555
  0
LWPOLYLINE
  5
18C
330
2
100
AcDbEntity
  8
PDF_Layer 1
 62
     7
420
 16777215
370
    80
100
AcDbPolyline
 90
        2
 70
     0
 43
0.0
 10
14.17332638888889
 20
12.01378055555555
 10
14.24571527777778
 20
12.01378055555555
  0
LWPOLYLINE
  5
18D
330
2
100
AcDbEntity
  8
PDF_Layer 1
 62
     7
420
 16777215
370
    80
100
AcDbPolyline
 90
        2
 70
     0
 43
0.0
 10
14.24571388888888
 20
12.01378055555555
 10
14.32203333333333
 20
12.01378055555555
  0
LWPOLYLINE
  5
18E
330
2
100
AcDbEntity
  8
PDF_Layer 1
 62
     7
420
 16777215
370
    80
100
AcDbPolyline
 90
        2
 70
     0
 43
0.0
 10
14.32203472222222
 20
12.01378055555555
 10
14.40327083333333
 20
12.01378055555555
  0
LWPOLYLINE
  5
18F
330
2
100
AcDbEntity
  8
PDF_Layer 1
 62
     7
420
 16777215
370
    80
100
AcDbPolyline
 90
        2
 70
     0
 43
0.0
 10
14.40326666666666
 20
12.01378055555555
 10
14.48839166666666
 20
12.01378055555555
  0
LWPOLYLINE
  5
190
330
2
100
AcDbEntity
  8
PDF_Layer 1
 62
     7
420
 16777215
370
    80
100
AcDbPolyline
 90
        3
 70
     0
 43
0.0
 10
14.40423749999999
 20
12.01378055555555
 10
14.48839027777777
 20
12.01378055555555
 10
14.57545972222222
 20
12.01378055555555
  0
LWPOLYLINE
  5
191
330
2
100
AcDbEntity
  8
PDF_Layer 1
 62
     7
420
 16777215
370
    80
100
AcDbPolyline
 90
        2
 70
     0
 43
0.0
 10
14.57545277777778
 20
12.01378055555555
 10
14.66549444444444
 20
12.01378055555555
  0
LWPOLYLINE
  5
192
330
2
100
AcDbEntity
  8
PDF_Layer 1
 62
     7
420
 16777215
370
    80
100
AcDbPolyline
 90
        3
 70
     0
 43
0.0
 10
14.57643055555555
 20
12.01378055555555
 10
14.6655
 20
12.01378055555555
 10
14.75651388888889
 20
12.01378055555555
  0
LWPOLYLINE
  5
193
330
2
100
AcDbEntity
  8
PDF_Layer 1
 62
     7
420
 16777215
370
    80
100
AcDbPolyline
 90
        3
 70
     0
 43
0.0
 10
14.66549722222222
 20
12.01378055555555
 10
14.75651111111111
 20
12.01378055555555
 10
14.847525
 20
12.01378055555555
  0
LWPOLYLINE
  5
194
330
2
100
AcDbEntity
  8
PDF_Layer 1
 62
     7
420
 16777215
370
    80
100
AcDbPolyline
 90
        3
 70
     0
 43
0.0
 10
14.75650694444444
 20
12.01378055555555
 10
14.84752083333333
 20
12.01378055555555
 10
14.93853472222222
 20
12.01378055555555
  0
LWPOLYLINE
  5
195
330
2
100
AcDbEntity
  8
PDF_Layer 1
 62
     7
420
 16777215
370
    80
100
AcDbPolyline
 90
        3
 70
     0
 43
0.0
 10
14.84751666666666
 20
12.01378055555555
 10
14.93853055555555
 20
12.01378055555555
 10
15.02851666666666
 20
12.01378055555555
  0
LWPOLYLINE
  5
196
330
2
100
AcDbEntity
  8
PDF_Layer 1
 62
     7
420
 16777215
370
    80
100
AcDbPolyline
 90
        3
 70
     0
 43
0.0
 10
14.9385375
 20
12.01378055555555
 10
15.02852361111111
 20
12.01378055555555
 10
15.11662083333333
 20
12.01378055555555
  0
LWPOLYLINE
  5
197
330
2
100
AcDbEntity
  8
PDF_Layer 1
 62
     7
420
 16777215
370
    80
100
AcDbPolyline
 90
        3
 70
     0
 43
0.0
 10
15.11661805555555
 20
12.01378055555555
 10
15.20077083333333
 20
12.01378055555555
 10
15.28097916666667
 20
12.01378055555555
  0
LWPOLYLINE
  5
198
330
2
100
AcDbEntity
  8
PDF_Layer 1
 62
     7
420
 16777215
370
    80
100
AcDbPolyline
 90
        3
 70
     0
 43
0.0
 10
15.11564027777778
 20
12.01378055555555
 10
15.20076527777778
 20
12.01378055555555
 10
15.28194583333333
 20
12.01378055555555
  0
LWPOLYLINE
  5
199
330
2
100
AcDbEntity
  8
PDF_Layer 1
 62
     7
420
 16777215
370
    80
100
AcDbPolyline
 90
        2
 70
     0
 43
0.0
 10
15.28194166666667
 20
12.01378055555555
 10
15.35923333333333
 20
12.01378055555555
  0
LWPOLYLINE
  5
19A
330
2
100
AcDbEntity
  8
PDF_Layer 1
 62
     7
420
 16777215
370
    80
100
AcDbPolyline
 90
        2
 70
     0
 43
0.0
 10
15.35923888888889
 20
12.01378055555555
 10
15.43069722222222
 20
12.01378055555555
  0
LWPOLYLINE
  5
19B
330
2
100
AcDbEntity
  8
PDF_Layer 1
 62
     7
420
 16777215
370
    80
100
AcDbPolyline
 90
        2
 70
     0
 43
0.0
 10
15.43069166666666
 20
12.01378055555555
 10
15.49719166666666
 20
12.01378055555555
  0
LWPOLYLINE
  5
19C
330
2
100
AcDbEntity
  8
PDF_Layer 1
 62
     7
420
 16777215
370
    80
100
AcDbPolyline
 90
        2
 70
     0
 43
0.0
 10
15.49719305555555
 20
12.01378055555555
 10
15.55692916666666
 20
12.01378055555555
  0
LWPOLYLINE
  5
19D
330
2
100
AcDbEntity
  8
PDF_Layer 1
 62
     7
420
 16777215
370
    80
100
AcDbPolyline
 90
        2
 70
     0
 43
0.0
 10
15.556925
 20
12.01378055555555
 10
15.60975833333333
 20
12.01378055555555
  0
LWPOLYLINE
  5
19E
330
2
100
AcDbEntity
  8
PDF_Layer 1
 62
     7
420
 16777215
370
    80
100
AcDbPolyline
 90
        2
 70
     0
 43
0.0
 10
15.60975416666666
 20
12.01378055555555
 10
15.65572638888889
 20
12.01378055555555
  0
LWPOLYLINE
  5
19F
330
2
100
AcDbEntity
  8
PDF_Layer 1
 62
     7
420
 16777215
370
    80
100
AcDbPolyline
 90
        3
 70
     0
 43
0.0
 10
15.65572083333333
 20
12.01378055555555
 10
15.69390138888889
 20
12.01378055555555
 10
15.72322083333333
 20
12.01378055555555
  0
LWPOLYLINE
  5
1A1
330
2
100
AcDbEntity
  8
PDF_Layer 1
 62
     7
420
 16777215
370
    80
100
AcDbPolyline
 90
        2
 70
     0
 43
0.0
 10
15.72322638888888
 20
12.01378055555555
 10
15.74478194444444
 20
12.01378055555555
  0
LWPOLYLINE
  5
1A2
330
2
100
AcDbEntity
  8
PDF_Layer 1
 62
     7
420
 16777215
370
    80
100
AcDbPolyline
 90
        2
 70
     0
 43
0.0
 10
15.74477777777777
 20
12.01378055555555
 10
15.75747222222221
 20
12.01378055555555
  0
LWPOLYLINE
  5
1A3
330
2
100
AcDbEntity
  8
PDF_Layer 1
 62
     7
420
 16777215
370
    80
100
AcDbPolyline
 90
        2
 70
     0
 43
0.0
 10
15.75747361111111
 20
12.01378055555555
 10
15.76239027777777
 20
12.01378055555555
  0
LWPOLYLINE
  5
1A4
330
2
100
AcDbEntity
  8
PDF_Layer 1
 62
     7
420
 16777215
370
    80
100
AcDbPolyline
 90
        2
 70
     0
 43
0.0
 10
15.76044444444444
 20
12.01378055555555
 10
15.7565
 20
12.01378055555555
  0
LWPOLYLINE
  5
1A5
330
2
100
AcDbEntity
  8
PDF_Layer 1
 62
     7
420
 16777215
370
    80
100
AcDbPolyline
 90
        2
 70
     0
 43
0.0
 10
15.75649722222222
 20
12.01378055555555
 10
15.74284444444444
 20
12.01378055555555
  0
LWPOLYLINE
  5
1A6
330
2
100
AcDbEntity
  8
PDF_Layer 1
 62
     7
420
 16777215
370
    80
100
AcDbPolyline
 90
        2
 70
     0
 43
0.0
 10
15.74283888888888
 20
12.01378055555555
 10
15.72128333333333
 20
12.01378055555555
  0
LWPOLYLINE
  5
1A7
330
2
100
AcDbEntity
  8
PDF_Layer 1
 62
     7
420
 16777215
370
    80
100
AcDbPolyline
 90
        2
 70
     0
 43
0.0
 10
15.72128611111111
 20
12.01378055555555
 10
15.69196666666667
 20
12.01378055555555
  0
LWPOLYLINE
  5
1A8
330
2
100
AcDbEntity
  8
PDF_Layer 1
 62
     7
420
 16777215
370
    80
100
AcDbPolyline
 90
        3
 70
     0
 43
0.0
 10
15.6919625
 20
12.01378055555555
 10
15.65376805555555
 20
12.01378055555555
 10
15.60878194444444
 20
12.01378055555555
  0
LWPOLYLINE
  5
1AA
330
2
100
AcDbEntity
  8
PDF_Layer 1
 62
     7
420
 16777215
370
    80
100
AcDbPolyline
 90
        2
 70
     0
 43
0.0
 10
15.60877777777777
 20
12.01378055555555
 10
15.55588888888888
 20
12.01378055555555
  0
LWPOLYLINE
  5
1AB
330
2
100
AcDbEntity
  8
PDF_Layer 1
 62
     7
420
 16777215
370
    80
100
AcDbPolyline
 90
        4
 70
     0
 43
0.0
 10
15.55589444444444
 20
12.01378055555555
 10
15.49626944444444
 20
12.01378055555555
 10
15.42972777777777
 20
12.01378055555555
 10
15.35825555555555
 20
12.01378055555555
  0
LWPOLYLINE
  5
1AE
330
2
100
AcDbEntity
  8
PDF_Layer 1
 62
     7
420
 16777215
370
    80
100
AcDbPolyline
 90
        2
 70
     0
 43
0.0
 10
15.35826249999999
 20
12.01378055555555
 10
15.28098472222222
 20
12.01378055555555
  0
LWPOLYLINE
  5
1B1
330
2
100
AcDbEntity
  8
PDF_Layer 1
 62
     7
420
 16777215
370
    80
100
AcDbPolyline
 90
        2
 70
     0
 43
0.0
 10
15.11564166666666
 20
12.01378055555555
 10
15.02853055555555
 20
12.01378055555555
  0
LWPOLYLINE
  5
1B7
330
2
100
AcDbEntity
  8
PDF_Layer 1
 62
     7
420
 16777215
370
    80
100
AcDbPolyline
 90
        2
 70
     0
 43
0.0
 10
14.57642916666666
 20
12.01378055555555
 10
14.4883875
 20
12.01378055555555
  0
LWPOLYLINE
  5
1B9
330
2
100
AcDbEntity
  8
PDF_Layer 1
 62
     7
420
 16777215
370
    80
100
AcDbPolyline
 90
        2
 70
     0
 43
0.0
 10
14.40424305555555
 20
12.01378055555555
 10
14.32304861111111
 20
12.01378055555555
  0
LWPOLYLINE
  5
1BA
330
2
100
AcDbEntity
  8
PDF_Layer 1
 62
     7
420
 16777215
370
    80
100
AcDbPolyline
 90
        2
 70
     0
 43
0.0
 10
14.32305277777778
 20
12.01378055555555
 10
14.24667777777777
 20
12.01378055555555
  0
LWPOLYLINE
  5
1BB
330
2
100
AcDbEntity
  8
PDF_Layer 1
 62
     7
420
 16777215
370
    80
100
AcDbPolyline
 90
        2
 70
     0
 43
0.0
 10
14.24667638888888
 20
12.01378055555555
 10
14.17430138888889
 20
12.01378055555555
  0
LWPOLYLINE
  5
1BC
330
2
100
AcDbEntity
  8
PDF_Layer 1
 62
     7
420
 16777215
370
    80
100
AcDbPolyline
 90
        2
 70
     0
 43
0.0
 10
14.17430277777778
 20
12.01378055555555
 10
14.10873333333333
 20
12.01378055555555
  0
LWPOLYLINE
  5
1BD
330
2
100
AcDbEntity
  8
PDF_Layer 1
 62
     7
420
 16777215
370
    80
100
AcDbPolyline
 90
        2
 70
     0
 43
0.0
 10
14.1087375
 20
12.01378055555555
 10
14.04904305555555
 20
12.01378055555555
  0
LWPOLYLINE
  5
1BE
330
2
100
AcDbEntity
  8
PDF_Layer 1
 62
     7
420
 16777215
370
    80
100
AcDbPolyline
 90
        2
 70
     0
 43
0.0
 10
14.04904444444444
 20
12.01378055555555
 10
13.99622499999999
 20
12.01378055555555
  0
LWPOLYLINE
  5
1BF
330
2
100
AcDbEntity
  8
PDF_Layer 1
 62
     7
420
 16777215
370
    80
100
AcDbPolyline
 90
        2
 70
     0
 43
0.0
 10
13.99622916666666
 20
12.01378055555555
 10
13.95021527777777
 20
12.01378055555555
  0
LWPOLYLINE
  5
1C0
330
2
100
AcDbEntity
  8
PDF_Layer 1
 62
     7
420
 16777215
370
    80
100
AcDbPolyline
 90
        2
 70
     0
 43
0.0
 10
13.95020833333333
 20
12.01378055555555
 10
13.91304166666667
 20
12.01378055555555
  0
LWPOLYLINE
  5
1C1
330
2
100
AcDbEntity
  8
PDF_Layer 1
 62
     7
420
 16777215
370
    80
100
AcDbPolyline
 90
        2
 70
     0
 43
0.0
 10
13.91304583333333
 20
12.01378055555555
 10
13.88268472222222
 20
12.01378055555555
  0
LWPOLYLINE
  5
1C2
330
2
100
AcDbEntity
  8
PDF_Layer 1
 62
     7
420
 16777215
370
    80
100
AcDbPolyline
 90
        2
 70
     0
 43
0.0
 10
13.88269027777778
 20
12.01378055555555
 10
13.86119027777778
 20
12.01378055555555
  0
LWPOLYLINE
  5
1C3
330
2
100
AcDbEntity
  8
PDF_Layer 1
 62
     7
420
 16777215
370
    80
100
AcDbPolyline
 90
        3
 70
     0
 43
0.0
 10
13.86119305555555
 20
12.01378055555555
 10
13.84844305555555
 20
12.01378055555555
 10
13.84358194444444
 20
12.01378055555555
  0
LWPOLYLINE
  5
1C5
330
2
100
AcDbEntity
  8
PDF_Layer 1
 62
     7
420
 16777215
370
    80
100
AcDbPolyline
 90
        2
 70
     0
 43
0.0
 10
2.880601388888888
 20
9.309258333333332
 10
2.880601388888888
 20
9.269133333333332
  0
LWPOLYLINE
  5
1C6
330
2
100
AcDbEntity
  8
PDF_Layer 1
 62
     7
420
 16777215
370
    80
100
AcDbPolyline
 90
        2
 70
     0
 43
0.0
 10
2.880601388888888
 20
9.269130555555554
 10
2.880601388888888
 20
9.228991666666665
  0
LWPOLYLINE
  5
1C7
330
2
100
AcDbEntity
  8
PDF_Layer 1
 62
     7
420
 16777215
370
    80
100
AcDbPolyline
 90
        2
 70
     0
 43
0.0
 10
2.880601388888888
 20
9.22899722222222
 10
2.880601388888888
 20
9.189844444444442
  0
LWPOLYLINE
  5
1C8
330
2
100
AcDbEntity
  8
PDF_Layer 1
 62
     7
420
 16777215
370
    80
100
AcDbPolyline
 90
        2
 70
     0
 43
0.0
 10
2.880601388888888
 20
9.189840277777777
 10
2.880601388888888
 20
9.150743055555555
  0
LWPOLYLINE
  5
1C9
330
2
100
AcDbEntity
  8
PDF_Layer 1
 62
     7
420
 16777215
370
    80
100
AcDbPolyline
 90
        2
 70
     0
 43
0.0
 10
2.880601388888888
 20
9.150736111111109
 10
2.880601388888888
 20
9.111569444444443
  0
LWPOLYLINE
  5
1CA
330
2
100
AcDbEntity
  8
PDF_Layer 1
 62
     7
420
 16777215
370
    80
100
AcDbPolyline
 90
        2
 70
     0
 43
0.0
 10
2.880601388888888
 20
9.111572222222221
 10
2.880601388888888
 20
9.074419444444444
  0
LWPOLYLINE
  5
1CB
330
2
100
AcDbEntity
  8
PDF_Layer 1
 62
     7
420
 16777215
370
    80
100
AcDbPolyline
 90
        2
 70
     0
 43
0.0
 10
2.880601388888888
 20
9.074415277777776
 10
2.880601388888888
 20
9.038165277777775
  0
LWPOLYLINE
  5
1CC
330
2
100
AcDbEntity
  8
PDF_Layer 1
 62
     7
420
 16777215
370
    80
100
AcDbPolyline
 90
        2
 70
     0
 43
0.0
 10
2.880601388888888
 20
9.038166666666667
 10
2.880601388888888
 20
9.002944444444445
  0
LWPOLYLINE
  5
1CD
330
2
100
AcDbEntity
  8
PDF_Layer 1
 62
     7
420
 16777215
370
    80
100
AcDbPolyline
 90
        3
 70
     0
 43
0.0
 10
3.264159722222221
 20
9.044054166666667
 10
3.264159722222221
 20
9.074415277777776
 10
3.264159722222221
 20
9.111568055555553
  0
LWPOLYLINE
  5
1CF
330
2
100
AcDbEntity
  8
PDF_Layer 1
 62
     7
420
 16777215
370
    80
100
AcDbPolyline
 90
        2
 70
     0
 43
0.0
 10
3.264159722222221
 20
9.111572222222221
 10
3.264159722222221
 20
9.150738888888888
  0
LWPOLYLINE
  5
1D0
330
2
100
AcDbEntity
  8
PDF_Layer 1
 62
     7
420
 16777215
370
    80
100
AcDbPolyline
 90
        2
 70
     0
 43
0.0
 10
3.264159722222221
 20
9.150736111111109
 10
3.264159722222221
 20
9.189833333333332
  0
LWPOLYLINE
  5
1D1
330
2
100
AcDbEntity
  8
PDF_Layer 1
 62
     7
420
 16777215
370
    80
100
AcDbPolyline
 90
        2
 70
     0
 43
0.0
 10
3.264159722222221
 20
9.189840277777777
 10
3.264159722222221
 20
9.228993055555555
  0
LWPOLYLINE
  5
1D2
330
2
100
AcDbEntity
  8
PDF_Layer 1
 62
     7
420
 16777215
370
    80
100
AcDbPolyline
 90
        2
 70
     0
 43
0.0
 10
3.264159722222221
 20
9.22899722222222
 10
3.264159722222221
 20
9.269136111111109
  0
LWPOLYLINE
  5
1D3
330
2
100
AcDbEntity
  8
PDF_Layer 1
 62
     7
420
 16777215
370
    80
100
AcDbPolyline
 90
        2
 70
     0
 43
0.0
 10
3.264159722222221
 20
9.269130555555554
 10
3.264159722222221
 20
9.309255555555553
  0
LWPOLYLINE
  5
1D4
330
2
100
AcDbEntity
  8
PDF_Layer 1
 62
     7
420
 16777215
370
    80
100
AcDbPolyline
 90
        2
 70
     0
 43
0.0
 10
14.99427638888889
 20
9.00295
 10
14.99427638888889
 20
9.038172222222222
  0
LWPOLYLINE
  5
1D5
330
2
100
AcDbEntity
  8
PDF_Layer 1
 62
     7
420
 16777215
370
    80
100
AcDbPolyline
 90
        2
 70
     0
 43
0.0
 10
14.99427638888889
 20
9.038166666666667
 10
14.99427638888889
 20
9.074416666666667
  0
LWPOLYLINE
  5
1D6
330
2
100
AcDbEntity
  8
PDF_Layer 1
 62
     7
420
 16777215
370
    80
100
AcDbPolyline
 90
        2
 70
     0
 43
0.0
 10
14.99427638888889
 20
9.074415277777776
 10
14.99427638888889
 20
9.111568055555553
  0
LWPOLYLINE
  5
1D7
330
2
100
AcDbEntity
  8
PDF_Layer 1
 62
     7
420
 16777215
370
    80
100
AcDbPolyline
 90
        2
 70
     0
 43
0.0
 10
14.99427638888889
 20
9.111572222222221
 10
14.99427638888889
 20
9.150738888888888
  0
LWPOLYLINE
  5
1D8
330
2
100
AcDbEntity
  8
PDF_Layer 1
 62
     7
420
 16777215
370
    80
100
AcDbPolyline
 90
        2
 70
     0
 43
0.0
 10
14.99427638888889
 20
9.150736111111109
 10
14.99427638888889
 20
9.189833333333332
  0
LWPOLYLINE
  5
1D9
330
2
100
AcDbEntity
  8
PDF_Layer 1
 62
     7
420
 16777215
370
    80
100
AcDbPolyline
 90
        2
 70
     0
 43
0.0
 10
14.99427638888889
 20
9.189840277777777
 10
14.99427638888889
 20
9.228993055555555
  0
LWPOLYLINE
  5
1DA
330
2
100
AcDbEntity
  8
PDF_Layer 1
 62
     7
420
 16777215
370
    80
100
AcDbPolyline
 90
        2
 70
     0
 43
0.0
 10
14.99427638888889
 20
9.22899722222222
 10
14.99427638888889
 20
9.269136111111109
  0
LWPOLYLINE
  5
1DB
330
2
100
AcDbEntity
  8
PDF_Layer 1
 62
     7
420
 16777215
370
    80
100
AcDbPolyline
 90
        2
 70
     0
 43
0.0
 10
14.99427638888889
 20
9.269130555555554
 10
14.99427638888889
 20
9.309255555555553
  0
LWPOLYLINE
  5
1DC
330
2
100
AcDbEntity
  8
PDF_Layer 1
 62
     7
420
 16777215
370
    80
100
AcDbPolyline
 90
        3
 70
     0
 43
0.0
 10
14.61559305555555
 20
9.308230555555555
 10
14.61073194444444
 20
9.309258333333332
 10
14.61073194444444
 20
9.269133333333332
  0
LWPOLYLINE
  5
1DD
330
2
100
AcDbEntity
  8
PDF_Layer 1
 62
     7
420
 16777215
370
    80
100
AcDbPolyline
 90
        2
 70
     0
 43
0.0
 10
14.61073194444444
 20
9.269130555555554
 10
14.61073194444444
 20
9.228991666666665
  0
LWPOLYLINE
  5
1DE
330
2
100
AcDbEntity
  8
PDF_Layer 1
 62
     7
420
 16777215
370
    80
100
AcDbPolyline
 90
        2
 70
     0
 43
0.0
 10
14.61073194444444
 20
9.22899722222222
 10
14.61073194444444
 20
9.189844444444442
  0
LWPOLYLINE
  5
1DF
330
2
100
AcDbEntity
  8
PDF_Layer 1
 62
     7
420
 16777215
370
    80
100
AcDbPolyline
 90
        2
 70
     0
 43
0.0
 10
14.61073194444444
 20
9.189840277777777
 10
14.61073194444444
 20
9.150743055555555
  0
LWPOLYLINE
  5
1E0
330
2
100
AcDbEntity
  8
PDF_Layer 1
 62
     7
420
 16777215
370
    80
100
AcDbPolyline
 90
        2
 70
     0
 43
0.0
 10
14.61073194444444
 20
9.150736111111109
 10
14.61073194444444
 20
9.111569444444443
  0
LWPOLYLINE
  5
1E1
330
2
100
AcDbEntity
  8
PDF_Layer 1
 62
     7
420
 16777215
370
    80
100
AcDbPolyline
 90
        2
 70
     0
 43
0.0
 10
14.61073194444444
 20
9.111572222222221
 10
14.61073194444444
 20
9.074419444444444
  0
LWPOLYLINE
  5
1E2
330
2
100
AcDbEntity
  8
PDF_Layer 1
 62
     7
420
 16777215
370
    80
100
AcDbPolyline
 90
        2
 70
     0
 43
0.0
 10
14.61073194444444
 20
9.074415277777776
 10
14.61073194444444
 20
9.022568055555554
  0
LWPOLYLINE
  5
1E4
330
2
100
AcDbEntity
  8
PDF_Layer 1
 62
     7
420
 16777215
370
    80
100
AcDbPolyline
 90
        2
 70
     0
 43
0.0
 10
13.27115833333333
 20
6.709404166666665
 10
13.36508888888889
 20
6.715237499999998
  0
LWPOLYLINE
  5
1E5
330
2
100
AcDbEntity
  8
PDF_Layer 1
 62
     7
420
 16777215
370
    80
100
AcDbPolyline
 90
        2
 70
     0
 43
0.0
 10
13.36508472222222
 20
6.715237499999998
 10
13.45118194444444
 20
6.725070833333331
  0
LWPOLYLINE
  5
1E6
330
2
100
AcDbEntity
  8
PDF_Layer 1
 62
     7
420
 16777215
370
    80
100
AcDbPolyline
 90
        2
 70
     0
 43
0.0
 10
13.45118611111111
 20
6.725070833333332
 10
13.53726944444444
 20
6.738737499999999
  0
LWPOLYLINE
  5
1E7
330
2
100
AcDbEntity
  8
PDF_Layer 1
 62
     7
420
 16777215
370
    80
100
AcDbPolyline
 90
        2
 70
     0
 43
0.0
 10
13.53727222222222
 20
6.73873611111111
 10
13.61461944444444
 20
6.754402777777777
  0
LWPOLYLINE
  5
1E8
330
2
100
AcDbEntity
  8
PDF_Layer 1
 62
     7
420
 16777215
370
    80
100
AcDbPolyline
 90
        2
 70
     0
 43
0.0
 10
13.61462361111111
 20
6.754401388888887
 10
13.69094305555555
 20
6.772012499999998
  0
LWPOLYLINE
  5
1E9
330
2
100
AcDbEntity
  8
PDF_Layer 1
 62
     7
420
 16777215
370
    80
100
AcDbPolyline
 90
        2
 70
     0
 43
0.0
 10
13.69094444444444
 20
6.772006944444443
 10
13.75845833333333
 20
6.790590277777776
  0
LWPOLYLINE
  5
1EA
330
2
100
AcDbEntity
  8
PDF_Layer 1
 62
     7
420
 16777215
370
    80
100
AcDbPolyline
 90
        2
 70
     0
 43
0.0
 10
13.75846388888889
 20
6.790588888888888
 10
13.82596388888889
 20
6.812144444444443
  0
LWPOLYLINE
  5
1EB
330
2
100
AcDbEntity
  8
PDF_Layer 1
 62
     7
420
 16777215
370
    80
100
AcDbPolyline
 90
        2
 70
     0
 43
0.0
 10
13.82596805555555
 20
6.812140277777777
 10
13.9022875
 20
6.839529166666665
  0
LWPOLYLINE
  5
1EC
330
2
100
AcDbEntity
  8
PDF_Layer 1
 62
     7
420
 16777215
370
    80
100
AcDbPolyline
 90
        2
 70
     0
 43
0.0
 10
13.90228888888889
 20
6.839525
 10
13.97765
 20
6.870844444444444
  0
LWPOLYLINE
  5
1ED
330
2
100
AcDbEntity
  8
PDF_Layer 1
 62
     7
420
 16777215
370
    80
100
AcDbPolyline
 90
        2
 70
     0
 43
0.0
 10
13.97764722222222
 20
6.870849999999999
 10
14.0383
 20
6.898238888888887
  0
LWPOLYLINE
  5
1EE
330
2
100
AcDbEntity
  8
PDF_Layer 1
 62
     7
420
 16777215
370
    80
100
AcDbPolyline
 90
        2
 70
     0
 43
0.0
 10
14.03830277777777
 20
6.898234722222222
 10
14.09895555555555
 20
6.92762361111111
  0
LWPOLYLINE
  5
1EF
330
2
100
AcDbEntity
  8
PDF_Layer 1
 62
     7
420
 16777215
370
    80
100
AcDbPolyline
 90
        2
 70
     0
 43
0.0
 10
14.09895833333333
 20
6.927619444444443
 10
14.14594444444444
 20
6.953063888888888
  0
LWPOLYLINE
  5
1F0
330
2
100
AcDbEntity
  8
PDF_Layer 1
 62
     7
420
 16777215
370
    80
100
AcDbPolyline
 90
        2
 70
     0
 43
0.0
 10
14.14594166666666
 20
6.953056944444443
 10
14.19191388888888
 20
6.97947361111111
  0
LWPOLYLINE
  5
1F1
330
2
100
AcDbEntity
  8
PDF_Layer 1
 62
     7
420
 16777215
370
    80
100
AcDbPolyline
 90
        2
 70
     0
 43
0.0
 10
14.19190833333333
 20
6.979472222222221
 10
14.23204722222222
 20
7.003944444444443
  0
LWPOLYLINE
  5
1F2
330
2
100
AcDbEntity
  8
PDF_Layer 1
 62
     7
420
 16777215
370
    80
100
AcDbPolyline
 90
        2
 70
     0
 43
0.0
 10
14.23204166666667
 20
7.003940277777776
 10
14.27218055555555
 20
7.02938472222222
  0
LWPOLYLINE
  5
1F3
330
2
100
AcDbEntity
  8
PDF_Layer 1
 62
     7
420
 16777215
370
    80
100
AcDbPolyline
 90
        2
 70
     0
 43
0.0
 10
14.27217638888889
 20
7.029377777777777
 10
14.30835694444444
 20
7.054822222222221
  0
LWPOLYLINE
  5
1F4
330
2
100
AcDbEntity
  8
PDF_Layer 1
 62
     7
420
 16777215
370
    80
100
AcDbPolyline
 90
        2
 70
     0
 43
0.0
 10
14.3083625
 20
7.054816666666666
 10
14.34357083333333
 20
7.08026111111111
  0
LWPOLYLINE
  5
1F5
330
2
100
AcDbEntity
  8
PDF_Layer 1
 62
     7
420
 16777215
370
    80
100
AcDbPolyline
 90
        2
 70
     0
 43
0.0
 10
14.34357361111111
 20
7.08026111111111
 10
14.37879583333333
 20
7.106663888888888
  0
LWPOLYLINE
  5
1F6
330
2
100
AcDbEntity
  8
PDF_Layer 1
 62
     7
420
 16777215
370
    80
100
AcDbPolyline
 90
        2
 70
     0
 43
0.0
 10
14.37879722222222
 20
7.106669444444444
 10
14.41304722222222
 20
7.134058333333332
  0
LWPOLYLINE
  5
1F7
330
2
100
AcDbEntity
  8
PDF_Layer 1
 62
     7
420
 16777215
370
    80
100
AcDbPolyline
 90
        2
 70
     0
 43
0.0
 10
14.41304583333333
 20
7.134054166666665
 10
14.44632361111111
 20
7.161443055555554
  0
LWPOLYLINE
  5
1F8
330
2
100
AcDbEntity
  8
PDF_Layer 1
 62
     7
420
 16777215
370
    80
100
AcDbPolyline
 90
        2
 70
     0
 43
0.0
 10
14.44631666666666
 20
7.161437499999999
 10
14.47959444444444
 20
7.190826388888888
  0
LWPOLYLINE
  5
1F9
330
2
100
AcDbEntity
  8
PDF_Layer 1
 62
     7
420
 16777215
370
    80
100
AcDbPolyline
 90
        2
 70
     0
 43
0.0
 10
14.47958749999999
 20
7.190823611111111
 10
14.51675416666666
 20
7.226045833333333
  0
LWPOLYLINE
  5
1FA
330
2
100
AcDbEntity
  8
PDF_Layer 1
 62
     7
420
 16777215
370
    80
100
AcDbPolyline
 90
        2
 70
     0
 43
0.0
 10
14.51675138888889
 20
7.226040277777778
 10
14.5529875
 20
7.2612625
  0
LWPOLYLINE
  5
1FB
330
2
100
AcDbEntity
  8
PDF_Layer 1
 62
     7
420
 16777215
370
    80
100
AcDbPolyline
 90
        2
 70
     0
 43
0.0
 10
14.55299166666666
 20
7.261256944444443
 10
14.58724166666666
 20
7.298465277777776
  0
LWPOLYLINE
  5
1FC
330
2
100
AcDbEntity
  8
PDF_Layer 1
 62
     7
420
 16777215
370
    80
100
AcDbPolyline
 90
        2
 70
     0
 43
0.0
 10
14.58724027777777
 20
7.298468055555556
 10
14.62051805555555
 20
7.334648611111111
  0
LWPOLYLINE
  5
1FD
330
2
100
AcDbEntity
  8
PDF_Layer 1
 62
     7
420
 16777215
370
    80
100
AcDbPolyline
 90
        2
 70
     0
 43
0.0
 10
14.62051111111111
 20
7.334655555555555
 10
14.65669166666666
 20
7.378669444444444
  0
LWPOLYLINE
  5
1FE
330
2
100
AcDbEntity
  8
PDF_Layer 1
 62
     7
420
 16777215
370
    80
100
AcDbPolyline
 90
        2
 70
     0
 43
0.0
 10
14.65669722222222
 20
7.378674999999999
 10
14.69190555555555
 20
7.422688888888888
  0
LWPOLYLINE
  5
1FF
330
2
100
AcDbEntity
  8
PDF_Layer 1
 62
     7
420
 16777215
370
    80
100
AcDbPolyline
 90
        2
 70
     0
 43
0.0
 10
14.69190833333333
 20
7.422695833333332
 10
14.72814444444444
 20
7.473584722222221
  0
LWPOLYLINE
  5
200
330
2
100
AcDbEntity
  8
PDF_Layer 1
 62
     7
420
 16777215
370
    80
100
AcDbPolyline
 90
        2
 70
     0
 43
0.0
 10
14.72815
 20
7.473579166666667
 10
14.7624
 20
7.525426388888889
  0
LWPOLYLINE
  5
201
330
2
100
AcDbEntity
  8
PDF_Layer 1
 62
     7
420
 16777215
370
    80
100
AcDbPolyline
 90
        2
 70
     0
 43
0.0
 10
14.76239722222222
 20
7.525431944444441
 10
14.79367499999999
 20
7.575334722222219
  0
LWPOLYLINE
  5
202
330
2
100
AcDbEntity
  8
PDF_Layer 1
 62
     7
420
 16777215
370
    80
100
AcDbPolyline
 90
        2
 70
     0
 43
0.0
 10
14.79367361111111
 20
7.575337499999999
 10
14.82202083333333
 20
7.626226388888889
  0
LWPOLYLINE
  5
203
330
2
100
AcDbEntity
  8
PDF_Layer 1
 62
     7
420
 16777215
370
    80
100
AcDbPolyline
 90
        2
 70
     0
 43
0.0
 10
14.82202083333333
 20
7.626220833333333
 10
14.84357638888889
 20
7.670234722222222
  0
LWPOLYLINE
  5
204
330
2
100
AcDbEntity
  8
PDF_Layer 1
 62
     7
420
 16777215
370
    80
100
AcDbPolyline
 90
        2
 70
     0
 43
0.0
 10
14.84357361111111
 20
7.670240277777777
 10
14.86512916666667
 20
7.714309722222221
  0
LWPOLYLINE
  5
205
330
2
100
AcDbEntity
  8
PDF_Layer 1
 62
     7
420
 16777215
370
    80
100
AcDbPolyline
 90
        2
 70
     0
 43
0.0
 10
14.86512638888888
 20
7.714315277777777
 10
14.88079305555555
 20
7.750495833333332
  0
LWPOLYLINE
  5
206
330
2
100
AcDbEntity
  8
PDF_Layer 1
 62
     7
420
 16777215
370
    80
100
AcDbPolyline
 90
        2
 70
     0
 43
0.0
 10
14.88079166666667
 20
7.750501388888887
 10
14.89543055555555
 20
7.787723611111109
  0
LWPOLYLINE
  5
207
330
2
100
AcDbEntity
  8
PDF_Layer 1
 62
     7
420
 16777215
370
    80
100
AcDbPolyline
 90
        2
 70
     0
 43
0.0
 10
14.89542638888889
 20
7.787719444444444
 10
14.90423194444444
 20
7.810191666666667
  0
LWPOLYLINE
  5
208
330
2
100
AcDbEntity
  8
PDF_Layer 1
 62
     7
420
 16777215
370
    80
100
AcDbPolyline
 90
        2
 70
     0
 43
0.0
 10
14.90422916666666
 20
7.810187499999998
 10
14.9120625
 20
7.832715277777776
  0
LWPOLYLINE
  5
209
330
2
100
AcDbEntity
  8
PDF_Layer 1
 62
     7
420
 16777215
370
    80
100
AcDbPolyline
 90
        2
 70
     0
 43
0.0
 10
14.91206805555555
 20
7.83270972222222
 10
14.91892916666666
 20
7.851293055555553
  0
LWPOLYLINE
  5
20A
330
2
100
AcDbEntity
  8
PDF_Layer 1
 62
     7
420
 16777215
370
    80
100
AcDbPolyline
 90
        2
 70
     0
 43
0.0
 10
14.91893194444444
 20
7.851291666666668
 10
14.92482083333333
 20
7.870847222222224
  0
LWPOLYLINE
  5
20B
330
2
100
AcDbEntity
  8
PDF_Layer 1
 62
     7
420
 16777215
370
    80
100
AcDbPolyline
 90
        2
 70
     0
 43
0.0
 10
14.92481805555555
 20
7.870843055555556
 10
14.93166527777777
 20
7.892398611111111
  0
LWPOLYLINE
  5
20C
330
2
100
AcDbEntity
  8
PDF_Layer 1
 62
     7
420
 16777215
370
    80
100
AcDbPolyline
 90
        2
 70
     0
 43
0.0
 10
14.93166805555555
 20
7.892394444444443
 10
14.93852916666666
 20
7.913894444444443
  0
LWPOLYLINE
  5
20D
330
2
100
AcDbEntity
  8
PDF_Layer 1
 62
     7
420
 16777215
370
    80
100
AcDbPolyline
 90
        2
 70
     0
 43
0.0
 10
14.93853055555555
 20
7.913893055555554
 10
14.9453361111111
 20
7.939337499999998
  0
LWPOLYLINE
  5
20E
330
2
100
AcDbEntity
  8
PDF_Layer 1
 62
     7
420
 16777215
370
    80
100
AcDbPolyline
 90
        2
 70
     0
 43
0.0
 10
14.94534027777777
 20
7.939330555555555
 10
14.95220138888888
 20
7.964774999999999
  0
LWPOLYLINE
  5
20F
330
2
100
AcDbEntity
  8
PDF_Layer 1
 62
     7
420
 16777215
370
    80
100
AcDbPolyline
 90
        2
 70
     0
 43
0.0
 10
14.95220277777778
 20
7.964776388888887
 10
14.95905
 20
7.993179166666665
  0
LWPOLYLINE
  5
210
330
2
100
AcDbEntity
  8
PDF_Layer 1
 62
     7
420
 16777215
370
    80
100
AcDbPolyline
 90
        2
 70
     0
 43
0.0
 10
14.95905277777777
 20
7.993184722222222
 10
14.96494166666666
 20
8.021545833333334
  0
LWPOLYLINE
  5
211
330
2
100
AcDbEntity
  8
PDF_Layer 1
 62
     7
420
 16777215
370
    80
100
AcDbPolyline
 90
        2
 70
     0
 43
0.0
 10
14.96493888888889
 20
8.021538888888887
 10
14.97174444444445
 20
8.057719444444442
  0
LWPOLYLINE
  5
212
330
2
100
AcDbEntity
  8
PDF_Layer 1
 62
     7
420
 16777215
370
    80
100
AcDbPolyline
 90
        2
 70
     0
 43
0.0
 10
14.97174722222222
 20
8.057724999999997
 10
14.97763611111111
 20
8.09494722222222
  0
LWPOLYLINE
  5
213
330
2
100
AcDbEntity
  8
PDF_Layer 1
 62
     7
420
 16777215
370
    80
100
AcDbPolyline
 90
        2
 70
     0
 43
0.0
 10
14.97763333333333
 20
8.094943055555553
 10
14.98449444444444
 20
8.141873611111108
  0
LWPOLYLINE
  5
214
330
2
100
AcDbEntity
  8
PDF_Layer 1
 62
     7
420
 16777215
370
    80
100
AcDbPolyline
 90
        2
 70
     0
 43
0.0
 10
14.98449722222222
 20
8.141879166666667
 10
14.98935833333333
 20
8.189851388888889
  0
LWPOLYLINE
  5
215
330
2
100
AcDbEntity
  8
PDF_Layer 1
 62
     7
420
 16777215
370
    80
100
AcDbPolyline
 90
        2
 70
     0
 43
0.0
 10
14.98935277777777
 20
8.189845833333333
 10
14.99232499999999
 20
8.248554166666666
  0
LWPOLYLINE
  5
216
330
2
100
AcDbEntity
  8
PDF_Layer 1
 62
     7
420
 16777215
370
    80
100
AcDbPolyline
 90
        2
 70
     0
 43
0.0
 10
14.99232361111111
 20
8.248555555555554
 10
14.99428194444444
 20
8.307277777777777
  0
LWPOLYLINE
  5
217
330
2
100
AcDbEntity
  8
PDF_Layer 1
 62
     7
420
 16777215
370
    80
100
AcDbPolyline
 90
        2
 70
     0
 43
0.0
 10
14.61073194444444
 20
8.307270833333333
 10
14.60871805555555
 20
8.250506944444444
  0
LWPOLYLINE
  5
218
330
2
100
AcDbEntity
  8
PDF_Layer 1
 62
     7
420
 16777215
370
    80
100
AcDbPolyline
 90
        2
 70
     0
 43
0.0
 10
14.60872361111111
 20
8.250501388888887
 10
14.6038625
 20
8.193737499999997
  0
LWPOLYLINE
  5
219
330
2
100
AcDbEntity
  8
PDF_Layer 1
 62
     7
420
 16777215
370
    80
100
AcDbPolyline
 90
        2
 70
     0
 43
0.0
 10
14.60386805555556
 20
8.193731944444444
 10
14.59700694444445
 20
8.143829166666666
  0
LWPOLYLINE
  5
21A
330
2
100
AcDbEntity
  8
PDF_Layer 1
 62
     7
420
 16777215
370
    80
100
AcDbPolyline
 90
        2
 70
     0
 43
0.0
 10
14.59700555555555
 20
8.143826388888886
 10
14.5882
 20
8.094937499999996
  0
LWPOLYLINE
  5
21B
330
2
100
AcDbEntity
  8
PDF_Layer 1
 62
     7
420
 16777215
370
    80
100
AcDbPolyline
 90
        2
 70
     0
 43
0.0
 10
14.58820277777778
 20
8.094943055555553
 10
14.578425
 20
8.052859722222219
  0
LWPOLYLINE
  5
21C
330
2
100
AcDbEntity
  8
PDF_Layer 1
 62
     7
420
 16777215
370
    80
100
AcDbPolyline
 90
        2
 70
     0
 43
0.0
 10
14.57842361111111
 20
8.052863888888886
 10
14.56763194444444
 20
8.010794444444442
  0
LWPOLYLINE
  5
21D
330
2
100
AcDbEntity
  8
PDF_Layer 1
 62
     7
420
 16777215
370
    80
100
AcDbPolyline
 90
        2
 70
     0
 43
0.0
 10
14.56762638888888
 20
8.010790277777777
 10
14.55590416666666
 20
7.975526388888888
  0
LWPOLYLINE
  5
21E
330
2
100
AcDbEntity
  8
PDF_Layer 1
 62
     7
420
 16777215
370
    80
100
AcDbPolyline
 90
        2
 70
     0
 43
0.0
 10
14.55590833333333
 20
7.975524999999999
 10
14.54315833333333
 20
7.940358333333332
  0
LWPOLYLINE
  5
21F
330
2
100
AcDbEntity
  8
PDF_Layer 1
 62
     7
420
 16777215
370
    80
100
AcDbPolyline
 90
        2
 70
     0
 43
0.0
 10
14.54315833333333
 20
7.940362499999999
 10
14.53143611111111
 20
7.910001388888887
  0
LWPOLYLINE
  5
220
330
2
100
AcDbEntity
  8
PDF_Layer 1
 62
     7
420
 16777215
370
    80
100
AcDbPolyline
 90
        2
 70
     0
 43
0.0
 10
14.53144027777777
 20
7.909999999999999
 10
14.51874583333333
 20
7.879652777777777
  0
LWPOLYLINE
  5
221
330
2
100
AcDbEntity
  8
PDF_Layer 1
 62
     7
420
 16777215
370
    80
100
AcDbPolyline
 90
        2
 70
     0
 43
0.0
 10
14.51874444444444
 20
7.879652777777776
 10
14.50696666666666
 20
7.854208333333332
  0
LWPOLYLINE
  5
222
330
2
100
AcDbEntity
  8
PDF_Layer 1
 62
     7
420
 16777215
370
    80
100
AcDbPolyline
 90
        2
 70
     0
 43
0.0
 10
14.50697222222222
 20
7.854206944444443
 10
14.49427777777778
 20
7.828762499999998
  0
LWPOLYLINE
  5
223
330
2
100
AcDbEntity
  8
PDF_Layer 1
 62
     7
420
 16777215
370
    80
100
AcDbPolyline
 90
        2
 70
     0
 43
0.0
 10
14.49427638888889
 20
7.828769444444445
 10
14.48056805555555
 20
7.802352777777778
  0
LWPOLYLINE
  5
224
330
2
100
AcDbEntity
  8
PDF_Layer 1
 62
     7
420
 16777215
370
    80
100
AcDbPolyline
 90
        2
 70
     0
 43
0.0
 10
14.48056388888889
 20
7.802354166666666
 10
14.46591111111111
 20
7.775951388888888
  0
LWPOLYLINE
  5
225
330
2
100
AcDbEntity
  8
PDF_Layer 1
 62
     7
420
 16777215
370
    80
100
AcDbPolyline
 90
        2
 70
     0
 43
0.0
 10
14.46591527777778
 20
7.77594722222222
 10
14.44727638888889
 20
7.744613888888887
  0
LWPOLYLINE
  5
226
330
2
100
AcDbEntity
  8
PDF_Layer 1
 62
     7
420
 16777215
370
    80
100
AcDbPolyline
 90
        2
 70
     0
 43
0.0
 10
14.44727916666666
 20
7.744615277777777
 10
14.42773749999999
 20
7.713351388888888
  0
LWPOLYLINE
  5
227
330
2
100
AcDbEntity
  8
PDF_Layer 1
 62
     7
420
 16777215
370
    80
100
AcDbPolyline
 90
        2
 70
     0
 43
0.0
 10
14.42773472222222
 20
7.713344444444443
 10
14.4032625
 20
7.677094444444443
  0
LWPOLYLINE
  5
228
330
2
100
AcDbEntity
  8
PDF_Layer 1
 62
     7
420
 16777215
370
    80
100
AcDbPolyline
 90
        2
 70
     0
 43
0.0
 10
14.40326666666666
 20
7.677097222222221
 10
14.37686388888889
 20
7.64286111111111
  0
LWPOLYLINE
  5
229
330
2
100
AcDbEntity
  8
PDF_Layer 1
 62
     7
420
 16777215
370
    80
100
AcDbPolyline
 90
        2
 70
     0
 43
0.0
 10
14.37685833333333
 20
7.642855555555556
 10
14.345525
 20
7.603758333333334
  0
LWPOLYLINE
  5
22A
330
2
100
AcDbEntity
  8
PDF_Layer 1
 62
     7
420
 16777215
370
    80
100
AcDbPolyline
 90
        2
 70
     0
 43
0.0
 10
14.34552638888888
 20
7.603752777777777
 10
14.31224861111111
 20
7.565558333333332
  0
LWPOLYLINE
  5
22B
330
2
100
AcDbEntity
  8
PDF_Layer 1
 62
     7
420
 16777215
370
    80
100
AcDbPolyline
 90
        2
 70
     0
 43
0.0
 10
14.31225555555555
 20
7.565565277777778
 10
14.28876944444444
 20
7.540120833333334
  0
LWPOLYLINE
  5
22C
330
2
100
AcDbEntity
  8
PDF_Layer 1
 62
     7
420
 16777215
370
    80
100
AcDbPolyline
 90
        2
 70
     0
 43
0.0
 10
14.28876388888889
 20
7.540120833333333
 10
14.26427777777777
 20
7.514676388888889
  0
LWPOLYLINE
  5
22D
330
2
100
AcDbEntity
  8
PDF_Layer 1
 62
     7
420
 16777215
370
    80
100
AcDbPolyline
 90
        2
 70
     0
 43
0.0
 10
14.26428194444444
 20
7.514681944444442
 10
14.24279583333333
 20
7.494154166666664
  0
LWPOLYLINE
  5
22E
330
2
100
AcDbEntity
  8
PDF_Layer 1
 62
     7
420
 16777215
370
    80
100
AcDbPolyline
 90
        2
 70
     0
 43
0.0
 10
14.24279722222222
 20
7.494161111111111
 10
14.22026944444444
 20
7.473577777777777
  0
LWPOLYLINE
  5
22F
330
2
100
AcDbEntity
  8
PDF_Layer 1
 62
     7
420
 16777215
370
    80
100
AcDbPolyline
 90
        2
 70
     0
 43
0.0
 10
14.22026944444444
 20
7.473579166666667
 10
14.20168611111111
 20
7.457926388888889
  0
LWPOLYLINE
  5
230
330
2
100
AcDbEntity
  8
PDF_Layer 1
 62
     7
420
 16777215
370
    80
100
AcDbPolyline
 90
        2
 70
     0
 43
0.0
 10
14.2016875
 20
7.457919444444443
 10
14.18310416666666
 20
7.441280555555554
  0
LWPOLYLINE
  5
231
330
2
100
AcDbEntity
  8
PDF_Layer 1
 62
     7
420
 16777215
370
    80
100
AcDbPolyline
 90
        2
 70
     0
 43
0.0
 10
14.18310555555556
 20
7.441277777777777
 10
14.16743888888889
 20
7.428583333333333
  0
LWPOLYLINE
  5
232
330
2
100
AcDbEntity
  8
PDF_Layer 1
 62
     7
420
 16777215
370
    80
100
AcDbPolyline
 90
        2
 70
     0
 43
0.0
 10
14.16744027777778
 20
7.428588888888888
 10
14.1517875
 20
7.416866666666665
  0
LWPOLYLINE
  5
233
330
2
100
AcDbEntity
  8
PDF_Layer 1
 62
     7
420
 16777215
370
    80
100
AcDbPolyline
 90
        2
 70
     0
 43
0.0
 10
14.1517875
 20
7.416863888888888
 10
14.1410375
 20
7.407030555555555
  0
LWPOLYLINE
  5
234
330
2
100
AcDbEntity
  8
PDF_Layer 1
 62
     7
420
 16777215
370
    80
100
AcDbPolyline
 90
        2
 70
     0
 43
0.0
 10
14.14103194444444
 20
7.407036111111109
 10
14.12930972222222
 20
7.398230555555553
  0
LWPOLYLINE
  5
235
330
2
100
AcDbEntity
  8
PDF_Layer 1
 62
     7
420
 16777215
370
    80
100
AcDbPolyline
 90
        2
 70
     0
 43
0.0
 10
14.12931249999999
 20
7.398234722222222
 10
14.1165625
 20
7.389429166666666
  0
LWPOLYLINE
  5
236
330
2
100
AcDbEntity
  8
PDF_Layer 1
 62
     7
420
 16777215
370
    80
100
AcDbPolyline
 90
        2
 70
     0
 43
0.0
 10
14.11656388888889
 20
7.389424999999999
 10
14.10386944444444
 20
7.379647222222221
  0
LWPOLYLINE
  5
237
330
2
100
AcDbEntity
  8
PDF_Layer 1
 62
     7
420
 16777215
370
    80
100
AcDbPolyline
 90
        2
 70
     0
 43
0.0
 10
14.10386805555555
 20
7.379652777777776
 10
14.0823125
 20
7.364958333333332
  0
LWPOLYLINE
  5
238
330
2
100
AcDbEntity
  8
PDF_Layer 1
 62
     7
420
 16777215
370
    80
100
AcDbPolyline
 90
        2
 70
     0
 43
0.0
 10
14.08231666666666
 20
7.364956944444444
 10
14.06178888888889
 20
7.3502625
  0
LWPOLYLINE
  5
239
330
2
100
AcDbEntity
  8
PDF_Layer 1
 62
     7
420
 16777215
370
    80
100
AcDbPolyline
 90
        2
 70
     0
 43
0.0
 10
14.06179444444444
 20
7.350266666666666
 10
14.02555833333333
 20
7.327794444444443
  0
LWPOLYLINE
  5
23A
330
2
100
AcDbEntity
  8
PDF_Layer 1
 62
     7
420
 16777215
370
    80
100
AcDbPolyline
 90
        2
 70
     0
 43
0.0
 10
14.02555277777777
 20
7.327799999999998
 10
13.98937222222222
 20
7.305272222222221
  0
LWPOLYLINE
  5
23B
330
2
100
AcDbEntity
  8
PDF_Layer 1
 62
     7
420
 16777215
370
    80
100
AcDbPolyline
 90
        2
 70
     0
 43
0.0
 10
13.98936666666666
 20
7.305277777777777
 10
13.94043611111111
 20
7.277888888888888
  0
LWPOLYLINE
  5
23C
330
2
100
AcDbEntity
  8
PDF_Layer 1
 62
     7
420
 16777215
370
    80
100
AcDbPolyline
 90
        2
 70
     0
 43
0.0
 10
13.94042916666667
 20
7.277893055555556
 10
13.8905125
 20
7.252448611111112
  0
LWPOLYLINE
  5
23D
330
2
100
AcDbEntity
  8
PDF_Layer 1
 62
     7
420
 16777215
370
    80
100
AcDbPolyline
 90
        2
 70
     0
 43
0.0
 10
13.89051666666666
 20
7.252455555555556
 10
13.82694722222222
 20
7.223122222222222
  0
LWPOLYLINE
  5
23E
330
2
100
AcDbEntity
  8
PDF_Layer 1
 62
     7
420
 16777215
370
    80
100
AcDbPolyline
 90
        2
 70
     0
 43
0.0
 10
13.82694444444444
 20
7.22312361111111
 10
13.761375
 20
7.196651388888888
  0
LWPOLYLINE
  5
23F
330
2
100
AcDbEntity
  8
PDF_Layer 1
 62
     7
420
 16777215
370
    80
100
AcDbPolyline
 90
        2
 70
     0
 43
0.0
 10
13.76137916666666
 20
7.196655555555554
 10
13.70364305555555
 20
7.176127777777776
  0
LWPOLYLINE
  5
240
330
2
100
AcDbEntity
  8
PDF_Layer 1
 62
     7
420
 16777215
370
    80
100
AcDbPolyline
 90
        2
 70
     0
 43
0.0
 10
13.70364027777777
 20
7.176133333333332
 10
13.64394583333333
 20
7.157549999999999
  0
LWPOLYLINE
  5
241
330
2
100
AcDbEntity
  8
PDF_Layer 1
 62
     7
420
 16777215
370
    80
100
AcDbPolyline
 90
        2
 70
     0
 43
0.0
 10
13.64394861111111
 20
7.157551388888888
 10
13.5754625
 20
7.138968055555555
  0
LWPOLYLINE
  5
242
330
2
100
AcDbEntity
  8
PDF_Layer 1
 62
     7
420
 16777215
370
    80
100
AcDbPolyline
 90
        2
 70
     0
 43
0.0
 10
13.57546666666666
 20
7.138970833333332
 10
13.50696666666666
 20
7.123304166666666
  0
LWPOLYLINE
  5
243
330
2
100
AcDbEntity
  8
PDF_Layer 1
 62
     7
420
 16777215
370
    80
100
AcDbPolyline
 90
        2
 70
     0
 43
0.0
 10
13.50697222222222
 20
7.123304166666665
 10
13.42969444444444
 20
7.109581944444443
  0
LWPOLYLINE
  5
244
330
2
100
AcDbEntity
  8
PDF_Layer 1
 62
     7
420
 16777215
370
    80
100
AcDbPolyline
 90
        2
 70
     0
 43
0.0
 10
13.4296875
 20
7.109584722222221
 10
13.35140972222222
 20
7.099806944444443
  0
LWPOLYLINE
  5
245
330
2
100
AcDbEntity
  8
PDF_Layer 1
 62
     7
420
 16777215
370
    80
100
AcDbPolyline
 90
        2
 70
     0
 43
0.0
 10
13.35141388888889
 20
7.099812499999998
 10
13.26430277777777
 20
7.092951388888887
  0
LWPOLYLINE
  5
246
330
2
100
AcDbEntity
  8
PDF_Layer 1
 62
     7
420
 16777215
370
    80
100
AcDbPolyline
 90
        2
 70
     0
 43
0.0
 10
13.26429583333333
 20
7.09295
 10
13.17722638888889
 20
7.091005555555555
  0
LWPOLYLINE
  5
247
330
2
100
AcDbEntity
  8
PDF_Layer 1
 62
     7
420
 16777215
370
    80
100
AcDbPolyline
 90
        2
 70
     0
 43
0.0
 10
2.880601388888888
 20
8.307270833333333
 10
2.882559722222222
 20
8.229979166666666
  0
LWPOLYLINE
  5
248
330
2
100
AcDbEntity
  8
PDF_Layer 1
 62
     7
420
 16777215
370
    80
100
AcDbPolyline
 90
        2
 70
     0
 43
0.0
 10
2.88256111111111
 20
8.229973611111109
 10
2.889408333333332
 20
8.153654166666665
  0
LWPOLYLINE
  5
249
330
2
100
AcDbEntity
  8
PDF_Layer 1
 62
     7
420
 16777215
370
    80
100
AcDbPolyline
 90
        2
 70
     0
 43
0.0
 10
2.889404166666666
 20
8.15365972222222
 10
2.898209722222222
 20
8.086145833333331
  0
LWPOLYLINE
  5
24A
330
2
100
AcDbEntity
  8
PDF_Layer 1
 62
     7
420
 16777215
370
    80
100
AcDbPolyline
 90
        2
 70
     0
 43
0.0
 10
2.898206944444444
 20
8.086140277777776
 10
2.909956944444444
 20
8.019584722222219
  0
LWPOLYLINE
  5
24B
330
2
100
AcDbEntity
  8
PDF_Layer 1
 62
     7
420
 16777215
370
    80
100
AcDbPolyline
 90
        2
 70
     0
 43
0.0
 10
2.909959722222222
 20
8.019591666666665
 10
2.922681944444444
 20
7.962827777777776
  0
LWPOLYLINE
  5
24C
330
2
100
AcDbEntity
  8
PDF_Layer 1
 62
     7
420
 16777215
370
    80
100
AcDbPolyline
 90
        2
 70
     0
 43
0.0
 10
2.922674999999999
 20
7.962829166666666
 10
2.938313888888888
 20
7.906065277777777
  0
LWPOLYLINE
  5
24D
330
2
100
AcDbEntity
  8
PDF_Layer 1
 62
     7
420
 16777215
370
    80
100
AcDbPolyline
 90
        2
 70
     0
 43
0.0
 10
2.938313888888889
 20
7.906059722222222
 10
2.953980555555555
 20
7.857170833333333
  0
LWPOLYLINE
  5
24E
330
2
100
AcDbEntity
  8
PDF_Layer 1
 62
     7
420
 16777215
370
    80
100
AcDbPolyline
 90
        2
 70
     0
 43
0.0
 10
2.953979166666666
 20
7.857177777777778
 10
2.970618055555555
 20
7.810191666666667
  0
LWPOLYLINE
  5
24F
330
2
100
AcDbEntity
  8
PDF_Layer 1
 62
     7
420
 16777215
370
    80
100
AcDbPolyline
 90
        2
 70
     0
 43
0.0
 10
2.970615277777778
 20
7.810187499999998
 10
2.986281944444444
 20
7.768118055555554
  0
LWPOLYLINE
  5
250
330
2
100
AcDbEntity
  8
PDF_Layer 1
 62
     7
420
 16777215
370
    80
100
AcDbPolyline
 90
        2
 70
     0
 43
0.0
 10
2.986280555555555
 20
7.768113888888887
 10
3.003891666666666
 20
7.727974999999998
  0
LWPOLYLINE
  5
251
330
2
100
AcDbEntity
  8
PDF_Layer 1
 62
     7
420
 16777215
370
    80
100
AcDbPolyline
 90
        2
 70
     0
 43
0.0
 10
3.00388611111111
 20
7.727980555555554
 10
3.019538888888888
 20
7.693730555555553
  0
LWPOLYLINE
  5
252
330
2
100
AcDbEntity
  8
PDF_Layer 1
 62
     7
420
 16777215
370
    80
100
AcDbPolyline
 90
        2
 70
     0
 43
0.0
 10
3.019537499999999
 20
7.693731944444444
 10
3.035190277777777
 20
7.659495833333332
  0
LWPOLYLINE
  5
253
330
2
100
AcDbEntity
  8
PDF_Layer 1
 62
     7
420
 16777215
370
    80
100
AcDbPolyline
 90
        2
 70
     0
 43
0.0
 10
3.035197222222222
 20
7.659491666666667
 10
3.053794444444444
 20
7.624269444444445
  0
LWPOLYLINE
  5
254
330
2
100
AcDbEntity
  8
PDF_Layer 1
 62
     7
420
 16777215
370
    80
100
AcDbPolyline
 90
        2
 70
     0
 43
0.0
 10
3.053791666666666
 20
7.624274999999998
 10
3.07336111111111
 20
7.589066666666664
  0
LWPOLYLINE
  5
255
330
2
100
AcDbEntity
  8
PDF_Layer 1
 62
     7
420
 16777215
370
    80
100
AcDbPolyline
 90
        2
 70
     0
 43
0.0
 10
3.073356944444444
 20
7.589063888888887
 10
3.097815277777777
 20
7.547952777777775
  0
LWPOLYLINE
  5
256
330
2
100
AcDbEntity
  8
PDF_Layer 1
 62
     7
420
 16777215
370
    80
100
AcDbPolyline
 90
        2
 70
     0
 43
0.0
 10
3.097812499999999
 20
7.547952777777775
 10
3.123270833333333
 20
7.506855555555552
  0
LWPOLYLINE
  5
257
330
2
100
AcDbEntity
  8
PDF_Layer 1
 62
     7
420
 16777215
370
    80
100
AcDbPolyline
 90
        2
 70
     0
 43
0.0
 10
3.123270833333332
 20
7.50685
 10
3.15554861111111
 20
7.459919444444444
  0
LWPOLYLINE
  5
258
330
2
100
AcDbEntity
  8
PDF_Layer 1
 62
     7
420
 16777215
370
    80
100
AcDbPolyline
 90
        2
 70
     0
 43
0.0
 10
3.155551388888888
 20
7.459913888888889
 10
3.189801388888888
 20
7.412927777777778
  0
LWPOLYLINE
  5
259
330
2
100
AcDbEntity
  8
PDF_Layer 1
 62
     7
420
 16777215
370
    80
100
AcDbPolyline
 90
        2
 70
     0
 43
0.0
 10
3.18979861111111
 20
7.412923611111111
 10
3.230895833333332
 20
7.362048611111111
  0
LWPOLYLINE
  5
25A
330
2
100
AcDbEntity
  8
PDF_Layer 1
 62
     7
420
 16777215
370
    80
100
AcDbPolyline
 90
        2
 70
     0
 43
0.0
 10
3.230902777777777
 20
7.36204722222222
 10
3.273930555555555
 20
7.312130555555554
  0
LWPOLYLINE
  5
25B
330
2
100
AcDbEntity
  8
PDF_Layer 1
 62
     7
420
 16777215
370
    80
100
AcDbPolyline
 90
        2
 70
     0
 43
0.0
 10
3.273931944444444
 20
7.312133333333333
 10
3.301334722222221
 20
7.281827777777778
  0
LWPOLYLINE
  5
25C
330
2
100
AcDbEntity
  8
PDF_Layer 1
 62
     7
420
 16777215
370
    80
100
AcDbPolyline
 90
        2
 70
     0
 43
0.0
 10
3.301330555555555
 20
7.281833333333333
 10
3.329719444444444
 20
7.252458333333333
  0
LWPOLYLINE
  5
25D
330
2
100
AcDbEntity
  8
PDF_Layer 1
 62
     7
420
 16777215
370
    80
100
AcDbPolyline
 90
        2
 70
     0
 43
0.0
 10
3.329718055555555
 20
7.252455555555556
 10
3.355162499999999
 20
7.227983333333334
  0
LWPOLYLINE
  5
25E
330
2
100
AcDbEntity
  8
PDF_Layer 1
 62
     7
420
 16777215
370
    80
100
AcDbPolyline
 90
        2
 70
     0
 43
0.0
 10
3.355156944444444
 20
7.227980555555554
 10
3.380601388888889
 20
7.203508333333331
  0
LWPOLYLINE
  5
25F
330
2
100
AcDbEntity
  8
PDF_Layer 1
 62
     7
420
 16777215
370
    80
100
AcDbPolyline
 90
        2
 70
     0
 43
0.0
 10
3.380594444444444
 20
7.20351111111111
 10
3.403094444444444
 20
7.182983333333332
  0
LWPOLYLINE
  5
260
330
2
100
AcDbEntity
  8
PDF_Layer 1
 62
     7
420
 16777215
370
    80
100
AcDbPolyline
 90
        2
 70
     0
 43
0.0
 10
3.403090277777777
 20
7.182990277777778
 10
3.426590277777777
 20
7.163434722222222
  0
LWPOLYLINE
  5
261
330
2
100
AcDbEntity
  8
PDF_Layer 1
 62
     7
420
 16777215
370
    80
100
AcDbPolyline
 90
        2
 70
     0
 43
0.0
 10
3.426588888888888
 20
7.163438888888887
 10
3.44518611111111
 20
7.146799999999998
  0
LWPOLYLINE
  5
262
330
2
100
AcDbEntity
  8
PDF_Layer 1
 62
     7
420
 16777215
370
    80
100
AcDbPolyline
 90
        2
 70
     0
 43
0.0
 10
3.445183333333333
 20
7.146802777777777
 10
3.464766666666666
 20
7.131136111111111
  0
LWPOLYLINE
  5
263
330
2
100
AcDbEntity
  8
PDF_Layer 1
 62
     7
420
 16777215
370
    80
100
AcDbPolyline
 90
        3
 70
     0
 43
0.0
 10
3.464762499999999
 20
7.131137499999998
 10
3.480401388888889
 20
7.118387499999999
 10
3.496054166666667
 20
7.106665277777777
  0
LWPOLYLINE
  5
265
330
2
100
AcDbEntity
  8
PDF_Layer 1
 62
     7
420
 16777215
370
    80
100
AcDbPolyline
 90
        2
 70
     0
 43
0.0
 10
3.496059722222221
 20
7.106669444444444
 10
3.507795833333332
 20
7.096891666666666
  0
LWPOLYLINE
  5
266
330
2
100
AcDbEntity
  8
PDF_Layer 1
 62
     7
420
 16777215
370
    80
100
AcDbPolyline
 90
        2
 70
     0
 43
0.0
 10
3.50779861111111
 20
7.096897222222221
 10
3.51954861111111
 20
7.088091666666665
  0
LWPOLYLINE
  5
267
330
2
100
AcDbEntity
  8
PDF_Layer 1
 62
     7
420
 16777215
370
    80
100
AcDbPolyline
 90
        2
 70
     0
 43
0.0
 10
3.519544444444444
 20
7.0880875
 10
3.535211111111111
 20
7.076309722222222
  0
LWPOLYLINE
  5
268
330
2
100
AcDbEntity
  8
PDF_Layer 1
 62
     7
420
 16777215
370
    80
100
AcDbPolyline
 90
        2
 70
     0
 43
0.0
 10
3.53521111111111
 20
7.076313888888888
 10
3.550877777777777
 20
7.065563888888888
  0
LWPOLYLINE
  5
269
330
2
100
AcDbEntity
  8
PDF_Layer 1
 62
     7
420
 16777215
370
    80
100
AcDbPolyline
 90
        2
 70
     0
 43
0.0
 10
3.550876388888888
 20
7.065565277777777
 10
3.574334722222221
 20
7.048926388888888
  0
LWPOLYLINE
  5
26A
330
2
100
AcDbEntity
  8
PDF_Layer 1
 62
     7
420
 16777215
370
    80
100
AcDbPolyline
 90
        2
 70
     0
 43
0.0
 10
3.574340277777777
 20
7.048929166666666
 10
3.598798611111111
 20
7.032290277777777
  0
LWPOLYLINE
  5
26B
330
2
100
AcDbEntity
  8
PDF_Layer 1
 62
     7
420
 16777215
370
    80
100
AcDbPolyline
 90
        2
 70
     0
 43
0.0
 10
3.598795833333332
 20
7.032294444444444
 10
3.631101388888888
 20
7.011766666666666
  0
LWPOLYLINE
  5
26C
330
2
100
AcDbEntity
  8
PDF_Layer 1
 62
     7
420
 16777215
370
    80
100
AcDbPolyline
 90
        2
 70
     0
 43
0.0
 10
3.631097222222221
 20
7.01177361111111
 10
3.663388888888888
 20
6.991190277777777
  0
LWPOLYLINE
  5
26D
330
2
100
AcDbEntity
  8
PDF_Layer 1
 62
     7
420
 16777215
370
    80
100
AcDbPolyline
 90
        2
 70
     0
 43
0.0
 10
3.663391666666666
 20
6.991190277777777
 10
3.704488888888888
 20
6.966718055555555
  0
LWPOLYLINE
  5
26E
330
2
100
AcDbEntity
  8
PDF_Layer 1
 62
     7
420
 16777215
370
    80
100
AcDbPolyline
 90
        2
 70
     0
 43
0.0
 10
3.704494444444443
 20
6.966722222222222
 10
3.745577777777777
 20
6.943222222222222
  0
LWPOLYLINE
  5
26F
330
2
100
AcDbEntity
  8
PDF_Layer 1
 62
     7
420
 16777215
370
    80
100
AcDbPolyline
 90
        2
 70
     0
 43
0.0
 10
3.745577777777777
 20
6.943223611111109
 10
3.797425
 20
6.916820833333332
  0
LWPOLYLINE
  5
270
330
2
100
AcDbEntity
  8
PDF_Layer 1
 62
     7
420
 16777215
370
    80
100
AcDbPolyline
 90
        2
 70
     0
 43
0.0
 10
3.797425
 20
6.916815277777777
 10
3.849286111111111
 20
6.892343055555555
  0
LWPOLYLINE
  5
271
330
2
100
AcDbEntity
  8
PDF_Layer 1
 62
     7
420
 16777215
370
    80
100
AcDbPolyline
 90
        2
 70
     0
 43
0.0
 10
3.849290277777777
 20
6.892347222222221
 10
3.910929166666667
 20
6.864958333333333
  0
LWPOLYLINE
  5
272
330
2
100
AcDbEntity
  8
PDF_Layer 1
 62
     7
420
 16777215
370
    80
100
AcDbPolyline
 90
        2
 70
     0
 43
0.0
 10
3.91093611111111
 20
6.864962499999998
 10
3.973561111111111
 20
6.839518055555554
  0
LWPOLYLINE
  5
273
330
2
100
AcDbEntity
  8
PDF_Layer 1
 62
     7
420
 16777215
370
    80
100
AcDbPolyline
 90
        2
 70
     0
 43
0.0
 10
3.973565277777776
 20
6.839525
 10
4.045968055555554
 20
6.813108333333333
  0
LWPOLYLINE
  5
274
330
2
100
AcDbEntity
  8
PDF_Layer 1
 62
     7
420
 16777215
370
    80
100
AcDbPolyline
 90
        2
 70
     0
 43
0.0
 10
4.045966666666666
 20
6.813109722222222
 10
4.120327777777777
 20
6.78962361111111
  0
LWPOLYLINE
  5
275
330
2
100
AcDbEntity
  8
PDF_Layer 1
 62
     7
420
 16777215
370
    80
100
AcDbPolyline
 90
        2
 70
     0
 43
0.0
 10
4.120327777777777
 20
6.789618055555555
 10
4.204480555555555
 20
6.767145833333333
  0
LWPOLYLINE
  5
276
330
2
100
AcDbEntity
  8
PDF_Layer 1
 62
     7
420
 16777215
370
    80
100
AcDbPolyline
 90
        2
 70
     0
 43
0.0
 10
4.204481944444443
 20
6.767144444444443
 10
4.289634722222221
 20
6.747533333333333
  0
LWPOLYLINE
  5
277
330
2
100
AcDbEntity
  8
PDF_Layer 1
 62
     7
420
 16777215
370
    80
100
AcDbPolyline
 90
        2
 70
     0
 43
0.0
 10
4.289631944444444
 20
6.747538888888889
 10
4.385520833333333
 20
6.7309
  0
LWPOLYLINE
  5
278
330
2
100
AcDbEntity
  8
PDF_Layer 1
 62
     7
420
 16777215
370
    80
100
AcDbPolyline
 90
        2
 70
     0
 43
0.0
 10
4.385518055555555
 20
6.730902777777777
 10
4.482379166666666
 20
6.718208333333333
  0
LWPOLYLINE
  5
279
330
2
100
AcDbEntity
  8
PDF_Layer 1
 62
     7
420
 16777215
370
    80
100
AcDbPolyline
 90
        2
 70
     0
 43
0.0
 10
4.482380555555554
 20
6.718206944444443
 10
4.590019444444443
 20
6.709401388888887
  0
LWPOLYLINE
  5
27A
330
2
100
AcDbEntity
  8
PDF_Layer 1
 62
     7
420
 16777215
370
    80
100
AcDbPolyline
 90
        2
 70
     0
 43
0.0
 10
4.590013888888887
 20
6.709404166666665
 10
4.697652777777777
 20
6.707404166666665
  0
LWPOLYLINE
  5
27B
330
2
100
AcDbEntity
  8
PDF_Layer 1
 62
     7
420
 16777215
370
    80
100
AcDbPolyline
 90
        2
 70
     0
 43
0.0
 10
4.697645833333332
 20
7.091009722222222
 10
4.621326388888888
 20
7.092954166666666
  0
LWPOLYLINE
  5
27C
330
2
100
AcDbEntity
  8
PDF_Layer 1
 62
     7
420
 16777215
370
    80
100
AcDbPolyline
 90
        2
 70
     0
 43
0.0
 10
4.621324999999999
 20
7.09295
 10
4.545005555555555
 20
7.097866666666666
  0
LWPOLYLINE
  5
27D
330
2
100
AcDbEntity
  8
PDF_Layer 1
 62
     7
420
 16777215
370
    80
100
AcDbPolyline
 90
        2
 70
     0
 43
0.0
 10
4.545002777777777
 20
7.097866666666666
 10
4.475530555555555
 20
7.105699999999999
  0
LWPOLYLINE
  5
27E
330
2
100
AcDbEntity
  8
PDF_Layer 1
 62
     7
420
 16777215
370
    80
100
AcDbPolyline
 90
        2
 70
     0
 43
0.0
 10
4.475531944444442
 20
7.105699999999999
 10
4.406045833333331
 20
7.116449999999999
  0
LWPOLYLINE
  5
27F
330
2
100
AcDbEntity
  8
PDF_Layer 1
 62
     7
420
 16777215
370
    80
100
AcDbPolyline
 90
        2
 70
     0
 43
0.0
 10
4.406047222222222
 20
7.116448611111111
 10
4.344422222222221
 20
7.128170833333333
  0
LWPOLYLINE
  5
280
330
2
100
AcDbEntity
  8
PDF_Layer 1
 62
     7
420
 16777215
370
    80
100
AcDbPolyline
 90
        2
 70
     0
 43
0.0
 10
4.344415277777777
 20
7.128166666666666
 10
4.282762499999999
 20
7.142861111111111
  0
LWPOLYLINE
  5
281
330
2
100
AcDbEntity
  8
PDF_Layer 1
 62
     7
420
 16777215
370
    80
100
AcDbPolyline
 90
        2
 70
     0
 43
0.0
 10
4.282762499999999
 20
7.142855555555556
 10
4.227970833333333
 20
7.158522222222222
  0
LWPOLYLINE
  5
282
330
2
100
AcDbEntity
  8
PDF_Layer 1
 62
     7
420
 16777215
370
    80
100
AcDbPolyline
 90
        2
 70
     0
 43
0.0
 10
4.227966666666666
 20
7.158522222222221
 10
4.174147222222221
 20
7.17516111111111
  0
LWPOLYLINE
  5
283
330
2
100
AcDbEntity
  8
PDF_Layer 1
 62
     7
420
 16777215
370
    80
100
AcDbPolyline
 90
        2
 70
     0
 43
0.0
 10
4.174154166666665
 20
7.175156944444444
 10
4.112515277777776
 20
7.196656944444444
  0
LWPOLYLINE
  5
284
330
2
100
AcDbEntity
  8
PDF_Layer 1
 62
     7
420
 16777215
370
    80
100
AcDbPolyline
 90
        2
 70
     0
 43
0.0
 10
4.112515277777776
 20
7.196655555555554
 10
4.051834722222221
 20
7.221127777777776
  0
LWPOLYLINE
  5
285
330
2
100
AcDbEntity
  8
PDF_Layer 1
 62
     7
420
 16777215
370
    80
100
AcDbPolyline
 90
        2
 70
     0
 43
0.0
 10
4.051838888888888
 20
7.22112361111111
 10
4.002922222222221
 20
7.243651388888888
  0
LWPOLYLINE
  5
286
330
2
100
AcDbEntity
  8
PDF_Layer 1
 62
     7
420
 16777215
370
    80
100
AcDbPolyline
 90
        2
 70
     0
 43
0.0
 10
4.002922222222221
 20
7.243645833333332
 10
3.954963888888888
 20
7.267145833333332
  0
LWPOLYLINE
  5
287
330
2
100
AcDbEntity
  8
PDF_Layer 1
 62
     7
420
 16777215
370
    80
100
AcDbPolyline
 90
        2
 70
     0
 43
0.0
 10
3.954969444444444
 20
7.267144444444444
 10
3.916802777777777
 20
7.287672222222222
  0
LWPOLYLINE
  5
288
330
2
100
AcDbEntity
  8
PDF_Layer 1
 62
     7
420
 16777215
370
    80
100
AcDbPolyline
 90
        2
 70
     0
 43
0.0
 10
3.916809722222221
 20
7.287665277777777
 10
3.880615277777777
 20
7.30824861111111
  0
LWPOLYLINE
  5
289
330
2
100
AcDbEntity
  8
PDF_Layer 1
 62
     7
420
 16777215
370
    80
100
AcDbPolyline
 90
        2
 70
     0
 43
0.0
 10
3.880608333333332
 20
7.308247222222223
 10
3.848316666666666
 20
7.327802777777779
  0
LWPOLYLINE
  5
28A
330
2
100
AcDbEntity
  8
PDF_Layer 1
 62
     7
420
 16777215
370
    80
100
AcDbPolyline
 90
        2
 70
     0
 43
0.0
 10
3.848320833333332
 20
7.327799999999998
 10
3.816015277777777
 20
7.348327777777776
  0
LWPOLYLINE
  5
28B
330
2
100
AcDbEntity
  8
PDF_Layer 1
 62
     7
420
 16777215
370
    80
100
AcDbPolyline
 90
        2
 70
     0
 43
0.0
 10
3.816019444444444
 20
7.348327777777777
 10
3.787658333333332
 20
7.367938888888888
  0
LWPOLYLINE
  5
28C
330
2
100
AcDbEntity
  8
PDF_Layer 1
 62
     7
420
 16777215
370
    80
100
AcDbPolyline
 90
        2
 70
     0
 43
0.0
 10
3.787651388888888
 20
7.367933333333332
 10
3.760262499999999
 20
7.387488888888888
  0
LWPOLYLINE
  5
28D
330
2
100
AcDbEntity
  8
PDF_Layer 1
 62
     7
420
 16777215
370
    80
100
AcDbPolyline
 90
        2
 70
     0
 43
0.0
 10
3.760268055555554
 20
7.387484722222222
 10
3.732851388888887
 20
7.408012499999999
  0
LWPOLYLINE
  5
28E
330
2
100
AcDbEntity
  8
PDF_Layer 1
 62
     7
420
 16777215
370
    80
100
AcDbPolyline
 90
        2
 70
     0
 43
0.0
 10
3.732855555555555
 20
7.408006944444443
 10
3.706438888888889
 20
7.429562499999999
  0
LWPOLYLINE
  5
28F
330
2
100
AcDbEntity
  8
PDF_Layer 1
 62
     7
420
 16777215
370
    80
100
AcDbPolyline
 90
        2
 70
     0
 43
0.0
 10
3.706441666666666
 20
7.429558333333332
 10
3.680025
 20
7.451113888888888
  0
LWPOLYLINE
  5
290
330
2
100
AcDbEntity
  8
PDF_Layer 1
 62
     7
420
 16777215
370
    80
100
AcDbPolyline
 90
        2
 70
     0
 43
0.0
 10
3.680019444444443
 20
7.45111111111111
 10
3.654574999999999
 20
7.473583333333333
  0
LWPOLYLINE
  5
291
330
2
100
AcDbEntity
  8
PDF_Layer 1
 62
     7
420
 16777215
370
    80
100
AcDbPolyline
 90
        2
 70
     0
 43
0.0
 10
3.654575
 20
7.473579166666667
 10
3.6262
 20
7.499995833333334
  0
LWPOLYLINE
  5
292
330
2
100
AcDbEntity
  8
PDF_Layer 1
 62
     7
420
 16777215
370
    80
100
AcDbPolyline
 90
        2
 70
     0
 43
0.0
 10
3.626193055555555
 20
7.499993055555555
 10
3.597831944444443
 20
7.5274375
  0
LWPOLYLINE
  5
293
330
2
100
AcDbEntity
  8
PDF_Layer 1
 62
     7
420
 16777215
370
    80
100
AcDbPolyline
 90
        2
 70
     0
 43
0.0
 10
3.597826388888888
 20
7.527431944444444
 10
3.566520833333333
 20
7.560654166666666
  0
LWPOLYLINE
  5
294
330
2
100
AcDbEntity
  8
PDF_Layer 1
 62
     7
420
 16777215
370
    80
100
AcDbPolyline
 90
        2
 70
     0
 43
0.0
 10
3.566522222222221
 20
7.560648611111109
 10
3.536174999999999
 20
7.594940277777776
  0
LWPOLYLINE
  5
295
330
2
100
AcDbEntity
  8
PDF_Layer 1
 62
     7
420
 16777215
370
    80
100
AcDbPolyline
 90
        2
 70
     0
 43
0.0
 10
3.536180555555555
 20
7.594943055555553
 10
3.501930555555555
 20
7.635998611111109
  0
LWPOLYLINE
  5
296
330
2
100
AcDbEntity
  8
PDF_Layer 1
 62
     7
420
 16777215
370
    80
100
AcDbPolyline
 90
        2
 70
     0
 43
0.0
 10
3.501933333333333
 20
7.635993055555555
 10
3.470627777777777
 20
7.678131944444444
  0
LWPOLYLINE
  5
297
330
2
100
AcDbEntity
  8
PDF_Layer 1
 62
     7
420
 16777215
370
    80
100
AcDbPolyline
 90
        2
 70
     0
 43
0.0
 10
3.470622222222222
 20
7.678127777777775
 10
3.439316666666666
 20
7.725058333333331
  0
LWPOLYLINE
  5
298
330
2
100
AcDbEntity
  8
PDF_Layer 1
 62
     7
420
 16777215
370
    80
100
AcDbPolyline
 90
        2
 70
     0
 43
0.0
 10
3.43931111111111
 20
7.725063888888889
 10
3.409949999999999
 20
7.773022222222222
  0
LWPOLYLINE
  5
299
330
2
100
AcDbEntity
  8
PDF_Layer 1
 62
     7
420
 16777215
370
    80
100
AcDbPolyline
 90
        2
 70
     0
 43
0.0
 10
3.409952777777777
 20
7.77302361111111
 10
3.387452777777777
 20
7.814120833333332
  0
LWPOLYLINE
  5
29A
330
2
100
AcDbEntity
  8
PDF_Layer 1
 62
     7
420
 16777215
370
    80
100
AcDbPolyline
 90
        2
 70
     0
 43
0.0
 10
3.387458333333333
 20
7.814127777777776
 10
3.366902777777777
 20
7.856155555555554
  0
LWPOLYLINE
  5
29B
330
2
100
AcDbEntity
  8
PDF_Layer 1
 62
     7
420
 16777215
370
    80
100
AcDbPolyline
 90
        2
 70
     0
 43
0.0
 10
3.366902777777777
 20
7.856154166666666
 10
3.351263888888889
 20
7.890445833333332
  0
LWPOLYLINE
  5
29C
330
2
100
AcDbEntity
  8
PDF_Layer 1
 62
     7
420
 16777215
370
    80
100
AcDbPolyline
 90
        2
 70
     0
 43
0.0
 10
3.351256944444443
 20
7.890448611111111
 10
3.33754861111111
 20
7.923726388888889
  0
LWPOLYLINE
  5
29D
330
2
100
AcDbEntity
  8
PDF_Layer 1
 62
     7
420
 16777215
370
    80
100
AcDbPolyline
 90
        2
 70
     0
 43
0.0
 10
3.337551388888888
 20
7.923719444444444
 10
3.329718055555555
 20
7.943274999999999
  0
LWPOLYLINE
  5
29E
330
2
100
AcDbEntity
  8
PDF_Layer 1
 62
     7
420
 16777215
370
    80
100
AcDbPolyline
 90
        2
 70
     0
 43
0.0
 10
3.329718055555555
 20
7.943270833333332
 10
3.322870833333332
 20
7.961854166666665
  0
LWPOLYLINE
  5
29F
330
2
100
AcDbEntity
  8
PDF_Layer 1
 62
     7
420
 16777215
370
    80
100
AcDbPolyline
 90
        2
 70
     0
 43
0.0
 10
3.322869444444443
 20
7.961852777777778
 10
3.317980555555554
 20
7.978491666666667
  0
LWPOLYLINE
  5
2A0
330
2
100
AcDbEntity
  8
PDF_Layer 1
 62
     7
420
 16777215
370
    80
100
AcDbPolyline
 90
        2
 70
     0
 43
0.0
 10
3.31798611111111
 20
7.978495833333332
 10
3.31211111111111
 20
7.995120833333333
  0
LWPOLYLINE
  5
2A1
330
2
100
AcDbEntity
  8
PDF_Layer 1
 62
     7
420
 16777215
370
    80
100
AcDbPolyline
 90
        2
 70
     0
 43
0.0
 10
3.312106944444444
 20
7.995123611111111
 10
3.306231944444444
 20
8.014679166666667
  0
LWPOLYLINE
  5
2A2
330
2
100
AcDbEntity
  8
PDF_Layer 1
 62
     7
420
 16777215
370
    80
100
AcDbPolyline
 90
        2
 70
     0
 43
0.0
 10
3.306233333333333
 20
8.014681944444442
 10
3.301330555555555
 20
8.033265277777775
  0
LWPOLYLINE
  5
2A3
330
2
100
AcDbEntity
  8
PDF_Layer 1
 62
     7
420
 16777215
370
    80
100
AcDbPolyline
 90
        2
 70
     0
 43
0.0
 10
3.301330555555555
 20
8.033263888888887
 10
3.295469444444444
 20
8.055791666666666
  0
LWPOLYLINE
  5
2A4
330
2
100
AcDbEntity
  8
PDF_Layer 1
 62
     7
420
 16777215
370
    80
100
AcDbPolyline
 90
        2
 70
     0
 43
0.0
 10
3.295470833333332
 20
8.055786111111109
 10
3.289595833333332
 20
8.07927222222222
  0
LWPOLYLINE
  5
2A5
330
2
100
AcDbEntity
  8
PDF_Layer 1
 62
     7
420
 16777215
370
    80
100
AcDbPolyline
 90
        2
 70
     0
 43
0.0
 10
3.289598611111111
 20
8.079277777777779
 10
3.283723611111111
 20
8.106666666666667
  0
LWPOLYLINE
  5
2A6
330
2
100
AcDbEntity
  8
PDF_Layer 1
 62
     7
420
 16777215
370
    80
100
AcDbPolyline
 90
        2
 70
     0
 43
0.0
 10
3.283725
 20
8.106662500000002
 10
3.278836111111111
 20
8.13405138888889
  0
LWPOLYLINE
  5
2A7
330
2
100
AcDbEntity
  8
PDF_Layer 1
 62
     7
420
 16777215
370
    80
100
AcDbPolyline
 90
        2
 70
     0
 43
0.0
 10
3.278836111111111
 20
8.134047222222221
 10
3.27296111111111
 20
8.172241666666666
  0
LWPOLYLINE
  5
2A8
330
2
100
AcDbEntity
  8
PDF_Layer 1
 62
     7
420
 16777215
370
    80
100
AcDbPolyline
 90
        2
 70
     0
 43
0.0
 10
3.272962499999999
 20
8.172234722222221
 10
3.269045833333333
 20
8.21037361111111
  0
LWPOLYLINE
  5
2A9
330
2
100
AcDbEntity
  8
PDF_Layer 1
 62
     7
420
 16777215
370
    80
100
AcDbPolyline
 90
        2
 70
     0
 43
0.0
 10
3.26905
 20
8.210368055555553
 10
3.265147222222222
 20
8.258340277777776
  0
LWPOLYLINE
  5
2AA
330
2
100
AcDbEntity
  8
PDF_Layer 1
 62
     7
420
 16777215
370
    80
100
AcDbPolyline
 90
        2
 70
     0
 43
0.0
 10
3.265143055555555
 20
8.258334722222221
 10
3.264156944444444
 20
8.307265277777776
  0
LWPOLYLINE
  5
2AB
330
2
100
AcDbEntity
  8
PDF_Layer 1
 62
     7
420
 16777215
370
    80
100
AcDbPolyline
 90
       49
 70
     0
 43
0.0
 10
15.76238333333333
 20
12.01378055555555
 10
15.76531388888889
 20
12.01475277777777
 10
15.76924444444444
 20
12.01573888888888
 10
15.77216111111111
 20
12.01669722222222
 10
15.77507777777777
 20
12.01866944444444
 10
15.77805
 20
12.0216
 10
15.78000277777777
 20
12.02453611111111
 42
0.1520922455935555
 10
15.81131944444444
 20
12.16739166666666
 10
15.80738611111111
 20
12.16739166666666
 10
15.79469166666666
 20
12.16739166666666
 10
15.77313888888889
 20
12.16739166666666
 10
15.74380138888888
 20
12.16739166666666
 10
15.70562083333333
 20
12.16739166666666
 10
15.66063055555555
 20
12.16739166666666
 10
15.60774722222222
 20
12.16739166666666
 10
15.54812222222222
 20
12.16739166666666
 10
15.48254444444444
 20
12.16739166666666
 10
15.41011527777778
 20
12.16739166666666
 10
15.33379444444444
 20
12.16739166666666
 10
15.25261805555555
 20
12.16739166666666
 10
15.16646388888888
 20
12.16739166666666
 10
15.07842361111111
 20
12.16739166666666
 10
14.98741388888888
 20
12.16739166666666
 10
14.89542638888889
 20
12.16739166666666
 10
14.80247638888888
 20
12.16739166666666
 10
14.70951388888889
 20
12.16739166666666
 10
14.61656388888888
 20
12.16739166666666
 10
14.52555277777777
 20
12.16739166666666
 10
14.43751388888889
 20
12.16739166666666
 10
14.35239027777777
 20
12.16739166666666
 10
14.27114583333333
 20
12.16739166666666
 10
14.19386111111111
 20
12.16739166666666
 10
14.12245
 20
12.16739166666666
 10
14.05590833333333
 20
12.16739166666666
 10
13.99622916666666
 20
12.16739166666666
 10
13.94437638888889
 20
12.16739166666666
 10
13.89835555555555
 20
12.16739166666666
 10
13.86119305555555
 20
12.16739166666666
 10
13.8308375
 20
12.16739166666666
 10
13.81031666666666
 20
12.16739166666666
 10
13.79659027777777
 20
12.16739166666666
 10
13.79270138888889
 20
12.16739166666666
 42
0.1590338008205454
 10
13.82500555555555
 20
12.02453611111111
 10
13.82695
 20
12.02160555555555
 10
13.82889444444444
 20
12.01866111111111
 10
13.83181111111111
 20
12.01670277777777
 10
13.83574166666666
 20
12.01573055555555
 10
13.83865833333333
 20
12.01474444444444
 10
13.84261666666666
 20
12.01378611111111
  0
LWPOLYLINE
  5
2E3
330
2
100
AcDbEntity
  8
PDF_Layer 1
 62
     7
420
 16777215
370
    80
100
AcDbPolyline
 90
       52
 70
     0
 43
0.0
 10
15.7594125
 20
12.01378055555555
 10
15.7555375
 20
12.01378055555555
 10
15.75262083333333
 20
12.01279444444444
 10
15.74964861111111
 20
12.01083611111111
 10
15.74673194444444
 20
12.00887777777777
 10
15.74380138888888
 20
12.00594722222222
 10
15.74185694444444
 20
12.00301666666666
 10
15.74089861111111
 20
11.9991
 10
15.74090138888877
 20
11.99616111111112
 42
-0.1375730408359609
 10
15.69973055555555
 20
11.88852361111111
 10
15.69681388888889
 20
11.88657916666666
 10
15.69389722222222
 20
11.88363472222222
 10
15.690925
 20
11.8826625
 10
15.68703611111111
 20
11.88169027777777
 10
15.68309166666666
 20
11.88069027777777
 10
15.67629722222221
 20
11.88069027777777
 10
15.65376805555555
 20
11.88069027777777
 10
15.61660416666667
 20
11.88069027777777
 10
15.56572777777777
 20
11.88069027777777
 10
15.50112638888889
 20
11.88069027777777
 10
15.42578194444444
 20
11.88069027777777
 10
15.33871805555555
 20
11.88069027777777
 10
15.24278472222222
 20
11.88069027777777
 10
15.13907916666666
 20
11.88069027777777
 10
15.03046388888888
 20
11.88069027777777
 10
14.91697916666666
 20
11.88069027777777
 10
14.80247638888888
 20
11.88069027777777
 10
14.68705277777778
 20
11.88069027777777
 10
14.57449027777777
 20
11.88069027777777
 10
14.46489861111111
 20
11.88069027777777
 10
14.36119305555555
 20
11.88069027777777
 10
14.2653125
 20
11.88069027777777
 10
14.17917222222222
 20
11.88069027777777
 10
14.10285138888889
 20
11.88069027777777
 10
14.03926527777777
 20
11.88069027777777
 10
13.98839027777778
 20
11.88069027777777
 10
13.95117222222222
 20
11.88069027777777
 10
13.92087222222222
 20
11.88068888888889
 10
13.91694166666666
 20
11.88168888888889
 10
13.914025
 20
11.88266111111111
 10
13.91013611111111
 20
11.88363333333333
 10
13.90716388888889
 20
11.88657777777778
 10
13.90521944444444
 20
11.88852222222222
 42
-0.1478698081141286
 10
13.86410833333333
 20
11.99615416666667
 10
13.86313611111111
 20
11.99909861111111
 10
13.86216388888889
 20
12.00301527777777
 10
13.86021944444444
 20
12.00594583333333
 10
13.85821944444444
 20
12.00887638888889
 10
13.85530277777778
 20
12.01083472222222
 10
13.85141388888889
 20
12.01279305555555
 10
13.84844166666667
 20
12.01377916666667
 10
13.84455277777778
 20
12.01377916666667
  0
LWPOLYLINE
  5
2FA
330
2
100
AcDbEntity
  8
PDF_Layer 1
 62
     7
420
 16777215
370
    80
100
AcDbPolyline
 90
       37
 70
     0
 43
0.0
 10
15.15571805555552
 20
10.14781249999998
 42
-0.2125966777785402
 10
15.16160972222222
 20
9.897294444444442
 10
15.15965138888889
 20
9.894377777777776
 10
15.15766527777778
 20
9.891405555555554
 10
15.15474861111111
 20
9.88946111111111
 10
15.15177638888889
 20
9.887516666666664
 10
15.14885972222222
 20
9.886544444444442
 10
15.14594305555555
 20
9.88557222222222
 10
15.14302638888889
 20
9.88557222222222
 10
15.13811527777777
 20
9.88557222222222
 10
15.12632916666666
 20
9.88557222222222
 10
15.10580833333333
 20
9.88557222222222
 10
15.07744722222222
 20
9.88557222222222
 10
15.04321249999999
 20
9.88557222222222
 10
15.00210277777777
 20
9.88557222222222
 10
14.9571125
 20
9.88557222222222
 10
14.9072
 20
9.88557222222222
 10
14.85529305555555
 20
9.88557222222222
 10
14.80247638888888
 20
9.88557222222222
 10
14.74868472222222
 20
9.88557222222222
 10
14.69683194444444
 20
9.88557222222222
 10
14.64789444444444
 20
9.88557222222222
 10
14.60192916666666
 20
9.88557222222222
 10
14.56179444444444
 20
9.88557222222222
 10
14.52653055555555
 20
9.88557222222222
 10
14.49913194444444
 20
9.88557222222222
 10
14.47861111111111
 20
9.88557222222222
 10
14.46591527777778
 20
9.88557222222222
 10
14.46198333333333
 20
9.885576388888889
 10
14.45803888888889
 20
9.885576388888889
 10
14.45512222222222
 20
9.886548611111111
 10
14.45220555555555
 20
9.887520833333333
 10
14.44928888888888
 20
9.889465277777777
 10
14.447275
 20
9.891409722222222
 10
14.44534444444444
 20
9.894381944444445
 10
14.4434
 20
9.897298611111111
 42
-0.2182242134643012
 10
14.44928611111111
 20
10.14780694444444
  0
LWPOLYLINE
  5
30E
330
2
100
AcDbEntity
  8
PDF_Layer 1
 62
     7
420
 16777215
370
    80
100
AcDbPolyline
 90
       37
 70
     0
 43
0.0
 10
3.425602777777757
 20
10.14781249999999
 42
-0.2208694944140228
 10
3.431479166666666
 20
9.897294444444442
 10
3.429534722222222
 20
9.894377777777776
 10
3.4275625
 20
9.891405555555554
 10
3.425604166666666
 20
9.88946111111111
 10
3.422673611111111
 20
9.887516666666664
 10
3.419729166666666
 20
9.886544444444442
 10
3.415826388888888
 20
9.88557222222222
 10
3.412895833333333
 20
9.88557222222222
 10
3.408969444444444
 20
9.88557222222222
 10
3.396247222222221
 20
9.88557222222222
 10
3.3757125
 20
9.88557222222222
 10
3.3473375
 20
9.88557222222222
 10
3.313083333333333
 20
9.88557222222222
 10
3.271993055555554
 20
9.88557222222222
 10
3.226983333333333
 20
9.88557222222222
 10
3.177076388888888
 20
9.88557222222222
 10
3.125209722222221
 20
9.88557222222222
 10
3.072387499999999
 20
9.88557222222222
 10
3.019537499999999
 20
9.88557222222222
 10
2.966695833333332
 20
9.88557222222222
 10
2.917772222222221
 20
9.88557222222222
 10
2.87178611111111
 20
9.88557222222222
 10
2.831665277777777
 20
9.88557222222222
 10
2.797424999999999
 20
9.88557222222222
 10
2.76905
 20
9.88557222222222
 10
2.748515277777777
 20
9.88557222222222
 10
2.735779166666666
 20
9.88557222222222
 10
2.731866666666666
 20
9.885576388888889
 10
2.728922222222222
 20
9.885576388888889
 10
2.725033333333333
 20
9.886548611111111
 10
2.722088888888889
 20
9.887520833333333
 10
2.719158333333333
 20
9.889465277777777
 10
2.717186111111111
 20
9.891409722222222
 10
2.715227777777777
 20
9.894381944444445
 10
2.713283333333333
 20
9.897298611111111
 42
-0.218171558450112
 10
2.719156944444443
 20
10.14780694444444
  0
LWPOLYLINE
  5
322
330
2
100
AcDbEntity
  8
PDF_Layer 1
 62
     7
420
 16777215
370
    80
100
AcDbPolyline
 90
       49
 70
     0
 43
0.0
 10
4.03227361111111
 20
12.01378055555555
 10
4.036176388888887
 20
12.01475277777777
 10
4.039120833333332
 20
12.01573888888888
 10
4.042051388888888
 20
12.01669722222222
 10
4.044995833333332
 20
12.01866944444444
 10
4.047926388888887
 20
12.0216
 10
4.04988611111111
 20
12.02453611111111
 42
0.158854624156747
 10
4.082166666666665
 20
12.16739166666666
 10
4.077284722222222
 20
12.16739166666666
 10
4.064561111111111
 20
12.16739166666666
 10
4.04302361111111
 20
12.16739166666666
 10
4.013679166666666
 20
12.16739166666666
 10
3.975518055555554
 20
12.16739166666666
 10
3.930515277777776
 20
12.16739166666666
 10
3.877665277777777
 20
12.16739166666666
 10
3.817993055555554
 20
12.16739166666666
 10
3.752420833333333
 20
12.16739166666666
 10
3.681002777777777
 20
12.16739166666666
 10
3.603698611111109
 20
12.16739166666666
 10
3.522475
 20
12.16739166666666
 10
3.437351388888888
 20
12.16739166666666
 10
3.348313888888888
 20
12.16739166666666
 10
3.258287499999999
 20
12.16739166666666
 10
3.165330555555555
 20
12.16739166666666
 10
3.072387499999999
 20
12.16739166666666
 10
2.979418055555555
 20
12.16739166666666
 10
2.886461111111111
 20
12.16739166666666
 10
2.796434722222222
 20
12.16739166666666
 10
2.70741111111111
 20
12.16739166666666
 10
2.62227361111111
 20
12.16739166666666
 10
2.541062499999999
 20
12.16739166666666
 10
2.463758333333333
 20
12.16739166666666
 10
2.392327777777777
 20
12.16739166666666
 10
2.326768055555555
 20
12.16739166666666
 10
2.267083333333332
 20
12.16739166666666
 10
2.214247222222222
 20
12.16739166666666
 10
2.168254166666666
 20
12.16739166666666
 10
2.131062499999999
 20
12.16739166666666
 10
2.101718055555555
 20
12.16739166666666
 10
2.080199999999999
 20
12.16739166666666
 10
2.067463888888889
 20
12.16739166666666
 10
2.062575
 20
12.16739166666666
 42
0.158848882426274
 10
2.094876388888889
 20
12.02453611111111
 10
2.096820833333333
 20
12.02160555555555
 10
2.099765277777778
 20
12.01866111111111
 10
2.102695833333333
 20
12.01670277777777
 10
2.105640277777778
 20
12.01573055555555
 10
2.108570833333333
 20
12.01474444444444
 10
2.1124875
 20
12.01378611111111
  0
LWPOLYLINE
  5
35A
330
2
100
AcDbEntity
  8
PDF_Layer 1
 62
     7
420
 16777215
370
    80
100
AcDbPolyline
 90
       52
 70
     0
 43
0.0
 10
4.029330555555555
 20
12.01378055555555
 10
4.026399999999999
 20
12.01378055555555
 10
4.022497222222221
 20
12.01279444444444
 10
4.019552777777777
 20
12.01083611111111
 10
4.016622222222221
 20
12.00887777777777
 10
4.014663888888888
 20
12.00594722222222
 10
4.012705555555554
 20
12.00301666666666
 10
4.010747222222222
 20
11.9991
 10
4.010743055555556
 20
11.99616111111111
 42
-0.1380635959104207
 10
3.969638888888888
 20
11.88852361111111
 10
3.967694444444444
 20
11.88657916666666
 10
3.963777777777777
 20
11.88363472222222
 10
3.960847222222221
 20
11.8826625
 10
3.956930555555555
 20
11.88169027777777
 10
3.953999999999999
 20
11.88069027777777
 10
3.946166666666666
 20
11.88069027777777
 10
3.923658333333333
 20
11.88069027777777
 10
3.886468055555555
 20
11.88069027777777
 10
3.835605555555556
 20
11.88069027777777
 10
3.771030555555555
 20
11.88069027777777
 10
3.695679166666665
 20
11.88069027777777
 10
3.608588888888888
 20
11.88069027777777
 10
3.512702777777777
 20
11.88069027777777
 10
3.409952777777777
 20
11.88069027777777
 10
3.300361111111111
 20
11.88069027777777
 10
3.187838888888888
 20
11.88069027777777
 10
3.072387499999999
 20
11.88069027777777
 10
2.956922222222222
 20
11.88069027777777
 10
2.844401388888888
 20
11.88069027777777
 10
2.734808333333333
 20
11.88069027777777
 10
2.632045833333333
 20
11.88069027777777
 10
2.536159722222221
 20
11.88069027777777
 10
2.449076388888888
 20
11.88069027777777
 10
2.372755555555555
 20
11.88069027777777
 10
2.309156944444444
 20
11.88069027777777
 10
2.258287499999999
 20
11.88069027777777
 10
2.221090277777777
 20
11.88069027777777
 10
2.190762499999999
 20
11.88068888888889
 10
2.187818055555555
 20
11.88168888888889
 10
2.183915277777777
 20
11.88266111111111
 10
2.179984722222222
 20
11.88363333333333
 10
2.177054166666666
 20
11.88657777777778
 10
2.175095833333333
 20
11.88852222222222
 42
-0.1307503690678384
 10
2.134005555555555
 20
11.99615416666667
 10
2.134005555555555
 20
11.99909861111111
 10
2.132047222222221
 20
12.00301527777777
 10
2.130074999999999
 20
12.00594583333333
 10
2.128130555555555
 20
12.00887638888889
 10
2.125199999999999
 20
12.01083472222222
 10
2.122269444444444
 20
12.01279305555555
 10
2.118366666666666
 20
12.01377916666667
 10
2.115408333333333
 20
12.01377916666667
  0
LWPOLYLINE
  5
371
330
2
100
AcDbEntity
  8
PDF_Layer 1
 62
     7
420
 16777215
370
    80
100
AcDbPolyline
 90
        2
 70
     0
 43
0.0
 10
3.204474999999999
 20
8.933491666666666
 10
3.22208611111111
 20
8.960880555555554
  0
LWPOLYLINE
  5
372
330
2
100
AcDbEntity
  8
PDF_Layer 1
 62
     7
420
 16777215
370
    80
100
AcDbPolyline
 90
        2
 70
     0
 43
0.0
 10
3.222079166666666
 20
8.960876388888889
 10
3.238718055555555
 20
8.989293055555556
  0
LWPOLYLINE
  5
373
330
2
100
AcDbEntity
  8
PDF_Layer 1
 62
     7
420
 16777215
370
    80
100
AcDbPolyline
 90
        2
 70
     0
 43
0.0
 10
3.238722222222222
 20
8.989291666666666
 10
3.249472222222221
 20
9.009819444444444
  0
LWPOLYLINE
  5
374
330
2
100
AcDbEntity
  8
PDF_Layer 1
 62
     7
420
 16777215
370
    80
100
AcDbPolyline
 90
        2
 70
     0
 43
0.0
 10
3.249477777777777
 20
9.009812499999998
 10
3.257311111111111
 20
9.029368055555554
  0
LWPOLYLINE
  5
375
330
2
100
AcDbEntity
  8
PDF_Layer 1
 62
     7
420
 16777215
370
    80
100
AcDbPolyline
 90
        2
 70
     0
 43
0.0
 10
3.257311111111111
 20
9.029365277777777
 10
3.264158333333333
 20
9.06069861111111
  0
LWPOLYLINE
  5
377
330
2
100
AcDbEntity
  8
PDF_Layer 1
 62
     7
420
 16777215
370
    80
100
AcDbPolyline
 90
        2
 70
     0
 43
0.0
 10
3.229912499999999
 20
8.721170833333333
 10
3.212301388888888
 20
8.727059722222222
  0
LWPOLYLINE
  5
378
330
2
100
AcDbEntity
  8
PDF_Layer 1
 62
     7
420
 16777215
370
    80
100
AcDbPolyline
 90
        2
 70
     0
 43
0.0
 10
3.212306944444444
 20
8.727056944444443
 10
3.200556944444444
 20
8.732890277777777
  0
LWPOLYLINE
  5
379
330
2
100
AcDbEntity
  8
PDF_Layer 1
 62
     7
420
 16777215
370
    80
100
AcDbPolyline
 90
        2
 70
     0
 43
0.0
 10
3.20056111111111
 20
8.732890277777777
 10
3.187838888888888
 20
8.740723611111111
  0
LWPOLYLINE
  5
37A
330
2
100
AcDbEntity
  8
PDF_Layer 1
 62
     7
420
 16777215
370
    80
100
AcDbPolyline
 90
        2
 70
     0
 43
0.0
 10
3.187838888888888
 20
8.74072222222222
 10
3.168269444444444
 20
8.755416666666665
  0
LWPOLYLINE
  5
37B
330
2
100
AcDbEntity
  8
PDF_Layer 1
 62
     7
420
 16777215
370
    80
100
AcDbPolyline
 90
        2
 70
     0
 43
0.0
 10
3.16827361111111
 20
8.75541111111111
 10
3.148690277777777
 20
8.773994444444443
  0
LWPOLYLINE
  5
37C
330
2
100
AcDbEntity
  8
PDF_Layer 1
 62
     7
420
 16777215
370
    80
100
AcDbPolyline
 90
        2
 70
     0
 43
0.0
 10
3.148695833333333
 20
8.773993055555553
 10
3.142820833333332
 20
8.782798611111109
  0
LWPOLYLINE
  5
37D
330
2
100
AcDbEntity
  8
PDF_Layer 1
 62
     7
420
 16777215
370
    80
100
AcDbPolyline
 90
        2
 70
     0
 43
0.0
 10
3.142822222222221
 20
8.782795833333331
 10
3.137933333333332
 20
8.792573611111109
  0
LWPOLYLINE
  5
37E
330
2
100
AcDbEntity
  8
PDF_Layer 1
 62
     7
420
 16777215
370
    80
100
AcDbPolyline
 90
        2
 70
     0
 43
0.0
 10
3.137933333333333
 20
8.792574999999999
 10
3.135002777777777
 20
8.801380555555555
  0
LWPOLYLINE
  5
37F
330
2
100
AcDbEntity
  8
PDF_Layer 1
 62
     7
420
 16777215
370
    80
100
AcDbPolyline
 90
        2
 70
     0
 43
0.0
 10
3.135002777777777
 20
8.801377777777776
 10
3.134030555555555
 20
8.810183333333332
  0
LWPOLYLINE
  5
380
330
2
100
AcDbEntity
  8
PDF_Layer 1
 62
     7
420
 16777215
370
    80
100
AcDbPolyline
 90
        2
 70
     0
 43
0.0
 10
3.134026388888888
 20
8.810180555555554
 10
3.13499861111111
 20
8.820013888888887
  0
LWPOLYLINE
  5
381
330
2
100
AcDbEntity
  8
PDF_Layer 1
 62
     7
420
 16777215
370
    80
100
AcDbPolyline
 90
        2
 70
     0
 43
0.0
 10
3.135002777777777
 20
8.820013888888887
 10
3.136961111111111
 20
8.828819444444443
  0
LWPOLYLINE
  5
382
330
2
100
AcDbEntity
  8
PDF_Layer 1
 62
     7
420
 16777215
370
    80
100
AcDbPolyline
 90
        2
 70
     0
 43
0.0
 10
3.136955555555555
 20
8.828816666666668
 10
3.143802777777777
 20
8.843455555555557
  0
LWPOLYLINE
  5
383
330
2
100
AcDbEntity
  8
PDF_Layer 1
 62
     7
420
 16777215
370
    80
100
AcDbPolyline
 90
        2
 70
     0
 43
0.0
 10
3.143805555555555
 20
8.843451388888889
 10
3.151638888888888
 20
8.858145833333333
  0
LWPOLYLINE
  5
384
330
2
100
AcDbEntity
  8
PDF_Layer 1
 62
     7
420
 16777215
370
    80
100
AcDbPolyline
 90
        2
 70
     0
 43
0.0
 10
3.151638888888888
 20
8.858147222222221
 10
3.174152777777777
 20
8.890438888888889
  0
LWPOLYLINE
  5
385
330
2
100
AcDbEntity
  8
PDF_Layer 1
 62
     7
420
 16777215
370
    80
100
AcDbPolyline
 90
        2
 70
     0
 43
0.0
 10
3.174147222222222
 20
8.890441666666665
 10
3.197619444444444
 20
8.923719444444444
  0
LWPOLYLINE
  5
386
330
2
100
AcDbEntity
  8
PDF_Layer 1
 62
     7
420
 16777215
370
    80
100
AcDbPolyline
 90
        2
 70
     0
 43
0.0
 10
3.197624999999999
 20
8.923719444444444
 10
3.201527777777777
 20
8.928580555555555
  0
LWPOLYLINE
  5
387
330
2
100
AcDbEntity
  8
PDF_Layer 1
 62
     7
420
 16777215
370
    80
100
AcDbPolyline
 90
        2
 70
     0
 43
0.0
 10
3.201531944444444
 20
8.928574999999996
 10
3.204476388888888
 20
8.933491666666663
  0
LWPOLYLINE
  5
388
330
2
100
AcDbEntity
  8
PDF_Layer 1
 62
     7
420
 16777215
370
    80
100
AcDbPolyline
 90
        2
 70
     0
 43
0.0
 10
14.67040972222222
 20
8.932522222222219
 10
14.68407638888889
 20
8.913938888888885
  0
LWPOLYLINE
  5
389
330
2
100
AcDbEntity
  8
PDF_Layer 1
 62
     7
420
 16777215
370
    80
100
AcDbPolyline
 90
        2
 70
     0
 43
0.0
 10
14.68408194444444
 20
8.913940277777777
 10
14.69683194444444
 20
8.895356944444444
  0
LWPOLYLINE
  5
38A
330
2
100
AcDbEntity
  8
PDF_Layer 1
 62
     7
420
 16777215
370
    80
100
AcDbPolyline
 90
        2
 70
     0
 43
0.0
 10
14.69683194444444
 20
8.895358333333332
 10
14.71345694444444
 20
8.872830555555553
  0
LWPOLYLINE
  5
38B
330
2
100
AcDbEntity
  8
PDF_Layer 1
 62
     7
420
 16777215
370
    80
100
AcDbPolyline
 90
        2
 70
     0
 43
0.0
 10
14.71345972222222
 20
8.872836111111109
 10
14.72815416666666
 20
8.849336111111108
  0
LWPOLYLINE
  5
38C
330
2
100
AcDbEntity
  8
PDF_Layer 1
 62
     7
420
 16777215
370
    80
100
AcDbPolyline
 90
        2
 70
     0
 43
0.0
 10
14.72815
 20
8.849337499999998
 10
14.73398333333333
 20
8.838587499999999
  0
LWPOLYLINE
  5
38D
330
2
100
AcDbEntity
  8
PDF_Layer 1
 62
     7
420
 16777215
370
    80
100
AcDbPolyline
 90
        2
 70
     0
 43
0.0
 10
14.73398194444444
 20
8.838588888888889
 10
14.73792638888889
 20
8.827783333333334
  0
LWPOLYLINE
  5
38E
330
2
100
AcDbEntity
  8
PDF_Layer 1
 62
     7
420
 16777215
370
    80
100
AcDbPolyline
 90
        2
 70
     0
 43
0.0
 10
14.73792916666666
 20
8.827786111111111
 10
14.73987361111111
 20
8.818008333333333
  0
LWPOLYLINE
  5
38F
330
2
100
AcDbEntity
  8
PDF_Layer 1
 62
     7
420
 16777215
370
    80
100
AcDbPolyline
 90
        2
 70
     0
 43
0.0
 10
14.73986805555555
 20
8.818013888888888
 10
14.74084027777777
 20
8.809208333333332
  0
LWPOLYLINE
  5
390
330
2
100
AcDbEntity
  8
PDF_Layer 1
 62
     7
420
 16777215
370
    80
100
AcDbPolyline
 90
        2
 70
     0
 43
0.0
 10
14.74084444444444
 20
8.80921111111111
 10
14.73987222222222
 20
8.800405555555554
  0
LWPOLYLINE
  5
391
330
2
100
AcDbEntity
  8
PDF_Layer 1
 62
     7
420
 16777215
370
    80
100
AcDbPolyline
 90
        2
 70
     0
 43
0.0
 10
14.73986805555555
 20
8.800408333333333
 10
14.73689583333333
 20
8.792574999999999
  0
LWPOLYLINE
  5
392
330
2
100
AcDbEntity
  8
PDF_Layer 1
 62
     7
420
 16777215
370
    80
100
AcDbPolyline
 90
        2
 70
     0
 43
0.0
 10
14.73689722222222
 20
8.792574999999999
 10
14.73010555555555
 20
8.778908333333331
  0
LWPOLYLINE
  5
393
330
2
100
AcDbEntity
  8
PDF_Layer 1
 62
     7
420
 16777215
370
    80
100
AcDbPolyline
 90
        2
 70
     0
 43
0.0
 10
14.73010277777777
 20
8.778904166666666
 10
14.72026944444444
 20
8.7681125
  0
LWPOLYLINE
  5
394
330
2
100
AcDbEntity
  8
PDF_Layer 1
 62
     7
420
 16777215
370
    80
100
AcDbPolyline
 90
        2
 70
     0
 43
0.0
 10
14.72026944444444
 20
8.768106944444443
 10
14.70854722222222
 20
8.757356944444444
  0
LWPOLYLINE
  5
395
330
2
100
AcDbEntity
  8
PDF_Layer 1
 62
     7
420
 16777215
370
    80
100
AcDbPolyline
 90
        2
 70
     0
 43
0.0
 10
14.70855
 20
8.757358333333332
 10
14.69682777777778
 20
8.747580555555554
  0
LWPOLYLINE
  5
396
330
2
100
AcDbEntity
  8
PDF_Layer 1
 62
     7
420
 16777215
370
    80
100
AcDbPolyline
 90
        2
 70
     0
 43
0.0
 10
14.69683194444444
 20
8.747579166666666
 10
14.68504027777777
 20
8.73877361111111
  0
LWPOLYLINE
  5
397
330
2
100
AcDbEntity
  8
PDF_Layer 1
 62
     7
420
 16777215
370
    80
100
AcDbPolyline
 90
        2
 70
     0
 43
0.0
 10
14.68504444444444
 20
8.738776388888888
 10
14.67332222222222
 20
8.731915277777778
  0
LWPOLYLINE
  5
398
330
2
100
AcDbEntity
  8
PDF_Layer 1
 62
     7
420
 16777215
370
    80
100
AcDbPolyline
 90
        2
 70
     0
 43
0.0
 10
14.67332638888889
 20
8.731913888888888
 10
14.66154861111111
 20
8.727052777777776
  0
LWPOLYLINE
  5
399
330
2
100
AcDbEntity
  8
PDF_Layer 1
 62
     7
420
 16777215
370
    80
100
AcDbPolyline
 90
        2
 70
     0
 43
0.0
 10
14.66155277777777
 20
8.727056944444443
 10
14.651775
 20
8.723112499999999
  0
LWPOLYLINE
  5
39A
330
2
100
AcDbEntity
  8
PDF_Layer 1
 62
     7
420
 16777215
370
    80
100
AcDbPolyline
 90
        2
 70
     0
 43
0.0
 10
14.65177361111111
 20
8.72311111111111
 10
14.64302361111111
 20
8.721166666666666
  0
LWPOLYLINE
  5
39B
330
2
100
AcDbEntity
  8
PDF_Layer 1
 62
     7
420
 16777215
370
    80
100
AcDbPolyline
 90
        2
 70
     0
 43
0.0
 10
14.64302638888889
 20
8.721170833333333
 10
14.63319305555555
 20
8.720198611111111
  0
LWPOLYLINE
  5
39C
330
2
100
AcDbEntity
  8
PDF_Layer 1
 62
     7
420
 16777215
370
    80
100
AcDbPolyline
 90
        2
 70
     0
 43
0.0
 10
14.61073194444444
 20
9.060695833333332
 10
14.61073194444444
 20
9.05972361111111
  0
LWPOLYLINE
  5
39D
330
2
100
AcDbEntity
  8
PDF_Layer 1
 62
     7
420
 16777215
370
    80
100
AcDbPolyline
 90
        2
 70
     0
 43
0.0
 10
14.61073194444444
 20
9.059719444444445
 10
14.61169027777778
 20
9.046969444444444
  0
LWPOLYLINE
  5
39E
330
2
100
AcDbEntity
  8
PDF_Layer 1
 62
     7
420
 16777215
370
    80
100
AcDbPolyline
 90
        2
 70
     0
 43
0.0
 10
14.61169444444444
 20
9.046969444444444
 10
14.61656944444444
 20
9.032330555555555
  0
LWPOLYLINE
  5
39F
330
2
100
AcDbEntity
  8
PDF_Layer 1
 62
     7
420
 16777215
370
    80
100
AcDbPolyline
 90
        2
 70
     0
 43
0.0
 10
14.61656388888888
 20
9.03233472222222
 10
14.62245277777777
 20
9.015695833333332
  0
LWPOLYLINE
  5
3A0
330
2
100
AcDbEntity
  8
PDF_Layer 1
 62
     7
420
 16777215
370
    80
100
AcDbPolyline
 90
        2
 70
     0
 43
0.0
 10
14.62245
 20
9.015699999999998
 10
14.63125555555555
 20
8.998088888888887
  0
LWPOLYLINE
  5
3A1
330
2
100
AcDbEntity
  8
PDF_Layer 1
 62
     7
420
 16777215
370
    80
100
AcDbPolyline
 90
        2
 70
     0
 43
0.0
 10
14.63125277777777
 20
8.998094444444442
 10
14.64594722222222
 20
8.971622222222219
  0
LWPOLYLINE
  5
3A2
330
2
100
AcDbEntity
  8
PDF_Layer 1
 62
     7
420
 16777215
370
    80
100
AcDbPolyline
 90
        2
 70
     0
 43
0.0
 10
14.64594166666667
 20
8.971624999999997
 10
14.66258055555555
 20
8.944236111111109
  0
LWPOLYLINE
  5
3A3
330
2
100
AcDbEntity
  8
PDF_Layer 1
 62
     7
420
 16777215
370
    80
100
AcDbPolyline
 90
        2
 70
     0
 43
0.0
 10
14.66258472222222
 20
8.944241666666666
 10
14.67040416666667
 20
8.932519444444444
  0
LWPOLYLINE
  5
3A4
330
2
100
AcDbEntity
  8
PDF_Layer 1
 62
     7
420
 16777215
370
    80
100
AcDbPolyline
 90
        2
 70
     0
 43
0.0
 10
14.80247638888888
 20
9.307258333333331
 10
14.84454583333333
 20
9.307258333333331
  0
LWPOLYLINE
  5
3A5
330
2
100
AcDbEntity
  8
PDF_Layer 1
 62
     7
420
 16777215
370
    80
100
AcDbPolyline
 90
        2
 70
     0
 43
0.0
 10
14.84455
 20
9.307258333333331
 10
14.88564722222222
 20
9.308230555555553
  0
LWPOLYLINE
  5
3A6
330
2
100
AcDbEntity
  8
PDF_Layer 1
 62
     7
420
 16777215
370
    80
100
AcDbPolyline
 90
        2
 70
     0
 43
0.0
 10
14.88564722222222
 20
9.308234722222222
 10
14.92188333333333
 20
9.308234722222222
  0
LWPOLYLINE
  5
3A7
330
2
100
AcDbEntity
  8
PDF_Layer 1
 62
     7
420
 16777215
370
    80
100
AcDbPolyline
 90
        2
 70
     0
 43
0.0
 10
14.92188888888889
 20
9.308234722222222
 10
14.95220833333333
 20
9.308234722222222
  0
LWPOLYLINE
  5
3A8
330
2
100
AcDbEntity
  8
PDF_Layer 1
 62
     7
420
 16777215
370
    80
100
AcDbPolyline
 90
        2
 70
     0
 43
0.0
 10
14.95220277777778
 20
9.308234722222222
 10
14.97466111111111
 20
9.308234722222222
  0
LWPOLYLINE
  5
3A9
330
2
100
AcDbEntity
  8
PDF_Layer 1
 62
     7
420
 16777215
370
    80
100
AcDbPolyline
 90
        2
 70
     0
 43
0.0
 10
14.97466388888889
 20
9.308234722222222
 10
14.98935833333333
 20
9.308234722222222
  0
LWPOLYLINE
  5
3AA
330
2
100
AcDbEntity
  8
PDF_Layer 1
 62
     7
420
 16777215
370
    80
100
AcDbPolyline
 90
        2
 70
     0
 43
0.0
 10
14.98935277777777
 20
9.308234722222222
 10
14.99426944444444
 20
9.309262499999999
  0
LWPOLYLINE
  5
3AC
330
2
100
AcDbEntity
  8
PDF_Layer 1
 62
     7
420
 16777215
370
    80
100
AcDbPolyline
 90
        2
 70
     0
 43
0.0
 10
14.6155875
 20
9.308234722222222
 10
14.62930972222222
 20
9.308234722222222
  0
LWPOLYLINE
  5
3AD
330
2
100
AcDbEntity
  8
PDF_Layer 1
 62
     7
420
 16777215
370
    80
100
AcDbPolyline
 90
        2
 70
     0
 43
0.0
 10
14.6293125
 20
9.308234722222222
 10
14.65177083333333
 20
9.308234722222222
  0
LWPOLYLINE
  5
3AE
330
2
100
AcDbEntity
  8
PDF_Layer 1
 62
     7
420
 16777215
370
    80
100
AcDbPolyline
 90
        2
 70
     0
 43
0.0
 10
14.65177361111111
 20
9.308234722222222
 10
14.68310694444444
 20
9.308234722222222
  0
LWPOLYLINE
  5
3AF
330
2
100
AcDbEntity
  8
PDF_Layer 1
 62
     7
420
 16777215
370
    80
100
AcDbPolyline
 90
        2
 70
     0
 43
0.0
 10
14.68310555555555
 20
9.308234722222222
 10
14.71928611111111
 20
9.308234722222222
  0
LWPOLYLINE
  5
3B0
330
2
100
AcDbEntity
  8
PDF_Layer 1
 62
     7
420
 16777215
370
    80
100
AcDbPolyline
 90
        2
 70
     0
 43
0.0
 10
14.71929305555555
 20
9.308234722222222
 10
14.75943194444444
 20
9.3072625
  0
LWPOLYLINE
  5
3B1
330
2
100
AcDbEntity
  8
PDF_Layer 1
 62
     7
420
 16777215
370
    80
100
AcDbPolyline
 90
        2
 70
     0
 43
0.0
 10
14.75942638888889
 20
9.307258333333331
 10
14.80248194444444
 20
9.307258333333331
  0
LWPOLYLINE
  5
3B2
330
2
100
AcDbEntity
  8
PDF_Layer 1
 62
     7
420
 16777215
370
    80
100
AcDbPolyline
 90
        2
 70
     0
 43
0.0
 10
14.80247638888888
 20
8.906106944444445
 10
14.84454583333333
 20
8.909023611111111
  0
LWPOLYLINE
  5
3B3
330
2
100
AcDbEntity
  8
PDF_Layer 1
 62
     7
420
 16777215
370
    80
100
AcDbPolyline
 90
        2
 70
     0
 43
0.0
 10
14.84455
 20
8.909023611111111
 10
14.88564722222222
 20
8.915884722222221
  0
LWPOLYLINE
  5
3B4
330
2
100
AcDbEntity
  8
PDF_Layer 1
 62
     7
420
 16777215
370
    80
100
AcDbPolyline
 90
        2
 70
     0
 43
0.0
 10
14.88564722222222
 20
8.91588611111111
 10
14.92188333333333
 20
8.927608333333331
  0
LWPOLYLINE
  5
3B5
330
2
100
AcDbEntity
  8
PDF_Layer 1
 62
     7
420
 16777215
370
    80
100
AcDbPolyline
 90
        2
 70
     0
 43
0.0
 10
14.92188888888889
 20
8.927605555555555
 10
14.95220833333333
 20
8.942299999999999
  0
LWPOLYLINE
  5
3B6
330
2
100
AcDbEntity
  8
PDF_Layer 1
 62
     7
420
 16777215
370
    80
100
AcDbPolyline
 90
        2
 70
     0
 43
0.0
 10
14.95220277777778
 20
8.942294444444442
 10
14.97466111111111
 20
8.960877777777776
  0
LWPOLYLINE
  5
3B7
330
2
100
AcDbEntity
  8
PDF_Layer 1
 62
     7
420
 16777215
370
    80
100
AcDbPolyline
 90
        2
 70
     0
 43
0.0
 10
14.97466388888889
 20
8.960876388888889
 10
14.98935833333333
 20
8.981459722222222
  0
LWPOLYLINE
  5
3B8
330
2
100
AcDbEntity
  8
PDF_Layer 1
 62
     7
420
 16777215
370
    80
100
AcDbPolyline
 90
        2
 70
     0
 43
0.0
 10
14.98935277777777
 20
8.981458333333332
 10
14.99426944444444
 20
9.002944444444443
  0
LWPOLYLINE
  5
3B9
330
2
100
AcDbEntity
  8
PDF_Layer 1
 62
     7
420
 16777215
370
    80
100
AcDbPolyline
 90
        2
 70
     0
 43
0.0
 10
14.66939305555555
 20
8.933491666666666
 10
14.70854583333333
 20
8.918797222222222
  0
LWPOLYLINE
  5
3BA
330
2
100
AcDbEntity
  8
PDF_Layer 1
 62
     7
420
 16777215
370
    80
100
AcDbPolyline
 90
        2
 70
     0
 43
0.0
 10
14.70855
 20
8.918802777777777
 10
14.75353611111111
 20
8.909024999999999
  0
LWPOLYLINE
  5
3BB
330
2
100
AcDbEntity
  8
PDF_Layer 1
 62
     7
420
 16777215
370
    80
100
AcDbPolyline
 90
        2
 70
     0
 43
0.0
 10
14.75354027777777
 20
8.909023611111111
 10
14.80247083333333
 20
8.906106944444445
  0
LWPOLYLINE
  5
3BC
330
2
100
AcDbEntity
  8
PDF_Layer 1
 62
     7
420
 16777215
370
    80
100
AcDbPolyline
 90
        2
 70
     0
 43
0.0
 10
3.206434722222222
 20
8.93446111111111
 10
3.174143055555555
 20
8.921766666666666
  0
LWPOLYLINE
  5
3BD
330
2
100
AcDbEntity
  8
PDF_Layer 1
 62
     7
420
 16777215
370
    80
100
AcDbPolyline
 90
        2
 70
     0
 43
0.0
 10
3.174147222222222
 20
8.921773611111108
 10
3.136952777777777
 20
8.912968055555552
  0
LWPOLYLINE
  5
3BE
330
2
100
AcDbEntity
  8
PDF_Layer 1
 62
     7
420
 16777215
370
    80
100
AcDbPolyline
 90
        2
 70
     0
 43
0.0
 10
3.136955555555555
 20
8.912970833333334
 10
3.097816666666666
 20
8.908054166666667
  0
LWPOLYLINE
  5
3BF
330
2
100
AcDbEntity
  8
PDF_Layer 1
 62
     7
420
 16777215
370
    80
100
AcDbPolyline
 90
        2
 70
     0
 43
0.0
 10
3.097812499999999
 20
8.908054166666666
 10
3.056729166666666
 20
8.908054166666666
  0
LWPOLYLINE
  5
3C0
330
2
100
AcDbEntity
  8
PDF_Layer 1
 62
     7
420
 16777215
370
    80
100
AcDbPolyline
 90
        2
 70
     0
 43
0.0
 10
3.056722222222222
 20
8.908054166666666
 10
3.016597222222221
 20
8.910970833333331
  0
LWPOLYLINE
  5
3C1
330
2
100
AcDbEntity
  8
PDF_Layer 1
 62
     7
420
 16777215
370
    80
100
AcDbPolyline
 90
        2
 70
     0
 43
0.0
 10
3.016601388888888
 20
8.910969444444445
 10
2.979420833333333
 20
8.918802777777779
  0
LWPOLYLINE
  5
3C2
330
2
100
AcDbEntity
  8
PDF_Layer 1
 62
     7
420
 16777215
370
    80
100
AcDbPolyline
 90
        2
 70
     0
 43
0.0
 10
2.979418055555555
 20
8.918802777777777
 10
2.946154166666666
 20
8.930580555555556
  0
LWPOLYLINE
  5
3C3
330
2
100
AcDbEntity
  8
PDF_Layer 1
 62
     7
420
 16777215
370
    80
100
AcDbPolyline
 90
        2
 70
     0
 43
0.0
 10
2.946159722222221
 20
8.930576388888887
 10
2.918743055555554
 20
8.946187499999998
  0
LWPOLYLINE
  5
3C4
330
2
100
AcDbEntity
  8
PDF_Layer 1
 62
     7
420
 16777215
370
    80
100
AcDbPolyline
 90
        2
 70
     0
 43
0.0
 10
2.91874861111111
 20
8.946187499999998
 10
2.897234722222221
 20
8.962826388888887
  0
LWPOLYLINE
  5
3C5
330
2
100
AcDbEntity
  8
PDF_Layer 1
 62
     7
420
 16777215
370
    80
100
AcDbPolyline
 90
        2
 70
     0
 43
0.0
 10
2.897237499999999
 20
8.96282222222222
 10
2.884515277777777
 20
8.982433333333331
  0
LWPOLYLINE
  5
3C6
330
2
100
AcDbEntity
  8
PDF_Layer 1
 62
     7
420
 16777215
370
    80
100
AcDbPolyline
 90
        2
 70
     0
 43
0.0
 10
2.884515277777777
 20
8.982429166666666
 10
2.880598611111111
 20
9.002956944444443
  0
LWPOLYLINE
  5
3C8
330
2
100
AcDbEntity
  8
PDF_Layer 1
 62
     7
420
 16777215
370
    80
100
AcDbPolyline
 90
        2
 70
     0
 43
0.0
 10
3.260240277777777
 20
9.309258333333332
 10
3.247531944444444
 20
9.309258333333332
  0
LWPOLYLINE
  5
3C9
330
2
100
AcDbEntity
  8
PDF_Layer 1
 62
     7
420
 16777215
370
    80
100
AcDbPolyline
 90
        3
 70
     0
 43
0.0
 10
3.247538888888889
 20
9.309258333333332
 10
3.226983333333333
 20
9.309258333333332
 10
3.200566666666666
 20
9.309258333333332
  0
LWPOLYLINE
  5
3CB
330
2
100
AcDbEntity
  8
PDF_Layer 1
 62
     7
420
 16777215
370
    80
100
AcDbPolyline
 90
        2
 70
     0
 43
0.0
 10
3.20056111111111
 20
9.309258333333332
 10
3.168269444444444
 20
9.309258333333332
  0
LWPOLYLINE
  5
3CC
330
2
100
AcDbEntity
  8
PDF_Layer 1
 62
     7
420
 16777215
370
    80
100
AcDbPolyline
 90
        2
 70
     0
 43
0.0
 10
3.16827361111111
 20
9.309258333333332
 10
3.131079166666666
 20
9.309258333333332
  0
LWPOLYLINE
  5
3CD
330
2
100
AcDbEntity
  8
PDF_Layer 1
 62
     7
420
 16777215
370
    80
100
AcDbPolyline
 90
        2
 70
     0
 43
0.0
 10
3.131083333333333
 20
9.309258333333332
 10
3.091944444444444
 20
9.309258333333332
  0
LWPOLYLINE
  5
3CE
330
2
100
AcDbEntity
  8
PDF_Layer 1
 62
     7
420
 16777215
370
    80
100
AcDbPolyline
 90
        2
 70
     0
 43
0.0
 10
3.091938888888888
 20
9.309258333333332
 10
3.051827777777777
 20
9.309258333333332
  0
LWPOLYLINE
  5
3CF
330
2
100
AcDbEntity
  8
PDF_Layer 1
 62
     7
420
 16777215
370
    80
100
AcDbPolyline
 90
        2
 70
     0
 43
0.0
 10
3.051831944444444
 20
9.309258333333332
 10
3.012693055555555
 20
9.309258333333332
  0
LWPOLYLINE
  5
3D0
330
2
100
AcDbEntity
  8
PDF_Layer 1
 62
     7
420
 16777215
370
    80
100
AcDbPolyline
 90
        2
 70
     0
 43
0.0
 10
3.012688888888888
 20
9.309258333333332
 10
2.976494444444444
 20
9.309258333333332
  0
LWPOLYLINE
  5
3D1
330
2
100
AcDbEntity
  8
PDF_Layer 1
 62
     7
420
 16777215
370
    80
100
AcDbPolyline
 90
        2
 70
     0
 43
0.0
 10
2.9764875
 20
9.309258333333332
 10
2.944181944444444
 20
9.309258333333332
  0
LWPOLYLINE
  5
3D2
330
2
100
AcDbEntity
  8
PDF_Layer 1
 62
     7
420
 16777215
370
    80
100
AcDbPolyline
 90
        2
 70
     0
 43
0.0
 10
2.944186111111111
 20
9.309258333333332
 10
2.916797222222222
 20
9.309258333333332
  0
LWPOLYLINE
  5
3D3
330
2
100
AcDbEntity
  8
PDF_Layer 1
 62
     7
420
 16777215
370
    80
100
AcDbPolyline
 90
        2
 70
     0
 43
0.0
 10
2.916802777777777
 20
9.309258333333332
 10
2.897233333333332
 20
9.309258333333332
  0
LWPOLYLINE
  5
3D4
330
2
100
AcDbEntity
  8
PDF_Layer 1
 62
     7
420
 16777215
370
    80
100
AcDbPolyline
 90
        3
 70
     0
 43
0.0
 10
2.897237499999999
 20
9.309258333333332
 10
2.884515277777777
 20
9.309258333333332
 10
2.880598611111111
 20
9.309258333333332
  0
LWPOLYLINE
  5
3D6
330
2
100
AcDbEntity
  8
PDF_Layer 1
 62
     7
420
 16777215
370
    80
100
AcDbPolyline
 90
        2
 70
     0
 43
0.0
 10
2.806247222222221
 20
1.498969444444444
 10
7.521594444444443
 20
1.498969444444444
  0
LWPOLYLINE
  5
3D7
330
2
100
AcDbEntity
  8
PDF_Layer 1
 62
     7
420
 16777215
370
    80
100
AcDbPolyline
 90
        2
 70
     0
 43
0.0
 10
7.521593055555555
 20
1.498969444444444
 10
14.15281527777777
 20
1.498969444444444
  0
LWPOLYLINE
  5
3D8
330
2
100
AcDbEntity
  8
PDF_Layer 1
 62
     7
420
 16777215
370
    80
100
AcDbPolyline
 90
        3
 70
     0
 43
0.0
 10
14.23890277777778
 20
1.862969444444443
 10
14.23497222222222
 20
1.862969444444443
 10
7.675208333333335
 20
1.862969444444443
  0
LWPOLYLINE
  5
3D9
330
2
100
AcDbEntity
  8
PDF_Layer 1
 62
     7
420
 16777215
370
    80
100
AcDbPolyline
 90
        2
 70
     0
 43
0.0
 10
7.692124999999998
 20
1.862969444444443
 10
2.724055555555555
 20
1.862969444444443
  0
LWPOLYLINE
  5
3DA
330
2
100
AcDbEntity
  8
PDF_Layer 1
 62
     7
420
 16777215
370
    80
100
AcDbPolyline
 90
        2
 70
     0
 43
0.0
 10
4.239731944444444
 20
0.3326138888888888
 10
7.542593055555554
 20
0.3326138888888888
  0
LWPOLYLINE
  5
3DB
330
2
100
AcDbEntity
  8
PDF_Layer 1
 62
     7
420
 16777215
370
    80
100
AcDbPolyline
 90
        2
 70
     0
 43
0.0
 10
7.508870833333333
 20
0.3326138888888888
 10
12.71930138888889
 20
0.3326138888888888
  0
LWPOLYLINE
  5
3DC
330
2
100
AcDbEntity
  8
PDF_Layer 1
 62
     7
420
 16777215
370
    80
100
AcDbPolyline
 90
        3
 70
     0
 43
0.0
 10
12.71834305555555
 20
0.71715
 10
7.670315277777777
 20
0.71715
 10
4.238745833333332
 20
0.71715
  0
LWPOLYLINE
  5
3DE
330
2
100
AcDbEntity
  8
PDF_Layer 1
 62
     7
420
 16777215
370
    80
100
AcDbPolyline
 90
        2
 70
     0
 43
0.0
 10
14.53636388888888
 20
1.337537499999999
 10
14.53636388888888
 20
1.739676388888888
  0
LWPOLYLINE
  5
3DF
330
2
100
AcDbEntity
  8
PDF_Layer 1
 62
     7
420
 16777215
370
    80
100
AcDbPolyline
 90
        2
 70
     0
 43
0.0
 10
14.15281805555555
 20
1.590943055555555
 10
14.15281805555555
 20
1.337540277777777
  0
LWPOLYLINE
  5
3E0
330
2
100
AcDbEntity
  8
PDF_Layer 1
 62
     7
420
 16777215
370
    80
100
AcDbPolyline
 90
        2
 70
     0
 43
0.0
 10
2.422688888888888
 20
1.739677777777777
 10
2.422688888888888
 20
1.337538888888888
  0
LWPOLYLINE
  5
3E1
330
2
100
AcDbEntity
  8
PDF_Layer 1
 62
     7
420
 16777215
370
    80
100
AcDbPolyline
 90
        2
 70
     0
 43
0.0
 10
2.806247222222221
 20
1.337537499999999
 10
2.806247222222221
 20
1.605634722222221
  0
LWPOLYLINE
  5
3E2
330
2
100
AcDbEntity
  8
PDF_Layer 1
 62
     7
420
 16777215
370
    80
100
AcDbPolyline
 90
        2
 70
     0
 43
0.0
 10
14.53636388888888
 20
1.82188611111111
 10
14.53636388888888
 20
1.826774999999999
  0
LWPOLYLINE
  5
3E3
330
2
100
AcDbEntity
  8
PDF_Layer 1
 62
     7
420
 16777215
370
    80
100
AcDbPolyline
 90
        2
 70
     0
 43
0.0
 10
2.422688888888888
 20
1.826768055555555
 10
2.422688888888888
 20
1.821879166666666
  0
LWPOLYLINE
  5
3E4
330
2
100
AcDbEntity
  8
PDF_Layer 1
 62
     7
420
 16777215
370
    80
100
AcDbPolyline
 90
        2
 70
     0
 43
0.0
 10
2.422688888888888
 20
1.337537499999999
 10
2.424647222222222
 20
1.289565277777777
  0
LWPOLYLINE
  5
3E5
330
2
100
AcDbEntity
  8
PDF_Layer 1
 62
     7
420
 16777215
370
    80
100
AcDbPolyline
 90
        2
 70
     0
 43
0.0
 10
2.424641666666666
 20
1.289563888888888
 10
2.430502777777777
 20
1.241647222222222
  0
LWPOLYLINE
  5
3E6
330
2
100
AcDbEntity
  8
PDF_Layer 1
 62
     7
420
 16777215
370
    80
100
AcDbPolyline
 90
        2
 70
     0
 43
0.0
 10
2.430508333333333
 20
1.241644444444444
 10
2.438341666666666
 20
1.199561111111111
  0
LWPOLYLINE
  5
3E7
330
2
100
AcDbEntity
  8
PDF_Layer 1
 62
     7
420
 16777215
370
    80
100
AcDbPolyline
 90
        2
 70
     0
 43
0.0
 10
2.438347222222222
 20
1.199558333333333
 10
2.450083333333333
 20
1.156488888888888
  0
LWPOLYLINE
  5
3E8
330
2
100
AcDbEntity
  8
PDF_Layer 1
 62
     7
420
 16777215
370
    80
100
AcDbPolyline
 90
        2
 70
     0
 43
0.0
 10
2.450086111111111
 20
1.156494444444444
 10
2.462794444444444
 20
1.119299999999999
  0
LWPOLYLINE
  5
3E9
330
2
100
AcDbEntity
  8
PDF_Layer 1
 62
     7
420
 16777215
370
    80
100
AcDbPolyline
 90
        2
 70
     0
 43
0.0
 10
2.462788888888888
 20
1.119302777777777
 10
2.478441666666666
 20
1.083122222222222
  0
LWPOLYLINE
  5
3EA
330
2
100
AcDbEntity
  8
PDF_Layer 1
 62
     7
420
 16777215
370
    80
100
AcDbPolyline
 90
        2
 70
     0
 43
0.0
 10
2.478441666666666
 20
1.083116666666666
 10
2.493122222222222
 20
1.050825
  0
LWPOLYLINE
  5
3EB
330
2
100
AcDbEntity
  8
PDF_Layer 1
 62
     7
420
 16777215
370
    80
100
AcDbPolyline
 90
        2
 70
     0
 43
0.0
 10
2.493116666666666
 20
1.050822222222222
 10
2.510755555555555
 20
1.019516666666666
  0
LWPOLYLINE
  5
3EC
330
2
100
AcDbEntity
  8
PDF_Layer 1
 62
     7
420
 16777215
370
    80
100
AcDbPolyline
 90
        2
 70
     0
 43
0.0
 10
2.510755555555555
 20
1.019518055555555
 10
2.526394444444444
 20
0.9931013888888887
  0
LWPOLYLINE
  5
3ED
330
2
100
AcDbEntity
  8
PDF_Layer 1
 62
     7
420
 16777215
370
    80
100
AcDbPolyline
 90
        2
 70
     0
 43
0.0
 10
2.526394444444444
 20
0.9930958333333332
 10
2.543019444444444
 20
0.9666791666666666
  0
LWPOLYLINE
  5
3EE
330
2
100
AcDbEntity
  8
PDF_Layer 1
 62
     7
420
 16777215
370
    80
100
AcDbPolyline
 90
        2
 70
     0
 43
0.0
 10
2.54302361111111
 20
0.966675
 10
2.558690277777777
 20
0.9451472222222221
  0
LWPOLYLINE
  5
3EF
330
2
100
AcDbEntity
  8
PDF_Layer 1
 62
     7
420
 16777215
370
    80
100
AcDbPolyline
 90
        2
 70
     0
 43
0.0
 10
2.558688888888888
 20
0.9451499999999999
 10
2.574355555555555
 20
0.9246083333333332
  0
LWPOLYLINE
  5
3F0
330
2
100
AcDbEntity
  8
PDF_Layer 1
 62
     7
420
 16777215
370
    80
100
AcDbPolyline
 90
        2
 70
     0
 43
0.0
 10
2.574354166666666
 20
0.9246013888888887
 10
2.58804861111111
 20
0.9069763888888887
  0
LWPOLYLINE
  5
3F1
330
2
100
AcDbEntity
  8
PDF_Layer 1
 62
     7
420
 16777215
370
    80
100
AcDbPolyline
 90
        2
 70
     0
 43
0.0
 10
2.588047222222222
 20
0.9069819444444442
 10
2.602727777777777
 20
0.8903569444444443
  0
LWPOLYLINE
  5
3F2
330
2
100
AcDbEntity
  8
PDF_Layer 1
 62
     7
420
 16777215
370
    80
100
AcDbPolyline
 90
        2
 70
     0
 43
0.0
 10
2.602722222222222
 20
0.8903541666666665
 10
2.620333333333333
 20
0.8707847222222222
  0
LWPOLYLINE
  5
3F3
330
2
100
AcDbEntity
  8
PDF_Layer 1
 62
     7
420
 16777215
370
    80
100
AcDbPolyline
 90
        2
 70
     0
 43
0.0
 10
2.620334722222221
 20
0.8707819444444444
 10
2.637945833333332
 20
0.8512125000000001
  0
LWPOLYLINE
  5
3F4
330
2
100
AcDbEntity
  8
PDF_Layer 1
 62
     7
420
 16777215
370
    80
100
AcDbPolyline
 90
        2
 70
     0
 43
0.0
 10
2.637938888888888
 20
0.8512097222222221
 10
2.661424999999999
 20
0.8277236111111111
  0
LWPOLYLINE
  5
3F5
330
2
100
AcDbEntity
  8
PDF_Layer 1
 62
     7
420
 16777215
370
    80
100
AcDbPolyline
 90
        2
 70
     0
 43
0.0
 10
2.661424999999999
 20
0.8277180555555556
 10
2.684897222222222
 20
0.8052319444444446
  0
LWPOLYLINE
  5
3F6
330
2
100
AcDbEntity
  8
PDF_Layer 1
 62
     7
420
 16777215
370
    80
100
AcDbPolyline
 90
        2
 70
     0
 43
0.0
 10
2.684902777777777
 20
0.8052305555555554
 10
2.713291666666666
 20
0.7807722222222222
  0
LWPOLYLINE
  5
3F7
330
2
100
AcDbEntity
  8
PDF_Layer 1
 62
     7
420
 16777215
370
    80
100
AcDbPolyline
 90
        2
 70
     0
 43
0.0
 10
2.713290277777777
 20
0.7807750000000001
 10
2.7426375
 20
0.7562888888888889
  0
LWPOLYLINE
  5
3F8
330
2
100
AcDbEntity
  8
PDF_Layer 1
 62
     7
420
 16777215
370
    80
100
AcDbPolyline
 90
        2
 70
     0
 43
0.0
 10
2.742641666666666
 20
0.7562930555555555
 10
2.770044444444444
 20
0.7347930555555556
  0
LWPOLYLINE
  5
3F9
330
2
100
AcDbEntity
  8
PDF_Layer 1
 62
     7
420
 16777215
370
    80
100
AcDbPolyline
 90
        2
 70
     0
 43
0.0
 10
2.770040277777777
 20
0.7347958333333333
 10
2.797443055555555
 20
0.714226388888889
  0
LWPOLYLINE
  5
3FA
330
2
100
AcDbEntity
  8
PDF_Layer 1
 62
     7
420
 16777215
370
    80
100
AcDbPolyline
 90
        2
 70
     0
 43
0.0
 10
2.797437499999999
 20
0.7142194444444444
 10
2.821895833333332
 20
0.6975944444444444
  0
LWPOLYLINE
  5
3FB
330
2
100
AcDbEntity
  8
PDF_Layer 1
 62
     7
420
 16777215
370
    80
100
AcDbPolyline
 90
        2
 70
     0
 43
0.0
 10
2.821893055555555
 20
0.6975916666666668
 10
2.847351388888888
 20
0.6809527777777779
  0
LWPOLYLINE
  5
3FC
330
2
100
AcDbEntity
  8
PDF_Layer 1
 62
     7
420
 16777215
370
    80
100
AcDbPolyline
 90
        2
 70
     0
 43
0.0
 10
2.847351388888888
 20
0.6809486111111112
 10
2.873754166666666
 20
0.6643236111111112
  0
LWPOLYLINE
  5
3FD
330
2
100
AcDbEntity
  8
PDF_Layer 1
 62
     7
420
 16777215
370
    80
100
AcDbPolyline
 90
        2
 70
     0
 43
0.0
 10
2.873758333333332
 20
0.6643208333333332
 10
2.902147222222221
 20
0.6466958333333333
  0
LWPOLYLINE
  5
3FE
330
2
100
AcDbEntity
  8
PDF_Layer 1
 62
     7
420
 16777215
370
    80
100
AcDbPolyline
 90
        2
 70
     0
 43
0.0
 10
2.902147222222222
 20
0.646701388888889
 10
2.933452777777777
 20
0.629076388888889
  0
LWPOLYLINE
  5
3FF
330
2
100
AcDbEntity
  8
PDF_Layer 1
 62
     7
420
 16777215
370
    80
100
AcDbPolyline
 90
        2
 70
     0
 43
0.0
 10
2.933458333333332
 20
0.6290819444444446
 10
2.96673611111111
 20
0.6114847222222223
  0
LWPOLYLINE
  5
400
330
2
100
AcDbEntity
  8
PDF_Layer 1
 62
     7
420
 16777215
370
    80
100
AcDbPolyline
 90
        2
 70
     0
 43
0.0
 10
2.966729166666666
 20
0.6114902777777778
 10
3.003909722222221
 20
0.5919208333333334
  0
LWPOLYLINE
  5
401
330
2
100
AcDbEntity
  8
PDF_Layer 1
 62
     7
420
 16777215
370
    80
100
AcDbPolyline
 90
        2
 70
     0
 43
0.0
 10
3.003905555555555
 20
0.5919194444444445
 10
3.042072222222222
 20
0.5733222222222222
  0
LWPOLYLINE
  5
402
330
2
100
AcDbEntity
  8
PDF_Layer 1
 62
     7
420
 16777215
370
    80
100
AcDbPolyline
 90
        2
 70
     0
 43
0.0
 10
3.042066666666666
 20
0.5733236111111112
 10
3.086094444444444
 20
0.5527819444444445
  0
LWPOLYLINE
  5
403
330
2
100
AcDbEntity
  8
PDF_Layer 1
 62
     7
420
 16777215
370
    80
100
AcDbPolyline
 90
        2
 70
     0
 43
0.0
 10
3.086099999999999
 20
0.5527750000000001
 10
3.13208611111111
 20
0.5332055555555556
  0
LWPOLYLINE
  5
404
330
2
100
AcDbEntity
  8
PDF_Layer 1
 62
     7
420
 16777215
370
    80
100
AcDbPolyline
 90
        2
 70
     0
 43
0.0
 10
3.132080555555555
 20
0.5332027777777777
 10
3.187858333333332
 20
0.5116749999999999
  0
LWPOLYLINE
  5
405
330
2
100
AcDbEntity
  8
PDF_Layer 1
 62
     7
420
 16777215
370
    80
100
AcDbPolyline
 90
        2
 70
     0
 43
0.0
 10
3.187859722222222
 20
0.5116777777777778
 10
3.245581944444444
 20
0.4901361111111111
  0
LWPOLYLINE
  5
406
330
2
100
AcDbEntity
  8
PDF_Layer 1
 62
     7
420
 16777215
370
    80
100
AcDbPolyline
 90
        2
 70
     0
 43
0.0
 10
3.245584722222222
 20
0.490138888888889
 10
3.302348611111111
 20
0.4715555555555557
  0
LWPOLYLINE
  5
407
330
2
100
AcDbEntity
  8
PDF_Layer 1
 62
     7
420
 16777215
370
    80
100
AcDbPolyline
 90
        2
 70
     0
 43
0.0
 10
3.302354166666666
 20
0.4715569444444445
 10
3.360076388888888
 20
0.4529736111111112
  0
LWPOLYLINE
  5
408
330
2
100
AcDbEntity
  8
PDF_Layer 1
 62
     7
420
 16777215
370
    80
100
AcDbPolyline
 90
        2
 70
     0
 43
0.0
 10
3.360080555555555
 20
0.4529763888888889
 10
3.426608333333333
 20
0.4343791666666667
  0
LWPOLYLINE
  5
409
330
2
100
AcDbEntity
  8
PDF_Layer 1
 62
     7
420
 16777215
370
    80
100
AcDbPolyline
 90
        2
 70
     0
 43
0.0
 10
3.426608333333332
 20
0.4343805555555555
 10
3.495094444444443
 20
0.4177555555555556
  0
LWPOLYLINE
  5
40A
330
2
100
AcDbEntity
  8
PDF_Layer 1
 62
     7
420
 16777215
370
    80
100
AcDbPolyline
 90
        2
 70
     0
 43
0.0
 10
3.495097222222221
 20
0.4177513888888889
 10
3.572388888888888
 20
0.4001125
  0
LWPOLYLINE
  5
40B
330
2
100
AcDbEntity
  8
PDF_Layer 1
 62
     7
420
 16777215
370
    80
100
AcDbPolyline
 90
        2
 70
     0
 43
0.0
 10
3.572387499999999
 20
0.4001194444444444
 10
3.650679166666666
 20
0.3844805555555555
  0
LWPOLYLINE
  5
40C
330
2
100
AcDbEntity
  8
PDF_Layer 1
 62
     7
420
 16777215
370
    80
100
AcDbPolyline
 90
        2
 70
     0
 43
0.0
 10
3.650681944444444
 20
0.3844805555555555
 10
3.7387375
 20
0.370786111111111
  0
LWPOLYLINE
  5
40D
330
2
100
AcDbEntity
  8
PDF_Layer 1
 62
     7
420
 16777215
370
    80
100
AcDbPolyline
 90
        2
 70
     0
 43
0.0
 10
3.738736111111111
 20
0.3707819444444445
 10
3.827791666666666
 20
0.3580458333333333
  0
LWPOLYLINE
  5
40E
330
2
100
AcDbEntity
  8
PDF_Layer 1
 62
     7
420
 16777215
370
    80
100
AcDbPolyline
 90
        2
 70
     0
 43
0.0
 10
3.827793055555554
 20
0.3580458333333333
 10
3.925626388888888
 20
0.3473097222222222
  0
LWPOLYLINE
  5
40F
330
2
100
AcDbEntity
  8
PDF_Layer 1
 62
     7
420
 16777215
370
    80
100
AcDbPolyline
 90
        2
 70
     0
 43
0.0
 10
3.925631944444444
 20
0.3473041666666666
 10
4.024465277777777
 20
0.3394569444444444
  0
LWPOLYLINE
  5
410
330
2
100
AcDbEntity
  8
PDF_Layer 1
 62
     7
420
 16777215
370
    80
100
AcDbPolyline
 90
        2
 70
     0
 43
0.0
 10
4.02446111111111
 20
0.3394499999999999
 10
4.132099999999999
 20
0.334561111111111
  0
LWPOLYLINE
  5
411
330
2
100
AcDbEntity
  8
PDF_Layer 1
 62
     7
420
 16777215
370
    80
100
AcDbPolyline
 90
        2
 70
     0
 43
0.0
 10
4.132099999999999
 20
0.3345680555555555
 10
4.239738888888888
 20
0.3326097222222222
  0
LWPOLYLINE
  5
412
330
2
100
AcDbEntity
  8
PDF_Layer 1
 62
     7
420
 16777215
370
    80
100
AcDbPolyline
 90
        2
 70
     0
 43
0.0
 10
4.238748611111111
 20
0.71715
 10
4.162443055555555
 20
0.7181361111111111
  0
LWPOLYLINE
  5
413
330
2
100
AcDbEntity
  8
PDF_Layer 1
 62
     7
420
 16777215
370
    80
100
AcDbPolyline
 90
        2
 70
     0
 43
0.0
 10
4.162441666666667
 20
0.7181402777777778
 10
4.085122222222222
 20
0.7210708333333333
  0
LWPOLYLINE
  5
414
330
2
100
AcDbEntity
  8
PDF_Layer 1
 62
     7
420
 16777215
370
    80
100
AcDbPolyline
 90
        2
 70
     0
 43
0.0
 10
4.085116666666666
 20
0.7210694444444444
 10
4.015658333333332
 20
0.724986111111111
  0
LWPOLYLINE
  5
415
330
2
100
AcDbEntity
  8
PDF_Layer 1
 62
     7
420
 16777215
370
    80
100
AcDbPolyline
 90
        2
 70
     0
 43
0.0
 10
4.015658333333333
 20
0.7249888888888889
 10
3.946186111111111
 20
0.7308638888888889
  0
LWPOLYLINE
  5
416
330
2
100
AcDbEntity
  8
PDF_Layer 1
 62
     7
420
 16777215
370
    80
100
AcDbPolyline
 90
        2
 70
     0
 43
0.0
 10
3.946187499999999
 20
0.7308625000000001
 10
3.88454861111111
 20
0.7377097222222223
  0
LWPOLYLINE
  5
417
330
2
100
AcDbEntity
  8
PDF_Layer 1
 62
     7
420
 16777215
370
    80
100
AcDbPolyline
 90
        2
 70
     0
 43
0.0
 10
3.884541666666666
 20
0.7377111111111111
 10
3.822902777777777
 20
0.7455305555555557
  0
LWPOLYLINE
  5
418
330
2
100
AcDbEntity
  8
PDF_Layer 1
 62
     7
420
 16777215
370
    80
100
AcDbPolyline
 90
        2
 70
     0
 43
0.0
 10
3.822902777777777
 20
0.7455375000000001
 10
3.768097222222221
 20
0.7543430555555556
  0
LWPOLYLINE
  5
419
330
2
100
AcDbEntity
  8
PDF_Layer 1
 62
     7
420
 16777215
370
    80
100
AcDbPolyline
 90
        2
 70
     0
 43
0.0
 10
3.768093055555555
 20
0.7543402777777778
 10
3.713329166666666
 20
0.7631458333333333
  0
LWPOLYLINE
  5
41A
330
2
100
AcDbEntity
  8
PDF_Layer 1
 62
     7
420
 16777215
370
    80
100
AcDbPolyline
 90
        2
 70
     0
 43
0.0
 10
3.713325
 20
0.7631430555555556
 10
3.652644444444445
 20
0.7758652777777777
  0
LWPOLYLINE
  5
41B
330
2
100
AcDbEntity
  8
PDF_Layer 1
 62
     7
420
 16777215
370
    80
100
AcDbPolyline
 90
        2
 70
     0
 43
0.0
 10
3.652641666666665
 20
0.7758652777777778
 10
3.59196111111111
 20
0.7885875000000001
  0
LWPOLYLINE
  5
41C
330
2
100
AcDbEntity
  8
PDF_Layer 1
 62
     7
420
 16777215
370
    80
100
AcDbPolyline
 90
        3
 70
     0
 43
0.0
 10
3.591966666666666
 20
0.7885875000000002
 10
3.543049999999999
 20
0.8013097222222222
 10
3.495091666666666
 20
0.8140458333333333
  0
LWPOLYLINE
  5
41E
330
2
100
AcDbEntity
  8
PDF_Layer 1
 62
     7
420
 16777215
370
    80
100
AcDbPolyline
 90
        2
 70
     0
 43
0.0
 10
3.495097222222221
 20
0.8140458333333333
 10
3.457916666666666
 20
0.8247819444444443
  0
LWPOLYLINE
  5
41F
330
2
100
AcDbEntity
  8
PDF_Layer 1
 62
     7
420
 16777215
370
    80
100
AcDbPolyline
 90
        2
 70
     0
 43
0.0
 10
3.457919444444444
 20
0.8247888888888887
 10
3.420738888888888
 20
0.8365388888888887
  0
LWPOLYLINE
  5
420
330
2
100
AcDbEntity
  8
PDF_Layer 1
 62
     7
420
 16777215
370
    80
100
AcDbPolyline
 90
        2
 70
     0
 43
0.0
 10
3.42073611111111
 20
0.8365347222222222
 10
3.390402777777777
 20
0.8463124999999999
  0
LWPOLYLINE
  5
421
330
2
100
AcDbEntity
  8
PDF_Layer 1
 62
     7
420
 16777215
370
    80
100
AcDbPolyline
 90
        2
 70
     0
 43
0.0
 10
3.390408333333333
 20
0.8463138888888888
 10
3.360074999999999
 20
0.8570916666666665
  0
LWPOLYLINE
  5
422
330
2
100
AcDbEntity
  8
PDF_Layer 1
 62
     7
420
 16777215
370
    80
100
AcDbPolyline
 90
        2
 70
     0
 43
0.0
 10
3.360080555555555
 20
0.8570958333333333
 10
3.331705555555555
 20
0.8668597222222221
  0
LWPOLYLINE
  5
423
330
2
100
AcDbEntity
  8
PDF_Layer 1
 62
     7
420
 16777215
370
    80
100
AcDbPolyline
 90
        2
 70
     0
 43
0.0
 10
3.331698611111111
 20
0.8668624999999998
 10
3.304295833333333
 20
0.8776263888888887
  0
LWPOLYLINE
  5
424
330
2
100
AcDbEntity
  8
PDF_Layer 1
 62
     7
420
 16777215
370
    80
100
AcDbPolyline
 90
        2
 70
     0
 43
0.0
 10
3.304301388888888
 20
0.8776319444444444
 10
3.272995833333332
 20
0.8903541666666667
  0
LWPOLYLINE
  5
425
330
2
100
AcDbEntity
  8
PDF_Layer 1
 62
     7
420
 16777215
370
    80
100
AcDbPolyline
 90
        2
 70
     0
 43
0.0
 10
3.272997222222222
 20
0.8903541666666665
 10
3.242649999999999
 20
0.9030624999999998
  0
LWPOLYLINE
  5
426
330
2
100
AcDbEntity
  8
PDF_Layer 1
 62
     7
420
 16777215
370
    80
100
AcDbPolyline
 90
        2
 70
     0
 43
0.0
 10
3.242655555555555
 20
0.9030624999999998
 10
3.208405555555555
 20
0.9187291666666666
  0
LWPOLYLINE
  5
427
330
2
100
AcDbEntity
  8
PDF_Layer 1
 62
     7
420
 16777215
370
    80
100
AcDbPolyline
 90
        2
 70
     0
 43
0.0
 10
3.208401388888888
 20
0.9187277777777776
 10
3.176109722222221
 20
0.9343944444444444
  0
LWPOLYLINE
  5
428
330
2
100
AcDbEntity
  8
PDF_Layer 1
 62
     7
420
 16777215
370
    80
100
AcDbPolyline
 90
        2
 70
     0
 43
0.0
 10
3.176113888888888
 20
0.9343944444444442
 10
3.142849999999999
 20
0.9519916666666665
  0
LWPOLYLINE
  5
429
330
2
100
AcDbEntity
  8
PDF_Layer 1
 62
     7
420
 16777215
370
    80
100
AcDbPolyline
 90
        2
 70
     0
 43
0.0
 10
3.142855555555555
 20
0.9519861111111111
 10
3.110549999999999
 20
0.9696111111111111
  0
LWPOLYLINE
  5
42A
330
2
100
AcDbEntity
  8
PDF_Layer 1
 62
     7
420
 16777215
370
    80
100
AcDbPolyline
 90
        2
 70
     0
 43
0.0
 10
3.110555555555555
 20
0.9696041666666667
 10
3.076305555555555
 20
0.9901597222222221
  0
LWPOLYLINE
  5
42B
330
2
100
AcDbEntity
  8
PDF_Layer 1
 62
     7
420
 16777215
370
    80
100
AcDbPolyline
 90
        2
 70
     0
 43
0.0
 10
3.076306944444444
 20
0.9901666666666667
 10
3.044015277777777
 20
1.010708333333333
  0
LWPOLYLINE
  5
42C
330
2
100
AcDbEntity
  8
PDF_Layer 1
 62
     7
420
 16777215
370
    80
100
AcDbPolyline
 90
        2
 70
     0
 43
0.0
 10
3.044019444444444
 20
1.010701388888888
 10
3.018574999999999
 20
1.028326388888888
  0
LWPOLYLINE
  5
42D
330
2
100
AcDbEntity
  8
PDF_Layer 1
 62
     7
420
 16777215
370
    80
100
AcDbPolyline
 90
        2
 70
     0
 43
0.0
 10
3.018581944444444
 20
1.028320833333333
 10
2.995109722222222
 20
1.045931944444444
  0
LWPOLYLINE
  5
42E
330
2
100
AcDbEntity
  8
PDF_Layer 1
 62
     7
420
 16777215
370
    80
100
AcDbPolyline
 90
        2
 70
     0
 43
0.0
 10
2.995104166666666
 20
1.045924999999999
 10
2.970631944444443
 20
1.065508333333333
  0
LWPOLYLINE
  5
42F
330
2
100
AcDbEntity
  8
PDF_Layer 1
 62
     7
420
 16777215
370
    80
100
AcDbPolyline
 90
        2
 70
     0
 43
0.0
 10
2.970634722222222
 20
1.065511111111111
 10
2.949106944444444
 20
1.084094444444444
  0
LWPOLYLINE
  5
430
330
2
100
AcDbEntity
  8
PDF_Layer 1
 62
     7
420
 16777215
370
    80
100
AcDbPolyline
 90
        2
 70
     0
 43
0.0
 10
2.949109722222221
 20
1.084093055555555
 10
2.926595833333333
 20
1.104634722222222
  0
LWPOLYLINE
  5
431
330
2
100
AcDbEntity
  8
PDF_Layer 1
 62
     7
420
 16777215
370
    80
100
AcDbPolyline
 90
        2
 70
     0
 43
0.0
 10
2.926594444444443
 20
1.104627777777777
 10
2.906052777777777
 20
1.126169444444444
  0
LWPOLYLINE
  5
432
330
2
100
AcDbEntity
  8
PDF_Layer 1
 62
     7
420
 16777215
370
    80
100
AcDbPolyline
 90
        2
 70
     0
 43
0.0
 10
2.906047222222222
 20
1.126166666666666
 10
2.895283333333333
 20
1.137916666666666
  0
LWPOLYLINE
  5
433
330
2
100
AcDbEntity
  8
PDF_Layer 1
 62
     7
420
 16777215
370
    80
100
AcDbPolyline
 90
        2
 70
     0
 43
0.0
 10
2.895283333333333
 20
1.137912499999999
 10
2.885505555555555
 20
1.148662499999999
  0
LWPOLYLINE
  5
434
330
2
100
AcDbEntity
  8
PDF_Layer 1
 62
     7
420
 16777215
370
    80
100
AcDbPolyline
 90
        2
 70
     0
 43
0.0
 10
2.885511111111111
 20
1.148668055555555
 10
2.877677777777778
 20
1.159431944444444
  0
LWPOLYLINE
  5
435
330
2
100
AcDbEntity
  8
PDF_Layer 1
 62
     7
420
 16777215
370
    80
100
AcDbPolyline
 90
        2
 70
     0
 43
0.0
 10
2.877679166666666
 20
1.159437499999999
 10
2.868873611111111
 20
1.170201388888888
  0
LWPOLYLINE
  5
436
330
2
100
AcDbEntity
  8
PDF_Layer 1
 62
     7
420
 16777215
370
    80
100
AcDbPolyline
 90
        2
 70
     0
 43
0.0
 10
2.868869444444444
 20
1.170206944444444
 10
2.861036111111111
 20
1.180956944444444
  0
LWPOLYLINE
  5
437
330
2
100
AcDbEntity
  8
PDF_Layer 1
 62
     7
420
 16777215
370
    80
100
AcDbPolyline
 90
        2
 70
     0
 43
0.0
 10
2.86103611111111
 20
1.180962499999999
 10
2.854188888888888
 20
1.191726388888888
  0
LWPOLYLINE
  5
438
330
2
100
AcDbEntity
  8
PDF_Layer 1
 62
     7
420
 16777215
370
    80
100
AcDbPolyline
 90
        2
 70
     0
 43
0.0
 10
2.854194444444444
 20
1.191731944444444
 10
2.846361111111111
 20
1.205426388888888
  0
LWPOLYLINE
  5
439
330
2
100
AcDbEntity
  8
PDF_Layer 1
 62
     7
420
 16777215
370
    80
100
AcDbPolyline
 90
        2
 70
     0
 43
0.0
 10
2.846361111111111
 20
1.205430555555555
 10
2.838541666666666
 20
1.218152777777777
  0
LWPOLYLINE
  5
43A
330
2
100
AcDbEntity
  8
PDF_Layer 1
 62
     7
420
 16777215
370
    80
100
AcDbPolyline
 90
        2
 70
     0
 43
0.0
 10
2.838534722222221
 20
1.218152777777777
 10
2.829743055555555
 20
1.235777777777777
  0
LWPOLYLINE
  5
43B
330
2
100
AcDbEntity
  8
PDF_Layer 1
 62
     7
420
 16777215
370
    80
100
AcDbPolyline
 90
        2
 70
     0
 43
0.0
 10
2.829738888888888
 20
1.235772222222222
 10
2.822877777777777
 20
1.252397222222222
  0
LWPOLYLINE
  5
43C
330
2
100
AcDbEntity
  8
PDF_Layer 1
 62
     7
420
 16777215
370
    80
100
AcDbPolyline
 90
        2
 70
     0
 43
0.0
 10
2.822883333333333
 20
1.252401388888888
 10
2.816022222222221
 20
1.271956944444444
  0
LWPOLYLINE
  5
43D
330
2
100
AcDbEntity
  8
PDF_Layer 1
 62
     7
420
 16777215
370
    80
100
AcDbPolyline
 90
        2
 70
     0
 43
0.0
 10
2.816019444444444
 20
1.271959722222222
 10
2.811130555555555
 20
1.291543055555555
  0
LWPOLYLINE
  5
43E
330
2
100
AcDbEntity
  8
PDF_Layer 1
 62
     7
420
 16777215
370
    80
100
AcDbPolyline
 90
        2
 70
     0
 43
0.0
 10
2.8111375
 20
1.291544444444444
 10
2.807234722222222
 20
1.315016666666666
  0
LWPOLYLINE
  5
43F
330
2
100
AcDbEntity
  8
PDF_Layer 1
 62
     7
420
 16777215
370
    80
100
AcDbPolyline
 90
        2
 70
     0
 43
0.0
 10
2.807230555555555
 20
1.315022222222222
 10
2.806244444444444
 20
1.337536111111111
  0
LWPOLYLINE
  5
440
330
2
100
AcDbEntity
  8
PDF_Layer 1
 62
     7
420
 16777215
370
    80
100
AcDbPolyline
 90
        2
 70
     0
 43
0.0
 10
12.71930555555555
 20
0.3326138888888888
 10
12.81129166666667
 20
0.3345722222222221
  0
LWPOLYLINE
  5
441
330
2
100
AcDbEntity
  8
PDF_Layer 1
 62
     7
420
 16777215
370
    80
100
AcDbPolyline
 90
        2
 70
     0
 43
0.0
 10
12.81129305555555
 20
0.3345680555555555
 10
12.90230694444444
 20
0.3374986111111111
  0
LWPOLYLINE
  5
442
330
2
100
AcDbEntity
  8
PDF_Layer 1
 62
     7
420
 16777215
370
    80
100
AcDbPolyline
 90
        2
 70
     0
 43
0.0
 10
12.90230277777778
 20
0.3374972222222222
 10
12.98542777777778
 20
0.3433722222222222
  0
LWPOLYLINE
  5
443
330
2
100
AcDbEntity
  8
PDF_Layer 1
 62
     7
420
 16777215
370
    80
100
AcDbPolyline
 90
        2
 70
     0
 43
0.0
 10
12.98543333333333
 20
0.3433708333333332
 10
13.06764166666666
 20
0.3512041666666666
  0
LWPOLYLINE
  5
444
330
2
100
AcDbEntity
  8
PDF_Layer 1
 62
     7
420
 16777215
370
    80
100
AcDbPolyline
 90
        2
 70
     0
 43
0.0
 10
13.06764027777777
 20
0.3512097222222222
 10
13.14104305555555
 20
0.3590291666666666
  0
LWPOLYLINE
  5
445
330
2
100
AcDbEntity
  8
PDF_Layer 1
 62
     7
420
 16777215
370
    80
100
AcDbPolyline
 90
        2
 70
     0
 43
0.0
 10
13.14104583333333
 20
0.3590361111111111
 10
13.21439305555555
 20
0.3698
  0
LWPOLYLINE
  5
446
330
2
100
AcDbEntity
  8
PDF_Layer 1
 62
     7
420
 16777215
370
    80
100
AcDbPolyline
 90
        2
 70
     0
 43
0.0
 10
13.21439583333333
 20
0.3698055555555555
 10
13.27802083333333
 20
0.3795694444444444
  0
LWPOLYLINE
  5
447
330
2
100
AcDbEntity
  8
PDF_Layer 1
 62
     7
420
 16777215
370
    80
100
AcDbPolyline
 90
        2
 70
     0
 43
0.0
 10
13.27802222222222
 20
0.3795708333333333
 10
13.34159166666666
 20
0.3913208333333333
  0
LWPOLYLINE
  5
448
330
2
100
AcDbEntity
  8
PDF_Layer 1
 62
     7
420
 16777215
370
    80
100
AcDbPolyline
 90
        2
 70
     0
 43
0.0
 10
13.34159305555555
 20
0.3913166666666667
 10
13.41402361111111
 20
0.4060111111111112
  0
LWPOLYLINE
  5
449
330
2
100
AcDbEntity
  8
PDF_Layer 1
 62
     7
420
 16777215
370
    80
100
AcDbPolyline
 90
        2
 70
     0
 43
0.0
 10
13.41402222222222
 20
0.4060055555555556
 10
13.48450833333333
 20
0.4226305555555556
  0
LWPOLYLINE
  5
44A
330
2
100
AcDbEntity
  8
PDF_Layer 1
 62
     7
420
 16777215
370
    80
100
AcDbPolyline
 90
        2
 70
     0
 43
0.0
 10
13.48451111111111
 20
0.4226347222222222
 10
13.54026111111111
 20
0.4373152777777777
  0
LWPOLYLINE
  5
44B
330
2
100
AcDbEntity
  8
PDF_Layer 1
 62
     7
420
 16777215
370
    80
100
AcDbPolyline
 90
        2
 70
     0
 43
0.0
 10
13.54025555555555
 20
0.4373097222222222
 10
13.59501944444444
 20
0.4529763888888888
  0
LWPOLYLINE
  5
44C
330
2
100
AcDbEntity
  8
PDF_Layer 1
 62
     7
420
 16777215
370
    80
100
AcDbPolyline
 90
        2
 70
     0
 43
0.0
 10
13.595025
 20
0.4529763888888889
 10
13.63709444444444
 20
0.4646986111111112
  0
LWPOLYLINE
  5
44D
330
2
100
AcDbEntity
  8
PDF_Layer 1
 62
     7
420
 16777215
370
    80
100
AcDbPolyline
 90
        2
 70
     0
 43
0.0
 10
13.63709861111111
 20
0.4646944444444445
 10
13.67826527777778
 20
0.4784166666666667
  0
LWPOLYLINE
  5
44E
330
2
100
AcDbEntity
  8
PDF_Layer 1
 62
     7
420
 16777215
370
    80
100
AcDbPolyline
 90
        2
 70
     0
 43
0.0
 10
13.67826388888889
 20
0.4784208333333333
 10
13.71347222222222
 20
0.4901430555555556
  0
LWPOLYLINE
  5
44F
330
2
100
AcDbEntity
  8
PDF_Layer 1
 62
     7
420
 16777215
370
    80
100
AcDbPolyline
 90
        2
 70
     0
 43
0.0
 10
13.71347361111111
 20
0.490138888888889
 10
13.74766805555555
 20
0.5028750000000001
  0
LWPOLYLINE
  5
450
330
2
100
AcDbEntity
  8
PDF_Layer 1
 62
     7
420
 16777215
370
    80
100
AcDbPolyline
 90
        2
 70
     0
 43
0.0
 10
13.74766666666666
 20
0.502875
 10
13.78390277777777
 20
0.5165555555555556
  0
LWPOLYLINE
  5
451
330
2
100
AcDbEntity
  8
PDF_Layer 1
 62
     7
420
 16777215
370
    80
100
AcDbPolyline
 90
        2
 70
     0
 43
0.0
 10
13.78390833333333
 20
0.5165611111111112
 10
13.82008888888888
 20
0.5302694444444445
  0
LWPOLYLINE
  5
452
330
2
100
AcDbEntity
  8
PDF_Layer 1
 62
     7
420
 16777215
370
    80
100
AcDbPolyline
 90
        2
 70
     0
 43
0.0
 10
13.82009583333333
 20
0.5302736111111112
 10
13.86023472222222
 20
0.5478847222222223
  0
LWPOLYLINE
  5
453
330
2
100
AcDbEntity
  8
PDF_Layer 1
 62
     7
420
 16777215
370
    80
100
AcDbPolyline
 90
        2
 70
     0
 43
0.0
 10
13.86022916666666
 20
0.5478791666666666
 10
13.89938194444444
 20
0.5654902777777778
  0
LWPOLYLINE
  5
454
330
2
100
AcDbEntity
  8
PDF_Layer 1
 62
     7
420
 16777215
370
    80
100
AcDbPolyline
 90
        2
 70
     0
 43
0.0
 10
13.8993875
 20
0.5654833333333333
 10
13.94244305555555
 20
0.5860249999999999
  0
LWPOLYLINE
  5
455
330
2
100
AcDbEntity
  8
PDF_Layer 1
 62
     7
420
 16777215
370
    80
100
AcDbPolyline
 90
        2
 70
     0
 43
0.0
 10
13.9424375
 20
0.5860319444444446
 10
13.98549305555555
 20
0.6075736111111113
  0
LWPOLYLINE
  5
456
330
2
100
AcDbEntity
  8
PDF_Layer 1
 62
     7
420
 16777215
370
    80
100
AcDbPolyline
 90
        2
 70
     0
 43
0.0
 10
13.98548749999999
 20
0.6075708333333334
 10
14.02562638888888
 20
0.6290847222222223
  0
LWPOLYLINE
  5
457
330
2
100
AcDbEntity
  8
PDF_Layer 1
 62
     7
420
 16777215
370
    80
100
AcDbPolyline
 90
        2
 70
     0
 43
0.0
 10
14.02562083333333
 20
0.6290819444444446
 10
14.06569027777778
 20
0.6525680555555557
  0
LWPOLYLINE
  5
458
330
2
100
AcDbEntity
  8
PDF_Layer 1
 62
     7
420
 16777215
370
    80
100
AcDbPolyline
 90
        2
 70
     0
 43
0.0
 10
14.0656875
 20
0.6525749999999999
 10
14.10777083333333
 20
0.6780194444444444
  0
LWPOLYLINE
  5
459
330
2
100
AcDbEntity
  8
PDF_Layer 1
 62
     7
420
 16777215
370
    80
100
AcDbPolyline
 90
        2
 70
     0
 43
0.0
 10
14.107775
 20
0.6780194444444443
 10
14.1479
 20
0.7054222222222221
  0
LWPOLYLINE
  5
45A
330
2
100
AcDbEntity
  8
PDF_Layer 1
 62
     7
420
 16777215
370
    80
100
AcDbPolyline
 90
        2
 70
     0
 43
0.0
 10
14.14789444444444
 20
0.7054166666666668
 10
14.18117222222222
 20
0.729875
  0
LWPOLYLINE
  5
45B
330
2
100
AcDbEntity
  8
PDF_Layer 1
 62
     7
420
 16777215
370
    80
100
AcDbPolyline
 90
        2
 70
     0
 43
0.0
 10
14.18116527777778
 20
0.7298722222222222
 10
14.21444305555555
 20
0.7553305555555556
  0
LWPOLYLINE
  5
45C
330
2
100
AcDbEntity
  8
PDF_Layer 1
 62
     7
420
 16777215
370
    80
100
AcDbPolyline
 90
        2
 70
     0
 43
0.0
 10
14.2144375
 20
0.7553305555555554
 10
14.2486875
 20
0.7836916666666665
  0
LWPOLYLINE
  5
45D
330
2
100
AcDbEntity
  8
PDF_Layer 1
 62
     7
420
 16777215
370
    80
100
AcDbPolyline
 90
        2
 70
     0
 43
0.0
 10
14.24868472222222
 20
0.7836916666666668
 10
14.2819625
 20
0.8130527777777777
  0
LWPOLYLINE
  5
45E
330
2
100
AcDbEntity
  8
PDF_Layer 1
 62
     7
420
 16777215
370
    80
100
AcDbPolyline
 90
        2
 70
     0
 43
0.0
 10
14.28195555555555
 20
0.8130555555555554
 10
14.31523333333333
 20
0.8463194444444443
  0
LWPOLYLINE
  5
45F
330
2
100
AcDbEntity
  8
PDF_Layer 1
 62
     7
420
 16777215
370
    80
100
AcDbPolyline
 90
        2
 70
     0
 43
0.0
 10
14.31522638888888
 20
0.8463138888888888
 10
14.34753194444444
 20
0.8795916666666665
  0
LWPOLYLINE
  5
460
330
2
100
AcDbEntity
  8
PDF_Layer 1
 62
     7
420
 16777215
370
    80
100
AcDbPolyline
 90
        2
 70
     0
 43
0.0
 10
14.34753472222222
 20
0.8795847222222221
 10
14.3611875
 20
0.896223611111111
  0
LWPOLYLINE
  5
461
330
2
100
AcDbEntity
  8
PDF_Layer 1
 62
     7
420
 16777215
370
    80
100
AcDbPolyline
 90
        2
 70
     0
 43
0.0
 10
14.36119305555555
 20
0.8962263888888886
 10
14.37491527777778
 20
0.9128513888888885
  0
LWPOLYLINE
  5
462
330
2
100
AcDbEntity
  8
PDF_Layer 1
 62
     7
420
 16777215
370
    80
100
AcDbPolyline
 90
        2
 70
     0
 43
0.0
 10
14.37491805555555
 20
0.9128555555555555
 10
14.38761249999999
 20
0.9294944444444443
  0
LWPOLYLINE
  5
463
330
2
100
AcDbEntity
  8
PDF_Layer 1
 62
     7
420
 16777215
370
    80
100
AcDbPolyline
 90
        3
 70
     0
 43
0.0
 10
14.38761388888889
 20
0.9294972222222222
 10
14.40035
 20
0.9451499999999999
 10
14.41208611111111
 20
0.9627611111111111
  0
LWPOLYLINE
  5
465
330
2
100
AcDbEntity
  8
PDF_Layer 1
 62
     7
420
 16777215
370
    80
100
AcDbPolyline
 90
        2
 70
     0
 43
0.0
 10
14.41208194444444
 20
0.9627555555555554
 10
14.42385972222222
 20
0.9793944444444443
  0
LWPOLYLINE
  5
466
330
2
100
AcDbEntity
  8
PDF_Layer 1
 62
     7
420
 16777215
370
    80
100
AcDbPolyline
 90
        2
 70
     0
 43
0.0
 10
14.42385555555556
 20
0.9793972222222222
 10
14.43750833333333
 20
1.000925
  0
LWPOLYLINE
  5
467
330
2
100
AcDbEntity
  8
PDF_Layer 1
 62
     7
420
 16777215
370
    80
100
AcDbPolyline
 90
        2
 70
     0
 43
0.0
 10
14.43751388888889
 20
1.000922222222222
 10
14.45026388888889
 20
1.023422222222222
  0
LWPOLYLINE
  5
468
330
2
100
AcDbEntity
  8
PDF_Layer 1
 62
     7
420
 16777215
370
    80
100
AcDbPolyline
 90
        3
 70
     0
 43
0.0
 10
14.4502625
 20
1.023423611111111
 10
14.46592916666667
 20
1.0518125
 10
14.47958194444444
 20
1.080173611111111
  0
LWPOLYLINE
  5
46A
330
2
100
AcDbEntity
  8
PDF_Layer 1
 62
     7
420
 16777215
370
    80
100
AcDbPolyline
 90
        2
 70
     0
 43
0.0
 10
14.47958749999999
 20
1.08017361111111
 10
14.49428194444444
 20
1.116368055555555
  0
LWPOLYLINE
  5
46B
330
2
100
AcDbEntity
  8
PDF_Layer 1
 62
     7
420
 16777215
370
    80
100
AcDbPolyline
 90
        2
 70
     0
 43
0.0
 10
14.49427638888889
 20
1.11637361111111
 10
14.50702638888889
 20
1.151609722222221
  0
LWPOLYLINE
  5
46C
330
2
100
AcDbEntity
  8
PDF_Layer 1
 62
     7
420
 16777215
370
    80
100
AcDbPolyline
 90
        2
 70
     0
 43
0.0
 10
14.50702638888889
 20
1.151611111111111
 10
14.51874861111111
 20
1.194666666666666
  0
LWPOLYLINE
  5
46D
330
2
100
AcDbEntity
  8
PDF_Layer 1
 62
     7
420
 16777215
370
    80
100
AcDbPolyline
 90
        2
 70
     0
 43
0.0
 10
14.51874444444444
 20
1.194661111111111
 10
14.52756388888889
 20
1.237716666666666
  0
LWPOLYLINE
  5
46E
330
2
100
AcDbEntity
  8
PDF_Layer 1
 62
     7
420
 16777215
370
    80
100
AcDbPolyline
 90
        2
 70
     0
 43
0.0
 10
14.52756111111111
 20
1.23771111111111
 10
14.53440833333333
 20
1.287613888888888
  0
LWPOLYLINE
  5
46F
330
2
100
AcDbEntity
  8
PDF_Layer 1
 62
     7
420
 16777215
370
    80
100
AcDbPolyline
 90
        2
 70
     0
 43
0.0
 10
14.53440972222222
 20
1.287611111111111
 10
14.53636805555555
 20
1.337541666666666
  0
LWPOLYLINE
  5
470
330
2
100
AcDbEntity
  8
PDF_Layer 1
 62
     7
420
 16777215
370
    80
100
AcDbPolyline
 90
        2
 70
     0
 43
0.0
 10
14.15281805555555
 20
1.337537499999999
 10
14.15080416666666
 20
1.312079166666666
  0
LWPOLYLINE
  5
471
330
2
100
AcDbEntity
  8
PDF_Layer 1
 62
     7
420
 16777215
370
    80
100
AcDbPolyline
 90
        2
 70
     0
 43
0.0
 10
14.15081111111111
 20
1.312079166666666
 10
14.14595
 20
1.285662499999999
  0
LWPOLYLINE
  5
472
330
2
100
AcDbEntity
  8
PDF_Layer 1
 62
     7
420
 16777215
370
    80
100
AcDbPolyline
 90
        2
 70
     0
 43
0.0
 10
14.14595555555555
 20
1.285658333333333
 10
14.13909444444444
 20
1.2612
  0
LWPOLYLINE
  5
473
330
2
100
AcDbEntity
  8
PDF_Layer 1
 62
     7
420
 16777215
370
    80
100
AcDbPolyline
 90
        2
 70
     0
 43
0.0
 10
14.13909166666666
 20
1.261202777777777
 10
14.12835555555555
 20
1.23478611111111
  0
LWPOLYLINE
  5
474
330
2
100
AcDbEntity
  8
PDF_Layer 1
 62
     7
420
 16777215
370
    80
100
AcDbPolyline
 90
        2
 70
     0
 43
0.0
 10
14.12835
 20
1.234781944444444
 10
14.11657222222222
 20
1.212281944444444
  0
LWPOLYLINE
  5
475
330
2
100
AcDbEntity
  8
PDF_Layer 1
 62
     7
420
 16777215
370
    80
100
AcDbPolyline
 90
        2
 70
     0
 43
0.0
 10
14.11657777777778
 20
1.212280555555555
 10
14.10291111111111
 20
1.189780555555555
  0
LWPOLYLINE
  5
476
330
2
100
AcDbEntity
  8
PDF_Layer 1
 62
     7
420
 16777215
370
    80
100
AcDbPolyline
 90
        2
 70
     0
 43
0.0
 10
14.10290555555555
 20
1.189779166666666
 10
14.09015555555555
 20
1.172154166666666
  0
LWPOLYLINE
  5
477
330
2
100
AcDbEntity
  8
PDF_Layer 1
 62
     7
420
 16777215
370
    80
100
AcDbPolyline
 90
        2
 70
     0
 43
0.0
 10
14.09015555555555
 20
1.172159722222222
 10
14.07650277777777
 20
1.1535625
  0
LWPOLYLINE
  5
478
330
2
100
AcDbEntity
  8
PDF_Layer 1
 62
     7
420
 16777215
370
    80
100
AcDbPolyline
 90
        2
 70
     0
 43
0.0
 10
14.07649722222222
 20
1.153563888888888
 10
14.062775
 20
1.137911111111111
  0
LWPOLYLINE
  5
479
330
2
100
AcDbEntity
  8
PDF_Layer 1
 62
     7
420
 16777215
370
    80
100
AcDbPolyline
 90
        2
 70
     0
 43
0.0
 10
14.06277083333333
 20
1.137912499999999
 10
14.04807638888889
 20
1.121287499999999
  0
LWPOLYLINE
  5
47A
330
2
100
AcDbEntity
  8
PDF_Layer 1
 62
     7
420
 16777215
370
    80
100
AcDbPolyline
 90
        2
 70
     0
 43
0.0
 10
14.04808194444444
 20
1.121283333333333
 10
14.02562361111111
 20
1.098769444444444
  0
LWPOLYLINE
  5
47B
330
2
100
AcDbEntity
  8
PDF_Layer 1
 62
     7
420
 16777215
370
    80
100
AcDbPolyline
 90
        2
 70
     0
 43
0.0
 10
14.02562083333333
 20
1.098768055555555
 10
14.00113472222222
 20
1.077240277777777
  0
LWPOLYLINE
  5
47C
330
2
100
AcDbEntity
  8
PDF_Layer 1
 62
     7
420
 16777215
370
    80
100
AcDbPolyline
 90
        2
 70
     0
 43
0.0
 10
14.00113888888889
 20
1.077243055555555
 10
13.97369444444444
 20
1.053784722222222
  0
LWPOLYLINE
  5
47D
330
2
100
AcDbEntity
  8
PDF_Layer 1
 62
     7
420
 16777215
370
    80
100
AcDbPolyline
 90
        2
 70
     0
 43
0.0
 10
13.9737
 20
1.053779166666666
 10
13.94339444444444
 20
1.031251388888888
  0
LWPOLYLINE
  5
47E
330
2
100
AcDbEntity
  8
PDF_Layer 1
 62
     7
420
 16777215
370
    80
100
AcDbPolyline
 90
        2
 70
     0
 43
0.0
 10
13.9434
 20
1.03125
 10
13.91796944444444
 20
1.013638888888888
  0
LWPOLYLINE
  5
47F
330
2
100
AcDbEntity
  8
PDF_Layer 1
 62
     7
420
 16777215
370
    80
100
AcDbPolyline
 90
        2
 70
     0
 43
0.0
 10
13.91796805555556
 20
1.013644444444444
 10
13.89150972222222
 20
0.9960333333333332
  0
LWPOLYLINE
  5
480
330
2
100
AcDbEntity
  8
PDF_Layer 1
 62
     7
420
 16777215
370
    80
100
AcDbPolyline
 90
        2
 70
     0
 43
0.0
 10
13.89150694444444
 20
0.9960388888888889
 10
13.87000694444444
 20
0.9823305555555556
  0
LWPOLYLINE
  5
481
330
2
100
AcDbEntity
  8
PDF_Layer 1
 62
     7
420
 16777215
370
    80
100
AcDbPolyline
 90
        2
 70
     0
 43
0.0
 10
13.87000833333333
 20
0.9823263888888888
 10
13.84850833333333
 20
0.9696041666666667
  0
LWPOLYLINE
  5
482
330
2
100
AcDbEntity
  8
PDF_Layer 1
 62
     7
420
 16777215
370
    80
100
AcDbPolyline
 90
        2
 70
     0
 43
0.0
 10
13.84851111111111
 20
0.9696041666666667
 10
13.82301111111111
 20
0.9559236111111111
  0
LWPOLYLINE
  5
483
330
2
100
AcDbEntity
  8
PDF_Layer 1
 62
     7
420
 16777215
370
    80
100
AcDbPolyline
 90
        2
 70
     0
 43
0.0
 10
13.82301111111111
 20
0.9559194444444443
 10
13.79762222222222
 20
0.9421972222222223
  0
LWPOLYLINE
  5
484
330
2
100
AcDbEntity
  8
PDF_Layer 1
 62
     7
420
 16777215
370
    80
100
AcDbPolyline
 90
        2
 70
     0
 43
0.0
 10
13.79762083333333
 20
0.9421930555555555
 10
13.76725972222222
 20
0.9265680555555555
  0
LWPOLYLINE
  5
485
330
2
100
AcDbEntity
  8
PDF_Layer 1
 62
     7
420
 16777215
370
    80
100
AcDbPolyline
 90
        2
 70
     0
 43
0.0
 10
13.76726666666666
 20
0.9265680555555555
 10
13.73594722222222
 20
0.9128597222222222
  0
LWPOLYLINE
  5
486
330
2
100
AcDbEntity
  8
PDF_Layer 1
 62
     7
420
 16777215
370
    80
100
AcDbPolyline
 90
        2
 70
     0
 43
0.0
 10
13.73594861111111
 20
0.9128555555555555
 10
13.69878194444444
 20
0.8962305555555555
  0
LWPOLYLINE
  5
487
330
2
100
AcDbEntity
  8
PDF_Layer 1
 62
     7
420
 16777215
370
    80
100
AcDbPolyline
 90
        2
 70
     0
 43
0.0
 10
13.69878472222222
 20
0.8962263888888886
 10
13.66059027777777
 20
0.8805736111111109
  0
LWPOLYLINE
  5
488
330
2
100
AcDbEntity
  8
PDF_Layer 1
 62
     7
420
 16777215
370
    80
100
AcDbPolyline
 90
        2
 70
     0
 43
0.0
 10
13.66059027777777
 20
0.8805749999999999
 10
13.61365972222222
 20
0.8619777777777775
  0
LWPOLYLINE
  5
489
330
2
100
AcDbEntity
  8
PDF_Layer 1
 62
     7
420
 16777215
370
    80
100
AcDbPolyline
 90
        2
 70
     0
 43
0.0
 10
13.61366111111111
 20
0.8619791666666667
 10
13.56473055555555
 20
0.8453402777777778
  0
LWPOLYLINE
  5
48A
330
2
100
AcDbEntity
  8
PDF_Layer 1
 62
     7
420
 16777215
370
    80
100
AcDbPolyline
 90
        2
 70
     0
 43
0.0
 10
13.56472499999999
 20
0.8453374999999999
 10
13.51676666666666
 20
0.8296847222222222
  0
LWPOLYLINE
  5
48B
330
2
100
AcDbEntity
  8
PDF_Layer 1
 62
     7
420
 16777215
370
    80
100
AcDbPolyline
 90
        2
 70
     0
 43
0.0
 10
13.51676388888889
 20
0.8296847222222222
 10
13.46684722222222
 20
0.8149902777777777
  0
LWPOLYLINE
  5
48C
330
2
100
AcDbEntity
  8
PDF_Layer 1
 62
     7
420
 16777215
370
    80
100
AcDbPolyline
 90
        2
 70
     0
 43
0.0
 10
13.46685138888889
 20
0.8149958333333334
 10
13.41110138888889
 20
0.7993430555555557
  0
LWPOLYLINE
  5
48D
330
2
100
AcDbEntity
  8
PDF_Layer 1
 62
     7
420
 16777215
370
    80
100
AcDbPolyline
 90
        2
 70
     0
 43
0.0
 10
13.41110555555555
 20
0.7993430555555556
 10
13.35239722222222
 20
0.7856625
  0
LWPOLYLINE
  5
48E
330
2
100
AcDbEntity
  8
PDF_Layer 1
 62
     7
420
 16777215
370
    80
100
AcDbPolyline
 90
        2
 70
     0
 43
0.0
 10
13.35240277777778
 20
0.7856583333333333
 10
13.28780555555555
 20
0.77195
  0
LWPOLYLINE
  5
48F
330
2
100
AcDbEntity
  8
PDF_Layer 1
 62
     7
420
 16777215
370
    80
100
AcDbPolyline
 90
        2
 70
     0
 43
0.0
 10
13.28780138888889
 20
0.7719458333333334
 10
13.2202875
 20
0.7592375000000001
  0
LWPOLYLINE
  5
490
330
2
100
AcDbEntity
  8
PDF_Layer 1
 62
     7
420
 16777215
370
    80
100
AcDbPolyline
 90
        2
 70
     0
 43
0.0
 10
13.22028333333333
 20
0.7592361111111111
 10
13.14590833333333
 20
0.7474861111111111
  0
LWPOLYLINE
  5
491
330
2
100
AcDbEntity
  8
PDF_Layer 1
 62
     7
420
 16777215
370
    80
100
AcDbPolyline
 90
        2
 70
     0
 43
0.0
 10
13.14590138888888
 20
0.7474902777777778
 10
13.07055416666666
 20
0.7367402777777778
  0
LWPOLYLINE
  5
492
330
2
100
AcDbEntity
  8
PDF_Layer 1
 62
     7
420
 16777215
370
    80
100
AcDbPolyline
 90
        2
 70
     0
 43
0.0
 10
13.07055694444444
 20
0.7367347222222222
 10
12.98744583333333
 20
0.7289291666666667
  0
LWPOLYLINE
  5
493
330
2
100
AcDbEntity
  8
PDF_Layer 1
 62
     7
420
 16777215
370
    80
100
AcDbPolyline
 90
        2
 70
     0
 43
0.0
 10
12.98744027777778
 20
0.7289222222222222
 10
12.90230138888889
 20
0.7220611111111111
  0
LWPOLYLINE
  5
494
330
2
100
AcDbEntity
  8
PDF_Layer 1
 62
     7
420
 16777215
370
    80
100
AcDbPolyline
 90
        2
 70
     0
 43
0.0
 10
12.90230277777778
 20
0.7220597222222223
 10
12.81128888888889
 20
0.7181430555555556
  0
LWPOLYLINE
  5
495
330
2
100
AcDbEntity
  8
PDF_Layer 1
 62
     7
420
 16777215
370
    80
100
AcDbPolyline
 90
        2
 70
     0
 43
0.0
 10
12.81129305555555
 20
0.7181402777777778
 10
12.71834861111111
 20
0.7171541666666667
  0
LWPOLYLINE
  5
496
330
2
100
AcDbEntity
  8
PDF_Layer 1
 62
     7
420
 16777215
370
    80
100
AcDbPolyline
 90
        2
 70
     0
 43
0.0
 10
14.53636388888888
 20
1.739677777777777
 10
14.53636388888888
 20
1.758274999999999
  0
LWPOLYLINE
  5
497
330
2
100
AcDbEntity
  8
PDF_Layer 1
 62
     7
420
 16777215
370
    80
100
AcDbPolyline
 90
        2
 70
     0
 43
0.0
 10
14.53636388888888
 20
1.758273611111111
 10
14.53636388888888
 20
1.77489861111111
  0
LWPOLYLINE
  5
498
330
2
100
AcDbEntity
  8
PDF_Layer 1
 62
     7
420
 16777215
370
    80
100
AcDbPolyline
 90
        2
 70
     0
 43
0.0
 10
14.53636388888888
 20
1.774902777777777
 10
14.53636388888888
 20
1.789583333333333
  0
LWPOLYLINE
  5
499
330
2
100
AcDbEntity
  8
PDF_Layer 1
 62
     7
420
 16777215
370
    80
100
AcDbPolyline
 90
        2
 70
     0
 43
0.0
 10
14.53636388888888
 20
1.789577777777777
 10
14.53636388888888
 20
1.800341666666666
  0
LWPOLYLINE
  5
49A
330
2
100
AcDbEntity
  8
PDF_Layer 1
 62
     7
420
 16777215
370
    80
100
AcDbPolyline
 90
        2
 70
     0
 43
0.0
 10
14.53636388888888
 20
1.800347222222222
 10
14.53636388888888
 20
1.810125
  0
LWPOLYLINE
  5
49B
330
2
100
AcDbEntity
  8
PDF_Layer 1
 62
     7
420
 16777215
370
    80
100
AcDbPolyline
 90
        2
 70
     0
 43
0.0
 10
14.53636388888888
 20
1.810126388888889
 10
14.53636388888888
 20
1.816973611111111
  0
LWPOLYLINE
  5
49C
330
2
100
AcDbEntity
  8
PDF_Layer 1
 62
     7
420
 16777215
370
    80
100
AcDbPolyline
 90
        2
 70
     0
 43
0.0
 10
14.53636388888888
 20
1.816976388888889
 10
14.53636388888888
 20
1.820893055555556
  0
LWPOLYLINE
  5
49D
330
2
100
AcDbEntity
  8
PDF_Layer 1
 62
     7
420
 16777215
370
    80
100
AcDbPolyline
 90
        2
 70
     0
 43
0.0
 10
14.53636388888888
 20
1.820895833333332
 10
14.53636388888888
 20
1.821881944444444
  0
LWPOLYLINE
  5
49E
330
2
100
AcDbEntity
  8
PDF_Layer 1
 62
     7
420
 16777215
370
    80
100
AcDbPolyline
 90
        2
 70
     0
 43
0.0
 10
2.422688888888888
 20
1.82188611111111
 10
2.422688888888888
 20
1.820899999999999
  0
LWPOLYLINE
  5
49F
330
2
100
AcDbEntity
  8
PDF_Layer 1
 62
     7
420
 16777215
370
    80
100
AcDbPolyline
 90
        2
 70
     0
 43
0.0
 10
2.422688888888888
 20
1.820895833333332
 10
2.422688888888888
 20
1.816979166666666
  0
LWPOLYLINE
  5
4A0
330
2
100
AcDbEntity
  8
PDF_Layer 1
 62
     7
420
 16777215
370
    80
100
AcDbPolyline
 90
        2
 70
     0
 43
0.0
 10
2.422688888888888
 20
1.816976388888889
 10
2.422688888888888
 20
1.810129166666667
  0
LWPOLYLINE
  5
4A1
330
2
100
AcDbEntity
  8
PDF_Layer 1
 62
     7
420
 16777215
370
    80
100
AcDbPolyline
 90
        2
 70
     0
 43
0.0
 10
2.422688888888888
 20
1.810126388888889
 10
2.422688888888888
 20
1.800348611111111
  0
LWPOLYLINE
  5
4A2
330
2
100
AcDbEntity
  8
PDF_Layer 1
 62
     7
420
 16777215
370
    80
100
AcDbPolyline
 90
        2
 70
     0
 43
0.0
 10
2.422688888888888
 20
1.800347222222222
 10
2.422688888888888
 20
1.789583333333333
  0
LWPOLYLINE
  5
4A3
330
2
100
AcDbEntity
  8
PDF_Layer 1
 62
     7
420
 16777215
370
    80
100
AcDbPolyline
 90
        2
 70
     0
 43
0.0
 10
2.422688888888888
 20
1.789577777777777
 10
2.422688888888888
 20
1.774897222222221
  0
LWPOLYLINE
  5
4A4
330
2
100
AcDbEntity
  8
PDF_Layer 1
 62
     7
420
 16777215
370
    80
100
AcDbPolyline
 90
        2
 70
     0
 43
0.0
 10
2.422688888888888
 20
1.774902777777777
 10
2.422688888888888
 20
1.758277777777777
  0
LWPOLYLINE
  5
4A5
330
2
100
AcDbEntity
  8
PDF_Layer 1
 62
     7
420
 16777215
370
    80
100
AcDbPolyline
 90
        2
 70
     0
 43
0.0
 10
2.422688888888888
 20
1.758273611111111
 10
2.422688888888888
 20
1.739676388888888
  0
LWPOLYLINE
  5
4A6
330
2
100
AcDbEntity
  8
PDF_Layer 1
 62
     7
420
 16777215
370
    80
100
AcDbPolyline
 90
        2
 70
     0
 43
0.0
 10
2.806247222222221
 20
1.590943055555555
 10
2.80526111111111
 20
1.609540277777777
  0
LWPOLYLINE
  5
4A7
330
2
100
AcDbEntity
  8
PDF_Layer 1
 62
     7
420
 16777215
370
    80
100
AcDbPolyline
 90
        2
 70
     0
 43
0.0
 10
2.805263888888888
 20
1.609537499999999
 10
2.80136111111111
 20
1.631065277777777
  0
LWPOLYLINE
  5
4A8
330
2
100
AcDbEntity
  8
PDF_Layer 1
 62
     7
420
 16777215
370
    80
100
AcDbPolyline
 90
        2
 70
     0
 43
0.0
 10
2.801358333333333
 20
1.6310625
 10
2.795483333333333
 20
1.652590277777777
  0
LWPOLYLINE
  5
4A9
330
2
100
AcDbEntity
  8
PDF_Layer 1
 62
     7
420
 16777215
370
    80
100
AcDbPolyline
 90
        2
 70
     0
 43
0.0
 10
2.795484722222221
 20
1.652587499999999
 10
2.786665277777777
 20
1.673129166666666
  0
LWPOLYLINE
  5
4AA
330
2
100
AcDbEntity
  8
PDF_Layer 1
 62
     7
420
 16777215
370
    80
100
AcDbPolyline
 90
        2
 70
     0
 43
0.0
 10
2.786668055555555
 20
1.67313611111111
 10
2.772001388888888
 20
1.70251111111111
  0
LWPOLYLINE
  5
4AB
330
2
100
AcDbEntity
  8
PDF_Layer 1
 62
     7
420
 16777215
370
    80
100
AcDbPolyline
 90
        2
 70
     0
 43
0.0
 10
2.771999999999999
 20
1.702515277777777
 10
2.754388888888888
 20
1.730876388888888
  0
LWPOLYLINE
  5
4AC
330
2
100
AcDbEntity
  8
PDF_Layer 1
 62
     7
420
 16777215
370
    80
100
AcDbPolyline
 90
        2
 70
     0
 43
0.0
 10
2.754394444444444
 20
1.730874999999999
 10
2.742644444444444
 20
1.74848611111111
  0
LWPOLYLINE
  5
4AD
330
2
100
AcDbEntity
  8
PDF_Layer 1
 62
     7
420
 16777215
370
    80
100
AcDbPolyline
 90
        2
 70
     0
 43
0.0
 10
2.742641666666666
 20
1.748480555555555
 10
2.729919444444444
 20
1.765105555555555
  0
LWPOLYLINE
  5
4AE
330
2
100
AcDbEntity
  8
PDF_Layer 1
 62
     7
420
 16777215
370
    80
100
AcDbPolyline
 90
        2
 70
     0
 43
0.0
 10
2.729926388888888
 20
1.765109722222222
 10
2.710356944444443
 20
1.788609722222222
  0
LWPOLYLINE
  5
4AF
330
2
100
AcDbEntity
  8
PDF_Layer 1
 62
     7
420
 16777215
370
    80
100
AcDbPolyline
 90
        2
 70
     0
 43
0.0
 10
2.71036111111111
 20
1.788615277777777
 10
2.690777777777777
 20
1.811101388888888
  0
LWPOLYLINE
  5
4B0
330
2
100
AcDbEntity
  8
PDF_Layer 1
 62
     7
420
 16777215
370
    80
100
AcDbPolyline
 90
        2
 70
     0
 43
0.0
 10
2.690781944444444
 20
1.811102777777777
 10
2.684906944444444
 20
1.818922222222222
  0
LWPOLYLINE
  5
4B1
330
2
100
AcDbEntity
  8
PDF_Layer 1
 62
     7
420
 16777215
370
    80
100
AcDbPolyline
 90
        2
 70
     0
 43
0.0
 10
2.684902777777777
 20
1.818929166666666
 10
2.680013888888888
 20
1.8267625
  0
LWPOLYLINE
  5
4B2
330
2
100
AcDbEntity
  8
PDF_Layer 1
 62
     7
420
 16777215
370
    80
100
AcDbPolyline
 90
        2
 70
     0
 43
0.0
 10
2.6800125
 20
1.826768055555555
 10
2.677095833333333
 20
1.832643055555555
  0
LWPOLYLINE
  5
4B3
330
2
100
AcDbEntity
  8
PDF_Layer 1
 62
     7
420
 16777215
370
    80
100
AcDbPolyline
 90
        2
 70
     0
 43
0.0
 10
2.677090277777777
 20
1.832641666666667
 10
2.676118055555555
 20
1.838502777777778
  0
LWPOLYLINE
  5
4B4
330
2
100
AcDbEntity
  8
PDF_Layer 1
 62
     7
420
 16777215
370
    80
100
AcDbPolyline
 90
        2
 70
     0
 43
0.0
 10
2.676113888888889
 20
1.838501388888889
 10
2.677086111111111
 20
1.843404166666666
  0
LWPOLYLINE
  5
4B5
330
2
100
AcDbEntity
  8
PDF_Layer 1
 62
     7
420
 16777215
370
    80
100
AcDbPolyline
 90
        2
 70
     0
 43
0.0
 10
2.677090277777777
 20
1.843397222222221
 10
2.67904861111111
 20
1.848299999999999
  0
LWPOLYLINE
  5
4B6
330
2
100
AcDbEntity
  8
PDF_Layer 1
 62
     7
420
 16777215
370
    80
100
AcDbPolyline
 90
        2
 70
     0
 43
0.0
 10
2.679043055555555
 20
1.848293055555555
 10
2.685890277777777
 20
1.853181944444444
  0
LWPOLYLINE
  5
4B7
330
2
100
AcDbEntity
  8
PDF_Layer 1
 62
     7
420
 16777215
370
    80
100
AcDbPolyline
 90
        2
 70
     0
 43
0.0
 10
2.685893055555555
 20
1.853176388888888
 10
2.693726388888888
 20
1.858093055555555
  0
LWPOLYLINE
  5
4B8
330
2
100
AcDbEntity
  8
PDF_Layer 1
 62
     7
420
 16777215
370
    80
100
AcDbPolyline
 90
        2
 70
     0
 43
0.0
 10
2.693725
 20
1.858086111111111
 10
2.724058333333333
 20
1.861988888888889
  0
LWPOLYLINE
  5
4BA
330
2
100
AcDbEntity
  8
PDF_Layer 1
 62
     7
420
 16777215
370
    80
100
AcDbPolyline
 90
        2
 70
     0
 43
0.0
 10
14.23890555555555
 20
1.862969444444443
 10
14.25554444444444
 20
1.86101111111111
  0
LWPOLYLINE
  5
4BB
330
2
100
AcDbEntity
  8
PDF_Layer 1
 62
     7
420
 16777215
370
    80
100
AcDbPolyline
 90
        2
 70
     0
 43
0.0
 10
14.25554722222222
 20
1.861016666666666
 10
14.27024166666666
 20
1.855141666666666
  0
LWPOLYLINE
  5
4BC
330
2
100
AcDbEntity
  8
PDF_Layer 1
 62
     7
420
 16777215
370
    80
100
AcDbPolyline
 90
        2
 70
     0
 43
0.0
 10
14.27023611111111
 20
1.855143055555555
 10
14.27606944444444
 20
1.851240277777777
  0
LWPOLYLINE
  5
4BD
330
2
100
AcDbEntity
  8
PDF_Layer 1
 62
     7
420
 16777215
370
    80
100
AcDbPolyline
 90
        2
 70
     0
 43
0.0
 10
14.27606944444444
 20
1.851237499999999
 10
14.28001388888889
 20
1.847320833333333
  0
LWPOLYLINE
  5
4BE
330
2
100
AcDbEntity
  8
PDF_Layer 1
 62
     7
420
 16777215
370
    80
100
AcDbPolyline
 90
        2
 70
     0
 43
0.0
 10
14.28001527777777
 20
1.847316666666666
 10
14.28195972222222
 20
1.842413888888888
  0
LWPOLYLINE
  5
4BF
330
2
100
AcDbEntity
  8
PDF_Layer 1
 62
     7
420
 16777215
370
    80
100
AcDbPolyline
 90
        2
 70
     0
 43
0.0
 10
14.28195555555555
 20
1.842420833333333
 10
14.28292777777778
 20
1.837518055555555
  0
LWPOLYLINE
  5
4C0
330
2
100
AcDbEntity
  8
PDF_Layer 1
 62
     7
420
 16777215
370
    80
100
AcDbPolyline
 90
        2
 70
     0
 43
0.0
 10
14.28293194444444
 20
1.837525
 10
14.28195972222222
 20
1.832636111111111
  0
LWPOLYLINE
  5
4C1
330
2
100
AcDbEntity
  8
PDF_Layer 1
 62
     7
420
 16777215
370
    80
100
AcDbPolyline
 90
        2
 70
     0
 43
0.0
 10
14.28195555555555
 20
1.832641666666667
 10
14.27898333333333
 20
1.825780555555555
  0
LWPOLYLINE
  5
4C2
330
2
100
AcDbEntity
  8
PDF_Layer 1
 62
     7
420
 16777215
370
    80
100
AcDbPolyline
 90
        2
 70
     0
 43
0.0
 10
14.27898472222222
 20
1.825779166666666
 10
14.27219305555555
 20
1.816015277777778
  0
LWPOLYLINE
  5
4C3
330
2
100
AcDbEntity
  8
PDF_Layer 1
 62
     7
420
 16777215
370
    80
100
AcDbPolyline
 90
        2
 70
     0
 43
0.0
 10
14.27219027777778
 20
1.8160125
 10
14.26235694444444
 20
1.8042625
  0
LWPOLYLINE
  5
4C4
330
2
100
AcDbEntity
  8
PDF_Layer 1
 62
     7
420
 16777215
370
    80
100
AcDbPolyline
 90
        2
 70
     0
 43
0.0
 10
14.26235555555555
 20
1.804266666666666
 10
14.25063333333333
 20
1.791530555555555
  0
LWPOLYLINE
  5
4C5
330
2
100
AcDbEntity
  8
PDF_Layer 1
 62
     7
420
 16777215
370
    80
100
AcDbPolyline
 90
        2
 70
     0
 43
0.0
 10
14.2506375
 20
1.791530555555555
 10
14.23890138888889
 20
1.77685
  0
LWPOLYLINE
  5
4C6
330
2
100
AcDbEntity
  8
PDF_Layer 1
 62
     7
420
 16777215
370
    80
100
AcDbPolyline
 90
        2
 70
     0
 43
0.0
 10
14.23890555555555
 20
1.776855555555555
 10
14.22712777777777
 20
1.762175
  0
LWPOLYLINE
  5
4C7
330
2
100
AcDbEntity
  8
PDF_Layer 1
 62
     7
420
 16777215
370
    80
100
AcDbPolyline
 90
        2
 70
     0
 43
0.0
 10
14.22713194444444
 20
1.762180555555555
 10
14.21540972222222
 20
1.747499999999999
  0
LWPOLYLINE
  5
4C8
330
2
100
AcDbEntity
  8
PDF_Layer 1
 62
     7
420
 16777215
370
    80
100
AcDbPolyline
 90
        2
 70
     0
 43
0.0
 10
14.21541388888889
 20
1.747504166666666
 10
14.20363611111111
 20
1.731865277777777
  0
LWPOLYLINE
  5
4C9
330
2
100
AcDbEntity
  8
PDF_Layer 1
 62
     7
420
 16777215
370
    80
100
AcDbPolyline
 90
        2
 70
     0
 43
0.0
 10
14.20364027777777
 20
1.731865277777777
 10
14.1938625
 20
1.715212499999999
  0
LWPOLYLINE
  5
4CA
330
2
100
AcDbEntity
  8
PDF_Layer 1
 62
     7
420
 16777215
370
    80
100
AcDbPolyline
 90
        2
 70
     0
 43
0.0
 10
14.19386111111111
 20
1.715209722222222
 10
14.18511111111111
 20
1.701529166666666
  0
LWPOLYLINE
  5
4CB
330
2
100
AcDbEntity
  8
PDF_Layer 1
 62
     7
420
 16777215
370
    80
100
AcDbPolyline
 90
        2
 70
     0
 43
0.0
 10
14.1851125
 20
1.701524999999999
 10
14.17825138888889
 20
1.686844444444444
  0
LWPOLYLINE
  5
4CC
330
2
100
AcDbEntity
  8
PDF_Layer 1
 62
     7
420
 16777215
370
    80
100
AcDbPolyline
 90
        2
 70
     0
 43
0.0
 10
14.17825
 20
1.686848611111111
 10
14.16647222222222
 20
1.660431944444444
  0
LWPOLYLINE
  5
4CD
330
2
100
AcDbEntity
  8
PDF_Layer 1
 62
     7
420
 16777215
370
    80
100
AcDbPolyline
 90
        2
 70
     0
 43
0.0
 10
14.16647638888889
 20
1.660427777777777
 10
14.15767083333333
 20
1.633024999999999
  0
LWPOLYLINE
  5
4CE
330
2
100
AcDbEntity
  8
PDF_Layer 1
 62
     7
420
 16777215
370
    80
100
AcDbPolyline
 90
        2
 70
     0
 43
0.0
 10
14.15767361111111
 20
1.633029166666666
 10
14.15378472222221
 20
1.611501388888888
  0
LWPOLYLINE
  5
4CF
330
2
100
AcDbEntity
  8
PDF_Layer 1
 62
     7
420
 16777215
370
    80
100
AcDbPolyline
 90
        2
 70
     0
 43
0.0
 10
14.15378194444444
 20
1.611504166666666
 10
14.15282361111111
 20
1.589962499999999
  0
LWPOLYLINE
  5
4D0
330
2
100
AcDbEntity
  8
PDF_Layer 1
 62
     7
420
 16777215
370
    80
100
AcDbPolyline
 90
        2
 70
     0
 43
0.0
 10
14.34456388888889
 20
1.905043055555555
 10
14.38663333333333
 20
1.901126388888888
  0
LWPOLYLINE
  5
4D1
330
2
100
AcDbEntity
  8
PDF_Layer 1
 62
     7
420
 16777215
370
    80
100
AcDbPolyline
 90
        2
 70
     0
 43
0.0
 10
14.3866375
 20
1.901123611111111
 10
14.42773472222222
 20
1.8893875
  0
LWPOLYLINE
  5
4D2
330
2
100
AcDbEntity
  8
PDF_Layer 1
 62
     7
420
 16777215
370
    80
100
AcDbPolyline
 90
        2
 70
     0
 43
0.0
 10
14.42773472222222
 20
1.889390277777777
 10
14.46397083333333
 20
1.868848611111111
  0
LWPOLYLINE
  5
4D3
330
2
100
AcDbEntity
  8
PDF_Layer 1
 62
     7
420
 16777215
370
    80
100
AcDbPolyline
 90
        2
 70
     0
 43
0.0
 10
14.46397638888889
 20
1.868841666666666
 10
14.49428194444444
 20
1.842424999999999
  0
LWPOLYLINE
  5
4D4
330
2
100
AcDbEntity
  8
PDF_Layer 1
 62
     7
420
 16777215
370
    80
100
AcDbPolyline
 90
        2
 70
     0
 43
0.0
 10
14.49427638888889
 20
1.842420833333333
 10
14.51674861111111
 20
1.811101388888888
  0
LWPOLYLINE
  5
4D5
330
2
100
AcDbEntity
  8
PDF_Layer 1
 62
     7
420
 16777215
370
    80
100
AcDbPolyline
 90
        2
 70
     0
 43
0.0
 10
14.51675138888889
 20
1.811102777777777
 10
14.53144583333333
 20
1.775894444444444
  0
LWPOLYLINE
  5
4D6
330
2
100
AcDbEntity
  8
PDF_Layer 1
 62
     7
420
 16777215
370
    80
100
AcDbPolyline
 90
        2
 70
     0
 43
0.0
 10
14.53144027777777
 20
1.775893055555555
 10
14.53635694444444
 20
1.739684722222222
  0
LWPOLYLINE
  5
4D7
330
2
100
AcDbEntity
  8
PDF_Layer 1
 62
     7
420
 16777215
370
    80
100
AcDbPolyline
 90
        2
 70
     0
 43
0.0
 10
14.21639027777777
 20
1.862969444444443
 10
14.25457083333333
 20
1.886441666666666
  0
LWPOLYLINE
  5
4D8
330
2
100
AcDbEntity
  8
PDF_Layer 1
 62
     7
420
 16777215
370
    80
100
AcDbPolyline
 90
        2
 70
     0
 43
0.0
 10
14.25457083333333
 20
1.886447222222222
 10
14.29762638888889
 20
1.900141666666666
  0
LWPOLYLINE
  5
4D9
330
2
100
AcDbEntity
  8
PDF_Layer 1
 62
     7
420
 16777215
370
    80
100
AcDbPolyline
 90
        2
 70
     0
 43
0.0
 10
14.29762083333333
 20
1.900145833333333
 10
14.34456527777778
 20
1.90504861111111
  0
LWPOLYLINE
  5
4DA
330
2
100
AcDbEntity
  8
PDF_Layer 1
 62
     7
420
 16777215
370
    80
100
AcDbPolyline
 90
        2
 70
     0
 43
0.0
 10
2.742641666666666
 20
1.862969444444443
 10
2.710363888888888
 20
1.88351111111111
  0
LWPOLYLINE
  5
4DB
330
2
100
AcDbEntity
  8
PDF_Layer 1
 62
     7
420
 16777215
370
    80
100
AcDbPolyline
 90
        2
 70
     0
 43
0.0
 10
2.71036111111111
 20
1.883518055555555
 10
2.674138888888888
 20
1.89819861111111
  0
LWPOLYLINE
  5
4DC
330
2
100
AcDbEntity
  8
PDF_Layer 1
 62
     7
420
 16777215
370
    80
100
AcDbPolyline
 90
        2
 70
     0
 43
0.0
 10
2.674140277777777
 20
1.898193055555555
 10
2.635015277777777
 20
1.905040277777777
  0
LWPOLYLINE
  5
4DD
330
2
100
AcDbEntity
  8
PDF_Layer 1
 62
     7
420
 16777215
370
    80
100
AcDbPolyline
 90
        2
 70
     0
 43
0.0
 10
2.635009722222222
 20
1.905043055555555
 10
2.594884722222221
 20
1.905043055555555
  0
LWPOLYLINE
  5
4DE
330
2
100
AcDbEntity
  8
PDF_Layer 1
 62
     7
420
 16777215
370
    80
100
AcDbPolyline
 90
        2
 70
     0
 43
0.0
 10
2.594888888888889
 20
1.905043055555555
 10
2.55575
 20
1.898195833333333
  0
LWPOLYLINE
  5
4DF
330
2
100
AcDbEntity
  8
PDF_Layer 1
 62
     7
420
 16777215
370
    80
100
AcDbPolyline
 90
        2
 70
     0
 43
0.0
 10
2.555745833333332
 20
1.898193055555555
 10
2.518579166666666
 20
1.883512499999999
  0
LWPOLYLINE
  5
4E0
330
2
100
AcDbEntity
  8
PDF_Layer 1
 62
     7
420
 16777215
370
    80
100
AcDbPolyline
 90
        2
 70
     0
 43
0.0
 10
2.518575
 20
1.883518055555555
 10
2.486269444444444
 20
1.862976388888888
  0
LWPOLYLINE
  5
4E1
330
2
100
AcDbEntity
  8
PDF_Layer 1
 62
     7
420
 16777215
370
    80
100
AcDbPolyline
 90
        2
 70
     0
 43
0.0
 10
2.48627361111111
 20
1.862969444444443
 10
2.458884722222221
 20
1.837524999999999
  0
LWPOLYLINE
  5
4E2
330
2
100
AcDbEntity
  8
PDF_Layer 1
 62
     7
420
 16777215
370
    80
100
AcDbPolyline
 90
        2
 70
     0
 43
0.0
 10
2.458888888888888
 20
1.837525
 10
2.439319444444444
 20
1.807177777777777
  0
LWPOLYLINE
  5
4E3
330
2
100
AcDbEntity
  8
PDF_Layer 1
 62
     7
420
 16777215
370
    80
100
AcDbPolyline
 90
        2
 70
     0
 43
0.0
 10
2.43932361111111
 20
1.807183333333333
 10
2.426601388888888
 20
1.773905555555555
  0
LWPOLYLINE
  5
4E4
330
2
100
AcDbEntity
  8
PDF_Layer 1
 62
     7
420
 16777215
370
    80
100
AcDbPolyline
 90
        2
 70
     0
 43
0.0
 10
2.426601388888888
 20
1.773912499999999
 10
2.422684722222221
 20
1.739676388888888
  0
LWPOLYLINE
  5
4F0
330
2
100
AcDbEntity
  8
PDF_Layer 1
 62
     7
420
 16777215
370
    80
100
AcDbPolyline
 90
       41
 70
     0
 43
0.0
 10
3.942261111111111
 20
11.88069027777777
 10
3.938330555555555
 20
11.88069027777777
 10
3.9354
 20
11.87971805555555
 10
3.931497222222222
 20
11.87777361111111
 10
3.928538888888889
 20
11.87580138888889
 10
3.926594444444445
 20
11.87288472222222
 10
3.924641666666666
 20
11.86994027777777
 42
0.0686885230060025
 10
3.76122361111111
 20
11.4208375
 42
0.0468885069868838
 10
3.624243055555558
 20
10.24659861111111
 42
-0.4020122968494749
 10
3.523465277777777
 20
10.14780694444444
 10
3.519544444444444
 20
10.14780694444444
 10
3.505852777777778
 20
10.14780694444444
 10
3.483344444444444
 20
10.14780694444444
 10
3.452033333333333
 20
10.14780694444444
 10
3.413872222222221
 20
10.14780694444444
 10
3.367893055555555
 20
10.14780694444444
 10
3.316026388888888
 20
10.14780694444444
 10
3.260240277777777
 20
10.14780694444444
 10
3.199584722222222
 20
10.14780694444444
 10
3.136955555555555
 20
10.14780694444444
 10
3.072387499999999
 20
10.14780694444444
 10
3.00779861111111
 20
10.14780694444444
 10
2.945169444444444
 20
10.14780694444444
 10
2.884515277777777
 20
10.14780694444444
 10
2.828734722222222
 20
10.14780694444444
 10
2.776869444444443
 20
10.14780694444444
 10
2.730888888888888
 20
10.14780694444444
 10
2.692715277777777
 20
10.14780694444444
 10
2.661418055555555
 20
10.14780694444444
 10
2.638909722222221
 20
10.14780694444444
 10
2.625202777777777
 20
10.14780694444444
 10
2.621301388888888
 20
10.14780416666664
 42
-0.4048663241593993
 10
2.519537499999999
 20
10.24659583333333
 42
0.0467584098594167
 10
2.383531944444444
 20
11.4208375
 42
0.0686970715160965
 10
2.220119444444444
 20
11.86994027777777
 10
2.218175
 20
11.87288472222222
 10
2.216202777777777
 20
11.87580138888889
 10
2.213258333333333
 20
11.87777361111111
 10
2.209355555555555
 20
11.87971805555555
 10
2.206424999999999
 20
11.88069027777777
 10
2.202494444444444
 20
11.88069027777777
  0
LWPOLYLINE
  5
502
330
2
100
AcDbEntity
  8
PDF_Layer 1
 62
     7
420
 16777215
370
    80
100
AcDbPolyline
 90
       41
 70
     0
 43
0.0
 10
15.67235
 20
11.88069027777777
 10
15.66846111111111
 20
11.88069027777777
 10
15.66453055555555
 20
11.87971805555555
 10
15.66161388888889
 20
11.87777361111111
 10
15.65869722222222
 20
11.87580138888889
 10
15.65668333333333
 20
11.87288472222222
 10
15.65376805555555
 20
11.86994027777777
 42
0.0704497790785519
 10
15.49134722222222
 20
11.4208375
 42
0.0469593079743559
 10
15.35437222222213
 20
10.24659861111111
 42
-0.4018741303046168
 10
15.25359444444444
 20
10.14780694444444
 10
15.24867083333333
 20
10.14780694444444
 10
15.2350125
 20
10.14780694444444
 10
15.21248333333333
 20
10.14780694444444
 10
15.18212916666666
 20
10.14780694444444
 10
15.14302638888889
 20
10.14780694444444
 10
15.09798194444444
 20
10.14780694444444
 10
15.04612916666666
 20
10.14780694444444
 10
14.98935277777777
 20
10.14780694444444
 10
14.92967361111111
 20
10.14780694444444
 10
14.86610277777777
 20
10.14780694444444
 10
14.80247638888888
 20
10.14780694444444
 10
14.73792916666666
 20
10.14780694444444
 10
14.67527916666666
 20
10.14780694444444
 10
14.61461111111111
 20
10.14780694444444
 10
14.55784722222222
 20
10.14780694444444
 10
14.50697222222222
 20
10.14780694444444
 10
14.46100555555555
 20
10.14780694444444
 10
14.422825
 20
10.14780694444444
 10
14.39154722222222
 20
10.14780694444444
 10
14.36901805555555
 20
10.14780694444444
 10
14.35530555555555
 20
10.14780694444444
 10
14.35043888888888
 20
10.14780416666637
 42
-0.402329282989932
 10
14.24964722222222
 20
10.24659583333333
 42
0.0467584098594176
 10
14.11364722222222
 20
11.4208375
 42
0.068687671173301
 10
13.95020833333333
 20
11.86994027777777
 10
13.94825
 20
11.87288472222222
 10
13.94533333333333
 20
11.87580138888889
 10
13.94241666666667
 20
11.87777361111111
 10
13.93945833333333
 20
11.87971805555555
 10
13.93556944444444
 20
11.88069027777777
 10
13.93259722222222
 20
11.88069027777777
  0
LWPOLYLINE
  5
511
330
2
100
AcDbEntity
  8
PDF_Layer 1
 62
     7
420
 16777215
370
    80
100
AcDbPolyline
 90
        4
 70
     0
 43
0.0
 10
3.624254166666665
 20
1.862969444444443
 42
2.353705173883756
 10
2.614474999999999
 20
0.815986111111111
 10
2.641863888888888
 20
0.815986111111111
 10
2.669252777777777
 20
0.8169583333333333
  0
ARC
  5
512
330
2
100
AcDbEntity
  8
PDF_Layer 1
 62
     7
420
 16777215
370
    80
100
AcDbCircle
 10
2.61398672238506
 20
1.826616019215268
 30
0.0
 40
1.011014524108964
100
AcDbArc
 50
300.7627085341505
 51
341.0903340550683
  0
ARC
  5
515
330
2
100
AcDbEntity
  8
PDF_Layer 1
 62
     7
420
 16777215
370
    80
100
AcDbCircle
 10
14.33955114025368
 20
1.821524444472622
 30
0.0
 40
1.004175427902955
100
AcDbArc
 50
198.7363459472821
 51
239.4339057231225
  0
LWPOLYLINE
  5
516
330
2
100
AcDbEntity
  8
PDF_Layer 1
 62
     7
420
 16777215
370
    80
100
AcDbPolyline
 90
        4
 70
     0
 43
0.0
 10
14.2877875
 20
0.8169624999999999
 10
14.31620416666667
 20
0.8159902777777777
 10
14.34456527777778
 20
0.8159902777777777
 42
2.35374706333486
 10
13.33478611111111
 20
1.862972222222221
  0
ARC
  5
517
330
2
100
AcDbEntity
  8
PDF_Layer 1
 62
     7
420
 16777215
370
    80
100
AcDbCircle
 10
14.34430842948814
 20
1.826642489880085
 30
0.0
 40
0.3840420320949933
100
AcDbArc
 50
300.0059337828933
 51
174.571382391424
  0
LWPOLYLINE
  5
518
330
2
100
AcDbEntity
  8
PDF_Layer 1
 62
     7
420
 16777215
370
    80
100
AcDbPolyline
 90
        2
 70
     0
 43
0.0
 10
14.14401527777777
 20
1.498969444444444
 10
14.15282083333333
 20
1.494066666666666
  0
LWPOLYLINE
  5
519
330
2
100
AcDbEntity
  8
PDF_Layer 1
 62
     7
420
 16777215
370
    80
100
AcDbPolyline
 90
        2
 70
     0
 43
0.0
 10
2.806247222222221
 20
1.494072222222222
 10
2.815052777777777
 20
1.498974999999999
  0
ARC
  5
51A
330
2
100
AcDbEntity
  8
PDF_Layer 1
 62
     7
420
 16777215
370
    80
100
AcDbCircle
 10
2.614408482982327
 20
1.826131839118833
 30
0.0
 40
0.383438755469092
100
AcDbArc
 50
5.513004690287504
 51
239.999243739091
  0
CIRCLE
  5
51B
330
2
100
AcDbEntity
  8
PDF_Layer 1
 62
     7
420
 16777215
370
    80
100
AcDbCircle
 10
14.34379070394497
 20
1.825724284225246
 30
0.0
 40
0.8912224072711289
  0
CIRCLE
  5
51C
330
2
100
AcDbEntity
  8
PDF_Layer 1
 62
     7
420
 16777215
370
    80
100
AcDbCircle
 10
2.614074804102749
 20
1.826171109976032
 30
0.0
 40
0.5512894079776649
  0
CIRCLE
  5
51D
330
2
100
AcDbEntity
  8
PDF_Layer 1
 62
     7
420
 16777215
370
    80
100
AcDbCircle
 10
2.614298897112492
 20
1.82599110671756
 30
0.0
 40
0.8915611636448955
  0
CIRCLE
  5
51E
330
2
100
AcDbEntity
  8
PDF_Layer 1
 62
     7
420
 16777215
370
    80
100
AcDbCircle
 10
14.34426559107592
 20
1.826362897503664
 30
0.0
 40
0.5512290022658651
  0
LWPOLYLINE
  5
523
330
2
100
AcDbEntity
  8
PDF_Layer 1
 62
     7
420
 16777215
370
    30
100
AcDbPolyline
 90
        2
 70
     0
 43
0.0
 10
2.256320833333333
 20
12.16739166666666
 10
0.8199041666666671
 20
12.16739166666666
  0
LWPOLYLINE
  5
524
330
2
100
AcDbEntity
  8
PDF_Layer 1
 62
     7
420
 16777215
370
    30
100
AcDbPolyline
 90
        2
 70
     0
 43
0.0
 10
4.656555555555555
 20
6.70741111111111
 10
0.819902777777778
 20
6.70741111111111
  0
LWPOLYLINE
  5
525
330
2
100
AcDbEntity
  8
PDF_Layer 1
 62
     7
420
 16777215
370
    30
100
AcDbPolyline
 90
        2
 70
     0
 43
0.0
 10
0.8651875
 20
12.09645555555555
 10
0.8664513888888889
 20
6.77938611111111
  0
LWPOLYLINE
  5
526
330
2
100
AcDbEntity
  8
PDF_Layer 1
 62
     7
420
 16777215
370
    30
100
AcDbPolyline
 90
        2
 70
     0
 43
0.0
 10
2.880601388888888
 20
8.266161111111109
 10
2.880601388888888
 20
5.519563888888887
  0
LWPOLYLINE
  5
527
330
2
100
AcDbEntity
  8
PDF_Layer 1
 62
     7
420
 16777215
370
    30
100
AcDbPolyline
 90
        2
 70
     0
 43
0.0
 10
14.99427638888889
 20
8.266161111111109
 10
14.99427638888889
 20
5.519563888888887
  0
LWPOLYLINE
  5
528
330
2
100
AcDbEntity
  8
PDF_Layer 1
 62
     7
420
 16777215
370
    30
100
AcDbPolyline
 90
        2
 70
     0
 43
0.0
 10
2.947549999999999
 20
5.551147222222222
 10
14.92732777777777
 20
5.551147222222222
  0
LWPOLYLINE
  5
529
330
2
100
AcDbEntity
  8
PDF_Layer 1
 62
     7
420
 16777215
370
    30
100
AcDbPolyline
 90
        2
 70
     0
 43
0.0
 10
12.76041666666666
 20
0.3326138888888888
 10
16.17436111111111
 20
0.3326138888888888
  0
LWPOLYLINE
  5
52A
330
2
100
AcDbEntity
  8
PDF_Layer 1
 62
     7
420
 16777215
370
    30
100
AcDbPolyline
 90
        2
 70
     0
 43
0.0
 10
14.38469722222222
 20
2.837551388888888
 10
16.17434999999999
 20
2.837551388888888
  0
LWPOLYLINE
  5
52B
330
2
100
AcDbEntity
  8
PDF_Layer 1
 62
     7
420
 16777215
370
    30
100
AcDbPolyline
 90
        2
 70
     0
 43
0.0
 10
16.1427
 20
0.3995638888888888
 10
16.1427
 20
2.770605555555555
  0
LWPOLYLINE
  5
52C
330
2
100
AcDbEntity
  8
PDF_Layer 1
 62
     7
420
 16777215
370
    30
100
AcDbPolyline
 90
        2
 70
     0
 43
0.0
 10
4.026265277777776
 20
3.034613888888888
 10
3.442098611111109
 20
2.534836111111111
  0
LWPOLYLINE
  5
52D
330
2
100
AcDbEntity
  8
PDF_Layer 1
 62
     7
420
 16777215
370
    30
100
AcDbPolyline
 90
        2
 70
     0
 43
0.0
 10
1.785861111111111
 20
1.118069444444444
 10
1.662402777777777
 20
1.011694444444444
  0
LWPOLYLINE
  5
52E
330
2
100
AcDbEntity
  8
PDF_Layer 1
 62
     7
420
 16777215
370
    30
100
AcDbPolyline
 90
        2
 70
     0
 43
0.0
 10
1.846340277777777
 20
1.169216666666666
 10
3.382590277777777
 20
2.483327777777777
  0
LWPOLYLINE
  5
52F
330
2
100
AcDbEntity
  8
PDF_Layer 1
 62
     7
420
 16777215
370
    80
100
AcDbPolyline
 90
        2
 70
     0
 43
0.0
 10
6.251472222222221
 20
6.70741111111111
 10
6.165374999999999
 20
6.70741111111111
  0
LWPOLYLINE
  5
530
330
2
100
AcDbEntity
  8
PDF_Layer 1
 62
     7
420
 16777215
370
    80
100
AcDbPolyline
 90
        2
 70
     0
 43
0.0
 10
10.61452916666666
 20
7.091009722222222
 10
6.165376388888888
 20
7.091009722222222
  0
LWPOLYLINE
  5
531
330
2
100
AcDbEntity
  8
PDF_Layer 1
 62
     7
420
 16777215
370
    30
100
AcDbPolyline
 90
        2
 70
     0
 43
0.0
 10
6.286716666666666
 20
6.629293055555555
 10
6.286716666666666
 20
6.464779166666666
  0
LWPOLYLINE
  5
532
330
2
100
AcDbEntity
  8
PDF_Layer 1
 62
     7
420
 16777215
370
    30
100
AcDbPolyline
 90
        2
 70
     0
 43
0.0
 10
6.286716666666666
 20
7.170030555555554
 10
6.286716666666666
 20
8.078141666666665
  0
LWPOLYLINE
  5
533
330
2
100
AcDbEntity
  8
PDF_Layer 1
 62
     7
420
 16777215
370
    30
100
AcDbPolyline
 90
        2
 70
     0
 43
0.0
 10
6.286716666666666
 20
6.70741111111111
 10
6.286716666666666
 20
7.091008333333332
  0
LWPOLYLINE
  5
534
330
2
100
AcDbEntity
  8
PDF_Layer 1
 62
     7
420
 16777215
370
    30
100
AcDbPolyline
 90
        2
 70
     0
 43
0.0
 10
14.34456388888889
 20
2.159463888888889
 10
14.34456388888889
 20
3.681005555555556
  0
LWPOLYLINE
  5
535
330
2
100
AcDbEntity
  8
PDF_Layer 1
 62
     7
420
 16777215
370
    30
100
AcDbPolyline
 90
        2
 70
     0
 43
0.0
 10
2.614474999999999
 20
2.159463888888889
 10
2.614474999999999
 20
3.681005555555556
  0
LWPOLYLINE
  5
536
330
2
100
AcDbEntity
  8
PDF_Layer 1
 62
     7
420
 16777215
370
    30
100
AcDbPolyline
 90
        2
 70
     0
 43
0.0
 10
14.27715416666667
 20
3.634426388888888
 10
2.681418055555557
 20
3.634426388888888
  0
MTEXT
  5
537
330
2
100
AcDbEntity
  8
PDF_Text
 62
     7
420
 16777215
100
AcDbMText
 10
0.7975227125
 20
9.147677777777776
 30
0.0
 40
0.2568870320638021
 41
0.0
 46
0.0
 71
     7
 72
     5
  1
135
  7
PDF Arial
 11
0.0000000000000001
 21
1.0
 31
0.0
 73
     1
 44
1.0
  0
MTEXT
  5
538
330
2
100
AcDbEntity
  8
PDF_Text
 62
     7
420
 16777215
100
AcDbMText
 10
6.243028737499999
 20
7.268271223611109
 30
0.0
 40
0.2568870320638021
 41
0.0
 46
0.0
 71
     7
 72
     5
  1
Ø9.5
  7
PDF Arial
 11
0.0000000000000001
 21
1.0
 31
0.0
 73
     1
 44
1.0
  0
MTEXT
  5
539
330
2
100
AcDbEntity
  8
PDF_Text
 62
     7
420
 16777215
100
AcDbMText
 10
16.09255326805555
 20
1.396362499999999
 30
0.0
 40
0.2568870320638021
 41
0.0
 46
0.0
 71
     7
 72
     5
  1
62
  7
PDF Arial
 11
0.0000000000000001
 21
1.0
 31
0.0
 73
     1
 44
1.0
  0
MTEXT
  5
53A
330
2
100
AcDbEntity
  8
PDF_Text
 62
     7
420
 16777215
100
AcDbMText
 10
8.673272222222221
 20
5.629737009722221
 30
0.0
 40
0.2568870320638021
 41
0.0
 46
0.0
 71
     7
 72
     5
  1
750
  7
PDF Arial
 73
     1
 44
1.0
  0
MTEXT
  5
53B
330
2
100
AcDbEntity
  8
PDF_Text
 62
     7
420
 16777215
100
AcDbMText
 10
8.107691788888889
 20
3.715878855555555
 30
0.0
 40
0.2568870320638021
 41
0.0
 46
0.0
 71
     7
 72
     5
  1
740.5
  7
PDF Arial
 73
     1
 44
1.0
  0
MTEXT
  5
53C
330
2
100
AcDbEntity
  8
PDF_Text
 62
     7
420
 16777215
100
AcDbMText
 10
3.452681870833332
 20
2.618848733333333
 30
0.0
 40
0.2568870320638021
 41
0.0
 46
0.0
 71
     7
 72
     5
  1
Ø50
  7
PDF Arial
 11
0.7587364842340183
 21
0.6513976876626148
 31
0.0
 73
     1
 44
1.0
  0
LWPOLYLINE
  5
53D
330
2
100
AcDbEntity
  8
PDF_Layer 1
 62
     7
420
 16777215
370
    80
100
AcDbPolyline
 90
        3
 70
     0
 43
0.0
 10
14.53732638888889
 20
1.768052777777777
 42
0.5026890686225978
 10
14.3445625
 20
2.028330555555553
 42
0.3648007185532593
 10
14.14595277777777
 20
1.862972222222222
  0
LWPOLYLINE
  5
53E
330
2
100
AcDbEntity
  8
PDF_Layer 1
 62
     7
420
 16777215
370
    80
100
AcDbPolyline
 90
        3
 70
     0
 43
0.0
 10
2.813104166666665
 20
1.862969444444443
 42
0.3645442390462059
 10
2.614479166666666
 20
2.028330555555553
 42
0.487965110842095
 10
2.418766666666667
 20
1.775888888888889
  0
VIEWPORT
  5
4A
330
C
100
AcDbEntity
 67
     1
  8
0
100
AcDbViewport
 10
17.24759499286355
 20
11.49745669559334
 30
0.0
 40
36.33732196730226
 41
27.12504315869042
 68
     1
 69
     1
 12
17.24759499286355
 22
11.49745669559334
 13
0.0
 23
0.0
 14
0.5
 24
0.5
 15
0.5
 25
0.5
 16
0.0
 26
0.0
 36
1.0
 17
0.0
 27
0.0
 37
0.0
 42
50.0
 43
0.0
 44
0.0
 45
27.12504315869042
 50
0.0
 51
0.0
 72
  1000
 90
    32864
  1

281
     0
 71
     1
 74
     0
110
0.0
120
0.0
130
0.0
111
1.0
121
0.0
131
0.0
112
0.0
122
1.0
132
0.0
 79
     0
146
0.0
170
     0
 61
     5
348
88
292
     1
282
     1
141
0.0
142
0.0
 63
   250
421
  3355443
  0
ENDSEC
  0
SECTION
  2
OBJECTS
  0
DICTIONARY
  5
7
330
0
100
AcDbDictionary
281
     1
  3
ACAD_CIP_PREVIOUS_PRODUCT_INFO
350
CD
  3
ACAD_COLOR
350
55
  3
ACAD_DETAILVIEWSTYLE
350
C5
  3
ACAD_GROUP
350
1F
  3
ACAD_LAYOUT
350
B
  3
ACAD_MATERIAL
350
54
  3
ACAD_MLEADERSTYLE
350
C1
  3
ACAD_MLINESTYLE
350
20
  3
ACAD_PLOTSETTINGS
350
21
  3
ACAD_PLOTSTYLENAME
350
6
  3
ACAD_SCALELIST
350
AF
  3
ACAD_SECTIONVIEWSTYLE
350
C3
  3
ACAD_TABLESTYLE
350
93
  3
ACAD_VISUALSTYLE
350
82
  3
ACDB_RECOMPOSE_DATA
350
564
  3
AcDbVariableDictionary
350
9B
  0
DICTIONARY
  5
540
330
4
100
AcDbDictionary
280
     1
281
     1
  3
ADSK_XREC_LAYER_RECONCILED
360
541
  0
DICTIONARY
  5
542
330
25
100
AcDbDictionary
280
     1
281
     1
  3
ADSK_XREC_LAYER_RECONCILED
360
543
  0
DICTIONARY
  5
544
330
CE
100
AcDbDictionary
280
     1
281
     1
  3
ADSK_XREC_LAYER_RECONCILED
360
545
  0
DICTIONARY
  5
546
330
DD
100
AcDbDictionary
280
     1
281
     1
  3
ADSK_XREC_LAYER_RECONCILED
360
547
  0
XRECORD
  5
CD
102
{ACAD_REACTORS
330
7
102
}
330
7
100
AcDbXrecord
280
     1
300
ACD
300
2017
300
ACD_F_S
  0
DICTIONARY
  5
55
102
{ACAD_REACTORS
330
7
102
}
330
7
100
AcDbDictionary
281
     1
  0
DICTIONARY
  5
C5
102
{ACAD_REACTORS
330
7
102
}
330
7
100
AcDbDictionary
281
     1
  3
Imperial24
350
C6
  0
DICTIONARY
  5
1F
102
{ACAD_REACTORS
330
7
102
}
330
7
100
AcDbDictionary
281
     1
  0
DICTIONARY
  5
B
102
{ACAD_REACTORS
330
7
102
}
330
7
100
AcDbDictionary
281
     1
  3
Generic 24in x 36in Title Block
350
F
  3
Model
350
A
  0
DICTIONARY
  5
54
102
{ACAD_REACTORS
330
7
102
}
330
7
100
AcDbDictionary
281
     1
  3
ByBlock
350
80
  3
ByLayer
350
7F
  3
Global
350
81
  0
DICTIONARY
  5
C1
102
{ACAD_REACTORS
330
7
102
}
330
7
100
AcDbDictionary
281
     1
  3
Standard
350
C2
  0
DICTIONARY
  5
20
102
{ACAD_REACTORS
330
7
102
}
330
7
100
AcDbDictionary
281
     1
  3
Standard
350
22
  0
DICTIONARY
  5
21
102
{ACAD_REACTORS
330
7
102
}
330
7
100
AcDbDictionary
281
     1
  0
ACDBDICTIONARYWDFLT
  5
6
102
{ACAD_REACTORS
330
7
102
}
330
7
100
AcDbDictionary
281
     1
  3
Normal
350
5
100
AcDbDictionaryWithDefault
340
5
  0
DICTIONARY
  5
AF
102
{ACAD_REACTORS
330
7
102
}
330
7
100
AcDbDictionary
281
     1
  3
A0
350
B0
  3
A1
350
B1
  3
A2
350
B2
  3
A3
350
B3
  3
A4
350
B4
  3
A5
350
B5
  3
A6
350
B6
  3
A7
350
B7
  3
A8
350
B8
  3
A9
350
B9
  3
B0
350
BA
  3
B1
350
BB
  3
B2
350
BC
  3
B3
350
BD
  3
B4
350
BE
  3
B5
350
BF
  3
B6
350
C0
  0
DICTIONARY
  5
C3
102
{ACAD_REACTORS
330
7
102
}
330
7
100
AcDbDictionary
281
     1
  3
Imperial24
350
C4
  0
DICTIONARY
  5
93
102
{ACAD_REACTORS
330
7
102
}
330
7
100
AcDbDictionary
281
     1
  3
Standard
350
94
  0
DICTIONARY
  5
82
102
{ACAD_REACTORS
330
7
102
}
330
7
100
AcDbDictionary
281
     1
  3
2dWireframe
350
88
  3
3D Hidden
350
8A
  3
3dWireframe
350
89
  3
Basic
350
87
  3
Brighten
350
8E
  3
ColorChange
350
92
  3
Conceptual
350
8B
  3
Dim
350
8D
  3
EdgeColorOff
350
AE
  3
Facepattern
350
91
  3
Flat
350
83
  3
FlatWithEdges
350
84
  3
Gouraud
350
85
  3
GouraudWithEdges
350
86
  3
Hidden
350
A6
  3
JitterOff
350
AC
  3
Linepattern
350
90
  3
OverhangOff
350
AD
  3
Realistic
350
8C
  3
Shaded
350
AB
  3
Shaded with edges
350
AA
  3
Shades of Gray
350
A7
  3
Sketchy
350
A8
  3
Thicken
350
8F
  3
Wireframe
350
A5
  3
X-Ray
350
A9
  0
XRECORD
  5
564
102
{ACAD_REACTORS
330
7
102
}
330
7
100
AcDbXrecord
280
     1
 90
        1
330
94
330
C4
330
C6
  0
DICTIONARY
  5
9B
102
{ACAD_REACTORS
330
7
102
}
330
7
100
AcDbDictionary
281
     1
  3
CANNOSCALE
350
55A
  3
CMLEADERSTYLE
350
556
  3
CTABLESTYLE
350
9C
  3
CVIEWDETAILSTYLE
350
557
  3
CVIEWSECTIONSTYLE
350
558
  3
LAYEREVAL
350
55C
  3
LAYERNOTIFY
350
55D
  3
LIGHTINGUNITS
350
55B
  3
MSLTSCALE
350
559
  0
XRECORD
  5
541
102
{ACAD_REACTORS
330
540
102
}
330
540
100
AcDbXrecord
280
     1
290
     1
  0
XRECORD
  5
543
102
{ACAD_REACTORS
330
542
102
}
330
542
100
AcDbXrecord
280
     1
290
     1
  0
XRECORD
  5
545
102
{ACAD_REACTORS
330
544
102
}
330
544
100
AcDbXrecord
280
     1
290
     1
  0
XRECORD
  5
547
102
{ACAD_REACTORS
330
546
102
}
330
546
100
AcDbXrecord
280
     1
290
     1
  0
ACDBDETAILVIEWSTYLE
  5
C6
102
{ACAD_XDICTIONARY
360
562
102
}
102
{ACAD_REACTORS
330
C5
102
}
330
C5
100
AcDbModelDocViewStyle
 70
     0
  3
Imperial24
290
     0
100
AcDbDetailViewStyle
 70
     0
 71
     0
 90
        3
 71
     1
340
12
 62
   256
 40
0.24
340
0
 62
   256
 40
0.24
300

 40
0.36
280
     3
 71
     2
340
8
 90
       25
 62
   256
 71
     3
340
12
 62
   256
 40
0.24
 90
        1
 40
0.75
 90
        1
300
%<\AcVar ViewType \f "%tc1">% %<\AcVar ViewDetailId>%\PSCALE %<\AcVar ViewScale \f "%sn">%
 71
     4
340
8
 90
       25
 62
   256
340
8
 90
       25
 62
   256
280
     0
  0
LAYOUT
  5
F
102
{ACAD_REACTORS
330
B
102
}
330
B
100
AcDbPlotSettings
  1

  2
none_device
  4
ARCH_D_(24.00_x_36.00_Inches)
  6

 40
6.4
 41
19.1
 42
6.4
 43
19.1
 44
609.5999755859375
 45
914.4000244140626
 46
6.095999999999999
 47
-0.254
 48
0.0
 49
0.0
140
0.0
141
0.0
142
1.0
143
1.0
 70
   692
 72
     0
 73
     1
 74
     1
  7

 75
    16
147
1.0
 76
     0
 77
     2
 78
   300
148
0.2650993882970653
149
0.268587724897764
100
AcDbLayout
  1
Generic 24in x 36in Title Block
 70
     1
 71
     1
 10
-0.7524054877282309
 20
-0.5025428238148726
 11
35.24759547345533
 21
23.49745621500156
 12
0.0
 22
0.0
 32
0.0
 14
1.000000000000000E+20
 24
1.000000000000000E+20
 34
1.000000000000000E+20
 15
-1.000000000000000E+20
 25
-1.000000000000000E+20
 35
-1.000000000000000E+20
146
0.0
 13
0.0
 23
0.0
 33
0.0
 16
1.0
 26
0.0
 36
0.0
 17
0.0
 27
1.0
 37
0.0
 76
     0
330
C
331
4A
  0
LAYOUT
  5
A
102
{ACAD_REACTORS
330
B
102
}
330
B
100
AcDbPlotSettings
  1

  2
none_device
  4
Letter_(8.50_x_11.00_Inches)
  6

 40
6.349999904632568
 41
6.349999904632568
 42
6.350006103515625
 43
6.350006103515625
 44
215.8999938964844
 45
279.3999938964844
 46
20.37045378159827
 47
10.87052656611426
 48
0.0
 49
0.0
140
0.0
141
0.0
142
1.0
143
3.59932905303845
 70
 11956
 72
     0
 73
     1
 74
     1
  7

 75
     0
147
0.2778295580271631
 76
     0
 77
     2
 78
   300
148
5.106903281790129
149
0.2718425107115592
100
AcDbLayout
  1
Model
 70
     1
 71
     0
 10
0.0
 20
0.0
 11
12.0
 21
9.0
 12
0.0
 22
0.0
 32
0.0
 14
0.0
 24
0.0
 34
0.0
 15
0.0
 25
0.0
 35
0.0
146
0.0
 13
0.0
 23
0.0
 33
0.0
 16
1.0
 26
0.0
 36
0.0
 17
0.0
 27
1.0
 37
0.0
 76
     0
330
2
331
7D
  0
MATERIAL
  5
80
102
{ACAD_REACTORS
330
54
102
}
330
54
100
AcDbMaterial
  1
ByBlock
 73
     1
 78
     1
172
     1
176
     1
270
     1
274
     1
 94
       63
  0
MATERIAL
  5
7F
102
{ACAD_REACTORS
330
54
102
}
330
54
100
AcDbMaterial
  1
ByLayer
 73
     1
 78
     1
172
     1
176
     1
270
     1
274
     1
 94
       63
  0
MATERIAL
  5
81
102
{ACAD_REACTORS
330
54
102
}
330
54
100
AcDbMaterial
  1
Global
 73
     1
 78
     1
172
     1
176
     1
270
     1
274
     1
 94
       63
  0
MLEADERSTYLE
  5
C2
102
{ACAD_REACTORS
330
C1
102
}
330
C1
100
AcDbMLeaderStyle
179
     2
170
     2
171
     1
172
     0
 90
        2
 40
0.0
 41
0.0
173
     1
 91
-1056964608
340
15
 92
       -2
290
     1
 42
0.09
291
     1
 43
0.36
  3
Standard
 44
0.18
300

342
12
174
     1
178
     6
175
     1
176
     0
 93
-1056964608
 45
0.18
292
     0
297
     0
 46
0.18
 94
-1056964608
 47
1.0
 49
1.0
140
1.0
293
     1
141
0.0
294
     1
177
     0
142
1.0
295
     1
296
     0
143
0.125
271
     0
272
     9
273
     9
298
     1
  0
MLINESTYLE
  5
22
102
{ACAD_REACTORS
330
20
102
}
330
20
100
AcDbMlineStyle
  2
STANDARD
 70
     0
  3

 62
   256
 51
90.0
 52
90.0
 71
     2
 49
0.5
 62
   256
  6
BYLAYER
 49
-0.5
 62
   256
  6
BYLAYER
  0
ACDBPLACEHOLDER
  5
5
102
{ACAD_REACTORS
330
6
102
}
330
6
  0
SCALE
  5
B0
102
{ACAD_REACTORS
330
AF
102
}
330
AF
100
AcDbScale
 70
     0
300
1:1
140
1.0
141
1.0
290
     1
  0
SCALE
  5
B1
102
{ACAD_REACTORS
330
AF
102
}
330
AF
100
AcDbScale
 70
     0
300
1/128" = 1'-0"
140
0.0078125
141
12.0
290
     0
  0
SCALE
  5
B2
102
{ACAD_REACTORS
330
AF
102
}
330
AF
100
AcDbScale
 70
     0
300
1/64" = 1'-0"
140
0.015625
141
12.0
290
     0
  0
SCALE
  5
B3
102
{ACAD_REACTORS
330
AF
102
}
330
AF
100
AcDbScale
 70
     0
300
1/32" = 1'-0"
140
0.03125
141
12.0
290
     0
  0
SCALE
  5
B4
102
{ACAD_REACTORS
330
AF
102
}
330
AF
100
AcDbScale
 70
     0
300
1/16" = 1'-0"
140
0.0625
141
12.0
290
     0
  0
SCALE
  5
B5
102
{ACAD_REACTORS
330
AF
102
}
330
AF
100
AcDbScale
 70
     0
300
3/32" = 1'-0"
140
0.09375
141
12.0
290
     0
  0
SCALE
  5
B6
102
{ACAD_REACTORS
330
AF
102
}
330
AF
100
AcDbScale
 70
     0
300
1/8" = 1'-0"
140
0.125
141
12.0
290
     0
  0
SCALE
  5
B7
102
{ACAD_REACTORS
330
AF
102
}
330
AF
100
AcDbScale
 70
     0
300
3/16" = 1'-0"
140
0.1875
141
12.0
290
     0
  0
SCALE
  5
B8
102
{ACAD_REACTORS
330
AF
102
}
330
AF
100
AcDbScale
 70
     0
300
1/4" = 1'-0"
140
0.25
141
12.0
290
     0
  0
SCALE
  5
B9
102
{ACAD_REACTORS
330
AF
102
}
330
AF
100
AcDbScale
 70
     0
300
3/8" = 1'-0"
140
0.375
141
12.0
290
     0
  0
SCALE
  5
BA
102
{ACAD_REACTORS
330
AF
102
}
330
AF
100
AcDbScale
 70
     0
300
1/2" = 1'-0"
140
0.5
141
12.0
290
     0
  0
SCALE
  5
BB
102
{ACAD_REACTORS
330
AF
102
}
330
AF
100
AcDbScale
 70
     0
300
3/4" = 1'-0"
140
0.75
141
12.0
290
     0
  0
SCALE
  5
BC
102
{ACAD_REACTORS
330
AF
102
}
330
AF
100
AcDbScale
 70
     0
300
1" = 1'-0"
140
1.0
141
12.0
290
     0
  0
SCALE
  5
BD
102
{ACAD_REACTORS
330
AF
102
}
330
AF
100
AcDbScale
 70
     0
300
1-1/2" = 1'-0"
140
1.5
141
12.0
290
     0
  0
SCALE
  5
BE
102
{ACAD_REACTORS
330
AF
102
}
330
AF
100
AcDbScale
 70
     0
300
3" = 1'-0"
140
3.0
141
12.0
290
     0
  0
SCALE
  5
BF
102
{ACAD_REACTORS
330
AF
102
}
330
AF
100
AcDbScale
 70
     0
300
6" = 1'-0"
140
6.0
141
12.0
290
     0
  0
SCALE
  5
C0
102
{ACAD_REACTORS
330
AF
102
}
330
AF
100
AcDbScale
 70
     0
300
1'-0" = 1'-0"
140
12.0
141
12.0
290
     0
  0
ACDBSECTIONVIEWSTYLE
  5
C4
102
{ACAD_XDICTIONARY
360
560
102
}
102
{ACAD_REACTORS
330
C3
102
}
330
C3
100
AcDbModelDocViewStyle
 70
     0
  3
Imperial24
290
     0
100
AcDbSectionViewStyle
 70
     0
 71
     0
 90
       78
 71
     1
340
12
 62
   256
 40
0.24
340
0
340
0
 62
   256
 40
0.24
300
I, O, Q, S, X, Z
 40
0.48
 90
        3
 40
0.18
 90
        1
 71
     2
340
8
 90
       25
 62
   256
340
8
 90
       50
 62
   256
 40
0.24
 40
0.0
 40
0.24
 71
     3
340
12
 62
   256
 40
0.24
 90
        1
 40
0.75
 90
        1
300
%<\AcVar ViewType \f "%tc1">% %<\AcVar ViewSectionStartId>%-%<\AcVar ViewSectionEndId>%\PSCALE %<\AcVar ViewScale \f "%sn">%
 71
     4
 62
   256
 62
   257
300
ANSI31
 40
1.0
 90
        0
290
     0
290
     0
 90
        6
 40
0.0
 40
1.570796326794896
 40
0.2617993877991494
 40
1.308996938995747
 40
-0.2617993877991494
 40
1.832595714594046
  0
TABLESTYLE
  5
94
102
{ACAD_XDICTIONARY
360
55E
102
}
102
{ACAD_REACTORS
330
93
102
}
330
93
100
AcDbTableStyle
280
     0
  3
Standard
 70
     0
 71
     0
 40
0.06
 41
0.06
280
     0
281
     0
  7
Standard
140
0.18
170
     2
 62
     0
 63
     7
283
     0
 90
      512
 91
        0
  1

274
    -2
284
     1
 64
     0
275
    -2
285
     1
 65
     0
276
    -2
286
     1
 66
     0
277
    -2
287
     1
 67
     0
278
    -2
288
     1
 68
     0
279
    -2
289
     1
 69
     0
  7
Standard
140
0.25
170
     5
 62
     0
 63
     7
283
     0
 90
      512
 91
        0
  1

274
    -2
284
     1
 64
     0
275
    -2
285
     1
 65
     0
276
    -2
286
     1
 66
     0
277
    -2
287
     1
 67
     0
278
    -2
288
     1
 68
     0
279
    -2
289
     1
 69
     0
  7
Standard
140
0.18
170
     5
 62
     0
 63
     7
283
     0
 90
      512
 91
        0
  1

274
    -2
284
     1
 64
     0
275
    -2
285
     1
 65
     0
276
    -2
286
     1
 66
     0
277
    -2
287
     1
 67
     0
278
    -2
288
     1
 68
     0
279
    -2
289
     1
 69
     0
  0
VISUALSTYLE
  5
88
102
{ACAD_REACTORS
330
82
102
}
330
82
100
AcDbVisualStyle
  2
2dWireframe
 70
     4
177
     3
291
     0
 70
    58
 90
        0
176
     1
 90
        2
176
     1
 90
        1
176
     1
 90
        0
176
     1
 40
0.6
176
     1
 40
30.0
176
     1
 62
     7
420
 16777215
176
     1
 90
        1
176
     1
 90
        4
176
     1
 62
     7
176
     1
 62
   257
176
     1
 90
        1
176
     1
 90
        1
176
     1
 40
1.0
176
     1
 90
        0
176
     1
 62
   257
176
     1
 40
1.0
176
     1
 90
        1
176
     1
 90
        6
176
     1
 90
        2
176
     1
 62
     7
176
     1
 90
        5
176
     1
 90
        0
176
     1
 90
        0
176
     1
290
     0
176
     1
 90
        1
176
     1
 40
0.0
176
     1
 90
        0
176
     1
290
     1
176
     1
290
     1
176
     1
290
     0
176
     1
290
     0
176
     1
290
     0
176
     1
290
     0
176
     1
290
     0
176
     1
290
     0
176
     1
290
     0
176
     1
 90
       50
176
     1
 40
0.0
176
     1
 40
1.0
176
     1
 90
        0
176
     1
 62
    18
420
        0
176
     1
 90
       50
176
     1
 90
        3
176
     1
 62
     5
420
      255
176
     1
290
     0
176
     1
 90
       50
176
     1
 90
       50
176
     1
 90
       50
176
     1
290
     0
176
     1
 90
       50
176
     1
 62
   256
176
     0
 40
1.0
176
     0
 90
        2
176
     1
  1
strokes_ogs.tif
176
     1
290
     0
176
     1
 40
1.0
176
     1
 40
1.0
176
     1
  0
VISUALSTYLE
  5
8A
102
{ACAD_REACTORS
330
82
102
}
330
82
100
AcDbVisualStyle
  2
3D Hidden
 70
     6
177
     3
291
     0
 70
    58
 90
        1
176
     1
 90
        2
176
     1
 90
        2
176
     1
 90
        0
176
     1
 40
0.6
176
     1
 40
30.0
176
     1
 62
     7
420
 16777215
176
     1
 90
        2
176
     1
 90
       10
176
     1
 62
     7
176
     1
 62
   257
176
     1
 90
        2
176
     1
 90
        2
176
     1
 40
40.0
176
     1
 90
        0
176
     1
 62
   257
176
     1
 40
1.0
176
     1
 90
        1
176
     1
 90
        6
176
     1
 90
        2
176
     1
 62
     7
176
     1
 90
        3
176
     1
 90
        0
176
     1
 90
        0
176
     1
290
     0
176
     1
 90
        1
176
     1
 40
0.0
176
     1
 90
        0
176
     1
290
     0
176
     1
290
     1
176
     1
290
     1
176
     1
290
     0
176
     1
290
     0
176
     1
290
     0
176
     1
290
     0
176
     1
290
     0
176
     1
290
     0
176
     1
 90
       50
176
     1
 40
0.0
176
     1
 40
1.0
176
     1
 90
        0
176
     1
 62
    18
420
        0
176
     1
 90
       50
176
     1
 90
        3
176
     1
 62
     5
420
      255
176
     1
290
     0
176
     1
 90
       50
176
     1
 90
       50
176
     1
 90
       50
176
     1
290
     0
176
     1
 90
       50
176
     1
 62
   256
176
     0
 40
1.0
176
     0
 90
        2
176
     1
  1
strokes_ogs.tif
176
     1
290
     0
176
     1
 40
1.0
176
     1
 40
1.0
176
     1
  0
VISUALSTYLE
  5
89
102
{ACAD_REACTORS
330
82
102
}
330
82
100
AcDbVisualStyle
  2
3dWireframe
 70
     5
177
     3
291
     0
 70
    58
 90
        0
176
     1
 90
        2
176
     1
 90
        1
176
     1
 90
        0
176
     1
 40
0.6
176
     1
 40
30.0
176
     1
 62
     7
420
 16777215
176
     1
 90
        1
176
     1
 90
        4
176
     1
 62
     7
176
     1
 62
   257
176
     1
 90
        1
176
     1
 90
        1
176
     1
 40
1.0
176
     1
 90
        0
176
     1
 62
   257
176
     1
 40
1.0
176
     1
 90
        1
176
     1
 90
        6
176
     1
 90
        2
176
     1
 62
     7
176
     1
 90
        5
176
     1
 90
        0
176
     1
 90
        0
176
     1
290
     0
176
     1
 90
        1
176
     1
 40
0.0
176
     1
 90
        0
176
     1
290
     0
176
     1
290
     1
176
     1
290
     1
176
     1
290
     0
176
     1
290
     0
176
     1
290
     0
176
     1
290
     0
176
     1
290
     0
176
     1
290
     0
176
     1
 90
       50
176
     1
 40
0.0
176
     1
 40
1.0
176
     1
 90
        0
176
     1
 62
    18
420
        0
176
     1
 90
       50
176
     1
 90
        3
176
     1
 62
     5
420
      255
176
     1
290
     0
176
     1
 90
       50
176
     1
 90
       50
176
     1
 90
       50
176
     1
290
     0
176
     1
 90
       50
176
     1
 62
   256
176
     0
 40
1.0
176
     0
 90
        2
176
     1
  1
strokes_ogs.tif
176
     1
290
     0
176
     1
 40
1.0
176
     1
 40
1.0
176
     1
  0
VISUALSTYLE
  5
87
102
{ACAD_REACTORS
330
82
102
}
330
82
100
AcDbVisualStyle
  2
Basic
 70
     7
177
     3
291
     1
 70
    58
 90
        1
176
     1
 90
        0
176
     1
 90
        1
176
     1
 90
        0
176
     1
 40
0.6
176
     1
 40
30.0
176
     1
 62
     7
420
 16777215
176
     1
 90
        0
176
     1
 90
        4
176
     1
 62
     7
176
     1
 62
   257
176
     1
 90
        1
176
     1
 90
        1
176
     1
 40
1.0
176
     1
 90
        8
176
     1
 62
     7
176
     1
 40
1.0
176
     1
 90
        1
176
     1
 90
        6
176
     1
 90
        2
176
     1
 62
     7
176
     1
 90
        5
176
     1
 90
        0
176
     1
 90
        0
176
     1
290
     0
176
     1
 90
        1
176
     1
 40
0.0
176
     1
 90
        0
176
     1
290
     0
176
     1
290
     1
176
     1
290
     1
176
     1
290
     0
176
     1
290
     0
176
     1
290
     0
176
     1
290
     0
176
     1
290
     0
176
     1
290
     0
176
     1
 90
       50
176
     1
 40
0.0
176
     1
 40
1.0
176
     1
 90
        0
176
     1
 62
    18
420
        0
176
     1
 90
       50
176
     1
 90
        3
176
     1
 62
     5
420
      255
176
     1
290
     0
176
     1
 90
       50
176
     1
 90
       50
176
     1
 90
       50
176
     1
290
     0
176
     1
 90
       50
176
     1
 62
   256
176
     0
 40
1.0
176
     0
 90
        2
176
     1
  1
strokes_ogs.tif
176
     1
290
     0
176
     1
 40
1.0
176
     1
 40
1.0
176
     1
  0
VISUALSTYLE
  5
8E
102
{ACAD_REACTORS
330
82
102
}
330
82
100
AcDbVisualStyle
  2
Brighten
 70
    12
177
     3
291
     1
 70
    58
 90
        2
176
     1
 90
        2
176
     1
 90
        1
176
     1
 90
        0
176
     1
 40
0.6
176
     1
 40
30.0
176
     1
 62
     7
420
 16777215
176
     1
 90
        1
176
     1
 90
        4
176
     1
 62
     7
176
     1
 62
   257
176
     1
 90
        1
176
     1
 90
        1
176
     1
 40
1.0
176
     1
 90
        8
176
     1
 62
     7
176
     1
 40
1.0
176
     1
 90
        1
176
     1
 90
        6
176
     1
 90
        2
176
     1
 62
     7
176
     1
 90
        5
176
     1
 90
        0
176
     1
 90
        0
176
     1
290
     0
176
     1
 90
        1
176
     1
 40
50.0
176
     1
 90
        0
176
     1
290
     0
176
     1
290
     1
176
     1
290
     1
176
     1
290
     0
176
     1
290
     0
176
     1
290
     0
176
     1
290
     0
176
     1
290
     0
176
     1
290
     0
176
     1
 90
       50
176
     1
 40
0.0
176
     1
 40
1.0
176
     1
 90
        0
176
     1
 62
    18
420
        0
176
     1
 90
       50
176
     1
 90
        3
176
     1
 62
     5
420
      255
176
     1
290
     0
176
     1
 90
       50
176
     1
 90
       50
176
     1
 90
       50
176
     1
290
     0
176
     1
 90
       50
176
     1
 62
   256
176
     0
 40
1.0
176
     0
 90
        2
176
     1
  1
strokes_ogs.tif
176
     1
290
     0
176
     1
 40
1.0
176
     1
 40
1.0
176
     1
  0
VISUALSTYLE
  5
92
102
{ACAD_REACTORS
330
82
102
}
330
82
100
AcDbVisualStyle
  2
ColorChange
 70
    16
177
     3
291
     1
 70
    58
 90
        2
176
     1
 90
        2
176
     1
 90
        3
176
     1
 90
        0
176
     1
 40
0.6
176
     1
 40
30.0
176
     1
 62
     8
420
  8421504
176
     1
 90
        1
176
     1
 90
        4
176
     1
 62
     7
176
     1
 62
   257
176
     1
 90
        1
176
     1
 90
        1
176
     1
 40
1.0
176
     1
 90
        8
176
     1
 62
     8
420
  8421504
176
     1
 40
1.0
176
     1
 90
        1
176
     1
 90
        6
176
     1
 90
        2
176
     1
 62
     7
176
     1
 90
        5
176
     1
 90
        0
176
     1
 90
        0
176
     1
290
     0
176
     1
 90
        1
176
     1
 40
0.0
176
     1
 90
        0
176
     1
290
     0
176
     1
290
     1
176
     1
290
     1
176
     1
290
     0
176
     1
290
     0
176
     1
290
     0
176
     1
290
     0
176
     1
290
     0
176
     1
290
     0
176
     1
 90
       50
176
     1
 40
0.0
176
     1
 40
1.0
176
     1
 90
        0
176
     1
 62
    18
420
        0
176
     1
 90
       50
176
     1
 90
        3
176
     1
 62
     5
420
      255
176
     1
290
     0
176
     1
 90
       50
176
     1
 90
       50
176
     1
 90
       50
176
     1
290
     0
176
     1
 90
       50
176
     1
 62
   256
176
     0
 40
1.0
176
     0
 90
        2
176
     1
  1
strokes_ogs.tif
176
     1
290
     0
176
     1
 40
1.0
176
     1
 40
1.0
176
     1
  0
VISUALSTYLE
  5
8B
102
{ACAD_REACTORS
330
82
102
}
330
82
100
AcDbVisualStyle
  2
Conceptual
 70
     9
177
     3
291
     0
 70
    58
 90
        3
176
     1
 90
        2
176
     1
 90
        1
176
     1
 90
        0
176
     1
 40
0.6
176
     1
 40
30.0
176
     1
 62
     7
420
 16777215
176
     1
 90
        2
176
     1
 90
        2
176
     1
 62
     7
176
     1
 62
   257
176
     1
 90
        1
176
     1
 90
        1
176
     1
 40
40.0
176
     1
 90
        8
176
     1
 62
     7
176
     1
 40
1.0
176
     1
 90
        1
176
     1
 90
        6
176
     1
 90
        2
176
     1
 62
     7
176
     1
 90
        5
176
     1
 90
        0
176
     1
 90
        0
176
     1
290
     0
176
     1
 90
        1
176
     1
 40
0.0
176
     1
 90
        0
176
     1
290
     0
176
     1
290
     1
176
     1
290
     1
176
     1
290
     0
176
     1
290
     0
176
     1
290
     0
176
     1
290
     0
176
     1
290
     0
176
     1
290
     0
176
     1
 90
       50
176
     1
 40
0.0
176
     1
 40
1.0
176
     1
 90
        0
176
     1
 62
    18
420
        0
176
     1
 90
       50
176
     1
 90
        3
176
     1
 62
     5
420
      255
176
     1
290
     0
176
     1
 90
       50
176
     1
 90
       50
176
     1
 90
       50
176
     1
290
     0
176
     1
 90
       50
176
     1
 62
   256
176
     0
 40
1.0
176
     0
 90
        2
176
     1
  1
strokes_ogs.tif
176
     1
290
     0
176
     1
 40
1.0
176
     1
 40
1.0
176
     1
  0
VISUALSTYLE
  5
8D
102
{ACAD_REACTORS
330
82
102
}
330
82
100
AcDbVisualStyle
  2
Dim
 70
    11
177
     3
291
     1
 70
    58
 90
        2
176
     1
 90
        2
176
     1
 90
        1
176
     1
 90
        0
176
     1
 40
0.6
176
     1
 40
30.0
176
     1
 62
     7
420
 16777215
176
     1
 90
        1
176
     1
 90
        4
176
     1
 62
     7
176
     1
 62
   257
176
     1
 90
        1
176
     1
 90
        1
176
     1
 40
1.0
176
     1
 90
        8
176
     1
 62
     7
176
     1
 40
1.0
176
     1
 90
        1
176
     1
 90
        6
176
     1
 90
        2
176
     1
 62
     7
176
     1
 90
        5
176
     1
 90
        0
176
     1
 90
        0
176
     1
290
     0
176
     1
 90
        1
176
     1
 40
-50.0
176
     1
 90
        0
176
     1
290
     0
176
     1
290
     1
176
     1
290
     1
176
     1
290
     0
176
     1
290
     0
176
     1
290
     0
176
     1
290
     0
176
     1
290
     0
176
     1
290
     0
176
     1
 90
       50
176
     1
 40
0.0
176
     1
 40
1.0
176
     1
 90
        0
176
     1
 62
    18
420
        0
176
     1
 90
       50
176
     1
 90
        3
176
     1
 62
     5
420
      255
176
     1
290
     0
176
     1
 90
       50
176
     1
 90
       50
176
     1
 90
       50
176
     1
290
     0
176
     1
 90
       50
176
     1
 62
   256
176
     0
 40
1.0
176
     0
 90
        2
176
     1
  1
strokes_ogs.tif
176
     1
290
     0
176
     1
 40
1.0
176
     1
 40
1.0
176
     1
  0
VISUALSTYLE
  5
AE
102
{ACAD_REACTORS
330
82
102
}
330
82
100
AcDbVisualStyle
  2
EdgeColorOff
 70
    22
177
     3
291
     1
 70
    58
 90
        2
176
     0
 90
        2
176
     0
 90
        0
176
     0
 90
        0
176
     0
 40
0.6
176
     0
 40
30.0
176
     0
 62
     7
420
 16777215
176
     0
 90
        1
176
     0
 90
        4
176
     0
 62
     7
176
     0
 62
   257
176
     0
 90
        1
176
     0
 90
        1
176
     0
 40
1.0
176
     0
 90
        8
176
     2
 62
     7
176
     0
 40
1.0
176
     0
 90
        1
176
     0
 90
        6
176
     0
 90
        2
176
     0
 62
     7
176
     0
 90
        5
176
     0
 90
        0
176
     0
 90
        0
176
     0
290
     0
176
     0
 90
        1
176
     0
 40
0.0
176
     0
 90
        0
176
     0
290
     0
176
     0
290
     1
176
     0
290
     1
176
     0
290
     0
176
     0
290
     0
176
     0
290
     0
176
     0
290
     0
176
     0
290
     0
176
     0
290
     0
176
     0
 90
       50
176
     0
 40
0.0
176
     0
 40
1.0
176
     0
 90
        0
176
     0
 62
    18
420
        0
176
     0
 90
       50
176
     0
 90
        3
176
     0
 62
     5
420
      255
176
     0
290
     0
176
     0
 90
       50
176
     0
 90
       50
176
     0
 90
       50
176
     0
290
     0
176
     0
 90
       50
176
     0
 62
   256
176
     0
 40
1.0
176
     0
 90
        2
176
     0
  1
strokes_ogs.tif
176
     0
290
     0
176
     0
 40
1.0
176
     0
 40
1.0
176
     0
  0
VISUALSTYLE
  5
91
102
{ACAD_REACTORS
330
82
102
}
330
82
100
AcDbVisualStyle
  2
Facepattern
 70
    15
177
     3
291
     1
 70
    58
 90
        2
176
     1
 90
        2
176
     1
 90
        1
176
     1
 90
        0
176
     1
 40
0.6
176
     1
 40
30.0
176
     1
 62
     7
420
 16777215
176
     1
 90
        1
176
     1
 90
        4
176
     1
 62
     7
176
     1
 62
   257
176
     1
 90
        1
176
     1
 90
        1
176
     1
 40
1.0
176
     1
 90
        8
176
     1
 62
     7
176
     1
 40
1.0
176
     1
 90
        1
176
     1
 90
        6
176
     1
 90
        2
176
     1
 62
     7
176
     1
 90
        5
176
     1
 90
        0
176
     1
 90
        0
176
     1
290
     0
176
     1
 90
        1
176
     1
 40
0.0
176
     1
 90
        0
176
     1
290
     0
176
     1
290
     1
176
     1
290
     1
176
     1
290
     0
176
     1
290
     0
176
     1
290
     0
176
     1
290
     0
176
     1
290
     0
176
     1
290
     0
176
     1
 90
       50
176
     1
 40
0.0
176
     1
 40
1.0
176
     1
 90
        0
176
     1
 62
    18
420
        0
176
     1
 90
       50
176
     1
 90
        3
176
     1
 62
     5
420
      255
176
     1
290
     0
176
     1
 90
       50
176
     1
 90
       50
176
     1
 90
       50
176
     1
290
     0
176
     1
 90
       50
176
     1
 62
   256
176
     0
 40
1.0
176
     0
 90
        2
176
     1
  1
strokes_ogs.tif
176
     1
290
     0
176
     1
 40
1.0
176
     1
 40
1.0
176
     1
  0
VISUALSTYLE
  5
83
102
{ACAD_REACTORS
330
82
102
}
330
82
100
AcDbVisualStyle
  2
Flat
 70
     0
177
     3
291
     1
 70
    58
 90
        2
176
     1
 90
        1
176
     1
 90
        1
176
     1
 90
        2
176
     1
 40
0.6
176
     1
 40
30.0
176
     1
 62
     7
420
 16777215
176
     1
 90
        0
176
     1
 90
        4
176
     1
 62
     7
176
     1
 62
   257
176
     1
 90
        1
176
     1
 90
        1
176
     1
 40
1.0
176
     1
 90
        8
176
     1
 62
     7
176
     1
 40
1.0
176
     1
 90
        1
176
     1
 90
        6
176
     1
 90
        2
176
     1
 62
     7
176
     1
 90
        5
176
     1
 90
        0
176
     1
 90
        0
176
     1
290
     0
176
     1
 90
        1
176
     1
 40
0.0
176
     1
 90
        0
176
     1
290
     0
176
     1
290
     1
176
     1
290
     1
176
     1
290
     0
176
     1
290
     0
176
     1
290
     0
176
     1
290
     0
176
     1
290
     0
176
     1
290
     0
176
     1
 90
       50
176
     1
 40
0.0
176
     1
 40
1.0
176
     1
 90
        0
176
     1
 62
    18
420
        0
176
     1
 90
       50
176
     1
 90
        3
176
     1
 62
     5
420
      255
176
     1
290
     0
176
     1
 90
       50
176
     1
 90
       50
176
     1
 90
       50
176
     1
290
     0
176
     1
 90
       50
176
     1
 62
   256
176
     0
 40
1.0
176
     0
 90
        2
176
     1
  1
strokes_ogs.tif
176
     1
290
     0
176
     1
 40
1.0
176
     1
 40
1.0
176
     1
  0
VISUALSTYLE
  5
84
102
{ACAD_REACTORS
330
82
102
}
330
82
100
AcDbVisualStyle
  2
FlatWithEdges
 70
     1
177
     3
291
     1
 70
    58
 90
        2
176
     1
 90
        1
176
     1
 90
        1
176
     1
 90
        2
176
     1
 40
0.6
176
     1
 40
30.0
176
     1
 62
     7
420
 16777215
176
     1
 90
        1
176
     1
 90
        4
176
     1
 62
     7
176
     1
 62
   257
176
     1
 90
        1
176
     1
 90
        1
176
     1
 40
1.0
176
     1
 90
        0
176
     1
 62
   257
176
     1
 40
1.0
176
     1
 90
        1
176
     1
 90
        6
176
     1
 90
        2
176
     1
 62
     7
176
     1
 90
        5
176
     1
 90
        0
176
     1
 90
        0
176
     1
290
     0
176
     1
 90
        1
176
     1
 40
0.0
176
     1
 90
        0
176
     1
290
     0
176
     1
290
     1
176
     1
290
     1
176
     1
290
     0
176
     1
290
     0
176
     1
290
     0
176
     1
290
     0
176
     1
290
     0
176
     1
290
     0
176
     1
 90
       50
176
     1
 40
0.0
176
     1
 40
1.0
176
     1
 90
        0
176
     1
 62
    18
420
        0
176
     1
 90
       50
176
     1
 90
        3
176
     1
 62
     5
420
      255
176
     1
290
     0
176
     1
 90
       50
176
     1
 90
       50
176
     1
 90
       50
176
     1
290
     0
176
     1
 90
       50
176
     1
 62
   256
176
     0
 40
1.0
176
     0
 90
        2
176
     1
  1
strokes_ogs.tif
176
     1
290
     0
176
     1
 40
1.0
176
     1
 40
1.0
176
     1
  0
VISUALSTYLE
  5
85
102
{ACAD_REACTORS
330
82
102
}
330
82
100
AcDbVisualStyle
  2
Gouraud
 70
     2
177
     3
291
     1
 70
    58
 90
        2
176
     1
 90
        2
176
     1
 90
        1
176
     1
 90
        2
176
     1
 40
0.6
176
     1
 40
30.0
176
     1
 62
     7
420
 16777215
176
     1
 90
        0
176
     1
 90
        4
176
     1
 62
     7
176
     1
 62
   257
176
     1
 90
        1
176
     1
 90
        1
176
     1
 40
1.0
176
     1
 90
        0
176
     1
 62
     7
176
     1
 40
1.0
176
     1
 90
        1
176
     1
 90
        6
176
     1
 90
        2
176
     1
 62
     7
176
     1
 90
        5
176
     1
 90
        0
176
     1
 90
        0
176
     1
290
     0
176
     1
 90
        1
176
     1
 40
0.0
176
     1
 90
        0
176
     1
290
     0
176
     1
290
     1
176
     1
290
     1
176
     1
290
     0
176
     1
290
     0
176
     1
290
     0
176
     1
290
     0
176
     1
290
     0
176
     1
290
     0
176
     1
 90
       50
176
     1
 40
0.0
176
     1
 40
1.0
176
     1
 90
        0
176
     1
 62
    18
420
        0
176
     1
 90
       50
176
     1
 90
        3
176
     1
 62
     5
420
      255
176
     1
290
     0
176
     1
 90
       50
176
     1
 90
       50
176
     1
 90
       50
176
     1
290
     0
176
     1
 90
       50
176
     1
 62
   256
176
     0
 40
1.0
176
     0
 90
        2
176
     1
  1
strokes_ogs.tif
176
     1
290
     0
176
     1
 40
1.0
176
     1
 40
1.0
176
     1
  0
VISUALSTYLE
  5
86
102
{ACAD_REACTORS
330
82
102
}
330
82
100
AcDbVisualStyle
  2
GouraudWithEdges
 70
     3
177
     3
291
     1
 70
    58
 90
        2
176
     1
 90
        2
176
     1
 90
        1
176
     1
 90
        2
176
     1
 40
0.6
176
     1
 40
30.0
176
     1
 62
     7
420
 16777215
176
     1
 90
        1
176
     1
 90
        4
176
     1
 62
     7
176
     1
 62
   257
176
     1
 90
        1
176
     1
 90
        1
176
     1
 40
1.0
176
     1
 90
        0
176
     1
 62
   257
176
     1
 40
1.0
176
     1
 90
        1
176
     1
 90
        6
176
     1
 90
        2
176
     1
 62
     7
176
     1
 90
        5
176
     1
 90
        0
176
     1
 90
        0
176
     1
290
     0
176
     1
 90
        1
176
     1
 40
0.0
176
     1
 90
        0
176
     1
290
     0
176
     1
290
     1
176
     1
290
     1
176
     1
290
     0
176
     1
290
     0
176
     1
290
     0
176
     1
290
     0
176
     1
290
     0
176
     1
290
     0
176
     1
 90
       50
176
     1
 40
0.0
176
     1
 40
1.0
176
     1
 90
        0
176
     1
 62
    18
420
        0
176
     1
 90
       50
176
     1
 90
        3
176
     1
 62
     5
420
      255
176
     1
290
     0
176
     1
 90
       50
176
     1
 90
       50
176
     1
 90
       50
176
     1
290
     0
176
     1
 90
       50
176
     1
 62
   256
176
     0
 40
1.0
176
     0
 90
        2
176
     1
  1
strokes_ogs.tif
176
     1
290
     0
176
     1
 40
1.0
176
     1
 40
1.0
176
     1
  0
VISUALSTYLE
  5
A6
102
{ACAD_REACTORS
330
82
102
}
330
82
100
AcDbVisualStyle
  2
Hidden
 70
     6
177
     3
291
     0
 70
    58
 90
        1
176
     1
 90
        2
176
     1
 90
        2
176
     1
 90
        0
176
     1
 40
0.6
176
     1
 40
30.0
176
     1
 62
     7
420
 16777215
176
     1
 90
        2
176
     1
 90
        2
176
     1
 62
     7
176
     1
 62
   257
176
     1
 90
        2
176
     1
 90
        1
176
     1
 40
40.0
176
     1
 90
        0
176
     1
 62
   257
176
     1
 40
1.0
176
     1
 90
        1
176
     1
 90
        6
176
     1
 90
        2
176
     1
 62
     7
176
     1
 90
        3
176
     1
 90
        0
176
     1
 90
        0
176
     1
290
     0
176
     1
 90
        1
176
     1
 40
0.0
176
     1
 90
        0
176
     1
290
     0
176
     1
290
     1
176
     1
290
     1
176
     1
290
     0
176
     1
290
     0
176
     1
290
     0
176
     1
290
     0
176
     1
290
     0
176
     1
290
     0
176
     1
 90
       50
176
     1
 40
0.0
176
     1
 40
1.0
176
     1
 90
        0
176
     1
 62
    18
420
        0
176
     1
 90
       50
176
     1
 90
        3
176
     1
 62
     5
420
      255
176
     1
290
     0
176
     1
 90
       50
176
     1
 90
       50
176
     1
 90
       50
176
     1
290
     0
176
     1
 90
       50
176
     1
 62
   256
176
     0
 40
1.0
176
     0
 90
        2
176
     1
  1
strokes_ogs.tif
176
     1
290
     0
176
     1
 40
1.0
176
     1
 40
1.0
176
     1
  0
VISUALSTYLE
  5
AC
102
{ACAD_REACTORS
330
82
102
}
330
82
100
AcDbVisualStyle
  2
JitterOff
 70
    20
177
     3
291
     1
 70
    58
 90
        2
176
     0
 90
        2
176
     0
 90
        0
176
     0
 90
        0
176
     0
 40
0.6
176
     0
 40
30.0
176
     0
 62
     7
420
 16777215
176
     0
 90
        1
176
     0
 90
        4
176
     0
 62
     7
176
     0
 62
   257
176
     0
 90
        1
176
     0
 90
        1
176
     0
 40
1.0
176
     0
 90
       10
176
     2
 62
     7
176
     0
 40
1.0
176
     0
 90
        1
176
     0
 90
        6
176
     0
 90
        2
176
     0
 62
     7
176
     0
 90
        5
176
     0
 90
        0
176
     0
 90
        0
176
     0
290
     0
176
     0
 90
        1
176
     0
 40
0.0
176
     0
 90
        0
176
     0
290
     0
176
     0
290
     1
176
     0
290
     1
176
     0
290
     0
176
     0
290
     0
176
     0
290
     0
176
     0
290
     0
176
     0
290
     0
176
     0
290
     0
176
     0
 90
       50
176
     0
 40
0.0
176
     0
 40
1.0
176
     0
 90
        0
176
     0
 62
    18
420
        0
176
     0
 90
       50
176
     0
 90
        3
176
     0
 62
     5
420
      255
176
     0
290
     0
176
     0
 90
       50
176
     0
 90
       50
176
     0
 90
       50
176
     0
290
     0
176
     0
 90
       50
176
     0
 62
   256
176
     0
 40
1.0
176
     0
 90
        2
176
     0
  1
strokes_ogs.tif
176
     0
290
     0
176
     0
 40
1.0
176
     0
 40
1.0
176
     0
  0
VISUALSTYLE
  5
90
102
{ACAD_REACTORS
330
82
102
}
330
82
100
AcDbVisualStyle
  2
Linepattern
 70
    14
177
     3
291
     1
 70
    58
 90
        2
176
     1
 90
        2
176
     1
 90
        1
176
     1
 90
        0
176
     1
 40
0.6
176
     1
 40
30.0
176
     1
 62
     7
420
 16777215
176
     1
 90
        1
176
     1
 90
        4
176
     1
 62
     7
176
     1
 62
   257
176
     1
 90
        7
176
     1
 90
        7
176
     1
 40
1.0
176
     1
 90
        8
176
     1
 62
     7
176
     1
 40
1.0
176
     1
 90
        1
176
     1
 90
        6
176
     1
 90
        2
176
     1
 62
     7
176
     1
 90
        5
176
     1
 90
        0
176
     1
 90
        0
176
     1
290
     0
176
     1
 90
        1
176
     1
 40
0.0
176
     1
 90
        0
176
     1
290
     0
176
     1
290
     1
176
     1
290
     1
176
     1
290
     0
176
     1
290
     0
176
     1
290
     0
176
     1
290
     0
176
     1
290
     0
176
     1
290
     0
176
     1
 90
       50
176
     1
 40
0.0
176
     1
 40
1.0
176
     1
 90
        0
176
     1
 62
    18
420
        0
176
     1
 90
       50
176
     1
 90
        3
176
     1
 62
     5
420
      255
176
     1
290
     0
176
     1
 90
       50
176
     1
 90
       50
176
     1
 90
       50
176
     1
290
     0
176
     1
 90
       50
176
     1
 62
   256
176
     0
 40
1.0
176
     0
 90
        2
176
     1
  1
strokes_ogs.tif
176
     1
290
     0
176
     1
 40
1.0
176
     1
 40
1.0
176
     1
  0
VISUALSTYLE
  5
AD
102
{ACAD_REACTORS
330
82
102
}
330
82
100
AcDbVisualStyle
  2
OverhangOff
 70
    21
177
     3
291
     1
 70
    58
 90
        2
176
     0
 90
        2
176
     0
 90
        0
176
     0
 90
        0
176
     0
 40
0.6
176
     0
 40
30.0
176
     0
 62
     7
420
 16777215
176
     0
 90
        1
176
     0
 90
        4
176
     0
 62
     7
176
     0
 62
   257
176
     0
 90
        1
176
     0
 90
        1
176
     0
 40
1.0
176
     0
 90
        9
176
     2
 62
     7
176
     0
 40
1.0
176
     0
 90
        1
176
     0
 90
        6
176
     0
 90
        2
176
     0
 62
     7
176
     0
 90
        5
176
     0
 90
        0
176
     0
 90
        0
176
     0
290
     0
176
     0
 90
        1
176
     0
 40
0.0
176
     0
 90
        0
176
     0
290
     0
176
     0
290
     1
176
     0
290
     1
176
     0
290
     0
176
     0
290
     0
176
     0
290
     0
176
     0
290
     0
176
     0
290
     0
176
     0
290
     0
176
     0
 90
       50
176
     0
 40
0.0
176
     0
 40
1.0
176
     0
 90
        0
176
     0
 62
    18
420
        0
176
     0
 90
       50
176
     0
 90
        3
176
     0
 62
     5
420
      255
176
     0
290
     0
176
     0
 90
       50
176
     0
 90
       50
176
     0
 90
       50
176
     0
290
     0
176
     0
 90
       50
176
     0
 62
   256
176
     0
 40
1.0
176
     0
 90
        2
176
     0
  1
strokes_ogs.tif
176
     0
290
     0
176
     0
 40
1.0
176
     0
 40
1.0
176
     0
  0
VISUALSTYLE
  5
8C
102
{ACAD_REACTORS
330
82
102
}
330
82
100
AcDbVisualStyle
  2
Realistic
 70
     8
177
     3
291
     0
 70
    58
 90
        2
176
     1
 90
        2
176
     1
 90
        1
176
     1
 90
        0
176
     1
 40
0.6
176
     1
 40
30.0
176
     1
 62
     7
420
 16777215
176
     1
 90
        1
176
     1
 90
        0
176
     1
 62
     7
176
     1
 62
   257
176
     1
 90
        1
176
     1
 90
        1
176
     1
 40
1.0
176
     1
 90
        8
176
     1
 62
     7
176
     1
 40
1.0
176
     1
 90
        1
176
     1
 90
        6
176
     1
 90
        2
176
     1
 62
     7
176
     1
 90
        5
176
     1
 90
        0
176
     1
 90
        0
176
     1
290
     0
176
     1
 90
       13
176
     1
 40
0.0
176
     1
 90
        0
176
     1
290
     0
176
     1
290
     1
176
     1
290
     1
176
     1
290
     0
176
     1
290
     0
176
     1
290
     0
176
     1
290
     0
176
     1
290
     0
176
     1
290
     0
176
     1
 90
       50
176
     1
 40
0.0
176
     1
 40
1.0
176
     1
 90
        0
176
     1
 62
    18
420
        0
176
     1
 90
       50
176
     1
 90
        3
176
     1
 62
     5
420
      255
176
     1
290
     0
176
     1
 90
       50
176
     1
 90
       50
176
     1
 90
       50
176
     1
290
     0
176
     1
 90
       50
176
     1
 62
   256
176
     0
 40
1.0
176
     0
 90
        2
176
     1
  1
strokes_ogs.tif
176
     1
290
     0
176
     1
 40
1.0
176
     1
 40
1.0
176
     1
  0
VISUALSTYLE
  5
AB
102
{ACAD_REACTORS
330
82
102
}
330
82
100
AcDbVisualStyle
  2
Shaded
 70
    27
177
     3
291
     0
 70
    58
 90
        2
176
     1
 90
        2
176
     1
 90
        1
176
     1
 90
        2
176
     1
 40
0.6
176
     1
 40
30.0
176
     1
 62
     7
420
 16777215
176
     1
 90
        0
176
     1
 90
        4
176
     1
 62
     7
176
     1
 62
   257
176
     1
 90
        1
176
     1
 90
        1
176
     1
 40
1.0
176
     1
 90
        8
176
     1
 62
   257
176
     1
 40
1.0
176
     1
 90
        1
176
     1
 90
        6
176
     1
 90
        2
176
     1
 62
     8
420
  7895160
176
     1
 90
        3
176
     1
 90
        0
176
     1
 90
        0
176
     1
290
     0
176
     1
 90
        5
176
     1
 40
0.0
176
     1
 90
        0
176
     1
290
     0
176
     1
290
     1
176
     1
290
     1
176
     1
290
     0
176
     1
290
     0
176
     1
290
     0
176
     1
290
     0
176
     1
290
     0
176
     1
290
     0
176
     1
 90
       50
176
     1
 40
0.0
176
     1
 40
1.0
176
     1
 90
        0
176
     1
 62
    18
420
        0
176
     1
 90
       50
176
     1
 90
        3
176
     1
 62
     5
420
      255
176
     1
290
     0
176
     1
 90
       50
176
     1
 90
       50
176
     1
 90
       50
176
     1
290
     0
176
     1
 90
       50
176
     1
 62
   256
176
     0
 40
1.0
176
     0
 90
        2
176
     1
  1
strokes_ogs.tif
176
     1
290
     0
176
     1
 40
1.0
176
     1
 40
1.0
176
     1
  0
VISUALSTYLE
  5
AA
102
{ACAD_REACTORS
330
82
102
}
330
82
100
AcDbVisualStyle
  2
Shaded with edges
 70
    26
177
     3
291
     0
 70
    58
 90
        2
176
     1
 90
        2
176
     1
 90
        1
176
     1
 90
        2
176
     1
 40
0.6
176
     1
 40
30.0
176
     1
 62
     7
420
 16777215
176
     1
 90
        1
176
     1
 90
        2
176
     1
 62
     7
176
     1
 62
   257
176
     1
 90
        2
176
     1
 90
        1
176
     1
 40
1.0
176
     1
 90
        8
176
     1
 62
   257
176
     1
 40
1.0
176
     1
 90
        1
176
     1
 90
        6
176
     1
 90
        2
176
     1
 62
     7
176
     1
 90
        3
176
     1
 90
        0
176
     1
 90
        0
176
     1
290
     0
176
     1
 90
        5
176
     1
 40
0.0
176
     1
 90
        0
176
     1
290
     0
176
     1
290
     1
176
     1
290
     1
176
     1
290
     0
176
     1
290
     0
176
     1
290
     0
176
     1
290
     0
176
     1
290
     0
176
     1
290
     0
176
     1
 90
       50
176
     1
 40
0.0
176
     1
 40
1.0
176
     1
 90
        0
176
     1
 62
    18
420
        0
176
     1
 90
       50
176
     1
 90
        3
176
     1
 62
     5
420
      255
176
     1
290
     0
176
     1
 90
       50
176
     1
 90
       50
176
     1
 90
       50
176
     1
290
     0
176
     1
 90
       50
176
     1
 62
   256
176
     0
 40
1.0
176
     0
 90
        2
176
     1
  1
strokes_ogs.tif
176
     1
290
     0
176
     1
 40
1.0
176
     1
 40
1.0
176
     1
  0
VISUALSTYLE
  5
A7
102
{ACAD_REACTORS
330
82
102
}
330
82
100
AcDbVisualStyle
  2
Shades of Gray
 70
    23
177
     3
291
     0
 70
    58
 90
        2
176
     1
 90
        2
176
     1
 90
        3
176
     1
 90
        0
176
     1
 40
0.6
176
     1
 40
30.0
176
     1
 62
     7
420
 16777215
176
     1
 90
        2
176
     1
 90
        2
176
     1
 62
     7
176
     1
 62
     7
176
     1
 90
        1
176
     1
 90
        1
176
     1
 40
40.0
176
     1
 90
        8
176
     1
 62
     7
176
     1
 40
1.0
176
     1
 90
        1
176
     1
 90
        6
176
     1
 90
        2
176
     1
 62
     7
176
     1
 90
        3
176
     1
 90
        0
176
     1
 90
        0
176
     1
290
     0
176
     1
 90
        1
176
     1
 40
0.0
176
     1
 90
        0
176
     1
290
     0
176
     1
290
     1
176
     1
290
     1
176
     1
290
     0
176
     1
290
     0
176
     1
290
     0
176
     1
290
     0
176
     1
290
     0
176
     1
290
     0
176
     1
 90
       50
176
     1
 40
0.0
176
     1
 40
1.0
176
     1
 90
        0
176
     1
 62
    18
420
        0
176
     1
 90
       50
176
     1
 90
        3
176
     1
 62
     5
420
      255
176
     1
290
     0
176
     1
 90
       50
176
     1
 90
       50
176
     1
 90
       50
176
     1
290
     0
176
     1
 90
       50
176
     1
 62
   256
176
     0
 40
1.0
176
     0
 90
        2
176
     1
  1
strokes_ogs.tif
176
     1
290
     0
176
     1
 40
1.0
176
     1
 40
1.0
176
     1
  0
VISUALSTYLE
  5
A8
102
{ACAD_REACTORS
330
82
102
}
330
82
100
AcDbVisualStyle
  2
Sketchy
 70
    24
177
     3
291
     0
 70
    58
 90
        1
176
     1
 90
        2
176
     1
 90
        2
176
     1
 90
        0
176
     1
 40
0.6
176
     1
 40
30.0
176
     1
 62
     7
420
 16777215
176
     1
 90
        2
176
     1
 90
        2
176
     1
 62
     7
176
     1
 62
     7
176
     1
 90
        1
176
     1
 90
        1
176
     1
 40
40.0
176
     1
 90
       11
176
     1
 62
     7
176
     1
 40
1.0
176
     1
 90
        1
176
     1
 90
        6
176
     1
 90
        2
176
     1
 62
     7
176
     1
 90
        6
176
     1
 90
        0
176
     1
 90
        0
176
     1
290
     0
176
     1
 90
        1
176
     1
 40
0.0
176
     1
 90
        0
176
     1
290
     0
176
     1
290
     1
176
     1
290
     1
176
     1
290
     0
176
     1
290
     0
176
     1
290
     0
176
     1
290
     0
176
     1
290
     0
176
     1
290
     0
176
     1
 90
       50
176
     1
 40
0.0
176
     1
 40
1.0
176
     1
 90
        0
176
     1
 62
    18
420
        0
176
     1
 90
       50
176
     1
 90
        3
176
     1
 62
     5
420
      255
176
     1
290
     0
176
     1
 90
       50
176
     1
 90
       50
176
     1
 90
       50
176
     1
290
     0
176
     1
 90
       50
176
     1
 62
   256
176
     0
 40
1.0
176
     0
 90
        2
176
     1
  1
strokes_ogs.tif
176
     1
290
     0
176
     1
 40
1.0
176
     1
 40
1.0
176
     1
  0
VISUALSTYLE
  5
8F
102
{ACAD_REACTORS
330
82
102
}
330
82
100
AcDbVisualStyle
  2
Thicken
 70
    13
177
     3
291
     1
 70
    58
 90
        2
176
     1
 90
        2
176
     1
 90
        1
176
     1
 90
        0
176
     1
 40
0.6
176
     1
 40
30.0
176
     1
 62
     7
420
 16777215
176
     1
 90
        1
176
     1
 90
        4
176
     1
 62
     7
176
     1
 62
   257
176
     1
 90
        1
176
     1
 90
        1
176
     1
 40
1.0
176
     1
 90
       12
176
     1
 62
     7
176
     1
 40
1.0
176
     1
 90
        1
176
     1
 90
        6
176
     1
 90
        2
176
     1
 62
     7
176
     1
 90
        5
176
     1
 90
        0
176
     1
 90
        0
176
     1
290
     0
176
     1
 90
        1
176
     1
 40
0.0
176
     1
 90
        0
176
     1
290
     0
176
     1
290
     1
176
     1
290
     1
176
     1
290
     0
176
     1
290
     0
176
     1
290
     0
176
     1
290
     0
176
     1
290
     0
176
     1
290
     0
176
     1
 90
       50
176
     1
 40
0.0
176
     1
 40
1.0
176
     1
 90
        0
176
     1
 62
    18
420
        0
176
     1
 90
       50
176
     1
 90
        3
176
     1
 62
     5
420
      255
176
     1
290
     0
176
     1
 90
       50
176
     1
 90
       50
176
     1
 90
       50
176
     1
290
     0
176
     1
 90
       50
176
     1
 62
   256
176
     0
 40
1.0
176
     0
 90
        2
176
     1
  1
strokes_ogs.tif
176
     1
290
     0
176
     1
 40
1.0
176
     1
 40
1.0
176
     1
  0
VISUALSTYLE
  5
A5
102
{ACAD_REACTORS
330
82
102
}
330
82
100
AcDbVisualStyle
  2
Wireframe
 70
     5
177
     3
291
     0
 70
    58
 90
        0
176
     1
 90
        2
176
     1
 90
        0
176
     1
 90
        0
176
     1
 40
0.6
176
     1
 40
30.0
176
     1
 62
     7
420
 16777215
176
     1
 90
        1
176
     1
 90
        4
176
     1
 62
     7
176
     1
 62
   257
176
     1
 90
        1
176
     1
 90
        1
176
     1
 40
1.0
176
     1
 90
        0
176
     1
 62
   257
176
     1
 40
1.0
176
     1
 90
        1
176
     1
 90
        6
176
     1
 90
        2
176
     1
 62
     7
176
     1
 90
        3
176
     1
 90
        0
176
     1
 90
        0
176
     1
290
     0
176
     1
 90
        1
176
     1
 40
0.0
176
     1
 90
        0
176
     1
290
     0
176
     1
290
     1
176
     1
290
     1
176
     1
290
     0
176
     1
290
     0
176
     1
290
     0
176
     1
290
     0
176
     1
290
     0
176
     1
290
     0
176
     1
 90
       50
176
     1
 40
0.0
176
     1
 40
1.0
176
     1
 90
        0
176
     1
 62
    18
420
        0
176
     1
 90
       50
176
     1
 90
        3
176
     1
 62
     5
420
      255
176
     1
290
     0
176
     1
 90
       50
176
     1
 90
       50
176
     1
 90
       50
176
     1
290
     0
176
     1
 90
       50
176
     1
 62
   256
176
     0
 40
1.0
176
     0
 90
        2
176
     1
  1
strokes_ogs.tif
176
     1
290
     0
176
     1
 40
1.0
176
     1
 40
1.0
176
     1
  0
VISUALSTYLE
  5
A9
102
{ACAD_REACTORS
330
82
102
}
330
82
100
AcDbVisualStyle
  2
X-Ray
 70
    25
177
     3
291
     0
 70
    58
 90
        2
176
     1
 90
        2
176
     1
 90
        1
176
     1
 90
        1
176
     1
 40
0.5
176
     1
 40
30.0
176
     1
 62
     7
420
 16777215
176
     1
 90
        1
176
     1
 90
        0
176
     1
 62
     7
176
     1
 62
   257
176
     1
 90
        1
176
     1
 90
        1
176
     1
 40
1.0
176
     1
 90
        8
176
     1
 62
     7
176
     1
 40
1.0
176
     1
 90
        1
176
     1
 90
        6
176
     1
 90
        2
176
     1
 62
     7
176
     1
 90
        3
176
     1
 90
        0
176
     1
 90
        0
176
     1
290
     0
176
     1
 90
       13
176
     1
 40
0.0
176
     1
 90
        0
176
     1
290
     0
176
     1
290
     1
176
     1
290
     1
176
     1
290
     0
176
     1
290
     0
176
     1
290
     0
176
     1
290
     0
176
     1
290
     0
176
     1
290
     0
176
     1
 90
       50
176
     1
 40
0.0
176
     1
 40
1.0
176
     1
 90
        0
176
     1
 62
    18
420
        0
176
     1
 90
       50
176
     1
 90
        3
176
     1
 62
     5
420
      255
176
     1
290
     0
176
     1
 90
       50
176
     1
 90
       50
176
     1
 90
       50
176
     1
290
     0
176
     1
 90
       50
176
     1
 62
   256
176
     0
 40
1.0
176
     0
 90
        2
176
     1
  1
strokes_ogs.tif
176
     1
290
     0
176
     1
 40
1.0
176
     1
 40
1.0
176
     1
  0
DICTIONARYVAR
  5
55A
102
{ACAD_REACTORS
330
9B
102
}
330
9B
100
DictionaryVariables
280
     0
  1
1:1
  0
DICTIONARYVAR
  5
556
102
{ACAD_REACTORS
330
9B
102
}
330
9B
100
DictionaryVariables
280
     0
  1
STANDARD
  0
DICTIONARYVAR
  5
9C
102
{ACAD_REACTORS
330
9B
102
}
330
9B
100
DictionaryVariables
280
     0
  1
STANDARD
  0
DICTIONARYVAR
  5
557
102
{ACAD_REACTORS
330
9B
102
}
330
9B
100
DictionaryVariables
280
     0
  1
Imperial24
  0
DICTIONARYVAR
  5
558
102
{ACAD_REACTORS
330
9B
102
}
330
9B
100
DictionaryVariables
280
     0
  1
Imperial24
  0
DICTIONARYVAR
  5
55C
102
{ACAD_REACTORS
330
9B
102
}
330
9B
100
DictionaryVariables
280
     0
  1
1
  0
DICTIONARYVAR
  5
55D
102
{ACAD_REACTORS
330
9B
102
}
330
9B
100
DictionaryVariables
280
     0
  1
15
  0
DICTIONARYVAR
  5
55B
102
{ACAD_REACTORS
330
9B
102
}
330
9B
100
DictionaryVariables
280
     0
  1
0
  0
DICTIONARYVAR
  5
559
102
{ACAD_REACTORS
330
9B
102
}
330
9B
100
DictionaryVariables
280
     0
  1
0
  0
DICTIONARY
  5
562
330
C6
100
AcDbDictionary
280
     1
281
     1
  3
ACAD_XREC_ROUNDTRIP
360
563
  0
DICTIONARY
  5
560
330
C4
100
AcDbDictionary
280
     1
281
     1
  3
ACAD_XREC_ROUNDTRIP
360
561
  0
DICTIONARY
  5
55E
330
94
100
AcDbDictionary
280
     1
281
     1
  3
ACAD_ROUNDTRIP_2008_TABLESTYLE_CELLSTYLEMAP
360
55F
  0
XRECORD
  5
563
102
{ACAD_REACTORS
330
562
102
}
330
562
100
AcDbXrecord
280
     1
102
DISPLAYNAME
  1
Imperial24
102
FLAGS
 90
        0
  0
XRECORD
  5
561
102
{ACAD_REACTORS
330
560
102
}
330
560
100
AcDbXrecord
280
     1
102
DISPLAYNAME
  1
Imperial24
102
FLAGS
 90
        0
  0
CELLSTYLEMAP
  5
55F
102
{ACAD_REACTORS
330
55E
102
}
330
55E
100
AcDbCellStyleMap
 90
        3
300
CELLSTYLE
  1
TABLEFORMAT_BEGIN
 90
        5
170
     1
 91
        0
 92
    32768
 62
   257
 93
        1
300
CONTENTFORMAT
  1
CONTENTFORMAT_BEGIN
 90
        0
 91
        0
 92
      512
 93
        0
300

 40
0.0
140
1.0
 94
        5
 62
     0
340
12
144
0.25
309
CONTENTFORMAT_END
171
     0
 94
        6
 95
        1
302
GRIDFORMAT
  1
GRIDFORMAT_BEGIN
 90
        0
 91
        1
 62
     0
 92
       -2
340
0
 93
        0
 40
0.045
309
GRIDFORMAT_END
 95
        2
302
GRIDFORMAT
  1
GRIDFORMAT_BEGIN
 90
        0
 91
        1
 62
     0
 92
       -2
340
0
 93
        0
 40
0.045
309
GRIDFORMAT_END
 95
        4
302
GRIDFORMAT
  1
GRIDFORMAT_BEGIN
 90
        0
 91
        1
 62
     0
 92
       -2
340
0
 93
        0
 40
0.045
309
GRIDFORMAT_END
 95
        8
302
GRIDFORMAT
  1
GRIDFORMAT_BEGIN
 90
        0
 91
        1
 62
     0
 92
       -2
340
0
 93
        0
 40
0.045
309
GRIDFORMAT_END
 95
       16
302
GRIDFORMAT
  1
GRIDFORMAT_BEGIN
 90
        0
 91
        1
 62
     0
 92
       -2
340
0
 93
        0
 40
0.045
309
GRIDFORMAT_END
 95
       32
302
GRIDFORMAT
  1
GRIDFORMAT_BEGIN
 90
        0
 91
        1
 62
     0
 92
       -2
340
0
 93
        0
 40
0.045
309
GRIDFORMAT_END
309
TABLEFORMAT_END
  1
CELLSTYLE_BEGIN
 90
        1
 91
        1
300
_TITLE
309
CELLSTYLE_END
300
CELLSTYLE
  1
TABLEFORMAT_BEGIN
 90
        5
170
     1
 91
        0
 92
        0
 62
   257
 93
        1
300
CONTENTFORMAT
  1
CONTENTFORMAT_BEGIN
 90
        0
 91
        0
 92
      512
 93
        0
300

 40
0.0
140
1.0
 94
        5
 62
     0
340
12
144
0.18
309
CONTENTFORMAT_END
171
     0
 94
        6
 95
        1
302
GRIDFORMAT
  1
GRIDFORMAT_BEGIN
 90
        0
 91
        1
 62
     0
 92
       -2
340
0
 93
        0
 40
0.045
309
GRIDFORMAT_END
 95
        2
302
GRIDFORMAT
  1
GRIDFORMAT_BEGIN
 90
        0
 91
        1
 62
     0
 92
       -2
340
0
 93
        0
 40
0.045
309
GRIDFORMAT_END
 95
        4
302
GRIDFORMAT
  1
GRIDFORMAT_BEGIN
 90
        0
 91
        1
 62
     0
 92
       -2
340
0
 93
        0
 40
0.045
309
GRIDFORMAT_END
 95
        8
302
GRIDFORMAT
  1
GRIDFORMAT_BEGIN
 90
        0
 91
        1
 62
     0
 92
       -2
340
0
 93
        0
 40
0.045
309
GRIDFORMAT_END
 95
       16
302
GRIDFORMAT
  1
GRIDFORMAT_BEGIN
 90
        0
 91
        1
 62
     0
 92
       -2
340
0
 93
        0
 40
0.045
309
GRIDFORMAT_END
 95
       32
302
GRIDFORMAT
  1
GRIDFORMAT_BEGIN
 90
        0
 91
        1
 62
     0
 92
       -2
340
0
 93
        0
 40
0.045
309
GRIDFORMAT_END
309
TABLEFORMAT_END
  1
CELLSTYLE_BEGIN
 90
        2
 91
        1
300
_HEADER
309
CELLSTYLE_END
300
CELLSTYLE
  1
TABLEFORMAT_BEGIN
 90
        5
170
     1
 91
        0
 92
        0
 62
   257
 93
        1
300
CONTENTFORMAT
  1
CONTENTFORMAT_BEGIN
 90
        0
 91
        0
 92
      512
 93
        0
300

 40
0.0
140
1.0
 94
        2
 62
     0
340
12
144
0.18
309
CONTENTFORMAT_END
171
     0
 94
        6
 95
        1
302
GRIDFORMAT
  1
GRIDFORMAT_BEGIN
 90
        0
 91
        1
 62
     0
 92
       -2
340
0
 93
        0
 40
0.045
309
GRIDFORMAT_END
 95
        2
302
GRIDFORMAT
  1
GRIDFORMAT_BEGIN
 90
        0
 91
        1
 62
     0
 92
       -2
340
0
 93
        0
 40
0.045
309
GRIDFORMAT_END
 95
        4
302
GRIDFORMAT
  1
GRIDFORMAT_BEGIN
 90
        0
 91
        1
 62
     0
 92
       -2
340
0
 93
        0
 40
0.045
309
GRIDFORMAT_END
 95
        8
302
GRIDFORMAT
  1
GRIDFORMAT_BEGIN
 90
        0
 91
        1
 62
     0
 92
       -2
340
0
 93
        0
 40
0.045
309
GRIDFORMAT_END
 95
       16
302
GRIDFORMAT
  1
GRIDFORMAT_BEGIN
 90
        0
 91
        1
 62
     0
 92
       -2
340
0
 93
        0
 40
0.045
309
GRIDFORMAT_END
 95
       32
302
GRIDFORMAT
  1
GRIDFORMAT_BEGIN
 90
        0
 91
        1
 62
     0
 92
       -2
340
0
 93
        0
 40
0.045
309
GRIDFORMAT_END
309
TABLEFORMAT_END
  1
CELLSTYLE_BEGIN
 90
        3
 91
        2
300
_DATA
309
CELLSTYLE_END
  0
ENDSEC
  0
EOF
