  0
SECTION
  2
HEADER
  9
$ACADVER
  1
AC1027
  9
$ACADMAINTVER
 70
   125
  9
$DWGCODEPAGE
  3
ANSI_1252
  9
$LASTSAVEDBY
  1
fleminab
  9
$REQUIREDVERSIONS
160
                 0
  9
$INSBASE
 10
0.0
 20
0.0
 30
0.0
  9
$EXTMIN
 10
3.91867445122817
 20
0.2362465634116333
 30
-0.0000000349181948
  9
$EXTMAX
 10
13.19840337441691
 20
12.3114540378838
 30
0.0000000814935746
  9
$LIMMIN
 10
0.0
 20
0.0
  9
$LIMMAX
 10
12.0
 20
9.0
  9
$ORTHOMODE
 70
     0
  9
$REGENMODE
 70
     1
  9
$FILLMODE
 70
     1
  9
$QTEXTMODE
 70
     0
  9
$MIRRTEXT
 70
     0
  9
$LTSCALE
 40
1.0
  9
$ATTMODE
 70
     1
  9
$TEXTSIZE
 40
0.2
  9
$TRACEWID
 40
0.05
  9
$TEXTSTYLE
  7
Standard
  9
$CLAYER
  8
0
  9
$CELTYPE
  6
ByLayer
  9
$CECOLOR
 62
   256
  9
$CELTSCALE
 40
1.0
  9
$DISPSILH
 70
     0
  9
$DIMSCALE
 40
1.0
  9
$DIMASZ
 40
0.18
  9
$DIMEXO
 40
0.0625
  9
$DIMDLI
 40
0.38
  9
$DIMRND
 40
0.0
  9
$DIMDLE
 40
0.0
  9
$DIMEXE
 40
0.18
  9
$DIMTP
 40
0.0
  9
$DIMTM
 40
0.0
  9
$DIMTXT
 40
0.18
  9
$DIMCEN
 40
0.09
  9
$DIMTSZ
 40
0.0
  9
$DIMTOL
 70
     0
  9
$DIMLIM
 70
     0
  9
$DIMTIH
 70
     1
  9
$DIMTOH
 70
     1
  9
$DIMSE1
 70
     0
  9
$DIMSE2
 70
     0
  9
$DIMTAD
 70
     0
  9
$DIMZIN
 70
     0
  9
$DIMBLK
  1

  9
$DIMASO
 70
     1
  9
$DIMSHO
 70
     1
  9
$DIMPOST
  1

  9
$DIMAPOST
  1

  9
$DIMALT
 70
     0
  9
$DIMALTD
 70
     2
  9
$DIMALTF
 40
25.4
  9
$DIMLFAC
 40
1.0
  9
$DIMTOFL
 70
     0
  9
$DIMTVP
 40
0.0
  9
$DIMTIX
 70
     0
  9
$DIMSOXD
 70
     0
  9
$DIMSAH
 70
     0
  9
$DIMBLK1
  1

  9
$DIMBLK2
  1

  9
$DIMSTYLE
  2
Standard
  9
$DIMCLRD
 70
     0
  9
$DIMCLRE
 70
     0
  9
$DIMCLRT
 70
     0
  9
$DIMTFAC
 40
1.0
  9
$DIMGAP
 40
0.09
  9
$DIMJUST
 70
     0
  9
$DIMSD1
 70
     0
  9
$DIMSD2
 70
     0
  9
$DIMTOLJ
 70
     1
  9
$DIMTZIN
 70
     0
  9
$DIMALTZ
 70
     0
  9
$DIMALTTZ
 70
     0
  9
$DIMUPT
 70
     0
  9
$DIMDEC
 70
     4
  9
$DIMTDEC
 70
     4
  9
$DIMALTU
 70
     2
  9
$DIMALTTD
 70
     2
  9
$DIMTXSTY
  7
Standard
  9
$DIMAUNIT
 70
     0
  9
$DIMADEC
 70
     0
  9
$DIMALTRND
 40
0.0
  9
$DIMAZIN
 70
     0
  9
$DIMDSEP
 70
    46
  9
$DIMATFIT
 70
     3
  9
$DIMFRAC
 70
     0
  9
$DIMLDRBLK
  1

  9
$DIMLUNIT
 70
     2
  9
$DIMLWD
 70
    -2
  9
$DIMLWE
 70
    -2
  9
$DIMTMOVE
 70
     0
  9
$DIMFXL
 40
1.0
  9
$DIMFXLON
 70
     0
  9
$DIMJOGANG
 40
0.7853981633974483
  9
$DIMTFILL
 70
     0
  9
$DIMTFILLCLR
 70
     0
  9
$DIMARCSYM
 70
     0
  9
$DIMLTYPE
  6

  9
$DIMLTEX1
  6

  9
$DIMLTEX2
  6

  9
$DIMTXTDIRECTION
 70
     0
  9
$LUNITS
 70
     2
  9
$LUPREC
 70
     4
  9
$SKETCHINC
 40
0.1
  9
$FILLETRAD
 40
0.0
  9
$AUNITS
 70
     0
  9
$AUPREC
 70
     0
  9
$MENU
  1
.
  9
$ELEVATION
 40
0.0
  9
$PELEVATION
 40
0.0
  9
$THICKNESS
 40
0.0
  9
$LIMCHECK
 70
     0
  9
$CHAMFERA
 40
0.0
  9
$CHAMFERB
 40
0.0
  9
$CHAMFERC
 40
0.0
  9
$CHAMFERD
 40
0.0
  9
$SKPOLY
 70
     0
  9
$TDCREATE
 40
2458192.334722222
  9
$TDUCREATE
 40
2458191.876388889
  9
$TDUPDATE
 40
2458192.335162037
  9
$TDUUPDATE
 40
2458191.876828704
  9
$TDINDWG
 40
0.0004398148
  9
$TDUSRTIMER
 40
0.0004398148
  9
$USRTIMER
 70
     1
  9
$ANGBASE
 50
0.0
  9
$ANGDIR
 70
     0
  9
$PDMODE
 70
     0
  9
$PDSIZE
 40
0.0
  9
$PLINEWID
 40
0.0
  9
$SPLFRAME
 70
     0
  9
$SPLINETYPE
 70
     6
  9
$SPLINESEGS
 70
     8
  9
$HANDSEED
  5
2CF
  9
$SURFTAB1
 70
     6
  9
$SURFTAB2
 70
     6
  9
$SURFTYPE
 70
     6
  9
$SURFU
 70
     6
  9
$SURFV
 70
     6
  9
$UCSBASE
  2

  9
$UCSNAME
  2

  9
$UCSORG
 10
0.0
 20
0.0
 30
0.0
  9
$UCSXDIR
 10
1.0
 20
0.0
 30
0.0
  9
$UCSYDIR
 10
0.0
 20
1.0
 30
0.0
  9
$UCSORTHOREF
  2

  9
$UCSORTHOVIEW
 70
     0
  9
$UCSORGTOP
 10
0.0
 20
0.0
 30
0.0
  9
$UCSORGBOTTOM
 10
0.0
 20
0.0
 30
0.0
  9
$UCSORGLEFT
 10
0.0
 20
0.0
 30
0.0
  9
$UCSORGRIGHT
 10
0.0
 20
0.0
 30
0.0
  9
$UCSORGFRONT
 10
0.0
 20
0.0
 30
0.0
  9
$UCSORGBACK
 10
0.0
 20
0.0
 30
0.0
  9
$PUCSBASE
  2

  9
$PUCSNAME
  2

  9
$PUCSORG
 10
0.0
 20
0.0
 30
0.0
  9
$PUCSXDIR
 10
1.0
 20
0.0
 30
0.0
  9
$PUCSYDIR
 10
0.0
 20
1.0
 30
0.0
  9
$PUCSORTHOREF
  2

  9
$PUCSORTHOVIEW
 70
     0
  9
$PUCSORGTOP
 10
0.0
 20
0.0
 30
0.0
  9
$PUCSORGBOTTOM
 10
0.0
 20
0.0
 30
0.0
  9
$PUCSORGLEFT
 10
0.0
 20
0.0
 30
0.0
  9
$PUCSORGRIGHT
 10
0.0
 20
0.0
 30
0.0
  9
$PUCSORGFRONT
 10
0.0
 20
0.0
 30
0.0
  9
$PUCSORGBACK
 10
0.0
 20
0.0
 30
0.0
  9
$USERI1
 70
     0
  9
$USERI2
 70
     0
  9
$USERI3
 70
     0
  9
$USERI4
 70
     0
  9
$USERI5
 70
     0
  9
$USERR1
 40
0.0
  9
$USERR2
 40
0.0
  9
$USERR3
 40
0.0
  9
$USERR4
 40
0.0
  9
$USERR5
 40
0.0
  9
$WORLDVIEW
 70
     1
  9
$SHADEDGE
 70
     3
  9
$SHADEDIF
 70
    70
  9
$TILEMODE
 70
     1
  9
$MAXACTVP
 70
    64
  9
$PINSBASE
 10
0.0
 20
0.0
 30
0.0
  9
$PLIMCHECK
 70
     0
  9
$PEXTMIN
 10
1.000000000000000E+20
 20
1.000000000000000E+20
 30
1.000000000000000E+20
  9
$PEXTMAX
 10
-1.000000000000000E+20
 20
-1.000000000000000E+20
 30
-1.000000000000000E+20
  9
$PLIMMIN
 10
-0.7524054877282309
 20
-0.5025428238148726
  9
$PLIMMAX
 10
35.24759547345533
 20
23.49745621500156
  9
$UNITMODE
 70
     0
  9
$VISRETAIN
 70
     1
  9
$PLINEGEN
 70
     0
  9
$PSLTSCALE
 70
     1
  9
$TREEDEPTH
 70
  3020
  9
$CMLSTYLE
  2
Standard
  9
$CMLJUST
 70
     0
  9
$CMLSCALE
 40
1.0
  9
$PROXYGRAPHICS
 70
     1
  9
$MEASUREMENT
 70
     0
  9
$CELWEIGHT
370
    -1
  9
$ENDCAPS
280
     0
  9
$JOINSTYLE
280
     0
  9
$LWDISPLAY
290
     0
  9
$INSUNITS
 70
     1
  9
$HYPERLINKBASE
  1

  9
$STYLESHEET
  1

  9
$XEDIT
290
     1
  9
$CEPSNTYPE
380
     0
  9
$PSTYLEMODE
290
     1
  9
$FINGERPRINTGUID
  2
{0F2059BC-1FA7-8A45-A5D4-839384D1DDC1}
  9
$VERSIONGUID
  2
{366538AB-20E6-F14A-A604-9D4FBC9FEE49}
  9
$EXTNAMES
290
     1
  9
$PSVPSCALE
 40
0.0
  9
$OLESTARTUP
290
     0
  9
$SORTENTS
280
   127
  9
$INDEXCTL
280
     0
  9
$HIDETEXT
280
     0
  9
$XCLIPFRAME
280
     0
  9
$HALOGAP
280
     0
  9
$OBSCOLOR
 70
   257
  9
$OBSLTYPE
280
     0
  9
$INTERSECTIONDISPLAY
280
     0
  9
$INTERSECTIONCOLOR
 70
   257
  9
$DIMASSOC
280
     1
  9
$PROJECTNAME
  1

  9
$CAMERADISPLAY
290
     0
  9
$LENSLENGTH
 40
50.0
  9
$CAMERAHEIGHT
 40
0.0
  9
$STEPSPERSEC
 40
2.0
  9
$STEPSIZE
 40
6.0
  9
$3DDWFPREC
 40
2.0
  9
$PSOLWIDTH
 40
0.25
  9
$PSOLHEIGHT
 40
4.0
  9
$LOFTANG1
 40
1.570796326794896
  9
$LOFTANG2
 40
1.570796326794896
  9
$LOFTMAG1
 40
0.0
  9
$LOFTMAG2
 40
0.0
  9
$LOFTPARAM
 70
     7
  9
$LOFTNORMALS
280
     1
  9
$LATITUDE
 40
37.795
  9
$LONGITUDE
 40
-122.394
  9
$NORTHDIRECTION
 40
0.0
  9
$TIMEZONE
 70
 -8000
  9
$LIGHTGLYPHDISPLAY
280
     1
  9
$TILEMODELIGHTSYNCH
280
     1
  9
$CMATERIAL
347
7F
  9
$SOLIDHIST
280
     1
  9
$SHOWHIST
280
     1
  9
$DWFFRAME
280
     2
  9
$DGNFRAME
280
     0
  9
$REALWORLDSCALE
290
     1
  9
$INTERFERECOLOR
 62
     1
  9
$INTERFEREOBJVS
345
8C
  9
$INTERFEREVPVS
346
A5
  9
$CSHADOW
280
     0
  9
$SHADOWPLANELOCATION
 40
0.0
  0
ENDSEC
  0
SECTION
  2
CLASSES
  0
CLASS
  1
ACDBDICTIONARYWDFLT
  2
AcDbDictionaryWithDefault
  3
ObjectDBX Classes
 90
        0
 91
        1
280
     0
281
     0
  0
CLASS
  1
PLOTSETTINGS
  2
AcDbPlotSettings
  3
ObjectDBX Classes
 90
        0
 91
        0
280
     0
281
     0
  0
CLASS
  1
MATERIAL
  2
AcDbMaterial
  3
ObjectDBX Classes
 90
     1153
 91
        3
280
     0
281
     0
  0
CLASS
  1
VISUALSTYLE
  2
AcDbVisualStyle
  3
ObjectDBX Classes
 90
     4095
 91
       26
280
     0
281
     0
  0
CLASS
  1
TABLESTYLE
  2
AcDbTableStyle
  3
ObjectDBX Classes
 90
     4095
 91
        1
280
     0
281
     0
  0
CLASS
  1
DICTIONARYVAR
  2
AcDbDictionaryVar
  3
ObjectDBX Classes
 90
        0
 91
       17
280
     0
281
     0
  0
CLASS
  1
SCALE
  2
AcDbScale
  3
ObjectDBX Classes
 90
     1153
 91
       17
280
     0
281
     0
  0
CLASS
  1
MLEADERSTYLE
  2
AcDbMLeaderStyle
  3
ACDB_MLEADERSTYLE_CLASS
 90
     4095
 91
        1
280
     0
281
     0
  0
CLASS
  1
ACDBSECTIONVIEWSTYLE
  2
AcDbSectionViewStyle
  3
ObjectDBX Classes
 90
     1025
 91
        1
280
     0
281
     0
  0
CLASS
  1
ACDBDETAILVIEWSTYLE
  2
AcDbDetailViewStyle
  3
ObjectDBX Classes
 90
     1025
 91
        1
280
     0
281
     0
  0
CLASS
  1
CELLSTYLEMAP
  2
AcDbCellStyleMap
  3
ObjectDBX Classes
 90
     1152
 91
        1
280
     0
281
     0
  0
ENDSEC
  0
SECTION
  2
TABLES
  0
TABLE
  2
VPORT
  5
19
330
0
100
AcDbSymbolTable
 70
     1
1001
ACAD
1000
DbSaveVer
1071
        5
  0
VPORT
  5
7D
330
19
100
AcDbSymbolTableRecord
100
AcDbViewportTableRecord
  2
*Active
 70
     0
 10
0.0
 20
0.0
 11
1.0
 21
1.0
 12
8.558538912822541
 22
6.273850300647715
 13
0.0
 23
0.0
 14
0.5
 24
0.5
 15
0.5
 25
0.5
 16
0.0
 26
0.0
 36
1.0
 17
0.0
 27
0.0
 37
0.0
 40
12.16166480722495
 41
2.292712066905615
 42
50.0
 43
0.0
 44
0.0
 50
0.0
 51
0.0
 71
     0
 72
  1000
 73
     1
 74
     3
 75
     0
 76
     0
 77
     0
 78
     0
281
     0
 65
     1
110
0.0
120
0.0
130
0.0
111
1.0
121
0.0
131
0.0
112
0.0
122
1.0
132
0.0
 79
     0
146
0.0
348
88
 60
     3
 61
     5
292
     1
282
     1
141
0.0
142
0.0
 63
   250
421
  3355443
1001
ACAD_NAV_VCDISPLAY
1070
     3
  0
ENDTAB
  0
TABLE
  2
LTYPE
  5
14
330
0
100
AcDbSymbolTable
 70
     1
  0
LTYPE
  5
15
330
14
100
AcDbSymbolTableRecord
100
AcDbLinetypeTableRecord
  2
ByBlock
 70
     0
  3

 72
    65
 73
     0
 40
0.0
  0
LTYPE
  5
16
330
14
100
AcDbSymbolTableRecord
100
AcDbLinetypeTableRecord
  2
ByLayer
 70
     0
  3

 72
    65
 73
     0
 40
0.0
  0
LTYPE
  5
8
330
14
100
AcDbSymbolTableRecord
100
AcDbLinetypeTableRecord
  2
Continuous
 70
     0
  3
Solid line
 72
    65
 73
     0
 40
0.0
  0
ENDTAB
  0
TABLE
  2
LAYER
  5
10
330
0
100
AcDbSymbolTable
 70
     4
  0
LAYER
  5
4
102
{ACAD_XDICTIONARY
360
2AA
102
}
330
10
100
AcDbSymbolTableRecord
100
AcDbLayerTableRecord
  2
0
 70
     0
 62
     7
  6
Continuous
370
    -3
390
5
347
81
348
0
  0
LAYER
  5
25
102
{ACAD_XDICTIONARY
360
2AC
102
}
330
10
100
AcDbSymbolTableRecord
100
AcDbLayerTableRecord
  2
Title Block
 70
     0
 62
     7
  6
Continuous
370
    -3
390
5
347
81
348
0
  0
LAYER
  5
CE
102
{ACAD_XDICTIONARY
360
2AE
102
}
330
10
100
AcDbSymbolTableRecord
100
AcDbLayerTableRecord
  2
PDF_Layer 1
 70
     0
 62
    28
420
  1052429
  6
Continuous
370
    -3
390
5
347
81
348
0
  0
LAYER
  5
D5
102
{ACAD_XDICTIONARY
360
2B0
102
}
330
10
100
AcDbSymbolTableRecord
100
AcDbLayerTableRecord
  2
PDF_Text
 70
     0
 62
   250
420
  2301728
  6
Continuous
370
    -3
390
5
347
81
348
0
  0
ENDTAB
  0
TABLE
  2
STYLE
  5
11
330
0
100
AcDbSymbolTable
 70
     3
  0
STYLE
  5
12
330
11
100
AcDbSymbolTableRecord
100
AcDbTextStyleTableRecord
  2
Standard
 70
     0
 40
0.0
 41
1.0
 50
0.0
 71
     0
 42
0.2
  3
txt
  4

  0
STYLE
  5
27
330
11
100
AcDbSymbolTableRecord
100
AcDbTextStyleTableRecord
  2
Roman
 70
     0
 40
0.0
 41
1.0
 50
0.0
 71
     0
 42
0.2
  3
ROMANS.SHX
  4

  0
STYLE
  5
D4
330
11
100
AcDbSymbolTableRecord
100
AcDbTextStyleTableRecord
  2
PDF Arial
 70
     0
 40
0.0
 41
1.0
 50
0.0
 71
     0
 42
0.2
  3
arial.ttf
  4

1001
ACAD
1000
Arial
1071
       34
  0
ENDTAB
  0
TABLE
  2
VIEW
  5
17
330
0
100
AcDbSymbolTable
 70
     0
  0
ENDTAB
  0
TABLE
  2
UCS
  5
18
330
0
100
AcDbSymbolTable
 70
     0
  0
ENDTAB
  0
TABLE
  2
APPID
  5
1B
330
0
100
AcDbSymbolTable
 70
     2
  0
APPID
  5
1C
330
1B
100
AcDbSymbolTableRecord
100
AcDbRegAppTableRecord
  2
ACAD
 70
     0
  0
APPID
  5
2B2
330
1B
100
AcDbSymbolTableRecord
100
AcDbRegAppTableRecord
  2
ACAD_NAV_VCDISPLAY
 70
     0
  0
ENDTAB
  0
TABLE
  2
DIMSTYLE
  5
1D
330
0
100
AcDbSymbolTable
 70
     1
100
AcDbDimStyleTable
 71
     0
  0
DIMSTYLE
105
23
330
1D
100
AcDbSymbolTableRecord
100
AcDbDimStyleTableRecord
  2
Standard
 70
     0
340
12
  0
ENDTAB
  0
TABLE
  2
BLOCK_RECORD
  5
1
330
0
100
AcDbSymbolTable
 70
     0
  0
BLOCK_RECORD
  5
2
330
1
100
AcDbSymbolTableRecord
100
AcDbBlockTableRecord
  2
*Model_Space
340
A
 70
     0
280
     1
281
     0
  0
BLOCK_RECORD
  5
C
330
1
100
AcDbSymbolTableRecord
100
AcDbBlockTableRecord
  2
*Paper_Space
340
F
 70
     0
280
     1
281
     0
  0
ENDTAB
  0
ENDSEC
  0
SECTION
  2
BLOCKS
  0
BLOCK
  5
3
330
2
100
AcDbEntity
  8
0
100
AcDbBlockBegin
  2
*Model_Space
 70
     2
 10
0.0
 20
0.0
 30
0.0
  3
*Model_Space
  1

  0
ENDBLK
  5
9
330
2
100
AcDbEntity
  8
0
100
AcDbBlockEnd
  0
BLOCK
  5
D
330
C
100
AcDbEntity
 67
     1
  8
0
100
AcDbBlockBegin
  2
*Paper_Space
 70
     0
 10
0.0
 20
0.0
 30
0.0
  3
*Paper_Space
  1

  0
ENDBLK
  5
E
330
C
100
AcDbEntity
 67
     1
  8
0
100
AcDbBlockEnd
  0
ENDSEC
  0
SECTION
  2
ENTITIES
  0
HATCH
  5
CF
330
2
100
AcDbEntity
  8
PDF_Layer 1
 62
     7
420
 16777215
440
 33554559
100
AcDbHatch
 10
0.0
 20
0.0
 30
0.0
210
0.0
220
0.0
230
1.0
  2
SOLID
 70
     1
 71
     0
 91
       10
 92
        2
 72
     0
 73
     1
 93
        3
 10
9.854437499999999
 20
6.059272222222221
 10
9.943090277777777
 20
6.070911111111111
 10
9.943090277777777
 20
6.047619444444443
 97
        0
 92
        2
 72
     0
 73
     1
 93
        3
 10
11.25042361111111
 20
6.059272222222221
 10
11.16086805555555
 20
6.047619444444443
 10
11.16086805555555
 20
6.070911111111111
 97
        0
 92
        2
 72
     0
 73
     1
 93
        3
 10
10.00667361111111
 20
6.6798
 10
10.0953125
 20
6.691452777777777
 10
10.0953125
 20
6.669063888888888
 97
        0
 92
        2
 72
     0
 73
     1
 93
        3
 10
11.09820138888889
 20
6.6798
 10
11.00865972222222
 20
6.669063888888888
 10
11.00865972222222
 20
6.691452777777777
 97
        0
 92
        2
 72
     0
 73
     1
 93
        3
 10
10.55197916666666
 20
6.315355555555555
 10
10.64063194444444
 20
6.327008333333332
 10
10.64063194444444
 20
6.304619444444444
 97
        0
 92
        2
 72
     0
 73
     1
 93
        3
 10
12.52463194444444
 20
6.315355555555555
 10
12.43597916666666
 20
6.304619444444444
 10
12.43597916666666
 20
6.327008333333332
 97
        0
 92
        2
 72
     0
 73
     1
 93
        3
 10
5.426520833333333
 20
5.427091666666666
 10
5.51517361111111
 20
5.438730555555554
 10
5.51517361111111
 20
5.415466666666666
 97
        0
 92
        2
 72
     0
 73
     1
 93
        3
 10
10.55197916666666
 20
5.427091666666666
 10
10.46334027777777
 20
5.415466666666666
 10
10.46334027777777
 20
5.438730555555554
 97
        0
 92
        2
 72
     0
 73
     1
 93
        3
 10
10.19650694444444
 20
9.071508333333333
 10
10.28514583333333
 20
9.083147222222221
 10
10.28514583333333
 20
9.059869444444444
 97
        0
 92
        2
 72
     0
 73
     1
 93
        3
 10
10.90746527777778
 20
9.071508333333333
 10
10.81882638888889
 20
9.059869444444444
 10
10.81882638888889
 20
9.083147222222221
 97
        0
 75
     0
 76
     1
 98
        1
 10
0.0
 20
0.0
450
        0
451
        0
460
0.0
461
0.0
452
        0
462
0.0
453
        0
470

  0
HATCH
  5
D0
330
2
100
AcDbEntity
  8
PDF_Layer 1
 62
     7
420
 16777215
440
 33554559
100
AcDbHatch
 10
0.0
 20
0.0
 30
0.0
210
0.0
220
0.0
230
1.0
  2
SOLID
 70
     1
 71
     0
 91
        2
 92
        2
 72
     0
 73
     1
 93
        3
 10
10.42483194444444
 20
3.184027777777777
 10
10.51437361111111
 20
3.195666666666666
 10
10.51437361111111
 20
3.172388888888888
 97
        0
 92
        2
 72
     0
 73
     1
 93
        3
 10
10.78031805555555
 20
3.184027777777777
 10
10.69167916666666
 20
3.172388888888888
 10
10.69167916666666
 20
3.195666666666666
 97
        0
 75
     0
 76
     1
 98
        1
 10
0.0
 20
0.0
450
        0
451
        0
460
0.0
461
0.0
452
        0
462
0.0
453
        0
470

  0
HATCH
  5
D1
330
2
100
AcDbEntity
  8
PDF_Layer 1
 62
     7
420
 16777215
440
 33554559
100
AcDbHatch
 10
0.0
 20
0.0
 30
0.0
210
0.0
220
0.0
230
1.0
  2
SOLID
 70
     1
 71
     0
 91
        2
 92
        2
 72
     0
 73
     1
 93
        3
 10
12.04825833333333
 20
5.048326388888888
 10
12.03661944444444
 20
5.136965277777777
 10
12.05899444444444
 20
5.136965277777777
 97
        0
 92
        2
 72
     0
 73
     1
 93
        3
 10
12.04825833333333
 20
5.936590277777777
 10
12.05899444444444
 20
5.847937499999999
 10
12.03661944444444
 20
5.847937499999999
 97
        0
 75
     0
 76
     1
 98
        1
 10
0.0
 20
0.0
450
        0
451
        0
460
0.0
461
0.0
452
        0
462
0.0
453
        0
470

  0
HATCH
  5
D2
330
2
100
AcDbEntity
  8
PDF_Layer 1
 62
     7
420
 16777215
440
 33554559
100
AcDbHatch
 10
0.0
 20
0.0
 30
0.0
210
0.0
220
0.0
230
1.0
  2
SOLID
 70
     1
 71
     0
 91
        8
 92
        2
 72
     0
 73
     1
 93
        3
 10
12.59894444444444
 20
5.936591666666665
 10
12.61058333333333
 20
5.847938888888887
 10
12.58730555555555
 20
5.847938888888887
 97
        0
 92
        2
 72
     0
 73
     1
 93
        3
 10
12.59894444444444
 20
3.560119444444443
 10
12.58730555555555
 20
3.648758333333332
 10
12.61058333333333
 20
3.648758333333332
 97
        0
 92
        2
 72
     0
 73
     1
 93
        3
 10
4.696749999999999
 20
11.48559166666666
 10
4.707486111111109
 20
11.39695277777778
 10
4.685111111111109
 20
11.39695277777778
 97
        0
 92
        2
 72
     0
 73
     1
 93
        3
 10
4.696749999999999
 20
5.936591666666665
 10
4.685111111111109
 20
6.025244444444443
 10
4.707486111111109
 20
6.025244444444443
 97
        0
 92
        2
 72
     0
 73
     1
 93
        3
 10
4.239180555555554
 20
12.31118888888888
 10
4.250819444444443
 20
12.22163333333333
 10
4.228430555555554
 20
12.22163333333333
 97
        0
 92
        2
 72
     0
 73
     1
 93
        3
 10
4.239180555555554
 20
5.936591666666665
 10
4.228430555555554
 20
6.025244444444443
 10
4.250819444444443
 20
6.025244444444443
 97
        0
 92
        2
 72
     0
 73
     1
 93
        3
 10
13.17023611111111
 20
9.248799999999999
 10
13.181875
 20
9.16016111111111
 10
13.15859722222222
 20
9.16016111111111
 97
        0
 92
        2
 72
     0
 73
     1
 93
        3
 10
13.17023611111111
 20
5.936591666666665
 10
13.15859722222222
 20
6.025244444444443
 10
13.181875
 20
6.025244444444443
 97
        0
 75
     0
 76
     1
 98
        1
 10
0.0
 20
0.0
450
        0
451
        0
460
0.0
461
0.0
452
        0
462
0.0
453
        0
470

  0
CIRCLE
  5
D6
330
2
100
AcDbEntity
  8
PDF_Layer 1
 62
     7
420
 16777215
370
    35
100
AcDbCircle
 10
9.262095118606625
 20
6.220095363884749
 30
0.0
 40
0.0900111192496313
  0
LWPOLYLINE
  5
D7
330
2
100
AcDbEntity
  8
PDF_Layer 1
 62
     7
420
 16777215
370
    35
100
AcDbPolyline
 90
        2
 70
     0
 43
0.0
 10
9.210619444444441
 20
6.091515277777777
 10
9.313605555555552
 20
6.349390277777777
  0
CIRCLE
  5
D8
330
2
100
AcDbEntity
  8
PDF_Layer 1
 62
     7
420
 16777215
370
    35
100
AcDbCircle
 10
9.407152122071792
 20
6.841526982056156
 30
0.0
 40
0.0900147974173351
  0
LWPOLYLINE
  5
D9
330
2
100
AcDbEntity
  8
PDF_Layer 1
 62
     7
420
 16777215
370
    35
100
AcDbPolyline
 90
        2
 70
     0
 43
0.0
 10
9.355679166666666
 20
6.712038888888889
 10
9.458665277777777
 20
6.969927777777778
  0
CIRCLE
  5
DA
330
2
100
AcDbEntity
  8
PDF_Layer 1
 62
     7
420
 16777215
370
    35
100
AcDbCircle
 10
8.943026452738534
 20
3.345115424527861
 30
0.0
 40
0.0902986024709275
  0
LWPOLYLINE
  5
DB
330
2
100
AcDbEntity
  8
PDF_Layer 1
 62
     7
420
 16777215
370
    35
100
AcDbPolyline
 90
        2
 70
     0
 43
0.0
 10
8.891852777777778
 20
3.216270833333333
 10
8.994838888888889
 20
3.474159722222222
  0
CIRCLE
  5
DC
330
2
100
AcDbEntity
  8
PDF_Layer 1
 62
     7
420
 16777215
370
    35
100
AcDbCircle
 10
9.587743315643011
 20
9.232591635998364
 30
0.0
 40
0.0903025671105619
  0
LWPOLYLINE
  5
DD
330
2
100
AcDbEntity
  8
PDF_Layer 1
 62
     7
420
 16777215
370
    35
100
AcDbPolyline
 90
        2
 70
     0
 43
0.0
 10
9.53655972222222
 20
9.103741666666666
 10
9.639545833333331
 20
9.361630555555555
  0
LWPOLYLINE
  5
DE
330
2
100
AcDbEntity
  8
PDF_Layer 1
 62
     7
420
 16777215
370
    35
100
AcDbPolyline
 90
        3
 70
     1
 43
0.0
 10
9.854437499999999
 20
6.059272222222221
 10
9.943090277777777
 20
6.070911111111111
 10
9.943090277777777
 20
6.047619444444443
  0
LWPOLYLINE
  5
DF
330
2
100
AcDbEntity
  8
PDF_Layer 1
 62
     7
420
 16777215
370
    35
100
AcDbPolyline
 90
        3
 70
     1
 43
0.0
 10
11.25042361111111
 20
6.059272222222221
 10
11.16086805555555
 20
6.047619444444443
 10
11.16086805555555
 20
6.070911111111111
  0
LWPOLYLINE
  5
E0
330
2
100
AcDbEntity
  8
PDF_Layer 1
 62
     7
420
 16777215
370
    35
100
AcDbPolyline
 90
        3
 70
     1
 43
0.0
 10
10.00667361111111
 20
6.6798
 10
10.0953125
 20
6.691452777777777
 10
10.0953125
 20
6.669063888888888
  0
LWPOLYLINE
  5
E1
330
2
100
AcDbEntity
  8
PDF_Layer 1
 62
     7
420
 16777215
370
    35
100
AcDbPolyline
 90
        3
 70
     1
 43
0.0
 10
11.09820138888889
 20
6.6798
 10
11.00865972222222
 20
6.669063888888888
 10
11.00865972222222
 20
6.691452777777777
  0
LWPOLYLINE
  5
E2
330
2
100
AcDbEntity
  8
PDF_Layer 1
 62
     7
420
 16777215
370
    35
100
AcDbPolyline
 90
        3
 70
     1
 43
0.0
 10
10.55197916666666
 20
6.315355555555555
 10
10.64063194444444
 20
6.327008333333332
 10
10.64063194444444
 20
6.304619444444444
  0
LWPOLYLINE
  5
E3
330
2
100
AcDbEntity
  8
PDF_Layer 1
 62
     7
420
 16777215
370
    35
100
AcDbPolyline
 90
        3
 70
     1
 43
0.0
 10
12.52463194444444
 20
6.315355555555555
 10
12.43597916666666
 20
6.304619444444444
 10
12.43597916666666
 20
6.327008333333332
  0
LWPOLYLINE
  5
E4
330
2
100
AcDbEntity
  8
PDF_Layer 1
 62
     7
420
 16777215
370
    35
100
AcDbPolyline
 90
        3
 70
     1
 43
0.0
 10
5.426520833333333
 20
5.427091666666666
 10
5.51517361111111
 20
5.438730555555554
 10
5.51517361111111
 20
5.415466666666666
  0
LWPOLYLINE
  5
E5
330
2
100
AcDbEntity
  8
PDF_Layer 1
 62
     7
420
 16777215
370
    35
100
AcDbPolyline
 90
        3
 70
     1
 43
0.0
 10
10.55197916666666
 20
5.427091666666666
 10
10.46334027777777
 20
5.415466666666666
 10
10.46334027777777
 20
5.438730555555554
  0
LWPOLYLINE
  5
E6
330
2
100
AcDbEntity
  8
PDF_Layer 1
 62
     7
420
 16777215
370
    35
100
AcDbPolyline
 90
        3
 70
     1
 43
0.0
 10
10.19650694444444
 20
9.071508333333333
 10
10.28514583333333
 20
9.083147222222221
 10
10.28514583333333
 20
9.059869444444444
  0
LWPOLYLINE
  5
E7
330
2
100
AcDbEntity
  8
PDF_Layer 1
 62
     7
420
 16777215
370
    35
100
AcDbPolyline
 90
        3
 70
     1
 43
0.0
 10
10.90746527777778
 20
9.071508333333333
 10
10.81882638888889
 20
9.059869444444444
 10
10.81882638888889
 20
9.083147222222221
  0
LWPOLYLINE
  5
E8
330
2
100
AcDbEntity
  8
PDF_Layer 1
 62
     7
420
 16777215
370
    35
100
AcDbPolyline
 90
        3
 70
     1
 43
0.0
 10
10.42483194444444
 20
3.184027777777777
 10
10.51437361111111
 20
3.195666666666666
 10
10.51437361111111
 20
3.172388888888888
  0
LWPOLYLINE
  5
E9
330
2
100
AcDbEntity
  8
PDF_Layer 1
 62
     7
420
 16777215
370
    35
100
AcDbPolyline
 90
        3
 70
     1
 43
0.0
 10
10.78031805555555
 20
3.184027777777777
 10
10.69167916666666
 20
3.172388888888888
 10
10.69167916666666
 20
3.195666666666666
  0
LWPOLYLINE
  5
EA
330
2
100
AcDbEntity
  8
PDF_Layer 1
 62
     7
420
 16777215
370
    35
100
AcDbPolyline
 90
        3
 70
     1
 43
0.0
 10
12.04825833333333
 20
5.048326388888888
 10
12.03661944444444
 20
5.136965277777777
 10
12.05899444444444
 20
5.136965277777777
  0
LWPOLYLINE
  5
EB
330
2
100
AcDbEntity
  8
PDF_Layer 1
 62
     7
420
 16777215
370
    35
100
AcDbPolyline
 90
        3
 70
     1
 43
0.0
 10
12.04825833333333
 20
5.936590277777777
 10
12.05899444444444
 20
5.847937499999999
 10
12.03661944444444
 20
5.847937499999999
  0
LWPOLYLINE
  5
EC
330
2
100
AcDbEntity
  8
PDF_Layer 1
 62
     7
420
 16777215
370
    35
100
AcDbPolyline
 90
        3
 70
     1
 43
0.0
 10
12.59894444444444
 20
5.936591666666665
 10
12.61058333333333
 20
5.847938888888887
 10
12.58730555555555
 20
5.847938888888887
  0
LWPOLYLINE
  5
ED
330
2
100
AcDbEntity
  8
PDF_Layer 1
 62
     7
420
 16777215
370
    35
100
AcDbPolyline
 90
        3
 70
     1
 43
0.0
 10
12.59894444444444
 20
3.560119444444443
 10
12.58730555555555
 20
3.648758333333332
 10
12.61058333333333
 20
3.648758333333332
  0
LWPOLYLINE
  5
EE
330
2
100
AcDbEntity
  8
PDF_Layer 1
 62
     7
420
 16777215
370
    35
100
AcDbPolyline
 90
        3
 70
     1
 43
0.0
 10
4.696749999999999
 20
11.48559166666666
 10
4.707486111111109
 20
11.39695277777778
 10
4.685111111111109
 20
11.39695277777778
  0
LWPOLYLINE
  5
EF
330
2
100
AcDbEntity
  8
PDF_Layer 1
 62
     7
420
 16777215
370
    35
100
AcDbPolyline
 90
        3
 70
     1
 43
0.0
 10
4.696749999999999
 20
5.936591666666665
 10
4.685111111111109
 20
6.025244444444443
 10
4.707486111111109
 20
6.025244444444443
  0
LWPOLYLINE
  5
F0
330
2
100
AcDbEntity
  8
PDF_Layer 1
 62
     7
420
 16777215
370
    35
100
AcDbPolyline
 90
        3
 70
     1
 43
0.0
 10
4.239180555555554
 20
12.31118888888888
 10
4.250819444444443
 20
12.22163333333333
 10
4.228430555555554
 20
12.22163333333333
  0
LWPOLYLINE
  5
F1
330
2
100
AcDbEntity
  8
PDF_Layer 1
 62
     7
420
 16777215
370
    35
100
AcDbPolyline
 90
        3
 70
     1
 43
0.0
 10
4.239180555555554
 20
5.936591666666665
 10
4.228430555555554
 20
6.025244444444443
 10
4.250819444444443
 20
6.025244444444443
  0
LWPOLYLINE
  5
F2
330
2
100
AcDbEntity
  8
PDF_Layer 1
 62
     7
420
 16777215
370
    35
100
AcDbPolyline
 90
        3
 70
     1
 43
0.0
 10
13.17023611111111
 20
9.248799999999999
 10
13.181875
 20
9.16016111111111
 10
13.15859722222222
 20
9.16016111111111
  0
LWPOLYLINE
  5
F3
330
2
100
AcDbEntity
  8
PDF_Layer 1
 62
     7
420
 16777215
370
    35
100
AcDbPolyline
 90
        3
 70
     1
 43
0.0
 10
13.17023611111111
 20
5.936591666666665
 10
13.15859722222222
 20
6.025244444444443
 10
13.181875
 20
6.025244444444443
  0
LWPOLYLINE
  5
F4
330
2
100
AcDbEntity
  8
PDF_Layer 1
 62
     7
420
 16777215
370
    35
100
AcDbPolyline
 90
        2
 70
     0
 43
0.0
 10
10.55251666666666
 20
5.886501388888888
 10
10.55251666666666
 20
6.21647361111111
  0
LWPOLYLINE
  5
F5
330
2
100
AcDbEntity
  8
PDF_Layer 1
 62
     7
420
 16777215
370
    35
100
AcDbPolyline
 90
        3
 70
     0
 43
0.0
 10
11.25042361111111
 20
6.059272222222221
 10
9.854437499999999
 20
6.059272222222221
 10
9.064673611111111
 20
6.059272222222221
  0
LWPOLYLINE
  5
F7
330
2
100
AcDbEntity
  8
PDF_Layer 1
 62
     7
420
 16777215
370
    35
100
AcDbPolyline
 90
        2
 70
     0
 43
0.0
 10
11.09820138888889
 20
8.00505
 10
11.09820138888889
 20
6.654730555555555
  0
LWPOLYLINE
  5
F8
330
2
100
AcDbEntity
  8
PDF_Layer 1
 62
     7
420
 16777215
370
    35
100
AcDbPolyline
 90
        3
 70
     0
 43
0.0
 10
11.09820138888889
 20
6.6798
 10
10.00667361111111
 20
6.6798
 10
9.209729166666665
 20
6.6798
  0
LWPOLYLINE
  5
FA
330
2
100
AcDbEntity
  8
PDF_Layer 1
 62
     7
420
 16777215
370
    35
100
AcDbPolyline
 90
        2
 70
     0
 43
0.0
 10
10.55197916666666
 20
6.24103611111111
 10
10.55197916666666
 20
6.341327777777777
  0
LWPOLYLINE
  5
FB
330
2
100
AcDbEntity
  8
PDF_Layer 1
 62
     7
420
 16777215
370
    35
100
AcDbPolyline
 90
        2
 70
     0
 43
0.0
 10
12.52463194444444
 20
7.408688888888888
 10
12.52463194444444
 20
6.29028611111111
  0
LWPOLYLINE
  5
FC
330
2
100
AcDbEntity
  8
PDF_Layer 1
 62
     7
420
 16777215
370
    35
100
AcDbPolyline
 90
        2
 70
     0
 43
0.0
 10
10.55197916666666
 20
6.315355555555555
 10
12.52463194444444
 20
6.315355555555555
  0
LWPOLYLINE
  5
FD
330
2
100
AcDbEntity
  8
PDF_Layer 1
 62
     7
420
 16777215
370
    35
100
AcDbPolyline
 90
        2
 70
     0
 43
0.0
 10
5.426520833333333
 20
10.79700833333333
 10
5.426520833333333
 20
5.401119444444444
  0
LWPOLYLINE
  5
FE
330
2
100
AcDbEntity
  8
PDF_Layer 1
 62
     7
420
 16777215
370
    35
100
AcDbPolyline
 90
        2
 70
     0
 43
0.0
 10
10.55197916666666
 20
5.860480555555555
 10
10.55197916666666
 20
5.401119444444444
  0
LWPOLYLINE
  5
FF
330
2
100
AcDbEntity
  8
PDF_Layer 1
 62
     7
420
 16777215
370
    35
100
AcDbPolyline
 90
        2
 70
     0
 43
0.0
 10
5.426520833333333
 20
5.427091666666666
 10
10.55197916666666
 20
5.427091666666666
  0
LWPOLYLINE
  5
100
330
2
100
AcDbEntity
  8
PDF_Layer 1
 62
     7
420
 16777215
370
    35
100
AcDbPolyline
 90
        3
 70
     0
 43
0.0
 10
10.90746527777778
 20
9.071508333333333
 10
10.19650694444444
 20
9.071508333333333
 10
9.390604166666665
 20
9.071508333333333
  0
LWPOLYLINE
  5
102
330
2
100
AcDbEntity
  8
PDF_Layer 1
 62
     7
420
 16777215
370
    35
100
AcDbPolyline
 90
        2
 70
     0
 43
0.0
 10
10.42483194444444
 20
3.534138888888889
 10
10.42483194444444
 20
3.158069444444444
  0
LWPOLYLINE
  5
103
330
2
100
AcDbEntity
  8
PDF_Layer 1
 62
     7
420
 16777215
370
    35
100
AcDbPolyline
 90
        2
 70
     0
 43
0.0
 10
10.78031805555555
 20
3.534138888888889
 10
10.78031805555555
 20
3.158069444444444
  0
LWPOLYLINE
  5
104
330
2
100
AcDbEntity
  8
PDF_Layer 1
 62
     7
420
 16777215
370
    35
100
AcDbPolyline
 90
        3
 70
     0
 43
0.0
 10
10.78031805555555
 20
3.184027777777778
 10
10.42483194444444
 20
3.184027777777778
 10
8.745901388888889
 20
3.184027777777778
  0
LWPOLYLINE
  5
106
330
2
100
AcDbEntity
  8
PDF_Layer 1
 62
     7
420
 16777215
370
    35
100
AcDbPolyline
 90
        2
 70
     0
 43
0.0
 10
10.69346805555555
 20
5.048326388888888
 10
12.07332916666667
 20
5.048326388888888
  0
LWPOLYLINE
  5
107
330
2
100
AcDbEntity
  8
PDF_Layer 1
 62
     7
420
 16777215
370
    35
100
AcDbPolyline
 90
        2
 70
     0
 43
0.0
 10
11.27549583333333
 20
5.936590277777777
 10
12.07332916666667
 20
5.936590277777777
  0
LWPOLYLINE
  5
108
330
2
100
AcDbEntity
  8
PDF_Layer 1
 62
     7
420
 16777215
370
    35
100
AcDbPolyline
 90
        3
 70
     0
 43
0.0
 10
12.04825972222222
 20
5.936590277777777
 10
12.04825972222222
 20
5.048326388888888
 10
12.04825972222222
 20
4.082159722222221
  0
LWPOLYLINE
  5
10A
330
2
100
AcDbEntity
  8
PDF_Layer 1
 62
     7
420
 16777215
370
    35
100
AcDbPolyline
 90
        2
 70
     0
 43
0.0
 10
10.57705416666666
 20
5.936591666666665
 10
12.62490138888888
 20
5.936591666666665
  0
LWPOLYLINE
  5
10B
330
2
100
AcDbEntity
  8
PDF_Layer 1
 62
     7
420
 16777215
370
    35
100
AcDbPolyline
 90
        2
 70
     0
 43
0.0
 10
10.62809583333333
 20
3.560119444444443
 10
12.62490138888888
 20
3.560119444444443
  0
LWPOLYLINE
  5
10C
330
2
100
AcDbEntity
  8
PDF_Layer 1
 62
     7
420
 16777215
370
    35
100
AcDbPolyline
 90
        2
 70
     0
 43
0.0
 10
12.59894305555555
 20
5.936591666666665
 10
12.59894305555555
 20
3.560119444444443
  0
LWPOLYLINE
  5
10D
330
2
100
AcDbEntity
  8
PDF_Layer 1
 62
     7
420
 16777215
370
    35
100
AcDbPolyline
 90
        2
 70
     0
 43
0.0
 10
5.114915277777776
 20
11.48559166666666
 10
4.670776388888887
 20
11.48559166666666
  0
LWPOLYLINE
  5
10E
330
2
100
AcDbEntity
  8
PDF_Layer 1
 62
     7
420
 16777215
370
    35
100
AcDbPolyline
 90
        3
 70
     0
 43
0.0
 10
4.21410972222222
 20
5.936591666666665
 10
9.828484722222221
 20
5.936591666666665
 10
4.670776388888887
 20
5.936591666666665
  0
LWPOLYLINE
  5
10F
330
2
100
AcDbEntity
  8
PDF_Layer 1
 62
     7
420
 16777215
370
    35
100
AcDbPolyline
 90
        2
 70
     0
 43
0.0
 10
4.696748611111109
 20
11.48559166666666
 10
4.696748611111109
 20
5.936591666666665
  0
LWPOLYLINE
  5
110
330
2
100
AcDbEntity
  8
PDF_Layer 1
 62
     7
420
 16777215
370
    35
100
AcDbPolyline
 90
        2
 70
     0
 43
0.0
 10
4.960901388888887
 20
12.31118888888888
 10
4.21410972222222
 20
12.31118888888888
  0
LWPOLYLINE
  5
112
330
2
100
AcDbEntity
  8
PDF_Layer 1
 62
     7
420
 16777215
370
    35
100
AcDbPolyline
 90
        2
 70
     0
 43
0.0
 10
4.239179166666665
 20
12.31118888888888
 10
4.239179166666665
 20
5.936591666666665
  0
LWPOLYLINE
  5
113
330
2
100
AcDbEntity
  8
PDF_Layer 1
 62
     7
420
 16777215
370
    35
100
AcDbPolyline
 90
        2
 70
     0
 43
0.0
 10
12.35985972222222
 20
9.248799999999999
 10
13.19620694444444
 20
9.248799999999999
  0
LWPOLYLINE
  5
114
330
2
100
AcDbEntity
  8
PDF_Layer 1
 62
     7
420
 16777215
370
    35
100
AcDbPolyline
 90
        2
 70
     0
 43
0.0
 10
11.27549861111111
 20
5.936591666666665
 10
13.19620694444444
 20
5.936591666666665
  0
LWPOLYLINE
  5
115
330
2
100
AcDbEntity
  8
PDF_Layer 1
 62
     7
420
 16777215
370
    35
100
AcDbPolyline
 90
        2
 70
     0
 43
0.0
 10
13.17023472222222
 20
9.248799999999999
 10
13.17023472222222
 20
5.936591666666665
  0
LWPOLYLINE
  5
116
330
2
100
AcDbEntity
  8
PDF_Layer 1
 62
     7
420
 16777215
370
   106
100
AcDbPolyline
 90
       11
 70
     0
 43
0.0
 10
10.45347777777777
 20
5.924058333333332
 10
10.45347777777777
 20
5.835405555555555
 10
10.45438055555555
 20
5.835405555555555
 10
10.45528333333333
 20
5.835405555555555
 10
10.457075
 20
5.835405555555555
 10
10.46513055555555
 20
5.832724999999999
 10
10.46692222222222
 20
5.830030555555555
 10
10.46871388888889
 20
5.828252777777777
 10
10.46960277777778
 20
5.825558333333333
 10
10.46960277777778
 20
5.822877777777777
 10
10.46960277777778
 20
5.81033611111111
  0
LWPOLYLINE
  5
117
330
2
100
AcDbEntity
  8
PDF_Layer 1
 62
     7
420
 16777215
370
   106
100
AcDbPolyline
 90
       40
 70
     0
 43
0.0
 10
10.46513055555555
 20
5.832724999999999
 10
10.47318611111111
 20
5.835405555555555
 10
10.47765833333333
 20
5.835405555555555
 10
10.48213055555555
 20
5.835405555555555
 10
10.48751944444444
 20
5.835405555555555
 10
10.49199166666666
 20
5.835405555555555
 10
10.49736666666666
 20
5.835405555555555
 10
10.50272777777778
 20
5.835405555555555
 10
10.50900555555555
 20
5.835405555555555
 10
10.51526944444444
 20
5.835405555555555
 10
10.52153333333333
 20
5.835405555555555
 10
10.54572777777778
 20
5.832724999999999
 10
10.56363055555555
 20
5.835405555555555
 10
10.572575
 20
5.835405555555555
 10
10.57974166666666
 20
5.835405555555555
 10
10.58779722222222
 20
5.835405555555555
 10
10.59497777777778
 20
5.835405555555555
 10
10.60303333333333
 20
5.835405555555555
 10
10.61018611111111
 20
5.835405555555555
 10
10.61824166666666
 20
5.835405555555555
 10
10.62540833333333
 20
5.835405555555555
 10
10.63347777777778
 20
5.835405555555555
 10
10.66033888888889
 20
5.832724999999999
 10
10.67645
 20
5.835405555555555
 10
10.68451944444444
 20
5.835405555555555
 10
10.69076944444444
 20
5.835405555555555
 10
10.69704722222222
 20
5.835405555555555
 10
10.70242222222222
 20
5.835405555555555
 10
10.70868611111111
 20
5.835405555555555
 10
10.71315833333333
 20
5.835405555555555
 10
10.71853333333333
 20
5.835405555555555
 10
10.72300555555555
 20
5.835405555555555
 10
10.72749166666667
 20
5.835405555555555
 10
10.74092222222222
 20
5.832724999999999
 10
10.74629722222222
 20
5.835405555555555
 10
10.74897777777778
 20
5.835405555555555
 10
10.74988055555555
 20
5.835405555555555
 10
10.75076944444444
 20
5.835405555555555
 10
10.75167222222222
 20
5.835405555555555
 10
10.75167222222222
 20
5.924058333333332
  0
LWPOLYLINE
  5
118
330
2
100
AcDbEntity
  8
PDF_Layer 1
 62
     7
420
 16777215
370
   106
100
AcDbPolyline
 90
        4
 70
     0
 43
0.0
 10
10.47586666666666
 20
5.352766666666666
 10
10.47586666666666
 20
5.309794444444444
 10
10.47586666666666
 20
5.250697222222221
 10
10.47586666666666
 20
5.226502777777777
  0
LWPOLYLINE
  5
119
330
2
100
AcDbEntity
  8
PDF_Layer 1
 62
     7
420
 16777215
370
   106
100
AcDbPolyline
 90
        4
 70
     0
 43
0.0
 10
10.47586666666666
 20
5.175488888888888
 10
10.47586666666666
 20
5.131599999999999
 10
10.47586666666666
 20
5.0716
 10
10.47586666666666
 20
5.048322222222221
  0
LWPOLYLINE
  5
11A
330
2
100
AcDbEntity
  8
PDF_Layer 1
 62
     7
420
 16777215
370
   106
100
AcDbPolyline
 90
        4
 70
     0
 43
0.0
 10
10.73017222222222
 20
5.048322222222221
 10
10.73017222222222
 20
5.0716
 10
10.73017222222222
 20
5.131599999999999
 10
10.73017222222222
 20
5.175488888888888
  0
LWPOLYLINE
  5
11B
330
2
100
AcDbEntity
  8
PDF_Layer 1
 62
     7
420
 16777215
370
   106
100
AcDbPolyline
 90
        4
 70
     0
 43
0.0
 10
10.73017222222222
 20
5.226502777777777
 10
10.73017222222222
 20
5.250697222222221
 10
10.73017222222222
 20
5.309794444444444
 10
10.73017222222222
 20
5.352766666666666
  0
LWPOLYLINE
  5
11C
330
2
100
AcDbEntity
  8
PDF_Layer 1
 62
     7
420
 16777215
370
   106
100
AcDbPolyline
 90
        3
 70
     0
 43
0.0
 10
10.81971388888889
 20
3.517127777777778
 10
10.82239444444444
 20
3.519822222222221
 10
10.84479722222222
 20
3.551155555555555
  0
LWPOLYLINE
  5
11D
330
2
100
AcDbEntity
  8
PDF_Layer 1
 62
     7
420
 16777215
370
   106
100
AcDbPolyline
 90
       35
 70
     0
 43
0.0
 10
10.36215833333333
 20
3.813516666666666
 10
10.36215833333333
 20
3.81083611111111
 10
10.36215833333333
 20
3.794724999999999
 10
10.36215833333333
 20
3.766947222222222
 10
10.36215833333333
 20
3.749044444444444
 10
10.36215833333333
 20
3.763377777777777
 10
10.37379722222222
 20
3.802780555555555
 10
10.39886666666666
 20
3.842169444444444
 10
10.43646388888889
 20
3.875308333333333
 10
10.47856111111111
 20
3.895905555555555
 10
10.51974166666666
 20
3.901266666666666
 10
10.55467222222222
 20
3.894113888888888
 10
10.58154722222222
 20
3.875308333333333
 10
10.59765833333333
 20
3.847544444444444
 10
10.60303333333333
 20
3.816197222222222
 10
10.60303333333333
 20
3.813516666666666
 10
10.59497777777778
 20
3.774127777777777
 10
10.57436666666666
 20
3.73383611111111
 10
10.54033888888889
 20
3.698016666666666
 10
10.49825555555555
 20
3.673836111111111
 10
10.45617222222222
 20
3.663974999999999
 10
10.41946388888889
 20
3.667558333333333
 10
10.38990833333333
 20
3.682794444444444
 10
10.37021388888889
 20
3.709655555555555
 10
10.36215833333333
 20
3.744572222222221
 10
10.36215833333333
 20
3.749044444444444
 10
10.36215833333333
 20
3.730252777777777
 10
10.36215833333333
 20
3.686363888888889
 10
10.36215833333333
 20
3.639808333333332
 10
10.36215833333333
 20
3.598613888888888
 10
10.36215833333333
 20
3.568183333333333
 10
10.36215833333333
 20
3.556530555555555
 10
10.36215833333333
 20
3.550266666666666
 10
10.38095
 20
3.523405555555555
 10
10.386325
 20
3.516238888888888
  0
LWPOLYLINE
  5
11E
330
2
100
AcDbEntity
  8
PDF_Layer 1
 62
     7
420
 16777215
370
   106
100
AcDbPolyline
 90
       16
 70
     0
 43
0.0
 10
10.84479722222222
 20
3.812627777777777
 10
10.82778333333333
 20
3.838599999999999
 10
10.81971388888889
 20
3.847544444444444
 10
10.79822777777778
 20
3.867238888888888
 10
10.76867222222222
 20
3.884266666666666
 10
10.73285277777777
 20
3.89858611111111
 10
10.69256111111111
 20
3.908447222222222
 10
10.6487
 20
3.915613888888888
 10
10.60303333333333
 20
3.917405555555555
 10
10.55735277777777
 20
3.915613888888888
 10
10.51258888888889
 20
3.908447222222222
 10
10.47228333333333
 20
3.89858611111111
 10
10.43646388888889
 20
3.884266666666666
 10
10.407825
 20
3.867238888888888
 10
10.386325
 20
3.847544444444444
 10
10.38543611111111
 20
3.847544444444444
  0
LWPOLYLINE
  5
11F
330
2
100
AcDbEntity
  8
PDF_Layer 1
 62
     7
420
 16777215
370
   106
100
AcDbPolyline
 90
        3
 70
     0
 43
0.0
 10
10.386325
 20
3.847544444444444
 10
10.38006111111111
 20
3.841280555555555
 10
10.36125555555555
 20
3.813516666666666
  0
LWPOLYLINE
  5
120
330
2
100
AcDbEntity
  8
PDF_Layer 1
 62
     7
420
 16777215
370
   106
100
AcDbPolyline
 90
       17
 70
     0
 43
0.0
 10
10.75525555555555
 20
3.890530555555555
 10
10.75525555555555
 20
3.894113888888888
 10
10.75525555555555
 20
3.89858611111111
 10
10.74808888888889
 20
3.916488888888888
 10
10.73106111111111
 20
3.933516666666666
 10
10.70689444444444
 20
3.946933333333332
 10
10.67645
 20
3.957697222222222
 10
10.64064444444444
 20
3.964863888888888
 10
10.60303333333333
 20
3.966641666666666
 10
10.56451944444444
 20
3.964863888888888
 10
10.52958888888888
 20
3.957697222222222
 10
10.49825555555555
 20
3.946933333333332
 10
10.474075
 20
3.933516666666666
 10
10.45795
 20
3.916488888888888
 10
10.45079722222222
 20
3.89858611111111
 10
10.45079722222222
 20
3.894113888888888
 10
10.45079722222222
 20
3.890530555555555
  0
LWPOLYLINE
  5
122
330
2
100
AcDbEntity
  8
PDF_Layer 1
 62
     7
420
 16777215
370
   106
100
AcDbPolyline
 90
        2
 70
     0
 43
0.0
 10
10.45079722222222
 20
4.250488888888888
 10
10.45079722222222
 20
4.183336111111111
  0
LWPOLYLINE
  5
123
330
2
100
AcDbEntity
  8
PDF_Layer 1
 62
     7
420
 16777215
370
   106
100
AcDbPolyline
 90
        2
 70
     0
 43
0.0
 10
10.75525555555555
 20
4.183336111111111
 10
10.75525555555555
 20
4.250488888888888
  0
LWPOLYLINE
  5
124
330
2
100
AcDbEntity
  8
PDF_Layer 1
 62
     7
420
 16777215
370
   106
100
AcDbPolyline
 90
        9
 70
     0
 43
0.0
 10
10.47586666666666
 20
4.58358611111111
 10
10.47586666666666
 20
4.541502777777777
 10
10.47586666666666
 20
4.499433333333333
 10
10.47586666666666
 20
4.458238888888888
 10
10.47586666666666
 20
4.416155555555555
 10
10.47586666666666
 20
4.37496111111111
 10
10.47586666666666
 20
4.332877777777778
 10
10.47586666666666
 20
4.291683333333333
 10
10.47586666666666
 20
4.290780555555555
  0
LWPOLYLINE
  5
125
330
2
100
AcDbEntity
  8
PDF_Layer 1
 62
     7
420
 16777215
370
   106
100
AcDbPolyline
 90
        9
 70
     0
 43
0.0
 10
10.73017222222222
 20
4.290780555555555
 10
10.73017222222222
 20
4.291683333333333
 10
10.73017222222222
 20
4.332877777777778
 10
10.73017222222222
 20
4.37496111111111
 10
10.73017222222222
 20
4.416155555555555
 10
10.73017222222222
 20
4.458238888888888
 10
10.73017222222222
 20
4.499433333333333
 10
10.73017222222222
 20
4.541502777777777
 10
10.73017222222222
 20
4.58358611111111
  0
LWPOLYLINE
  5
126
330
2
100
AcDbEntity
  8
PDF_Layer 1
 62
     7
420
 16777215
370
   106
100
AcDbPolyline
 90
       46
 70
     0
 43
0.0
 10
10.67913055555555
 20
2.545586111111111
 10
10.67913055555555
 20
2.488280555555555
 10
10.67824166666667
 20
2.487391666666666
 10
10.67645
 20
2.482016666666666
 10
10.67286666666666
 20
2.477530555555555
 10
10.67018611111111
 20
2.47396111111111
 10
10.6657
 20
2.470363888888888
 10
10.66033888888889
 20
2.4641
 10
10.65585277777778
 20
2.457849999999999
 10
10.65138055555555
 20
2.451558333333332
 10
10.64779722222222
 20
2.444405555555555
 10
10.64421388888889
 20
2.437238888888888
 10
10.64242222222222
 20
2.429183333333333
 10
10.64151944444444
 20
2.421113888888888
 10
10.64064444444444
 20
2.413072222222222
 10
10.64064444444444
 20
2.126530555555556
 10
10.64421388888889
 20
2.126530555555556
 10
10.65675555555555
 20
2.126530555555556
 10
10.67645
 20
2.126530555555556
 10
10.70421388888889
 20
2.126530555555556
 10
10.737325
 20
2.126530555555556
 10
10.77495
 20
2.126530555555556
 10
10.81524166666667
 20
2.126530555555556
 10
10.85643611111111
 20
2.126530555555556
 10
10.89672777777778
 20
2.126530555555556
 10
10.93345
 20
2.126530555555556
 10
10.96567222222222
 20
2.126530555555556
 10
10.99164444444444
 20
2.126530555555556
 10
11.00954722222222
 20
2.126530555555556
 10
11.02031111111111
 20
2.126530555555556
 10
11.022075
 20
2.126530555555556
 10
11.022075
 20
2.413072222222222
 10
11.02118611111111
 20
2.421113888888888
 10
11.02031111111111
 20
2.429183333333333
 10
11.01760277777778
 20
2.437238888888888
 10
11.01492222222222
 20
2.444405555555555
 10
11.01133888888889
 20
2.451558333333332
 10
11.00686666666667
 20
2.457849999999999
 10
11.00238055555555
 20
2.4641
 10
10.99611666666666
 20
2.470363888888888
 10
10.99254722222222
 20
2.47396111111111
 10
10.98985277777777
 20
2.477530555555555
 10
10.98625555555555
 20
2.482016666666666
 10
10.98447777777778
 20
2.487391666666666
 10
10.983575
 20
2.488280555555555
 10
10.983575
 20
2.545586111111111
  0
LWPOLYLINE
  5
127
330
2
100
AcDbEntity
  8
PDF_Layer 1
 62
     7
420
 16777215
370
   106
100
AcDbPolyline
 90
        2
 70
     1
 43
0.0
 10
10.67913055555555
 20
2.012808333333333
 10
10.67913055555555
 20
2.126530555555556
  0
LWPOLYLINE
  5
128
330
2
100
AcDbEntity
  8
PDF_Layer 1
 62
     7
420
 16777215
370
   106
100
AcDbPolyline
 90
       16
 70
     0
 43
0.0
 10
10.67913055555555
 20
0.9973777777777783
 10
10.67913055555555
 20
0.2362666666666673
 10
10.68092222222222
 20
0.2362666666666673
 10
10.69167222222222
 20
0.2362666666666673
 10
10.71136666666666
 20
0.2362666666666673
 10
10.73913055555555
 20
0.2362666666666673
 10
10.77225555555555
 20
0.2362666666666673
 10
10.80897777777777
 20
0.2362666666666673
 10
10.84658888888889
 20
0.2362666666666673
 10
10.8842
 20
0.2362666666666673
 10
10.91821388888889
 20
0.2362666666666673
 10
10.94597777777778
 20
0.2362666666666673
 10
10.96746388888889
 20
0.2362666666666673
 10
10.98000555555555
 20
0.2362666666666673
 10
10.983575
 20
0.2362666666666673
 10
10.983575
 20
0.9973777777777783
  0
LWPOLYLINE
  5
12A
330
2
100
AcDbEntity
  8
PDF_Layer 1
 62
     7
420
 16777215
370
   106
100
AcDbPolyline
 90
        2
 70
     1
 43
0.0
 10
10.983575
 20
2.126530555555556
 10
10.983575
 20
2.012808333333333
  0
LWPOLYLINE
  5
12C
330
2
100
AcDbEntity
  8
PDF_Layer 1
 62
     7
420
 16777215
370
   106
100
AcDbPolyline
 90
       38
 70
     1
 43
0.0
 10
10.62093611111111
 20
2.90108611111111
 10
10.621825
 20
2.90108611111111
 10
10.63167222222222
 20
2.90108611111111
 10
10.65047777777778
 20
2.90108611111111
 10
10.67733888888889
 20
2.90108611111111
 10
10.71047777777778
 20
2.90108611111111
 10
10.74897777777778
 20
2.90108611111111
 10
10.791075
 20
2.90108611111111
 10
10.83495
 20
2.90108611111111
 10
10.87881111111111
 20
2.90108611111111
 10
10.92000555555555
 20
2.90108611111111
 10
10.95761666666666
 20
2.90108611111111
 10
10.98985277777777
 20
2.90108611111111
 10
11.015825
 20
2.90108611111111
 10
11.03283888888889
 20
2.90108611111111
 10
11.04089444444444
 20
2.90108611111111
 10
11.04178333333333
 20
2.90108611111111
 10
11.04715833333333
 20
2.906447222222221
 10
11.04715833333333
 20
3.388183333333333
 10
11.04178333333333
 20
3.393572222222222
 10
11.04089444444444
 20
3.393572222222222
 10
11.03283888888889
 20
3.393572222222222
 10
11.015825
 20
3.393572222222222
 10
10.98985277777777
 20
3.393572222222222
 10
10.95761666666666
 20
3.393572222222222
 10
10.92000555555555
 20
3.393572222222222
 10
10.87881111111111
 20
3.393572222222222
 10
10.83495
 20
3.393572222222222
 10
10.791075
 20
3.393572222222222
 10
10.74897777777778
 20
3.393572222222222
 10
10.71047777777778
 20
3.393572222222222
 10
10.67733888888889
 20
3.393572222222222
 10
10.65047777777778
 20
3.393572222222222
 10
10.63167222222222
 20
3.393572222222222
 10
10.621825
 20
3.393572222222222
 10
10.62093611111111
 20
3.393572222222222
 10
10.61556111111111
 20
3.388183333333333
 10
10.61556111111111
 20
2.906447222222221
  0
LWPOLYLINE
  5
132
330
2
100
AcDbEntity
  8
PDF_Layer 1
 62
     7
420
 16777215
370
   106
100
AcDbPolyline
 90
       82
 70
     1
 43
0.0
 10
9.991436111111111
 20
4.939086111111111
 10
9.992338888888887
 20
4.935488888888889
 10
9.993227777777777
 20
4.932808333333333
 10
9.995019444444444
 20
4.929238888888888
 10
9.99681111111111
 20
4.926544444444443
 10
9.999505555555554
 20
4.924766666666665
 10
10.003075
 20
4.92296111111111
 10
10.00576944444444
 20
4.922058333333333
 10
10.00933888888889
 20
4.921169444444444
 10
10.01024166666667
 20
4.921169444444444
 10
10.01203333333333
 20
4.921169444444444
 10
10.01563055555555
 20
4.921169444444444
 10
10.02010277777777
 20
4.921169444444444
 10
10.08008888888889
 20
4.921169444444444
 10
10.14365833333333
 20
4.921169444444444
 10
10.21261666666666
 20
4.921169444444444
 10
10.28514444444444
 20
4.921169444444444
 10
10.35945
 20
4.921169444444444
 10
10.43467222222222
 20
4.921169444444444
 10
10.51079722222222
 20
4.921169444444444
 10
10.58511666666666
 20
4.921169444444444
 10
10.65854722222222
 20
4.921169444444444
 10
10.72838055555555
 20
4.921169444444444
 10
10.79464444444444
 20
4.921169444444444
 10
10.85643611111111
 20
4.921169444444444
 10
10.91195
 20
4.921169444444444
 10
10.96208888888889
 20
4.921169444444444
 10
11.00417222222222
 20
4.921169444444444
 10
11.03821388888889
 20
4.921169444444444
 10
11.065075
 20
4.921169444444444
 10
11.08297777777778
 20
4.921169444444444
 10
11.09193611111111
 20
4.921169444444444
 10
11.092825
 20
4.921169444444444
 10
11.09640833333333
 20
4.922058333333333
 10
11.09908888888889
 20
4.92296111111111
 10
11.10267222222222
 20
4.924766666666665
 10
11.10536666666666
 20
4.926544444444443
 10
11.10714444444444
 20
4.929238888888888
 10
11.10893611111111
 20
4.932808333333333
 10
11.10985277777778
 20
4.935488888888889
 10
11.11072777777778
 20
4.939086111111111
 10
11.11072777777778
 20
5.030419444444444
 10
11.10985277777778
 20
5.033988888888888
 10
11.10893611111111
 20
5.03758611111111
 10
11.10714444444444
 20
5.040266666666666
 10
11.10536666666666
 20
5.04296111111111
 10
11.10267222222222
 20
5.045641666666666
 10
11.09908888888889
 20
5.047433333333333
 10
11.09640833333333
 20
5.048322222222221
 10
11.092825
 20
5.048322222222221
 10
11.09193611111111
 20
5.048322222222221
 10
11.08297777777778
 20
5.048322222222221
 10
11.065075
 20
5.048322222222221
 10
11.03821388888889
 20
5.048322222222221
 10
11.00417222222222
 20
5.048322222222221
 10
10.96208888888889
 20
5.048322222222221
 10
10.91195
 20
5.048322222222221
 10
10.85643611111111
 20
5.048322222222221
 10
10.79464444444444
 20
5.048322222222221
 10
10.72838055555555
 20
5.048322222222221
 10
10.65854722222222
 20
5.048322222222221
 10
10.58511666666666
 20
5.048322222222221
 10
10.51079722222222
 20
5.048322222222221
 10
10.43467222222222
 20
5.048322222222221
 10
10.35945
 20
5.048322222222221
 10
10.28514444444444
 20
5.048322222222221
 10
10.21261666666666
 20
5.048322222222221
 10
10.14365833333333
 20
5.048322222222221
 10
10.08008888888889
 20
5.048322222222221
 10
10.02010277777777
 20
5.048322222222221
 10
10.01563055555555
 20
5.048322222222221
 10
10.01203333333333
 20
5.048322222222221
 10
10.01024166666667
 20
5.048322222222221
 10
10.00933888888889
 20
5.048322222222221
 10
10.00576944444444
 20
5.048322222222221
 10
10.003075
 20
5.047433333333333
 10
9.999505555555554
 20
5.045641666666666
 10
9.99681111111111
 20
5.04296111111111
 10
9.995019444444444
 20
5.040266666666666
 10
9.993227777777777
 20
5.03758611111111
 10
9.992338888888887
 20
5.033988888888888
 10
9.991436111111111
 20
5.030419444444444
  0
LWPOLYLINE
  5
138
330
2
100
AcDbEntity
  8
PDF_Layer 1
 62
     7
420
 16777215
370
   106
100
AcDbPolyline
 90
       42
 70
     0
 43
0.0
 10
10.60929722222222
 20
4.921169444444444
 10
10.60929722222222
 20
4.878197222222222
 10
10.60929722222222
 20
4.877294444444443
 10
10.61018611111111
 20
4.875516666666666
 10
10.61018611111111
 20
4.873711111111111
 10
10.61108888888889
 20
4.872822222222222
 10
10.61288055555555
 20
4.871919444444444
 10
10.61376944444444
 20
4.871030555555555
 10
10.61556111111111
 20
4.871030555555555
 10
10.61645
 20
4.871030555555555
 10
10.621825
 20
4.871030555555555
 10
10.63526944444444
 20
4.871030555555555
 10
10.65764444444444
 20
4.871030555555555
 10
10.68808888888889
 20
4.871030555555555
 10
10.72390833333333
 20
4.871030555555555
 10
10.76510277777777
 20
4.871030555555555
 10
10.80897777777777
 20
4.871030555555555
 10
10.85374166666666
 20
4.871030555555555
 10
10.89763055555555
 20
4.871030555555555
 10
10.93881111111111
 20
4.871030555555555
 10
10.97461666666666
 20
4.871030555555555
 10
11.005075
 20
4.871030555555555
 10
11.02746388888889
 20
4.871030555555555
 10
11.04089444444444
 20
4.871030555555555
 10
11.04536666666666
 20
4.871030555555555
 10
11.04715833333333
 20
4.871030555555555
 10
11.04895
 20
4.871030555555555
 10
11.04983888888889
 20
4.871919444444444
 10
11.05074166666667
 20
4.872822222222222
 10
11.05253333333333
 20
4.873711111111111
 10
11.05253333333333
 20
4.875516666666666
 10
11.05342222222222
 20
4.877294444444443
 10
11.05342222222222
 20
4.878197222222222
 10
11.05342222222222
 20
4.914002777777777
 10
11.05342222222222
 20
4.915794444444443
 10
11.054325
 20
4.916697222222222
 10
11.054325
 20
4.918488888888888
 10
11.05521388888889
 20
4.919377777777777
 10
11.05700555555555
 20
4.920294444444444
 10
11.05790833333333
 20
4.921169444444444
 10
11.05968611111111
 20
4.921169444444444
 10
11.06058888888889
 20
4.921169444444444
  0
LWPOLYLINE
  5
13D
330
2
100
AcDbEntity
  8
PDF_Layer 1
 62
     7
420
 16777215
370
   106
100
AcDbPolyline
 90
       48
 70
     1
 43
0.0
 10
9.850852777777777
 20
5.175488888888888
 10
9.890255555555555
 20
5.175488888888888
 10
9.936824999999998
 20
5.175488888888888
 10
9.990547222222222
 20
5.175488888888888
 10
10.05053333333333
 20
5.175488888888888
 10
10.11590833333333
 20
5.175488888888888
 10
10.18575555555555
 20
5.175488888888888
 10
10.260075
 20
5.175488888888888
 10
10.33528333333333
 20
5.175488888888888
 10
10.4132
 20
5.175488888888888
 10
10.49108888888889
 20
5.175488888888888
 10
10.56899166666666
 20
5.175488888888888
 10
10.64511666666666
 20
5.175488888888888
 10
10.71853333333333
 20
5.175488888888888
 10
10.78749166666666
 20
5.175488888888888
 10
10.85285277777777
 20
5.175488888888888
 10
10.91283888888889
 20
5.175488888888888
 10
10.966575
 20
5.175488888888888
 10
11.01313055555555
 20
5.175488888888888
 10
11.05163055555555
 20
5.175488888888888
 10
11.08297777777778
 20
5.175488888888888
 10
11.10536666666666
 20
5.175488888888888
 10
11.11879722222222
 20
5.175488888888888
 10
11.12328333333333
 20
5.175488888888888
 10
11.12328333333333
 20
5.226502777777777
 10
11.11879722222222
 20
5.226502777777777
 10
11.10536666666666
 20
5.226502777777777
 10
11.08297777777778
 20
5.226502777777777
 10
11.05163055555555
 20
5.226502777777777
 10
11.01313055555555
 20
5.226502777777777
 10
10.966575
 20
5.226502777777777
 10
10.91283888888889
 20
5.226502777777777
 10
10.85285277777777
 20
5.226502777777777
 10
10.78749166666666
 20
5.226502777777777
 10
10.71853333333333
 20
5.226502777777777
 10
10.64511666666666
 20
5.226502777777777
 10
10.56899166666666
 20
5.226502777777777
 10
10.49108888888889
 20
5.226502777777777
 10
10.4132
 20
5.226502777777777
 10
10.33528333333333
 20
5.226502777777777
 10
10.260075
 20
5.226502777777777
 10
10.18575555555555
 20
5.226502777777777
 10
10.11590833333333
 20
5.226502777777777
 10
10.05053333333333
 20
5.226502777777777
 10
9.990547222222222
 20
5.226502777777777
 10
9.936824999999998
 20
5.226502777777777
 10
9.890255555555555
 20
5.226502777777777
 10
9.850852777777777
 20
5.226502777777777
  0
LWPOLYLINE
  5
13E
330
2
100
AcDbEntity
  8
PDF_Layer 1
 62
     7
420
 16777215
370
   106
100
AcDbPolyline
 90
        2
 70
     0
 43
0.0
 10
10.69167222222222
 20
4.871030555555555
 10
10.69167222222222
 20
4.743877777777777
  0
LWPOLYLINE
  5
13F
330
2
100
AcDbEntity
  8
PDF_Layer 1
 62
     7
420
 16777215
370
   106
100
AcDbPolyline
 90
        2
 70
     0
 43
0.0
 10
10.97106111111111
 20
3.596822222222221
 10
10.97106111111111
 20
4.363322222222222
  0
LWPOLYLINE
  5
140
330
2
100
AcDbEntity
  8
PDF_Layer 1
 62
     7
420
 16777215
370
   106
100
AcDbPolyline
 90
        2
 70
     0
 43
0.0
 10
10.97106111111111
 20
4.743877777777777
 10
10.97106111111111
 20
4.871030555555555
  0
LWPOLYLINE
  5
141
330
2
100
AcDbEntity
  8
PDF_Layer 1
 62
     7
420
 16777215
370
   106
100
AcDbPolyline
 90
        2
 70
     0
 43
0.0
 10
10.97106111111111
 20
5.048322222222221
 10
10.97106111111111
 20
5.175488888888888
  0
LWPOLYLINE
  5
142
330
2
100
AcDbEntity
  8
PDF_Layer 1
 62
     7
420
 16777215
370
   106
100
AcDbPolyline
 90
        2
 70
     0
 43
0.0
 10
10.97106111111111
 20
5.226502777777777
 10
10.97106111111111
 20
5.352766666666666
  0
LWPOLYLINE
  5
143
330
2
100
AcDbEntity
  8
PDF_Layer 1
 62
     7
420
 16777215
370
   106
100
AcDbPolyline
 90
        2
 70
     0
 43
0.0
 10
10.97106111111111
 20
5.81033611111111
 10
10.97106111111111
 20
5.924058333333332
  0
LWPOLYLINE
  5
144
330
2
100
AcDbEntity
  8
PDF_Layer 1
 62
     7
420
 16777215
370
   106
100
AcDbPolyline
 90
       32
 70
     1
 43
0.0
 10
9.434477777777777
 20
5.670655555555555
 10
9.438074999999999
 20
5.670655555555555
 10
9.451491666666665
 20
5.670655555555555
 10
9.474769444444444
 20
5.670655555555555
 10
9.507005555555554
 20
5.670655555555555
 10
9.546408333333333
 20
5.670655555555555
 10
9.59118611111111
 20
5.670655555555555
 10
9.637755555555555
 20
5.670655555555555
 10
11.46622777777777
 20
5.670655555555555
 10
11.51368611111111
 20
5.670655555555555
 10
11.55756111111111
 20
5.670655555555555
 10
11.59695
 20
5.670655555555555
 10
11.62918611111111
 20
5.670655555555555
 10
11.65336666666666
 20
5.670655555555555
 10
11.66678333333333
 20
5.670655555555555
 10
11.66949166666666
 20
5.670655555555555
 10
11.66949166666666
 20
5.796905555555555
 10
11.66678333333333
 20
5.796905555555555
 10
11.65336666666666
 20
5.796905555555555
 10
11.62918611111111
 20
5.796905555555555
 10
11.59695
 20
5.796905555555555
 10
11.55756111111111
 20
5.796905555555555
 10
11.51368611111111
 20
5.796905555555555
 10
11.46622777777777
 20
5.796905555555555
 10
9.637755555555555
 20
5.796905555555555
 10
9.59118611111111
 20
5.796905555555555
 10
9.546408333333333
 20
5.796905555555555
 10
9.507005555555554
 20
5.796905555555555
 10
9.474769444444444
 20
5.796905555555555
 10
9.451491666666665
 20
5.796905555555555
 10
9.438074999999999
 20
5.796905555555555
 10
9.434477777777777
 20
5.796905555555555
  0
LWPOLYLINE
  5
146
330
2
100
AcDbEntity
  8
PDF_Layer 1
 62
     7
420
 16777215
370
   106
100
AcDbPolyline
 90
       28
 70
     0
 43
0.0
 10
10.00667222222222
 20
5.556044444444443
 10
10.00667222222222
 20
5.352766666666666
 10
10.00846388888889
 20
5.352766666666666
 10
10.02010277777777
 20
5.352766666666666
 10
10.03979722222222
 20
5.352766666666666
 10
10.06843611111111
 20
5.352766666666666
 10
10.10425555555555
 20
5.352766666666666
 10
10.14814444444444
 20
5.352766666666666
 10
10.19828333333333
 20
5.352766666666666
 10
10.2547
 20
5.352766666666666
 10
10.31558888888889
 20
5.352766666666666
 10
10.38006111111111
 20
5.352766666666666
 10
10.44811666666666
 20
5.352766666666666
 10
10.51706111111111
 20
5.352766666666666
 10
10.58689444444444
 20
5.352766666666666
 10
10.65675555555555
 20
5.352766666666666
 10
10.72390833333333
 20
5.352766666666666
 10
10.78926944444444
 20
5.352766666666666
 10
10.85017222222222
 20
5.352766666666666
 10
10.90568611111111
 20
5.352766666666666
 10
10.955825
 20
5.352766666666666
 10
10.9997
 20
5.352766666666666
 10
11.03550555555555
 20
5.352766666666666
 10
11.06417222222222
 20
5.352766666666666
 10
11.08388055555555
 20
5.352766666666666
 10
11.09551944444444
 20
5.352766666666666
 10
11.0982
 20
5.352766666666666
 10
11.0982
 20
5.556044444444443
  0
LWPOLYLINE
  5
148
330
2
100
AcDbEntity
  8
PDF_Layer 1
 62
     7
420
 16777215
370
   106
100
AcDbPolyline
 90
       28
 70
     0
 43
0.0
 10
11.13581111111111
 20
5.796905555555555
 10
11.13581111111111
 20
5.81033611111111
 10
11.13133888888889
 20
5.81033611111111
 10
11.11789444444444
 20
5.81033611111111
 10
11.09461666666667
 20
5.81033611111111
 10
11.06326944444444
 20
5.81033611111111
 10
11.02478333333333
 20
5.81033611111111
 10
10.97731111111111
 20
5.81033611111111
 10
10.92449166666666
 20
5.81033611111111
 10
10.86449166666666
 20
5.81033611111111
 10
10.80092222222222
 20
5.81033611111111
 10
10.73285277777777
 20
5.81033611111111
 10
10.66122777777778
 20
5.81033611111111
 10
10.5887
 20
5.81033611111111
 10
10.51526944444444
 20
5.81033611111111
 10
10.44275555555555
 20
5.81033611111111
 10
10.37200555555555
 20
5.81033611111111
 10
10.30395
 20
5.81033611111111
 10
10.23947777777777
 20
5.81033611111111
 10
10.18038055555555
 20
5.81033611111111
 10
10.12665833333333
 20
5.81033611111111
 10
10.08008888888889
 20
5.81033611111111
 10
10.04068611111111
 20
5.81033611111111
 10
10.00933888888889
 20
5.81033611111111
 10
9.986963888888888
 20
5.81033611111111
 10
9.972644444444444
 20
5.81033611111111
 10
9.968172222222221
 20
5.81033611111111
 10
9.968172222222221
 20
5.796905555555555
  0
LWPOLYLINE
  5
14A
330
2
100
AcDbEntity
  8
PDF_Layer 1
 62
     7
420
 16777215
370
   106
100
AcDbPolyline
 90
       30
 70
     0
 43
0.0
 10
9.904574999999999
 20
5.93658611111111
 10
9.904574999999999
 20
5.924058333333332
 10
9.907269444444445
 20
5.924058333333332
 10
9.917130555555555
 20
5.924058333333332
 10
9.936824999999998
 20
5.924058333333332
 10
9.965463888888889
 20
5.924058333333332
 10
10.00128333333333
 20
5.924058333333332
 10
10.04606111111111
 20
5.924058333333332
 10
10.09710277777777
 20
5.924058333333332
 10
10.15442222222222
 20
5.924058333333332
 10
10.21799166666666
 20
5.924058333333332
 10
10.28603333333333
 20
5.924058333333332
 10
10.35768611111111
 20
5.924058333333332
 10
10.43199166666666
 20
5.924058333333332
 10
10.50811666666666
 20
5.924058333333332
 10
10.58422777777778
 20
5.924058333333332
 10
10.66122777777778
 20
5.924058333333332
 10
10.73554722222222
 20
5.924058333333332
 10
10.808075
 20
5.924058333333332
 10
10.87613055555555
 20
5.924058333333332
 10
10.94060277777778
 20
5.924058333333332
 10
10.99881111111111
 20
5.924058333333332
 10
11.05074166666667
 20
5.924058333333332
 10
11.09640833333333
 20
5.924058333333332
 10
11.13400555555555
 20
5.924058333333332
 10
11.163575
 20
5.924058333333332
 10
11.18415833333333
 20
5.924058333333332
 10
11.19579722222222
 20
5.924058333333332
 10
11.19938055555555
 20
5.924058333333332
 10
11.19938055555555
 20
5.93658611111111
  0
LWPOLYLINE
  5
14C
330
2
100
AcDbEntity
  8
PDF_Layer 1
 62
     7
420
 16777215
370
   106
100
AcDbPolyline
 90
       74
 70
     1
 43
0.0
 10
9.854436111111111
 20
5.93658611111111
 10
9.856241666666665
 20
5.93658611111111
 10
9.866963888888887
 20
5.93658611111111
 10
9.887575
 20
5.93658611111111
 10
9.916213888888888
 20
5.93658611111111
 10
9.95293611111111
 20
5.93658611111111
 10
9.997713888888888
 20
5.93658611111111
 10
10.04964444444444
 20
5.93658611111111
 10
10.10785277777777
 20
5.93658611111111
 10
10.172325
 20
5.93658611111111
 10
10.24128333333333
 20
5.93658611111111
 10
10.3147
 20
5.93658611111111
 10
10.39079722222222
 20
5.93658611111111
 10
10.46960277777778
 20
5.93658611111111
 10
10.54929722222222
 20
5.93658611111111
 10
10.62808888888889
 20
5.93658611111111
 10
10.70689444444444
 20
5.93658611111111
 10
10.78390833333333
 20
5.93658611111111
 10
10.857325
 20
5.93658611111111
 10
10.92715833333333
 20
5.93658611111111
 10
10.99164444444444
 20
5.93658611111111
 10
11.05074166666667
 20
5.93658611111111
 10
11.10267222222222
 20
5.93658611111111
 10
11.14833888888889
 20
5.93658611111111
 10
11.18595
 20
5.93658611111111
 10
11.21460277777778
 20
5.93658611111111
 10
11.2352
 20
5.93658611111111
 10
11.24683888888889
 20
5.93658611111111
 10
11.25042222222222
 20
5.93658611111111
 10
11.25042222222222
 20
6.164933333333332
 10
11.24951944444444
 20
6.170294444444444
 10
11.24774166666666
 20
6.174780555555555
 10
11.24595
 20
6.179252777777777
 10
11.24236666666666
 20
6.18283611111111
 10
11.23878333333333
 20
6.186419444444443
 10
11.23431111111111
 20
6.189113888888888
 10
11.229825
 20
6.190002777777777
 10
11.22446388888889
 20
6.190891666666666
 10
11.22354722222222
 20
6.190891666666666
 10
11.2137
 20
6.190891666666666
 10
11.19490833333333
 20
6.190891666666666
 10
11.16714444444444
 20
6.190891666666666
 10
11.13133888888889
 20
6.190891666666666
 10
11.08835277777777
 20
6.190891666666666
 10
11.03731111111111
 20
6.190891666666666
 10
10.98000555555555
 20
6.190891666666666
 10
10.91642222222222
 20
6.190891666666666
 10
10.84838055555555
 20
6.190891666666666
 10
10.77672777777777
 20
6.190891666666666
 10
10.70151944444444
 20
6.190891666666666
 10
10.62450555555555
 20
6.190891666666666
 10
10.54661666666667
 20
6.190891666666666
 10
10.46781111111111
 20
6.190891666666666
 10
10.39079722222222
 20
6.190891666666666
 10
10.31649166666666
 20
6.190891666666666
 10
10.24485277777777
 20
6.190891666666666
 10
10.1777
 20
6.190891666666666
 10
10.11501944444444
 20
6.190891666666666
 10
10.05860277777777
 20
6.190891666666666
 10
10.00933888888889
 20
6.190891666666666
 10
9.966380555555556
 20
6.190891666666666
 10
9.932352777777778
 20
6.190891666666666
 10
9.906366666666666
 20
6.190891666666666
 10
9.888463888888889
 20
6.190891666666666
 10
9.880408333333333
 20
6.190891666666666
 10
9.879519444444444
 20
6.190891666666666
 10
9.874144444444445
 20
6.190002777777777
 10
9.869672222222222
 20
6.189113888888888
 10
9.865199999999999
 20
6.186419444444443
 10
9.861602777777777
 20
6.18283611111111
 10
9.858019444444444
 20
6.179252777777777
 10
9.856241666666665
 20
6.174780555555555
 10
9.854436111111111
 20
6.170294444444444
 10
9.854436111111111
 20
6.164933333333332
  0
LWPOLYLINE
  5
152
330
2
100
AcDbEntity
  8
PDF_Layer 1
 62
     7
420
 16777215
370
   106
100
AcDbPolyline
 90
       48
 70
     0
 43
0.0
 10
5.721130555555555
 20
11.60021111111111
 10
8.402047222222222
 20
11.60021111111111
 10
8.402047222222222
 20
11.60737777777778
 10
8.402047222222222
 20
11.62348888888889
 10
8.402047222222222
 20
11.64766944444444
 10
8.402047222222222
 20
11.67990555555555
 10
8.402047222222222
 20
11.72019722222222
 10
8.402047222222222
 20
11.76586388888889
 10
8.402047222222222
 20
11.81601666666666
 10
8.402047222222222
 20
11.87062777777778
 10
8.402047222222222
 20
11.92704444444444
 10
8.402047222222222
 20
11.98435
 10
8.402047222222222
 20
12.04076666666666
 10
8.402047222222222
 20
12.09448888888889
 10
8.402047222222222
 20
12.14553055555555
 10
8.402047222222222
 20
12.19119722222222
 10
8.402047222222222
 20
12.2306
 10
8.402047222222222
 20
12.26283611111111
 10
8.402047222222222
 20
12.28790555555555
 10
8.402047222222222
 20
12.30401666666666
 10
8.402047222222222
 20
12.31029444444444
 10
8.402047222222222
 20
12.31118333333333
 10
4.986866666666667
 20
12.31118333333333
 10
4.984172222222222
 20
12.31029444444444
 10
4.982394444444445
 20
12.31029444444444
 10
4.9797
 20
12.30939166666666
 10
4.977908333333333
 20
12.3076
 10
4.977019444444444
 20
12.30580833333333
 10
4.975227777777778
 20
12.30401666666666
 10
4.974325
 20
12.30223888888889
 10
4.974325
 20
12.29954444444444
 10
4.963588888888889
 20
12.214475
 10
4.956422222222222
 20
12.12851666666666
 10
4.95195
 20
12.04165555555555
 10
4.950158333333333
 20
11.95569722222222
 10
4.95195
 20
11.86883611111111
 10
4.956422222222222
 20
11.78287777777778
 10
4.963588888888889
 20
11.69691944444444
 10
4.974325
 20
11.61096111111111
 10
4.974325
 20
11.60916944444444
 10
4.975227777777778
 20
11.606475
 10
4.977019444444444
 20
11.60468333333333
 10
4.977908333333333
 20
11.60289166666666
 10
4.9797
 20
11.60200277777778
 10
4.982394444444445
 20
11.60111388888889
 10
4.984172222222222
 20
11.60021111111111
 10
4.986866666666667
 20
11.60021111111111
 10
5.117602777777777
 20
11.60021111111111
  0
LWPOLYLINE
  5
156
330
2
100
AcDbEntity
  8
PDF_Layer 1
 62
     7
420
 16777215
370
   106
100
AcDbPolyline
 90
       26
 70
     0
 43
0.0
 10
5.114908333333333
 20
11.60200277777778
 10
5.114908333333333
 20
11.58140555555555
 10
5.1167
 20
11.58140555555555
 10
5.121186111111112
 20
11.58140555555555
 10
5.129241666666666
 20
11.58140555555555
 10
5.140880555555555
 20
11.58140555555555
 10
5.140880555555555
 20
11.49903055555555
 10
5.166852777777777
 20
11.49903055555555
 10
5.200880555555555
 20
11.49903055555555
 10
5.242061111111111
 20
11.49903055555555
 10
5.288616666666666
 20
11.49903055555555
 10
5.338769444444444
 20
11.49903055555555
 10
5.392491666666667
 20
11.49903055555555
 10
5.447116666666667
 20
11.49903055555555
 10
5.499949999999999
 20
11.49903055555555
 10
5.550991666666667
 20
11.49903055555555
 10
5.597547222222222
 20
11.49903055555555
 10
5.638741666666667
 20
11.49903055555555
 10
5.672769444444445
 20
11.49903055555555
 10
5.698741666666666
 20
11.49903055555555
 10
5.698741666666666
 20
11.58140555555555
 10
5.710380555555556
 20
11.58140555555555
 10
5.717547222222222
 20
11.58140555555555
 10
5.722908333333333
 20
11.58140555555555
 10
5.7247
 20
11.58140555555555
 10
5.7247
 20
11.60289166666666
  0
LWPOLYLINE
  5
158
330
2
100
AcDbEntity
  8
PDF_Layer 1
 62
     7
420
 16777215
370
   106
100
AcDbPolyline
 90
        8
 70
     1
 43
0.0
 10
8.56681111111111
 20
11.606475
 10
8.56681111111111
 20
11.60737777777778
 10
8.56681111111111
 20
11.60826666666666
 10
8.56681111111111
 20
11.61005833333333
 10
8.427130555555555
 20
11.61005833333333
 10
8.427130555555555
 20
11.60826666666666
 10
8.427130555555555
 20
11.60737777777778
 10
8.427130555555555
 20
11.606475
  0
LWPOLYLINE
  5
15F
330
2
100
AcDbEntity
  8
PDF_Layer 1
 62
     7
420
 16777215
370
   106
100
AcDbPolyline
 90
        3
 70
     0
 43
0.0
 10
10.66390833333333
 20
2.90108611111111
 10
10.64331111111111
 20
2.889433333333333
 10
10.64331111111111
 20
2.697808333333333
  0
LWPOLYLINE
  5
160
330
2
100
AcDbEntity
  8
PDF_Layer 1
 62
     7
420
 16777215
370
   106
100
AcDbPolyline
 90
        3
 70
     0
 43
0.0
 10
11.01939444444444
 20
2.697808333333333
 10
11.01939444444444
 20
2.889433333333333
 10
10.99881111111111
 20
2.90108611111111
  0
LWPOLYLINE
  5
169
330
2
100
AcDbEntity
  8
PDF_Layer 1
 62
     7
420
 16777215
370
   106
100
AcDbPolyline
 90
        2
 70
     0
 43
0.0
 10
8.432491666666667
 20
12.30491944444444
 10
8.402047222222222
 20
12.30491944444444
  0
LWPOLYLINE
  5
16A
330
2
100
AcDbEntity
  8
PDF_Layer 1
 62
     7
420
 16777215
370
   106
100
AcDbPolyline
 90
       16
 70
     0
 43
0.0
 10
8.402047222222222
 20
11.61453055555555
 10
8.403838888888888
 20
11.61273888888889
 10
8.407422222222223
 20
11.61185
 10
8.412797222222222
 20
11.61096111111111
 10
8.419963888888888
 20
11.61096111111111
 10
8.424436111111111
 20
11.61096111111111
 10
8.539047222222222
 20
11.61096111111111
 10
8.55695
 20
11.61005833333333
 10
8.572186111111111
 20
11.60916944444444
 10
8.584713888888888
 20
11.60737777777778
 10
8.590977777777776
 20
11.606475
 10
8.591880555555555
 20
11.606475
 10
8.617838888888888
 20
11.606475
 10
8.617838888888888
 20
11.60737777777778
 10
8.617838888888888
 20
11.60916944444444
 10
8.617838888888888
 20
11.61096111111111
  0
LWPOLYLINE
  5
16B
330
2
100
AcDbEntity
  8
PDF_Layer 1
 62
     7
420
 16777215
370
   106
100
AcDbPolyline
 90
       30
 70
     0
 43
0.0
 10
10.90747777777778
 20
8.563794444444443
 10
10.90747777777778
 20
10.86416944444444
 42
0.4139780819933016
 10
9.460449999999999
 20
12.31118333333333
 10
8.432491666666667
 20
12.31118333333333
 10
8.432491666666667
 20
12.30580833333333
 10
8.432491666666667
 20
12.29239166666666
 10
8.432491666666667
 20
12.27000277777777
 10
8.432491666666667
 20
12.24044722222222
 10
8.432491666666667
 20
12.20283611111111
 10
8.432491666666667
 20
12.15807222222222
 10
8.432491666666667
 20
12.10882222222222
 10
8.432491666666667
 20
12.05598888888889
 10
8.432491666666667
 20
12.00046111111111
 10
8.432491666666667
 20
11.94315555555555
 10
8.432491666666667
 20
11.88675277777778
 10
8.432491666666667
 20
11.83212777777778
 10
8.432491666666667
 20
11.78019722222222
 10
8.432491666666667
 20
11.73273888888889
 10
8.432491666666667
 20
11.69154444444444
 10
8.432491666666667
 20
11.65662777777778
 10
8.432491666666667
 20
11.62976666666666
 10
8.432491666666667
 20
11.61096111111111
 10
8.635755555555554
 20
11.61096111111111
 10
8.635755555555554
 20
11.606475
 10
8.635755555555554
 20
11.60289166666666
 10
8.635755555555554
 20
11.60111388888889
 10
8.635755555555554
 20
11.60021111111111
 10
9.460449999999999
 20
11.60021111111111
 42
-0.4152144978151985
 10
10.19650555555555
 20
10.86416944444444
 10
10.19650555555555
 20
8.563794444444443
  0
LWPOLYLINE
  5
171
330
2
100
AcDbEntity
  8
PDF_Layer 1
 62
     7
420
 16777215
370
   106
100
AcDbPolyline
 90
       28
 70
     0
 43
0.0
 10
11.0982
 20
8.031016666666666
 10
11.0982
 20
8.563794444444443
 10
11.09729722222222
 20
8.563794444444443
 10
11.09103333333333
 20
8.563794444444443
 10
11.07492222222222
 20
8.563794444444443
 10
11.05074166666667
 20
8.563794444444443
 10
11.01850555555555
 20
8.563794444444443
 10
10.97910277777778
 20
8.563794444444443
 10
10.93165833333333
 20
8.563794444444443
 10
10.87881111111111
 20
8.563794444444443
 10
10.81971388888889
 20
8.563794444444443
 10
10.75703333333333
 20
8.563794444444443
 10
10.69076944444444
 20
8.563794444444443
 10
10.621825
 20
8.563794444444443
 10
10.55197777777777
 20
8.563794444444443
 10
10.48213055555555
 20
8.563794444444443
 10
10.41408888888889
 20
8.563794444444443
 10
10.34693611111111
 20
8.563794444444443
 10
10.28424166666666
 20
8.563794444444443
 10
10.22604722222222
 20
8.563794444444443
 10
10.172325
 20
8.563794444444443
 10
10.12575555555555
 20
8.563794444444443
 10
10.08546388888889
 20
8.563794444444443
 10
10.05324166666667
 20
8.563794444444443
 10
10.02904722222222
 20
8.563794444444443
 10
10.01293611111111
 20
8.563794444444443
 10
10.00667222222222
 20
8.563794444444443
 10
10.00667222222222
 20
6.190891666666666
  0
LWPOLYLINE
  5
173
330
2
100
AcDbEntity
  8
PDF_Layer 1
 62
     7
420
 16777215
370
   106
100
AcDbPolyline
 90
        2
 70
     0
 43
0.0
 10
11.0982
 20
6.190891666666666
 10
11.0982
 20
6.838294444444444
  0
LWPOLYLINE
  5
174
330
2
100
AcDbEntity
  8
PDF_Layer 1
 62
     7
420
 16777215
370
   106
100
AcDbPolyline
 90
       28
 70
     0
 43
0.0
 10
11.14833888888889
 20
6.888447222222222
 10
11.84678333333333
 20
6.888447222222222
 10
11.84678333333333
 20
6.891127777777777
 10
11.84678333333333
 20
6.902766666666666
 10
11.84678333333333
 20
6.92246111111111
 10
11.84678333333333
 20
6.950224999999999
 10
11.84678333333333
 20
6.986933333333332
 10
11.84678333333333
 20
7.030822222222221
 10
11.84678333333333
 20
7.08096111111111
 10
11.84678333333333
 20
7.136474999999999
 10
11.84678333333333
 20
7.197363888888888
 10
11.84678333333333
 20
7.262724999999999
 10
11.84678333333333
 20
7.329891666666666
 10
11.84678333333333
 20
7.399738888888888
 10
11.84678333333333
 20
7.469572222222222
 10
11.84678333333333
 20
7.538530555555555
 10
11.84678333333333
 20
7.606572222222221
 10
11.84678333333333
 20
7.671044444444444
 10
11.84678333333333
 20
7.731933333333333
 10
11.84678333333333
 20
7.788349999999999
 10
11.84678333333333
 20
7.838488888888888
 10
11.84678333333333
 20
7.882377777777777
 10
11.84678333333333
 20
7.918197222222222
 10
11.84678333333333
 20
7.946849999999999
 10
11.84678333333333
 20
7.966544444444443
 10
11.84678333333333
 20
7.977294444444444
 10
11.84678333333333
 20
7.979974999999999
 10
11.14833888888889
 20
7.979974999999999
  0
LWPOLYLINE
  5
176
330
2
100
AcDbEntity
  8
PDF_Layer 1
 62
     7
420
 16777215
370
   106
100
AcDbPolyline
 90
        9
 70
     0
 43
0.0
 10
11.0982
 20
8.028322222222222
 10
11.09908888888889
 20
8.019377777777776
 10
11.10178333333333
 20
8.010419444444444
 10
11.10625555555555
 20
8.002363888888888
 10
11.11251944444444
 20
7.995197222222222
 10
11.11968611111111
 20
7.988933333333332
 10
11.12775555555555
 20
7.984447222222222
 10
11.1367
 20
7.981766666666666
 10
11.14565833333333
 20
7.979974999999999
  0
LWPOLYLINE
  5
177
330
2
100
AcDbEntity
  8
PDF_Layer 1
 62
     7
420
 16777215
370
   106
100
AcDbPolyline
 90
        9
 70
     0
 43
0.0
 10
11.14565833333333
 20
6.888447222222222
 10
11.1367
 20
6.887544444444444
 10
11.12775555555555
 20
6.88396111111111
 10
11.11968611111111
 20
6.879488888888888
 10
11.11251944444444
 20
6.874113888888889
 10
11.10714444444444
 20
6.866947222222221
 10
11.10178333333333
 20
6.858891666666666
 10
11.09908888888889
 20
6.849933333333332
 10
11.0982
 20
6.840988888888889
  0
LWPOLYLINE
  5
178
330
2
100
AcDbEntity
  8
PDF_Layer 1
 62
     7
420
 16777215
370
   106
100
AcDbPolyline
 90
        2
 70
     0
 43
0.0
 10
11.86468611111111
 20
7.920877777777777
 10
11.84678333333333
 20
7.923558333333332
  0
LWPOLYLINE
  5
179
330
2
100
AcDbEntity
  8
PDF_Layer 1
 62
     7
420
 16777215
370
   106
100
AcDbPolyline
 90
        8
 70
     0
 43
0.0
 10
11.84678333333333
 20
6.944849999999999
 10
11.88349166666666
 20
6.951127777777777
 10
11.91931111111111
 20
6.959183333333332
 10
11.95513055555555
 20
6.970822222222222
 10
11.99006111111111
 20
6.984252777777777
 10
12.024075
 20
7.001266666666666
 10
12.05631111111111
 20
7.020072222222221
 10
12.05810277777778
 20
7.020072222222221
  0
LWPOLYLINE
  5
17A
330
2
100
AcDbEntity
  8
PDF_Layer 1
 62
     7
420
 16777215
370
   106
100
AcDbPolyline
 90
       62
 70
     1
 43
0.0
 10
12.44314444444444
 20
7.979974999999999
 10
12.44224166666666
 20
7.979974999999999
 10
12.428825
 20
7.977294444444444
 10
12.40553333333333
 20
7.97371111111111
 10
12.37329722222222
 20
7.970127777777777
 10
12.33658888888889
 20
7.968322222222221
 10
12.30076944444444
 20
7.970127777777777
 10
12.26853333333333
 20
7.972808333333333
 10
12.24256111111111
 20
7.976391666666666
 10
12.22733888888889
 20
7.979072222222221
 10
12.22375555555555
 20
7.979974999999999
 10
11.86468611111111
 20
7.979974999999999
 10
11.86468611111111
 20
7.975502777777776
 10
11.86468611111111
 20
7.961169444444443
 10
11.86468611111111
 20
7.938780555555554
 10
11.86468611111111
 20
7.906544444444444
 10
11.86468611111111
 20
7.867141666666666
 10
11.86468611111111
 20
7.819697222222222
 10
11.86468611111111
 20
7.76596111111111
 10
11.86468611111111
 20
7.706863888888888
 10
11.86468611111111
 20
7.643294444444443
 10
11.86468611111111
 20
7.575238888888888
 10
11.86468611111111
 20
7.505391666666666
 10
11.86468611111111
 20
7.433766666666666
 10
11.89692222222222
 20
7.36571111111111
 10
11.92826944444444
 20
7.298544444444443
 10
11.95871388888889
 20
7.233183333333332
 10
11.98736666666667
 20
7.171391666666666
 10
12.01422777777778
 20
7.113197222222221
 10
12.03931111111111
 20
7.060363888888888
 10
12.06079722222222
 20
7.013794444444444
 10
12.07958888888889
 20
6.973516666666666
 10
12.094825
 20
6.940377777777777
 10
12.10646388888889
 20
6.915308333333332
 10
12.11451944444444
 20
6.898294444444443
 10
12.11899166666666
 20
6.88933611111111
 10
12.11899166666666
 20
6.888447222222222
 10
12.49418611111111
 20
6.888447222222222
 10
12.49597777777778
 20
6.888447222222222
 10
12.49865833333333
 20
6.88933611111111
 10
12.50045
 20
6.890225
 10
12.50313055555555
 20
6.892016666666666
 10
12.50403333333333
 20
6.893808333333332
 10
12.505825
 20
6.895599999999999
 10
12.50671388888889
 20
6.898294444444443
 10
12.50671388888889
 20
6.900072222222221
 10
12.51476944444444
 20
7.033502777777776
 10
12.52015833333333
 20
7.166919444444443
 10
12.52372777777778
 20
7.301238888888888
 10
12.52463055555555
 20
7.434655555555554
 10
12.52372777777778
 20
7.568072222222221
 10
12.52015833333333
 20
7.701502777777777
 10
12.51476944444444
 20
7.834919444444444
 10
12.50671388888889
 20
7.968322222222221
 10
12.50671388888889
 20
7.971016666666666
 10
12.505825
 20
7.972808333333333
 10
12.50403333333333
 20
7.974599999999998
 10
12.50313055555555
 20
7.976391666666666
 10
12.50045
 20
7.978183333333332
 10
12.49865833333333
 20
7.979072222222221
 10
12.49597777777778
 20
7.979974999999999
 10
12.49418611111111
 20
7.979974999999999
  0
LWPOLYLINE
  5
180
330
2
100
AcDbEntity
  8
PDF_Layer 1
 62
     7
420
 16777215
370
   106
100
AcDbPolyline
 90
        7
 70
     0
 43
0.0
 10
12.24704722222222
 20
9.248794444444444
 10
12.24433888888889
 20
9.247905555555554
 10
12.23718611111111
 20
9.244322222222221
 10
12.23092222222222
 20
9.238947222222222
 10
12.22733888888889
 20
9.230891666666666
 10
12.22643611111111
 20
9.223738888888888
 10
12.22643611111111
 20
7.979974999999999
  0
LWPOLYLINE
  5
181
330
2
100
AcDbEntity
  8
PDF_Layer 1
 62
     7
420
 16777215
370
   106
100
AcDbPolyline
 90
        7
 70
     0
 43
0.0
 10
12.44224166666666
 20
7.979974999999999
 10
12.44224166666666
 20
9.223738888888888
 10
12.44045
 20
9.23358611111111
 10
12.43686666666667
 20
9.239849999999998
 10
12.43238055555555
 20
9.244322222222221
 10
12.42790833333333
 20
9.247016666666665
 10
12.42343611111111
 20
9.247905555555554
  0
LWPOLYLINE
  5
191
330
2
100
AcDbEntity
  8
PDF_Layer 1
 62
     7
420
 16777215
370
   106
100
AcDbPolyline
 90
        6
 70
     0
 43
0.0
 10
10.66033888888889
 20
5.832724999999999
 10
10.65943611111111
 20
5.830030555555555
 10
10.65854722222222
 20
5.828252777777777
 10
10.65854722222222
 20
5.825558333333333
 10
10.65764444444444
 20
5.822877777777777
 10
10.65764444444444
 20
5.81033611111111
  0
LWPOLYLINE
  5
192
330
2
100
AcDbEntity
  8
PDF_Layer 1
 62
     7
420
 16777215
370
   106
100
AcDbPolyline
 90
        6
 70
     0
 43
0.0
 10
10.54572777777778
 20
5.832724999999999
 10
10.54661666666667
 20
5.830030555555555
 10
10.54750555555555
 20
5.828252777777777
 10
10.54750555555555
 20
5.825558333333333
 10
10.54750555555555
 20
5.822877777777777
 10
10.54750555555555
 20
5.81033611111111
  0
LWPOLYLINE
  5
193
330
2
100
AcDbEntity
  8
PDF_Layer 1
 62
     7
420
 16777215
370
   106
100
AcDbPolyline
 90
        6
 70
     0
 43
0.0
 10
10.74092222222222
 20
5.832724999999999
 10
10.73913055555555
 20
5.830030555555555
 10
10.737325
 20
5.828252777777777
 10
10.73645
 20
5.825558333333333
 10
10.73645
 20
5.822877777777777
 10
10.73645
 20
5.81033611111111
  0
LWPOLYLINE
  5
199
330
2
100
AcDbEntity
  8
PDF_Layer 1
 62
     7
420
 16777215
370
   106
100
AcDbPolyline
 90
       21
 70
     1
 43
0.0
 10
10.84389444444444
 20
3.749044444444444
 10
10.83851944444444
 20
3.783974999999999
 10
10.82150555555555
 20
3.82158611111111
 10
10.79464444444444
 20
3.854711111111111
 10
10.75972777777778
 20
3.881572222222222
 10
10.71853333333333
 20
3.897697222222221
 10
10.67556111111111
 20
3.900377777777777
 10
10.63883888888889
 20
3.887849999999999
 10
10.61465833333333
 20
3.861863888888888
 10
10.60392222222222
 20
3.827849999999999
 10
10.60303333333333
 20
3.816197222222222
 10
10.60571388888889
 20
3.791141666666666
 10
10.61914444444444
 20
3.753530555555555
 10
10.64331111111111
 20
3.719488888888888
 10
10.67645
 20
3.690849999999999
 10
10.71585277777778
 20
3.671155555555555
 10
10.758825
 20
3.663974999999999
 10
10.79822777777778
 20
3.672030555555555
 10
10.82688055555555
 20
3.694433333333333
 10
10.84121388888889
 20
3.726655555555555
 10
10.84389444444444
 20
3.744572222222221
  0
LWPOLYLINE
  5
19D
330
2
100
AcDbEntity
  8
PDF_Layer 1
 62
     7
420
 16777215
370
   106
100
AcDbPolyline
 90
       11
 70
     0
 43
0.0
 10
10.84389444444444
 20
3.812627777777777
 10
10.84389444444444
 20
3.795613888888888
 10
10.84389444444444
 20
3.766058333333333
 10
10.84389444444444
 20
3.749044444444444
 10
10.84389444444444
 20
3.72935
 10
10.84389444444444
 20
3.689058333333333
 10
10.84389444444444
 20
3.647863888888888
 10
10.84389444444444
 20
3.609363888888888
 10
10.84389444444444
 20
3.577127777777777
 10
10.84389444444444
 20
3.555641666666666
 10
10.84389444444444
 20
3.551155555555555
  0
ELLIPSE
  5
19E
330
2
100
AcDbEntity
  8
PDF_Layer 1
 62
     7
420
 16777215
370
   106
100
AcDbEllipse
 10
10.6030857438405
 20
3.559823447807731
 30
0.0
 11
0.2346650252868047
 21
0.0001910320883866
 31
0.0
210
0.0
220
0.0
230
1.0
 40
0.4781579357458787
 41
1.570630417694851
 42
7.853815724874437
  0
ELLIPSE
  5
1A0
330
2
100
AcDbEntity
  8
PDF_Layer 1
 62
     7
420
 16777215
370
   106
100
AcDbEllipse
 10
10.60308599733348
 20
3.559808979250251
 30
0.0
 11
-0.1782933870321758
 21
0.0001799882406644
 31
0.0
210
0.0
220
0.0
230
0.9999999999999998
 40
0.4754234025629427
 41
1.570980890037286
 42
7.854166197216872
  0
LWPOLYLINE
  5
1A7
330
2
100
AcDbEntity
  8
PDF_Layer 1
 62
     7
420
 16777215
370
   106
100
AcDbPolyline
 90
        4
 70
     0
 43
0.0
 10
10.54481111111111
 20
3.961266666666666
 10
10.54481111111111
 20
4.250488888888888
 10
10.46333888888889
 20
4.2111
 10
10.46333888888889
 20
3.922766666666666
  0
LWPOLYLINE
  5
1AA
330
2
100
AcDbEntity
  8
PDF_Layer 1
 62
     7
420
 16777215
370
   106
100
AcDbPolyline
 90
        3
 70
     0
 43
0.0
 10
10.66033888888889
 20
3.961266666666666
 10
10.66033888888889
 20
4.250488888888888
 10
10.54481111111111
 20
4.250488888888888
  0
LWPOLYLINE
  5
1AC
330
2
100
AcDbEntity
  8
PDF_Layer 1
 62
     7
420
 16777215
370
   106
100
AcDbPolyline
 90
        3
 70
     0
 43
0.0
 10
10.74271388888889
 20
3.922766666666666
 10
10.74271388888889
 20
4.2111
 10
10.66033888888889
 20
4.250488888888888
  0
ELLIPSE
  5
1AE
330
2
100
AcDbEntity
  8
PDF_Layer 1
 62
     7
420
 16777215
370
   106
100
AcDbEllipse
 10
10.60302643730464
 20
4.250409766857848
 30
0.0
 11
-0.1522302930227327
 21
0.0000194067852344
 31
0.0
210
0.0
220
0.0
230
1.0
 40
0.4807405699177606
 41
3.142938990851439
 42
6.282369331308689
  0
LWPOLYLINE
  5
1AF
330
2
100
AcDbEntity
  8
PDF_Layer 1
 62
     7
420
 16777215
370
   106
100
AcDbPolyline
 90
       17
 70
     0
 43
0.0
 10
10.46333888888889
 20
4.154683333333332
 10
10.45347777777777
 20
4.169891666666666
 10
10.45079722222222
 20
4.187808333333332
 10
10.45795
 20
4.20571111111111
 10
10.474075
 20
4.222738888888888
 10
10.49825555555555
 20
4.237058333333332
 10
10.52958888888888
 20
4.247808333333333
 10
10.56451944444444
 20
4.254072222222221
 10
10.60303333333333
 20
4.256752777777776
 10
10.64064444444444
 20
4.254072222222221
 10
10.67645
 20
4.247808333333333
 10
10.70689444444444
 20
4.237058333333332
 10
10.73106111111111
 20
4.222738888888888
 10
10.74808888888889
 20
4.20571111111111
 10
10.75525555555555
 20
4.187808333333332
 10
10.75256111111111
 20
4.169891666666666
 10
10.74271388888889
 20
4.154683333333332
  0
LWPOLYLINE
  5
1B1
330
2
100
AcDbEntity
  8
PDF_Layer 1
 62
     7
420
 16777215
370
   106
100
AcDbPolyline
 90
       12
 70
     0
 43
0.0
 10
10.47765833333333
 20
4.585377777777777
 10
10.47765833333333
 20
4.593447222222222
 10
10.49288055555555
 20
4.611349999999999
 10
10.51974166666666
 20
4.626572222222222
 10
10.54301944444444
 20
4.634627777777777
 10
10.583325
 20
4.641794444444444
 10
10.62631111111111
 20
4.640905555555555
 10
10.6657
 20
4.633752777777777
 10
10.69883888888889
 20
4.620308333333333
 10
10.72121388888889
 20
4.603294444444443
 10
10.72928333333333
 20
4.585377777777777
 10
10.72928333333333
 20
4.584502777777776
  0
LWPOLYLINE
  5
1B5
330
2
100
AcDbEntity
  8
PDF_Layer 1
 62
     7
420
 16777215
370
   106
100
AcDbPolyline
 90
      156
 70
     1
 43
0.0
 10
11.08475555555555
 20
1.517627777777778
 10
11.08924166666666
 20
1.518530555555555
 10
11.092825
 20
1.520322222222222
 10
11.09551944444444
 20
1.523891666666666
 10
11.09729722222222
 20
1.527474999999999
 10
11.0982
 20
1.530169444444443
 10
11.0982
 20
1.532849999999999
 10
11.0982
 20
1.535544444444444
 10
11.0982
 20
1.538225
 10
11.0982
 20
1.540905555555555
 10
11.0982
 20
1.54358611111111
 10
11.0982
 20
1.545377777777777
 10
11.0982
 20
1.548072222222222
 10
11.0982
 20
1.550752777777777
 10
11.0982
 20
1.552544444444444
 10
11.09908888888889
 20
1.554349999999999
 10
11.09999166666666
 20
1.555225
 10
11.10178333333333
 20
1.556141666666666
 10
11.10267222222222
 20
1.556141666666666
 10
11.10446388888889
 20
1.556141666666666
 10
11.10625555555555
 20
1.556141666666666
 10
11.10893611111111
 20
1.556141666666666
 10
11.11072777777778
 20
1.556141666666666
 10
11.11251944444444
 20
1.556141666666666
 10
11.114325
 20
1.556141666666666
 10
11.11610277777778
 20
1.556141666666666
 10
11.11789444444444
 20
1.556141666666666
 10
11.11968611111111
 20
1.555225
 10
11.12149166666666
 20
1.555225
 10
11.12236666666666
 20
1.553447222222221
 10
11.12328333333333
 20
1.552544444444444
 10
11.12328333333333
 20
1.550752777777777
 10
11.12328333333333
 20
1.548072222222222
 10
11.12328333333333
 20
1.545377777777777
 10
11.12328333333333
 20
1.54358611111111
 10
11.12328333333333
 20
1.540905555555555
 10
11.12328333333333
 20
1.538225
 10
11.12328333333333
 20
1.535544444444444
 10
11.12328333333333
 20
1.532849999999999
 10
11.12328333333333
 20
1.530169444444443
 10
11.12417222222222
 20
1.526586111111111
 10
11.12596388888889
 20
1.523002777777778
 10
11.12864444444444
 20
1.519419444444443
 10
11.13313055555555
 20
1.518530555555555
 10
11.13581111111111
 20
1.517627777777778
 10
11.13849166666667
 20
1.517627777777778
 10
11.14118611111111
 20
1.517627777777778
 10
11.14386666666666
 20
1.517627777777778
 10
11.14565833333333
 20
1.517627777777778
 10
11.14833888888889
 20
1.517627777777778
 10
11.15103333333333
 20
1.517627777777778
 10
11.15371388888889
 20
1.517627777777778
 10
11.15639444444444
 20
1.517627777777778
 10
11.15818611111111
 20
1.517627777777778
 10
11.15910277777778
 20
1.516738888888888
 10
11.16088055555555
 20
1.514947222222222
 10
11.16088055555555
 20
1.514044444444444
 10
11.16088055555555
 20
1.512266666666665
 10
11.16088055555555
 20
1.51046111111111
 10
11.16088055555555
 20
1.508683333333333
 10
11.16088055555555
 20
1.506891666666667
 10
11.16088055555555
 20
1.505099999999999
 10
11.16088055555555
 20
1.503294444444445
 10
11.16088055555555
 20
1.501502777777777
 10
11.16088055555555
 20
1.499724999999999
 10
11.16088055555555
 20
1.497030555555555
 10
11.16088055555555
 20
1.496127777777777
 10
11.15997777777778
 20
1.49435
 10
11.15910277777778
 20
1.493461111111111
 10
11.15729722222222
 20
1.492558333333333
 10
11.15639444444444
 20
1.492558333333333
 10
11.15371388888889
 20
1.492558333333333
 10
11.15103333333333
 20
1.492558333333333
 10
11.14833888888889
 20
1.492558333333333
 10
11.14565833333333
 20
1.492558333333333
 10
11.14386666666666
 20
1.492558333333333
 10
11.14118611111111
 20
1.492558333333333
 10
11.13849166666667
 20
1.492558333333333
 10
11.13581111111111
 20
1.492558333333333
 10
11.13133888888889
 20
1.491655555555555
 10
11.12775555555555
 20
1.489863888888888
 10
11.12506111111111
 20
1.486280555555556
 10
11.12328333333333
 20
1.482711111111111
 10
11.12328333333333
 20
1.480016666666667
 10
11.12328333333333
 20
1.47733611111111
 10
11.12328333333333
 20
1.474655555555554
 10
11.12328333333333
 20
1.47196111111111
 10
11.12328333333333
 20
1.469280555555554
 10
11.12328333333333
 20
1.4666
 10
11.12328333333333
 20
1.464808333333333
 10
11.12328333333333
 20
1.462113888888889
 10
11.12328333333333
 20
1.459433333333334
 10
11.12328333333333
 20
1.457641666666666
 10
11.12236666666666
 20
1.45585
 10
11.120575
 20
1.454961111111111
 10
11.11879722222222
 20
1.454044444444444
 10
11.11789444444444
 20
1.454044444444444
 10
11.11610277777778
 20
1.454044444444444
 10
11.114325
 20
1.454044444444444
 10
11.11251944444444
 20
1.454044444444444
 10
11.11072777777778
 20
1.454044444444444
 10
11.10893611111111
 20
1.454044444444444
 10
11.10625555555555
 20
1.454044444444444
 10
11.10446388888889
 20
1.454044444444444
 10
11.10267222222222
 20
1.454044444444444
 10
11.10088055555555
 20
1.454961111111111
 10
11.09999166666666
 20
1.454961111111111
 10
11.09908888888889
 20
1.456738888888888
 10
11.0982
 20
1.457641666666666
 10
11.0982
 20
1.459433333333334
 10
11.0982
 20
1.462113888888889
 10
11.0982
 20
1.464808333333333
 10
11.0982
 20
1.4666
 10
11.0982
 20
1.469280555555554
 10
11.0982
 20
1.47196111111111
 10
11.0982
 20
1.474655555555554
 10
11.0982
 20
1.47733611111111
 10
11.0982
 20
1.480016666666667
 10
11.09729722222222
 20
1.4836
 10
11.09551944444444
 20
1.487183333333333
 10
11.09193611111111
 20
1.490780555555556
 10
11.08835277777777
 20
1.491655555555555
 10
11.08475555555555
 20
1.492558333333333
 10
11.08297777777778
 20
1.492558333333333
 10
11.08028333333333
 20
1.492558333333333
 10
11.07760277777777
 20
1.492558333333333
 10
11.07492222222222
 20
1.492558333333333
 10
11.07224166666666
 20
1.492558333333333
 10
11.06954722222222
 20
1.492558333333333
 10
11.06685277777778
 20
1.492558333333333
 10
11.065075
 20
1.492558333333333
 10
11.06326944444444
 20
1.492558333333333
 10
11.06147777777778
 20
1.493461111111111
 10
11.06058888888889
 20
1.495252777777777
 10
11.05968611111111
 20
1.496127777777777
 10
11.05968611111111
 20
1.497030555555555
 10
11.05968611111111
 20
1.499724999999999
 10
11.05968611111111
 20
1.501502777777777
 10
11.05968611111111
 20
1.503294444444445
 10
11.05968611111111
 20
1.505099999999999
 10
11.05968611111111
 20
1.506891666666667
 10
11.05968611111111
 20
1.508683333333333
 10
11.05968611111111
 20
1.51046111111111
 10
11.05968611111111
 20
1.512266666666665
 10
11.05968611111111
 20
1.514044444444444
 10
11.06058888888889
 20
1.51583611111111
 10
11.06147777777778
 20
1.516738888888888
 10
11.06326944444444
 20
1.517627777777778
 10
11.065075
 20
1.517627777777778
 10
11.06685277777778
 20
1.517627777777778
 10
11.06954722222222
 20
1.517627777777778
 10
11.07224166666666
 20
1.517627777777778
 10
11.07492222222222
 20
1.517627777777778
 10
11.07760277777777
 20
1.517627777777778
 10
11.08028333333333
 20
1.517627777777778
 10
11.08297777777778
 20
1.517627777777778
  0
CIRCLE
  5
1CD
330
2
100
AcDbEntity
  8
PDF_Layer 1
 62
     7
420
 16777215
370
   106
100
AcDbCircle
 10
11.11062559817965
 20
1.504936811696315
 30
0.0
 40
0.1013437953703998
  0
LWPOLYLINE
  5
1CE
330
2
100
AcDbEntity
  8
PDF_Layer 1
 62
     7
420
 16777215
370
   106
100
AcDbPolyline
 90
      156
 70
     1
 43
0.0
 10
10.53945
 20
1.530169444444443
 10
10.53945
 20
1.532849999999999
 10
10.53945
 20
1.535544444444444
 10
10.53945
 20
1.538225
 10
10.53945
 20
1.540905555555555
 10
10.53945
 20
1.54358611111111
 10
10.53945
 20
1.545377777777777
 10
10.53945
 20
1.548072222222222
 10
10.53945
 20
1.550752777777777
 10
10.53945
 20
1.552544444444444
 10
10.54033888888889
 20
1.554349999999999
 10
10.54214444444444
 20
1.555225
 10
10.54393611111111
 20
1.556141666666666
 10
10.54481111111111
 20
1.556141666666666
 10
10.54661666666667
 20
1.556141666666666
 10
10.54840833333333
 20
1.556141666666666
 10
10.5502
 20
1.556141666666666
 10
10.55197777777777
 20
1.556141666666666
 10
10.55378333333333
 20
1.556141666666666
 10
10.555575
 20
1.556141666666666
 10
10.55735277777777
 20
1.556141666666666
 10
10.56004722222222
 20
1.556141666666666
 10
10.56093611111111
 20
1.555225
 10
10.56272777777778
 20
1.555225
 10
10.56363055555555
 20
1.553447222222221
 10
10.56451944444444
 20
1.552544444444444
 10
10.56451944444444
 20
1.550752777777777
 10
10.56451944444444
 20
1.548072222222222
 10
10.56451944444444
 20
1.545377777777777
 10
10.56451944444444
 20
1.54358611111111
 10
10.56451944444444
 20
1.540905555555555
 10
10.56451944444444
 20
1.538225
 10
10.56451944444444
 20
1.535544444444444
 10
10.56451944444444
 20
1.532849999999999
 10
10.56451944444444
 20
1.530169444444443
 10
10.56542222222222
 20
1.526586111111111
 10
10.5672
 20
1.523002777777778
 10
10.57078333333333
 20
1.519419444444443
 10
10.57436666666666
 20
1.518530555555555
 10
10.57704722222222
 20
1.517627777777778
 10
10.57974166666666
 20
1.517627777777778
 10
10.58242222222222
 20
1.517627777777778
 10
10.58511666666666
 20
1.517627777777778
 10
10.58779722222222
 20
1.517627777777778
 10
10.59049166666667
 20
1.517627777777778
 10
10.59318611111111
 20
1.517627777777778
 10
10.59497777777778
 20
1.517627777777778
 10
10.59765833333333
 20
1.517627777777778
 10
10.59945
 20
1.517627777777778
 10
10.60122777777777
 20
1.516738888888888
 10
10.60213055555555
 20
1.514947222222222
 10
10.60303333333333
 20
1.514044444444444
 10
10.60303333333333
 20
1.512266666666665
 10
10.60303333333333
 20
1.51046111111111
 10
10.60303333333333
 20
1.508683333333333
 10
10.60303333333333
 20
1.506891666666667
 10
10.60303333333333
 20
1.505099999999999
 10
10.60303333333333
 20
1.503294444444445
 10
10.60303333333333
 20
1.501502777777777
 10
10.60303333333333
 20
1.499724999999999
 10
10.60303333333333
 20
1.497030555555555
 10
10.60213055555555
 20
1.496127777777777
 10
10.60213055555555
 20
1.49435
 10
10.60033888888889
 20
1.493461111111111
 10
10.59945
 20
1.492558333333333
 10
10.59765833333333
 20
1.492558333333333
 10
10.59497777777778
 20
1.492558333333333
 10
10.59318611111111
 20
1.492558333333333
 10
10.59049166666667
 20
1.492558333333333
 10
10.58779722222222
 20
1.492558333333333
 10
10.58511666666666
 20
1.492558333333333
 10
10.58242222222222
 20
1.492558333333333
 10
10.57974166666666
 20
1.492558333333333
 10
10.57704722222222
 20
1.492558333333333
 10
10.57347777777777
 20
1.491655555555555
 10
10.56989444444444
 20
1.489863888888888
 10
10.5672
 20
1.486280555555556
 10
10.56542222222222
 20
1.482711111111111
 10
10.56451944444444
 20
1.480016666666667
 10
10.56451944444444
 20
1.47733611111111
 10
10.56451944444444
 20
1.474655555555554
 10
10.56451944444444
 20
1.47196111111111
 10
10.56451944444444
 20
1.469280555555554
 10
10.56451944444444
 20
1.4666
 10
10.56451944444444
 20
1.464808333333333
 10
10.56451944444444
 20
1.462113888888889
 10
10.56451944444444
 20
1.459433333333334
 10
10.56451944444444
 20
1.457641666666666
 10
10.56363055555555
 20
1.45585
 10
10.56183888888889
 20
1.454961111111111
 10
10.56093611111111
 20
1.454044444444444
 10
10.56004722222222
 20
1.454044444444444
 10
10.55735277777777
 20
1.454044444444444
 10
10.555575
 20
1.454044444444444
 10
10.55378333333333
 20
1.454044444444444
 10
10.55197777777777
 20
1.454044444444444
 10
10.5502
 20
1.454044444444444
 10
10.54840833333333
 20
1.454044444444444
 10
10.54661666666667
 20
1.454044444444444
 10
10.54481111111111
 20
1.454044444444444
 10
10.54301944444444
 20
1.454961111111111
 10
10.54124166666666
 20
1.454961111111111
 10
10.54033888888889
 20
1.456738888888888
 10
10.53945
 20
1.457641666666666
 10
10.53945
 20
1.459433333333334
 10
10.53945
 20
1.462113888888889
 10
10.53945
 20
1.464808333333333
 10
10.53945
 20
1.4666
 10
10.53945
 20
1.469280555555554
 10
10.53945
 20
1.47196111111111
 10
10.53945
 20
1.474655555555554
 10
10.53945
 20
1.47733611111111
 10
10.53945
 20
1.480016666666667
 10
10.53854722222222
 20
1.4836
 10
10.53676944444444
 20
1.487183333333333
 10
10.53317222222222
 20
1.490780555555556
 10
10.52958888888888
 20
1.491655555555555
 10
10.52690833333333
 20
1.492558333333333
 10
10.52422777777778
 20
1.492558333333333
 10
10.52153333333333
 20
1.492558333333333
 10
10.51885277777778
 20
1.492558333333333
 10
10.51617222222222
 20
1.492558333333333
 10
10.51347777777777
 20
1.492558333333333
 10
10.51168611111111
 20
1.492558333333333
 10
10.50900555555555
 20
1.492558333333333
 10
10.506325
 20
1.492558333333333
 10
10.50453333333333
 20
1.492558333333333
 10
10.50272777777778
 20
1.493461111111111
 10
10.50183888888889
 20
1.495252777777777
 10
10.50183888888889
 20
1.496127777777777
 10
10.50095
 20
1.497030555555555
 10
10.50095
 20
1.499724999999999
 10
10.50095
 20
1.501502777777777
 10
10.50095
 20
1.503294444444445
 10
10.50095
 20
1.505099999999999
 10
10.50095
 20
1.506891666666667
 10
10.50095
 20
1.508683333333333
 10
10.50095
 20
1.51046111111111
 10
10.50095
 20
1.512266666666665
 10
10.50183888888889
 20
1.514044444444444
 10
10.50272777777778
 20
1.51583611111111
 10
10.50363055555555
 20
1.516738888888888
 10
10.50542222222222
 20
1.517627777777778
 10
10.506325
 20
1.517627777777778
 10
10.50900555555555
 20
1.517627777777778
 10
10.51168611111111
 20
1.517627777777778
 10
10.51347777777777
 20
1.517627777777778
 10
10.51617222222222
 20
1.517627777777778
 10
10.51885277777778
 20
1.517627777777778
 10
10.52153333333333
 20
1.517627777777778
 10
10.52422777777778
 20
1.517627777777778
 10
10.52690833333333
 20
1.517627777777778
 10
10.53049166666666
 20
1.518530555555555
 10
10.53496388888889
 20
1.520322222222222
 10
10.53765833333333
 20
1.523891666666666
 10
10.53854722222222
 20
1.527474999999999
  0
CIRCLE
  5
1E6
330
2
100
AcDbEntity
  8
PDF_Layer 1
 62
     7
420
 16777215
370
   106
100
AcDbCircle
 10
10.55187559817963
 20
1.504936811696304
 30
0.0
 40
0.1013437953704107
  0
LWPOLYLINE
  5
1E7
330
2
100
AcDbEntity
  8
PDF_Layer 1
 62
     7
420
 16777215
370
   106
100
AcDbPolyline
 90
       33
 70
     1
 43
0.0
 10
10.43646388888889
 20
1.399447222222222
 10
10.43646388888889
 20
1.398530555555556
 10
10.43646388888889
 20
1.396752777777778
 10
10.44631111111111
 20
1.396752777777778
 10
10.457075
 20
1.396752777777778
 10
10.46960277777778
 20
1.396752777777778
 10
10.48304722222222
 20
1.396752777777778
 10
10.49915833333333
 20
1.396752777777778
 10
10.51526944444444
 20
1.396752777777778
 10
10.53317222222222
 20
1.396752777777778
 10
10.55197777777777
 20
1.396752777777778
 10
10.57347777777777
 20
1.399447222222222
 10
10.57615833333333
 20
1.399447222222222
 10
10.60571388888889
 20
1.411072222222222
 10
10.63079722222222
 20
1.430766666666666
 10
10.6487
 20
1.457641666666666
 10
10.65854722222222
 20
1.488974999999999
 10
10.65854722222222
 20
1.522113888888888
 10
10.64779722222222
 20
1.555225
 10
10.62450555555555
 20
1.585683333333332
 10
10.59497777777778
 20
1.604474999999999
 10
10.57347777777777
 20
1.610752777777777
 10
10.55197777777777
 20
1.612544444444444
 10
10.53317222222222
 20
1.612544444444444
 10
10.51526944444444
 20
1.612544444444444
 10
10.49915833333333
 20
1.612544444444444
 10
10.48304722222222
 20
1.612544444444444
 10
10.46960277777778
 20
1.612544444444444
 10
10.457075
 20
1.612544444444444
 10
10.44631111111111
 20
1.612544444444444
 10
10.43646388888889
 20
1.612544444444444
 10
10.43646388888889
 20
1.611655555555556
 10
10.43646388888889
 20
1.610752777777777
  0
LWPOLYLINE
  5
1EA
330
2
100
AcDbEntity
  8
PDF_Layer 1
 62
     7
420
 16777215
370
   106
100
AcDbPolyline
 90
       22
 70
     1
 43
0.0
 10
11.08924166666666
 20
1.610752777777777
 10
11.11072777777778
 20
1.612544444444444
 10
11.12953333333333
 20
1.612544444444444
 10
11.14745
 20
1.612544444444444
 10
11.163575
 20
1.612544444444444
 10
11.17878333333333
 20
1.612544444444444
 10
11.19311666666666
 20
1.612544444444444
 10
11.20564444444444
 20
1.612544444444444
 10
11.21639444444444
 20
1.612544444444444
 10
11.22625555555555
 20
1.612544444444444
 10
11.22625555555555
 20
1.610752777777777
 10
11.22625555555555
 20
1.399447222222222
 10
11.22625555555555
 20
1.396752777777778
 10
11.21639444444444
 20
1.396752777777778
 10
11.20564444444444
 20
1.396752777777778
 10
11.19311666666666
 20
1.396752777777778
 10
11.17878333333333
 20
1.396752777777778
 10
11.163575
 20
1.396752777777778
 10
11.14745
 20
1.396752777777778
 10
11.12953333333333
 20
1.396752777777778
 10
11.11072777777778
 20
1.396752777777778
 10
11.08924166666666
 20
1.399447222222222
 42
-0.8222785931653271
  0
LWPOLYLINE
  5
1FD
330
2
100
AcDbEntity
  8
PDF_Layer 1
 62
     7
420
 16777215
370
   106
100
AcDbPolyline
 90
      104
 70
     1
 43
0.0
 10
10.41229722222222
 20
1.399447222222222
 10
10.41229722222222
 20
1.398530555555556
 10
10.41229722222222
 20
1.397641666666666
 10
10.41229722222222
 20
1.396752777777778
 10
10.41229722222222
 20
1.39585
 10
10.4132
 20
1.394947222222223
 10
10.4132
 20
1.394058333333332
 10
10.4132
 20
1.393155555555556
 10
10.4132
 20
1.392280555555555
 10
10.52153333333333
 20
1.016197222222221
 10
10.52243611111111
 20
1.011725
 10
10.52511666666666
 20
1.008127777777777
 10
10.52781111111111
 20
1.005433333333333
 10
10.53049166666666
 20
1.002752777777777
 10
10.534075
 20
1.000072222222222
 10
10.53765833333333
 20
0.9982805555555556
 10
10.54214444444444
 20
0.9973777777777783
 10
10.54572777777778
 20
0.9973777777777783
 10
10.55108888888889
 20
0.9973777777777783
 10
10.56542222222222
 20
0.9973777777777783
 10
10.5887
 20
0.9973777777777783
 10
10.62003333333333
 20
0.9973777777777783
 10
10.65943611111111
 20
0.9973777777777783
 10
10.70421388888889
 20
0.9973777777777783
 10
10.75346388888889
 20
0.9973777777777783
 10
10.80449166666666
 20
0.9973777777777783
 10
10.857325
 20
0.9973777777777783
 10
10.90925555555555
 20
0.9973777777777783
 10
10.95850555555555
 20
0.9973777777777783
 10
11.00328333333333
 20
0.9973777777777783
 10
11.04268611111111
 20
0.9973777777777783
 10
11.07403333333333
 20
0.9973777777777783
 10
11.09729722222222
 20
0.9973777777777783
 10
11.11163055555555
 20
0.9973777777777783
 10
11.11700555555555
 20
0.9973777777777783
 10
11.120575
 20
0.9973777777777783
 10
11.12506111111111
 20
0.9982805555555556
 10
11.12864444444444
 20
1.000072222222222
 10
11.13222777777778
 20
1.002752777777777
 10
11.13490833333333
 20
1.005433333333333
 10
11.13760277777777
 20
1.008127777777777
 10
11.13939444444444
 20
1.011725
 10
11.14118611111111
 20
1.016197222222221
 10
11.24951944444444
 20
1.392280555555555
 10
11.24951944444444
 20
1.393155555555556
 10
11.24951944444444
 20
1.394058333333332
 10
11.24951944444444
 20
1.394947222222223
 10
11.24951944444444
 20
1.39585
 10
11.24951944444444
 20
1.396752777777778
 10
11.25042222222222
 20
1.397641666666666
 10
11.25042222222222
 20
1.398530555555556
 10
11.25042222222222
 20
1.399447222222222
 10
11.25042222222222
 20
1.610752777777777
 10
11.25042222222222
 20
1.611655555555556
 10
11.25042222222222
 20
1.612544444444444
 10
11.24951944444444
 20
1.613447222222221
 10
11.24951944444444
 20
1.614336111111111
 10
11.24951944444444
 20
1.615238888888889
 10
11.24951944444444
 20
1.616127777777777
 10
11.24951944444444
 20
1.617030555555555
 10
11.24951944444444
 20
1.617919444444443
 10
11.14118611111111
 20
1.993988888888889
 10
11.13939444444444
 20
1.998474999999999
 10
11.13760277777777
 20
2.002058333333332
 10
11.13490833333333
 20
2.004752777777777
 10
11.13222777777778
 20
2.007433333333333
 10
11.12864444444444
 20
2.010113888888888
 10
11.12506111111111
 20
2.011016666666666
 10
11.120575
 20
2.012808333333333
 10
11.11700555555555
 20
2.012808333333333
 10
11.11163055555555
 20
2.012808333333333
 10
11.09729722222222
 20
2.012808333333333
 10
11.07403333333333
 20
2.012808333333333
 10
11.04268611111111
 20
2.012808333333333
 10
11.00328333333333
 20
2.012808333333333
 10
10.95850555555555
 20
2.012808333333333
 10
10.90925555555555
 20
2.012808333333333
 10
10.857325
 20
2.012808333333333
 10
10.80449166666666
 20
2.012808333333333
 10
10.75346388888889
 20
2.012808333333333
 10
10.70421388888889
 20
2.012808333333333
 10
10.65943611111111
 20
2.012808333333333
 10
10.62003333333333
 20
2.012808333333333
 10
10.5887
 20
2.012808333333333
 10
10.56542222222222
 20
2.012808333333333
 10
10.55108888888889
 20
2.012808333333333
 10
10.54572777777778
 20
2.012808333333333
 10
10.54214444444444
 20
2.012808333333333
 10
10.53765833333333
 20
2.011016666666666
 10
10.534075
 20
2.010113888888888
 10
10.53049166666666
 20
2.007433333333333
 10
10.52781111111111
 20
2.004752777777777
 10
10.52511666666666
 20
2.002058333333332
 10
10.52243611111111
 20
1.998474999999999
 10
10.52153333333333
 20
1.993988888888889
 10
10.4132
 20
1.617919444444443
 10
10.4132
 20
1.617030555555555
 10
10.4132
 20
1.616127777777777
 10
10.4132
 20
1.615238888888889
 10
10.41229722222222
 20
1.614336111111111
 10
10.41229722222222
 20
1.613447222222221
 10
10.41229722222222
 20
1.612544444444444
 10
10.41229722222222
 20
1.611655555555556
 10
10.41229722222222
 20
1.610752777777777
  0
LWPOLYLINE
  5
209
330
2
100
AcDbEntity
  8
PDF_Layer 1
 62
     7
420
 16777215
370
   106
100
AcDbPolyline
 90
       17
 70
     0
 43
0.0
 10
11.04715833333333
 20
3.388183333333333
 10
11.04626944444444
 20
3.388183333333333
 10
11.03731111111111
 20
3.388183333333333
 10
11.02031111111111
 20
3.388183333333333
 10
10.994325
 20
3.388183333333333
 10
10.9612
 20
3.388183333333333
 10
10.92268611111111
 20
3.388183333333333
 10
10.87971388888889
 20
3.388183333333333
 10
10.83495
 20
3.388183333333333
 10
10.79017222222222
 20
3.388183333333333
 10
10.74718611111111
 20
3.388183333333333
 10
10.70779722222222
 20
3.388183333333333
 10
10.67375555555555
 20
3.388183333333333
 10
10.64599166666666
 20
3.388183333333333
 10
10.6272
 20
3.388183333333333
 10
10.61735277777778
 20
3.388183333333333
 10
10.61556111111111
 20
3.388183333333333
  0
LWPOLYLINE
  5
20B
330
2
100
AcDbEntity
  8
PDF_Layer 1
 62
     7
420
 16777215
370
   106
100
AcDbPolyline
 90
       17
 70
     0
 43
0.0
 10
10.61556111111111
 20
2.906447222222221
 10
10.61735277777778
 20
2.906447222222221
 10
10.6272
 20
2.906447222222221
 10
10.64599166666666
 20
2.906447222222221
 10
10.67375555555555
 20
2.906447222222221
 10
10.70779722222222
 20
2.906447222222221
 10
10.74718611111111
 20
2.906447222222221
 10
10.79017222222222
 20
2.906447222222221
 10
10.83495
 20
2.906447222222221
 10
10.87971388888889
 20
2.906447222222221
 10
10.92268611111111
 20
2.906447222222221
 10
10.9612
 20
2.906447222222221
 10
10.994325
 20
2.906447222222221
 10
11.02031111111111
 20
2.906447222222221
 10
11.03731111111111
 20
2.906447222222221
 10
11.04626944444444
 20
2.906447222222221
 10
11.04715833333333
 20
2.906447222222221
  0
LWPOLYLINE
  5
20F
330
2
100
AcDbEntity
  8
PDF_Layer 1
 62
     7
420
 16777215
370
   106
100
AcDbPolyline
 90
        2
 70
     0
 43
0.0
 10
10.83942222222222
 20
3.544002777777777
 10
10.83942222222222
 20
3.393572222222222
  0
LWPOLYLINE
  5
210
330
2
100
AcDbEntity
  8
PDF_Layer 1
 62
     7
420
 16777215
370
   106
100
AcDbPolyline
 90
        2
 70
     0
 43
0.0
 10
10.68360277777777
 20
3.393572222222222
 10
10.68360277777777
 20
3.454447222222222
  0
LWPOLYLINE
  5
211
330
2
100
AcDbEntity
  8
PDF_Layer 1
 62
     7
420
 16777215
370
   106
100
AcDbPolyline
 90
       10
 70
     0
 43
0.0
 10
10.87075555555555
 20
3.393572222222222
 10
10.87075555555555
 20
3.576224999999999
 10
10.86628333333333
 20
3.576224999999999
 10
10.8627
 20
3.576224999999999
 10
10.85911666666667
 20
3.576224999999999
 10
10.85464444444444
 20
3.576224999999999
 10
10.85106111111111
 20
3.576224999999999
 10
10.84747777777778
 20
3.576224999999999
 10
10.84299166666666
 20
3.576224999999999
 10
10.83942222222222
 20
3.576224999999999
  0
LWPOLYLINE
  5
213
330
2
100
AcDbEntity
  8
PDF_Layer 1
 62
     7
420
 16777215
370
   106
100
AcDbPolyline
 90
        6
 70
     0
 43
0.0
 10
10.87075555555555
 20
3.576224999999999
 10
10.87881111111111
 20
3.580697222222221
 10
10.93613055555555
 20
3.595044444444444
 10
10.99164444444444
 20
3.583391666666666
 10
11.00596388888889
 20
3.576224999999999
 10
11.00596388888889
 20
3.393572222222222
  0
LWPOLYLINE
  5
215
330
2
100
AcDbEntity
  8
PDF_Layer 1
 62
     7
420
 16777215
370
   106
100
AcDbPolyline
 90
        2
 70
     0
 43
0.0
 10
10.66481111111111
 20
3.450877777777777
 10
10.66481111111111
 20
3.393572222222222
  0
LWPOLYLINE
  5
216
330
2
100
AcDbEntity
  8
PDF_Layer 1
 62
     7
420
 16777215
370
   106
100
AcDbPolyline
 90
        2
 70
     0
 43
0.0
 10
10.64511666666666
 20
3.393572222222222
 10
10.64511666666666
 20
3.44908611111111
  0
LWPOLYLINE
  5
217
330
2
100
AcDbEntity
  8
PDF_Layer 1
 62
     7
420
 16777215
370
   106
100
AcDbPolyline
 90
       10
 70
     0
 43
0.0
 10
11.01760277777778
 20
3.393572222222222
 10
11.01760277777778
 20
3.576224999999999
 10
11.01671388888889
 20
3.576224999999999
 10
11.01492222222222
 20
3.576224999999999
 10
11.01401944444444
 20
3.576224999999999
 10
11.01222777777778
 20
3.576224999999999
 10
11.01045
 20
3.576224999999999
 10
11.00865833333333
 20
3.576224999999999
 10
11.00775555555555
 20
3.576224999999999
 10
11.00596388888889
 20
3.576224999999999
  0
LWPOLYLINE
  5
21E
330
2
100
AcDbEntity
  8
PDF_Layer 1
 62
     7
420
 16777215
370
   106
100
AcDbPolyline
 90
       15
 70
     0
 43
0.0
 10
11.00865833333333
 20
4.716113888888888
 10
11.00865833333333
 20
4.725961111111111
 10
11.00865833333333
 20
4.737599999999999
 10
11.00865833333333
 20
4.743877777777777
 10
11.00775555555555
 20
4.743877777777777
 10
11.00328333333333
 20
4.743877777777777
 10
10.99522777777778
 20
4.743877777777777
 10
10.98538055555555
 20
4.743877777777777
 10
10.97193611111111
 20
4.743877777777777
 10
10.95671388888889
 20
4.743877777777777
 10
10.93971388888889
 20
4.743877777777777
 10
10.92000555555555
 20
4.743877777777777
 10
10.966575
 20
4.735808333333332
 10
11.00865833333333
 20
4.716113888888888
 10
11.00865833333333
 20
4.390183333333332
  0
LWPOLYLINE
  5
221
330
2
100
AcDbEntity
  8
PDF_Layer 1
 62
     7
420
 16777215
370
   106
100
AcDbPolyline
 90
        5
 70
     0
 43
0.0
 10
10.83135277777778
 20
4.390183333333332
 10
10.79464444444444
 20
4.373169444444444
 10
10.75346388888889
 20
4.363322222222222
 10
10.74271388888889
 20
4.363322222222222
 10
10.73017222222222
 20
4.365113888888888
  0
LWPOLYLINE
  5
222
330
2
100
AcDbEntity
  8
PDF_Layer 1
 62
     7
420
 16777215
370
   106
100
AcDbPolyline
 90
       16
 70
     0
 43
0.0
 10
10.65317222222222
 20
4.636433333333332
 10
10.65317222222222
 20
4.716113888888888
 10
10.69076944444444
 20
4.734016666666666
 10
10.73106111111111
 20
4.742974999999999
 10
10.74271388888889
 20
4.743877777777777
 10
10.72300555555555
 20
4.743877777777777
 10
10.70600555555555
 20
4.743877777777777
 10
10.68988055555555
 20
4.743877777777777
 10
10.67733888888889
 20
4.743877777777777
 10
10.66749166666666
 20
4.743877777777777
 10
10.65943611111111
 20
4.743877777777777
 10
10.65496388888889
 20
4.743877777777777
 10
10.65317222222222
 20
4.743877777777777
 10
10.65317222222222
 20
4.738502777777777
 10
10.65317222222222
 20
4.725961111111111
 10
10.65317222222222
 20
4.716113888888888
  0
LWPOLYLINE
  5
225
330
2
100
AcDbEntity
  8
PDF_Layer 1
 62
     7
420
 16777215
370
   106
100
AcDbPolyline
 90
       40
 70
     0
 43
0.0
 10
10.83135277777778
 20
4.716113888888888
 10
10.86808888888889
 20
4.734016666666666
 10
10.90925555555555
 20
4.742974999999999
 10
10.92000555555555
 20
4.743877777777777
 10
10.89940833333333
 20
4.743877777777777
 10
10.87703333333333
 20
4.743877777777777
 10
10.85464444444444
 20
4.743877777777777
 10
10.83135277777778
 20
4.743877777777777
 10
10.808075
 20
4.743877777777777
 10
10.7857
 20
4.743877777777777
 10
10.76331111111111
 20
4.743877777777777
 10
10.74271388888889
 20
4.743877777777777
 10
10.78838055555555
 20
4.735808333333332
 10
10.83135277777778
 20
4.716113888888888
 10
10.83135277777778
 20
4.390183333333332
 10
10.87433888888889
 20
4.371377777777777
 10
10.92000555555555
 20
4.363322222222222
 10
10.93165833333333
 20
4.363322222222222
 10
10.97193611111111
 20
4.373169444444444
 10
11.00865833333333
 20
4.390183333333332
 10
11.00865833333333
 20
4.381224999999999
 10
11.00865833333333
 20
4.368697222222222
 10
11.00865833333333
 20
4.363322222222222
 10
11.00775555555555
 20
4.363322222222222
 10
11.00328333333333
 20
4.363322222222222
 10
10.99522777777778
 20
4.363322222222222
 10
10.98538055555555
 20
4.363322222222222
 10
10.97193611111111
 20
4.363322222222222
 10
10.95671388888889
 20
4.363322222222222
 10
10.93971388888889
 20
4.363322222222222
 10
10.92000555555555
 20
4.363322222222222
 10
10.89940833333333
 20
4.363322222222222
 10
10.87703333333333
 20
4.363322222222222
 10
10.85464444444444
 20
4.363322222222222
 10
10.83135277777778
 20
4.363322222222222
 10
10.808075
 20
4.363322222222222
 10
10.7857
 20
4.363322222222222
 10
10.76331111111111
 20
4.363322222222222
 10
10.74271388888889
 20
4.363322222222222
 10
10.73017222222222
 20
4.363322222222222
  0
LWPOLYLINE
  5
23B
330
2
100
AcDbEntity
  8
PDF_Layer 1
 62
     7
420
 16777215
370
   106
100
AcDbPolyline
 90
        3
 70
     0
 43
0.0
 10
9.584908333333332
 20
5.670655555555555
 10
10.10336666666666
 20
5.543502777777777
 10
10.10336666666666
 20
5.670655555555555
  0
LWPOLYLINE
  5
23D
330
2
100
AcDbEntity
  8
PDF_Layer 1
 62
     7
420
 16777215
370
   106
100
AcDbPolyline
 90
        5
 70
     0
 43
0.0
 10
9.541047222222221
 20
5.670655555555555
 10
10.05860277777777
 20
5.543502777777777
 10
10.07203333333333
 20
5.543502777777777
 10
10.08725555555555
 20
5.543502777777777
 10
10.10336666666666
 20
5.543502777777777
  0
LWPOLYLINE
  5
23F
330
2
100
AcDbEntity
  8
PDF_Layer 1
 62
     7
420
 16777215
370
   106
100
AcDbPolyline
 90
        3
 70
     0
 43
0.0
 10
11.51904722222222
 20
5.670655555555555
 10
11.00060277777777
 20
5.543502777777777
 10
11.00060277777777
 20
5.670655555555555
  0
LWPOLYLINE
  5
241
330
2
100
AcDbEntity
  8
PDF_Layer 1
 62
     7
420
 16777215
370
   106
100
AcDbPolyline
 90
        5
 70
     0
 43
0.0
 10
11.56381111111111
 20
5.670655555555555
 10
11.04536666666666
 20
5.543502777777777
 10
11.03193611111111
 20
5.543502777777777
 10
11.01671388888889
 20
5.543502777777777
 10
11.00060277777777
 20
5.543502777777777
  0
LWPOLYLINE
  5
24B
330
2
100
AcDbEntity
  8
PDF_Layer 1
 62
     7
420
 16777215
370
   106
100
AcDbPolyline
 90
       18
 70
     0
 43
0.0
 10
5.117602777777777
 20
11.60200277777778
 10
5.115811111111111
 20
11.60111388888889
 10
5.131033333333333
 20
11.61364166666666
 10
5.164158333333333
 20
11.64050277777777
 10
5.197297222222222
 20
11.66736388888889
 10
5.236699999999999
 20
11.69691944444444
 10
5.281463888888889
 20
11.72646111111111
 10
5.334283333333333
 20
11.75333611111111
 10
5.394283333333333
 20
11.77035
 10
5.419352777777778
 20
11.77214166666666
 10
5.480255555555555
 20
11.76318333333333
 10
5.518755555555555
 20
11.74705833333333
 10
5.555463888888888
 20
11.72736388888889
 10
5.603824999999999
 20
11.69603055555555
 10
5.647686111111111
 20
11.66289166666667
 10
5.67545
 20
11.64140555555555
 10
5.698741666666666
 20
11.62169722222222
 10
5.721130555555555
 20
11.60289166666666
  0
LWPOLYLINE
  5
252
330
2
100
AcDbEntity
  8
PDF_Layer 1
 62
     7
420
 16777215
370
   106
100
AcDbPolyline
 90
       18
 70
     0
 43
0.0
 10
5.140880555555555
 20
11.49903055555555
 10
5.140880555555555
 20
11.4856
 10
5.160575
 20
11.4856
 10
5.189241666666666
 20
11.4856
 10
5.225047222222221
 20
11.4856
 10
5.268033333333333
 20
11.4856
 10
5.315491666666667
 20
11.4856
 10
5.366533333333333
 20
11.4856
 10
5.419352777777778
 20
11.4856
 10
5.472186111111111
 20
11.4856
 10
5.524130555555556
 20
11.4856
 10
5.571575000000001
 20
11.4856
 10
5.613672222222223
 20
11.4856
 10
5.650380555555556
 20
11.4856
 10
5.679033333333333
 20
11.4856
 10
5.698741666666666
 20
11.4856
 10
5.698741666666666
 20
11.49812777777778
 10
5.698741666666666
 20
11.49903055555555
  0
LWPOLYLINE
  5
256
330
2
100
AcDbEntity
  8
PDF_Layer 1
 62
     7
420
 16777215
370
   106
100
AcDbPolyline
 90
        2
 70
     0
 43
0.0
 10
8.427130555555555
 20
11.61096111111111
 10
8.427130555555555
 20
11.61005833333333
  0
LWPOLYLINE
  5
25A
330
2
100
AcDbEntity
  8
PDF_Layer 1
 62
     7
420
 16777215
370
   106
100
AcDbPolyline
 90
       21
 70
     0
 43
0.0
 10
10.64064444444444
 20
2.558113888888888
 10
10.64242222222222
 20
2.558113888888888
 10
10.65406111111111
 20
2.558113888888888
 10
10.65406111111111
 20
2.66021111111111
 10
10.66390833333333
 20
2.66021111111111
 10
10.67733888888889
 20
2.66021111111111
 10
10.69346388888889
 20
2.66021111111111
 10
10.71226944444444
 20
2.66021111111111
 10
10.73197777777777
 20
2.66021111111111
 10
10.75435277777778
 20
2.66021111111111
 10
10.77763055555555
 20
2.66021111111111
 10
10.80181111111111
 20
2.66021111111111
 10
10.80181111111111
 20
2.558113888888888
 10
10.84568611111111
 20
2.558113888888888
 10
10.88956111111111
 20
2.558113888888888
 10
10.92985277777778
 20
2.558113888888888
 10
10.96476944444444
 20
2.558113888888888
 10
10.99254722222222
 20
2.558113888888888
 10
11.01133888888889
 20
2.558113888888888
 10
11.02118611111111
 20
2.558113888888888
 10
11.022075
 20
2.558113888888888
  0
LWPOLYLINE
  5
260
330
2
100
AcDbEntity
  8
PDF_Layer 1
 62
     7
420
 16777215
370
   106
100
AcDbPolyline
 90
       15
 70
     0
 43
0.0
 10
10.64331111111111
 20
2.889433333333333
 10
10.64779722222222
 20
2.889433333333333
 10
10.66122777777778
 20
2.889433333333333
 10
10.68360277777777
 20
2.889433333333333
 10
10.71315833333333
 20
2.889433333333333
 10
10.74897777777778
 20
2.889433333333333
 10
10.78838055555555
 20
2.889433333333333
 10
10.83047777777778
 20
2.889433333333333
 10
10.87256111111111
 20
2.889433333333333
 10
10.91195
 20
2.889433333333333
 10
10.94776944444444
 20
2.889433333333333
 10
10.97731111111111
 20
2.889433333333333
 10
10.9997
 20
2.889433333333333
 10
11.01401944444444
 20
2.889433333333333
 10
11.01939444444444
 20
2.889433333333333
  0
LWPOLYLINE
  5
261
330
2
100
AcDbEntity
  8
PDF_Layer 1
 62
     7
420
 16777215
370
   106
100
AcDbPolyline
 90
       32
 70
     0
 43
0.0
 10
10.80181111111111
 20
2.558113888888888
 10
10.77942222222222
 20
2.545586111111111
 10
10.82061666666666
 20
2.545586111111111
 10
10.8627
 20
2.545586111111111
 10
10.90299166666667
 20
2.545586111111111
 10
10.93971388888889
 20
2.545586111111111
 10
10.96925555555555
 20
2.545586111111111
 10
10.99164444444444
 20
2.545586111111111
 10
11.005075
 20
2.545586111111111
 10
11.00865833333333
 20
2.545586111111111
 10
11.022075
 20
2.558113888888888
 10
11.022075
 20
2.697808333333333
 10
11.02031111111111
 20
2.697808333333333
 10
11.00954722222222
 20
2.697808333333333
 10
10.99164444444444
 20
2.697808333333333
 10
10.96567222222222
 20
2.697808333333333
 10
10.93345
 20
2.697808333333333
 10
10.89672777777778
 20
2.697808333333333
 10
10.85643611111111
 20
2.697808333333333
 10
10.81524166666667
 20
2.697808333333333
 10
10.77495
 20
2.697808333333333
 10
10.737325
 20
2.697808333333333
 10
10.70421388888889
 20
2.697808333333333
 10
10.67645
 20
2.697808333333333
 10
10.65675555555555
 20
2.697808333333333
 10
10.64421388888889
 20
2.697808333333333
 10
10.64064444444444
 20
2.697808333333333
 10
10.64064444444444
 20
2.558113888888888
 10
10.65317222222222
 20
2.545586111111111
 10
10.65406111111111
 20
2.545586111111111
 10
10.66033888888889
 20
2.545586111111111
 10
10.67645
 20
2.545586111111111
  0
LWPOLYLINE
  5
263
330
2
100
AcDbEntity
  8
PDF_Layer 1
 62
     7
420
 16777215
370
   106
100
AcDbPolyline
 90
        3
 70
     0
 43
0.0
 10
10.77942222222222
 20
2.545586111111111
 10
10.67645
 20
2.545586111111111
 10
10.65406111111111
 20
2.558113888888888
  0
LWPOLYLINE
  5
26D
330
2
100
AcDbEntity
  8
PDF_Layer 1
 62
     7
420
 16777215
370
   106
100
AcDbPolyline
 90
       21
 70
     0
 43
0.0
 10
10.20275555555555
 20
8.588863888888887
 10
10.20454722222222
 20
8.588863888888887
 10
10.21351944444444
 20
8.588863888888887
 10
10.23142222222222
 20
8.588863888888887
 10
10.25739444444444
 20
8.588863888888887
 10
10.29053333333333
 20
8.588863888888887
 10
10.3317
 20
8.588863888888887
 10
10.37738055555555
 20
8.588863888888887
 10
10.42840833333333
 20
8.588863888888887
 10
10.48213055555555
 20
8.588863888888887
 10
10.53765833333333
 20
8.588863888888887
 10
10.59406111111111
 20
8.588863888888887
 10
10.64958888888889
 20
8.588863888888887
 10
10.70151944444444
 20
8.588863888888887
 10
10.75076944444444
 20
8.588863888888887
 10
10.79374166666666
 20
8.588863888888887
 10
10.83135277777778
 20
8.588863888888887
 10
10.86090833333333
 20
8.588863888888887
 10
10.88328333333333
 20
8.588863888888887
 10
10.89672777777778
 20
8.588863888888887
 10
10.9012
 20
8.588863888888887
  0
LWPOLYLINE
  5
274
330
2
100
AcDbEntity
  8
PDF_Layer 1
 62
     7
420
 16777215
370
   106
100
AcDbPolyline
 90
       10
 70
     0
 43
0.0
 10
12.25240833333333
 20
9.248794444444444
 10
12.259575
 20
9.248794444444444
 10
12.27479722222222
 20
9.248794444444444
 10
12.29629722222222
 20
9.248794444444444
 10
12.32225555555555
 20
9.248794444444444
 10
12.34911666666667
 20
9.248794444444444
 10
12.37508888888889
 20
9.248794444444444
 10
12.39568611111111
 20
9.248794444444444
 10
12.41000555555555
 20
9.248794444444444
 10
12.41090833333333
 20
9.248794444444444
  0
LWPOLYLINE
  5
275
330
2
100
AcDbEntity
  8
PDF_Layer 1
 62
     7
420
 16777215
370
   106
100
AcDbPolyline
 90
       11
 70
     0
 43
0.0
 10
12.41718611111111
 20
9.248794444444444
 10
12.41358888888889
 20
9.248794444444444
 10
12.40283888888889
 20
9.248794444444444
 10
12.38404722222222
 20
9.249697222222222
 10
12.35986666666667
 20
9.249697222222222
 10
12.33300555555555
 20
9.249697222222222
 10
12.30614444444444
 20
9.249697222222222
 10
12.28286666666666
 20
9.249697222222222
 10
12.26404722222222
 20
9.248794444444444
 10
12.2542
 20
9.248794444444444
 10
12.25151944444444
 20
9.248794444444444
  0
LWPOLYLINE
  5
277
330
2
100
AcDbEntity
  8
PDF_Layer 1
 62
     7
420
 16777215
370
    35
100
AcDbPolyline
 90
        3
 70
     0
 43
0.0
 10
10.73654444444444
 20
5.823038888888889
 10
10.658475
 20
5.823038888888889
 10
10.5481
 20
5.823038888888889
  0
LWPOLYLINE
  5
279
330
2
100
AcDbEntity
  8
PDF_Layer 1
 62
     7
420
 16777215
370
    35
100
AcDbPolyline
 90
        2
 70
     0
 43
0.0
 10
10.54809583333333
 20
5.823038888888889
 10
10.47002638888888
 20
5.823038888888889
  0
CIRCLE
  5
27A
330
2
100
AcDbEntity
  8
PDF_Layer 1
 62
     7
420
 16777215
370
    35
100
AcDbCircle
 10
11.11093749120645
 20
1.505514542081352
 30
0.0
 40
0.0967937926853618
  0
CIRCLE
  5
27B
330
2
100
AcDbEntity
  8
PDF_Layer 1
 62
     7
420
 16777215
370
    35
100
AcDbCircle
 10
10.55251943491821
 20
1.505514541072762
 30
0.0
 40
0.0967937923001564
  0
LWPOLYLINE
  5
27C
330
2
100
AcDbEntity
  8
PDF_Layer 1
 62
     7
420
 16777215
370
    35
100
AcDbPolyline
 90
        9
 70
     0
 43
0.0
 10
10.4368625
 20
1.399766666666666
 10
10.43130694444444
 20
1.399766666666666
 10
10.42644583333333
 20
1.399766666666666
 10
10.42232083333333
 20
1.399766666666666
 10
10.41894583333333
 20
1.399766666666666
 10
10.41632083333333
 20
1.399766666666666
 10
10.41443194444444
 20
1.399766666666666
 10
10.41329305555555
 20
1.399766666666666
 10
10.41291805555555
 20
1.399766666666666
  0
LWPOLYLINE
  5
27D
330
2
100
AcDbEntity
  8
PDF_Layer 1
 62
     7
420
 16777215
370
    35
100
AcDbPolyline
 90
       10
 70
     0
 43
0.0
 10
11.08959999999999
 20
1.399766666666666
 10
11.03835
 20
1.399766666666666
 10
10.9826
 20
1.399766666666666
 10
10.92357222222222
 20
1.399766666666666
 10
10.86255833333333
 20
1.399766666666666
 10
10.80089166666666
 20
1.399766666666666
 10
10.73986388888888
 20
1.399766666666666
 10
10.68084999999999
 20
1.399766666666666
 10
10.62511388888888
 20
1.399766666666666
 10
10.57385
 20
1.399766666666666
  0
LWPOLYLINE
  5
27E
330
2
100
AcDbEntity
  8
PDF_Layer 1
 62
     7
420
 16777215
370
    35
100
AcDbPolyline
 90
        9
 70
     0
 43
0.0
 10
11.25054305555555
 20
1.399766666666666
 10
11.25016805555555
 20
1.399766666666666
 10
11.24902916666666
 20
1.399766666666666
 10
11.24714027777778
 20
1.399766666666666
 10
11.24450138888889
 20
1.399766666666666
 10
11.24112638888889
 20
1.399766666666666
 10
11.23700138888889
 20
1.399766666666666
 10
11.23215416666666
 20
1.399766666666666
 10
11.22657083333333
 20
1.399766666666666
  0
LWPOLYLINE
  5
27F
330
2
100
AcDbEntity
  8
PDF_Layer 1
 62
     7
420
 16777215
370
    35
100
AcDbPolyline
 90
       22
 70
     0
 43
0.0
 10
11.24955277777777
 20
1.392768055555555
 10
11.24488611111111
 20
1.392768055555555
 10
11.23098333333333
 20
1.392768055555555
 10
11.20817777777777
 20
1.392768055555555
 10
11.17694166666666
 20
1.392768055555555
 10
11.138025
 20
1.392768055555555
 10
11.09223333333333
 20
1.392768055555555
 10
11.04063611111111
 20
1.392768055555555
 10
10.98437222222222
 20
1.392768055555555
 10
10.92469166666666
 20
1.392768055555555
 10
10.86295555555555
 20
1.392768055555555
 10
10.80049722222222
 20
1.392768055555555
 10
10.73876111111111
 20
1.392768055555555
 10
10.67908055555555
 20
1.392768055555555
 10
10.62281666666666
 20
1.392768055555555
 10
10.57121944444444
 20
1.392768055555555
 10
10.52542777777777
 20
1.392768055555555
 10
10.48651111111111
 20
1.392768055555555
 10
10.455275
 20
1.392768055555555
 10
10.43246944444444
 20
1.392768055555555
 10
10.41856666666666
 20
1.392768055555555
 10
10.4139
 20
1.392768055555555
  0
LWPOLYLINE
  5
280
330
2
100
AcDbEntity
  8
PDF_Layer 1
 62
     7
420
 16777215
370
    35
100
AcDbPolyline
 90
       10
 70
     0
 43
0.0
 10
11.08959999999999
 20
1.611247222222222
 10
11.03835
 20
1.611247222222222
 10
10.9826
 20
1.611247222222222
 10
10.92357222222222
 20
1.611247222222222
 10
10.86255833333333
 20
1.611247222222222
 10
10.80089166666666
 20
1.611247222222222
 10
10.73986388888888
 20
1.611247222222222
 10
10.68084999999999
 20
1.611247222222222
 10
10.62511388888888
 20
1.611247222222222
 10
10.57385
 20
1.611247222222222
  0
LWPOLYLINE
  5
281
330
2
100
AcDbEntity
  8
PDF_Layer 1
 62
     7
420
 16777215
370
    35
100
AcDbPolyline
 90
       22
 70
     0
 43
0.0
 10
11.24955277777777
 20
1.618245833333333
 10
11.24488611111111
 20
1.618245833333333
 10
11.23098333333333
 20
1.618245833333333
 10
11.20817777777777
 20
1.618245833333333
 10
11.17694166666666
 20
1.618245833333333
 10
11.138025
 20
1.618245833333333
 10
11.09223333333333
 20
1.618245833333333
 10
11.04063611111111
 20
1.618245833333333
 10
10.98437222222222
 20
1.618245833333333
 10
10.92469166666666
 20
1.618245833333333
 10
10.86295555555555
 20
1.618245833333333
 10
10.80049722222222
 20
1.618245833333333
 10
10.73876111111111
 20
1.618245833333333
 10
10.67908055555555
 20
1.618245833333333
 10
10.62281666666666
 20
1.618245833333333
 10
10.57121944444444
 20
1.618245833333333
 10
10.52542777777777
 20
1.618245833333333
 10
10.48651111111111
 20
1.618245833333333
 10
10.455275
 20
1.618245833333333
 10
10.43246944444444
 20
1.618245833333333
 10
10.41856666666666
 20
1.618245833333333
 10
10.4139
 20
1.618245833333333
  0
LWPOLYLINE
  5
282
330
2
100
AcDbEntity
  8
PDF_Layer 1
 62
     7
420
 16777215
370
    35
100
AcDbPolyline
 90
        9
 70
     0
 43
0.0
 10
11.25054305555555
 20
1.611247222222222
 10
11.25016805555555
 20
1.611247222222222
 10
11.24902916666666
 20
1.611247222222222
 10
11.24714027777778
 20
1.611247222222222
 10
11.24450138888889
 20
1.611247222222222
 10
11.24112638888889
 20
1.611247222222222
 10
11.23700138888889
 20
1.611247222222222
 10
11.23215416666666
 20
1.611247222222222
 10
11.22657083333333
 20
1.611247222222222
  0
LWPOLYLINE
  5
283
330
2
100
AcDbEntity
  8
PDF_Layer 1
 62
     7
420
 16777215
370
    35
100
AcDbPolyline
 90
        9
 70
     0
 43
0.0
 10
10.4368625
 20
1.611247222222222
 10
10.43130694444444
 20
1.611247222222222
 10
10.42644583333333
 20
1.611247222222222
 10
10.42232083333333
 20
1.611247222222222
 10
10.41894583333333
 20
1.611247222222222
 10
10.41632083333333
 20
1.611247222222222
 10
10.41443194444444
 20
1.611247222222222
 10
10.41329305555555
 20
1.611247222222222
 10
10.41291805555555
 20
1.611247222222222
  0
LWPOLYLINE
  5
284
330
2
100
AcDbEntity
  8
PDF_Layer 1
 62
     7
420
 16777215
370
    35
100
AcDbPolyline
 90
       19
 70
     0
 43
0.0
 10
11.1415875
 20
1.016248611111111
 10
11.13687916666667
 20
1.016248611111111
 10
11.12290694444444
 20
1.016248611111111
 10
11.10007361111111
 20
1.016248611111111
 10
11.0690875
 20
1.016248611111111
 10
11.03089305555555
 20
1.016248611111111
 10
10.98665694444444
 20
1.016248611111111
 10
10.93769861111111
 20
1.016248611111111
 10
10.88551805555556
 20
1.016248611111111
 10
10.8317125
 20
1.016248611111111
 10
10.77792083333333
 20
1.016248611111111
 10
10.72575416666667
 20
1.016248611111111
 10
10.67679583333333
 20
1.016248611111111
 10
10.63255972222222
 20
1.016248611111111
 10
10.59436527777778
 20
1.016248611111111
 10
10.56337916666667
 20
1.016248611111111
 10
10.54055972222222
 20
1.016248611111111
 10
10.52657361111111
 20
1.016248611111111
 10
10.52186527777778
 20
1.016248611111111
  0
LWPOLYLINE
  5
285
330
2
100
AcDbEntity
  8
PDF_Layer 1
 62
     7
420
 16777215
370
    35
100
AcDbPolyline
 90
       19
 70
     0
 43
0.0
 10
11.1415875
 20
1.994763888888888
 10
11.13687916666667
 20
1.994763888888888
 10
11.12290694444444
 20
1.994763888888888
 10
11.10007361111111
 20
1.994763888888888
 10
11.0690875
 20
1.994763888888888
 10
11.03089305555555
 20
1.994763888888888
 10
10.98665694444444
 20
1.994763888888888
 10
10.93769861111111
 20
1.994763888888888
 10
10.88551805555556
 20
1.994763888888888
 10
10.8317125
 20
1.994763888888888
 10
10.77792083333333
 20
1.994763888888888
 10
10.72575416666667
 20
1.994763888888888
 10
10.67679583333333
 20
1.994763888888888
 10
10.63255972222222
 20
1.994763888888888
 10
10.59436527777778
 20
1.994763888888888
 10
10.56337916666667
 20
1.994763888888888
 10
10.54055972222222
 20
1.994763888888888
 10
10.52657361111111
 20
1.994763888888888
 10
10.52186527777778
 20
1.994763888888888
  0
LWPOLYLINE
  5
286
330
2
100
AcDbEntity
  8
PDF_Layer 1
 62
     7
420
 16777215
370
    35
100
AcDbPolyline
 90
        2
 70
     0
 43
0.0
 10
10.00900555555555
 20
5.031113888888889
 10
10.00900555555555
 20
4.939752777777777
  0
LWPOLYLINE
  5
287
330
2
100
AcDbEntity
  8
PDF_Layer 1
 62
     7
420
 16777215
370
    35
100
AcDbPolyline
 90
        9
 70
     0
 43
0.0
 10
10.02091527777777
 20
5.048881944444444
 10
10.01858194444444
 20
5.048534722222221
 10
10.01635972222222
 20
5.047534722222222
 10
10.01429027777777
 20
5.045881944444444
 10
10.01249861111111
 20
5.043673611111111
 10
10.0110125
 20
5.040993055555555
 10
10.00991527777777
 20
5.037923611111111
 10
10.00923472222222
 20
5.034590277777777
 10
10.0090125
 20
5.031118055555555
  0
LWPOLYLINE
  5
288
330
2
100
AcDbEntity
  8
PDF_Layer 1
 62
     7
420
 16777215
370
    35
100
AcDbPolyline
 90
        9
 70
     0
 43
0.0
 10
10.00900555555555
 20
4.939751388888888
 10
10.00924166666666
 20
4.936279166666666
 10
10.00990833333333
 20
4.932945833333333
 10
10.01101944444444
 20
4.929862499999999
 10
10.01249166666666
 20
4.927181944444443
 10
10.01429722222222
 20
4.92497361111111
 10
10.01635277777777
 20
4.923320833333332
 10
10.018575
 20
4.922320833333333
 10
10.02090833333333
 20
4.92197361111111
  0
LWPOLYLINE
  5
289
330
2
100
AcDbEntity
  8
PDF_Layer 1
 62
     7
420
 16777215
370
    35
100
AcDbPolyline
 90
       10
 70
     0
 43
0.0
 10
11.05381944444444
 20
4.91436111111111
 10
11.05259722222222
 20
4.91436111111111
 10
11.04284722222222
 20
4.91436111111111
 10
11.02377777777777
 20
4.91436111111111
 10
10.99623611111111
 20
4.91436111111111
 10
10.96143055555555
 20
4.91436111111111
 10
10.92088888888889
 20
4.91436111111111
 10
10.87643055555555
 20
4.91436111111111
 10
10.82998611111111
 20
4.91436111111111
 10
10.78361111111111
 20
4.91436111111111
  0
LWPOLYLINE
  5
28A
330
2
100
AcDbEntity
  8
PDF_Layer 1
 62
     7
420
 16777215
370
    35
100
AcDbPolyline
 90
        9
 70
     0
 43
0.0
 10
10.78196944444444
 20
4.921969444444443
 10
10.78228888888889
 20
4.921830555555555
 10
10.78259444444444
 20
4.921399999999999
 10
10.78287222222222
 20
4.920691666666665
 10
10.78313611111111
 20
4.919747222222221
 10
10.78334444444444
 20
4.918580555555554
 10
10.78348333333333
 20
4.917274999999999
 10
10.78358055555555
 20
4.915858333333332
 10
10.78360833333333
 20
4.914358333333332
  0
LWPOLYLINE
  5
28B
330
2
100
AcDbEntity
  8
PDF_Layer 1
 62
     7
420
 16777215
370
    35
100
AcDbPolyline
 90
        3
 70
     0
 43
0.0
 10
10.78360972222222
 20
4.91436111111111
 10
10.76534583333333
 20
4.917555555555555
 10
10.75699861111111
 20
4.921972222222222
  0
LWPOLYLINE
  5
28C
330
2
100
AcDbEntity
  8
PDF_Layer 1
 62
     7
420
 16777215
370
    35
100
AcDbPolyline
 90
       17
 70
     0
 43
0.0
 10
10.60963333333333
 20
4.878811111111111
 10
10.614175
 20
4.878811111111111
 10
10.62763333333333
 20
4.878811111111111
 10
10.64943888888889
 20
4.878811111111111
 10
10.67871666666666
 20
4.878811111111111
 10
10.71424444444444
 20
4.878811111111111
 10
10.75459166666666
 20
4.878811111111111
 10
10.79809166666666
 20
4.878811111111111
 10
10.84298055555555
 20
4.878811111111111
 10
10.88739722222222
 20
4.878811111111111
 10
10.92953611111111
 20
4.878811111111111
 10
10.967675
 20
4.878811111111111
 10
11.00024444444444
 20
4.878811111111111
 10
11.025925
 20
4.878811111111111
 10
11.04363333333333
 20
4.878811111111111
 10
11.052675
 20
4.878811111111111
 10
11.05381388888889
 20
4.878811111111111
  0
LWPOLYLINE
  5
28D
330
2
100
AcDbEntity
  8
PDF_Layer 1
 62
     7
420
 16777215
370
    35
100
AcDbPolyline
 90
        2
 70
     0
 43
0.0
 10
11.46697361111111
 20
5.79766111111111
 10
11.46697361111111
 20
5.670744444444443
  0
LWPOLYLINE
  5
28E
330
2
100
AcDbEntity
  8
PDF_Layer 1
 62
     7
420
 16777215
370
    35
100
AcDbPolyline
 90
        2
 70
     0
 43
0.0
 10
9.638074999999998
 20
5.79766111111111
 10
9.638074999999998
 20
5.670744444444443
  0
LWPOLYLINE
  5
28F
330
2
100
AcDbEntity
  8
PDF_Layer 1
 62
     7
420
 16777215
370
    35
100
AcDbPolyline
 90
       22
 70
     0
 43
0.0
 10
4.987033333333332
 20
12.31126527777777
 10
4.987033333333332
 20
12.31097361111111
 10
4.987033333333332
 20
12.30408472222222
 10
4.987033333333332
 20
12.28816805555555
 10
4.987033333333332
 20
12.26365416666666
 10
4.987033333333332
 20
12.23116805555555
 10
4.987033333333332
 20
12.19155694444444
 10
4.987033333333332
 20
12.14583472222222
 10
4.987033333333332
 20
12.09519583333333
 10
4.987033333333332
 20
12.04095972222222
 10
4.987033333333332
 20
11.98450138888889
 10
4.987033333333332
 20
11.92732083333333
 10
4.987033333333332
 20
11.87087638888889
 10
4.987033333333332
 20
11.81662638888889
 10
4.987033333333332
 20
11.7659875
 10
4.987033333333332
 20
11.72026527777777
 10
4.987033333333332
 20
11.68065416666666
 10
4.987033333333332
 20
11.64816805555555
 10
4.987033333333332
 20
11.62365416666666
 10
4.987033333333332
 20
11.6077375
 10
4.987033333333332
 20
11.60084861111111
 10
4.987033333333332
 20
11.60055694444444
  0
LWPOLYLINE
  5
290
330
2
100
AcDbEntity
  8
PDF_Layer 1
 62
     7
420
 16777215
370
    35
100
AcDbPolyline
 90
       22
 70
     0
 43
0.0
 10
4.974459722222221
 20
12.30031944444444
 10
4.974459722222221
 20
12.30004166666667
 10
4.974459722222221
 20
12.29336111111111
 10
4.974459722222221
 20
12.27794444444444
 10
4.974459722222221
 20
12.25418055555555
 10
4.974459722222221
 20
12.22269444444444
 10
4.974459722222221
 20
12.18429166666666
 10
4.974459722222221
 20
12.13998611111111
 10
4.974459722222221
 20
12.09090277777778
 10
4.974459722222221
 20
12.03833333333333
 10
4.974459722222221
 20
11.983625
 10
4.974459722222221
 20
11.92820833333333
 10
4.974459722222221
 20
11.87348611111111
 10
4.974459722222221
 20
11.82091666666666
 10
4.974459722222221
 20
11.77183333333333
 10
4.974459722222221
 20
11.72752777777777
 10
4.974459722222221
 20
11.689125
 10
4.974459722222221
 20
11.65765277777778
 10
4.974459722222221
 20
11.63388888888889
 10
4.974459722222221
 20
11.61845833333333
 10
4.974459722222221
 20
11.61177777777777
 10
4.974459722222221
 20
11.6115
  0
LWPOLYLINE
  5
291
330
2
100
AcDbEntity
  8
PDF_Layer 1
 62
     7
420
 16777215
370
    35
100
AcDbPolyline
 90
       16
 70
     0
 43
0.0
 10
10.64135694444444
 20
2.413899999999999
 10
10.64471805555555
 20
2.413899999999999
 10
10.65674583333333
 20
2.413899999999999
 10
10.67696805555555
 20
2.413899999999999
 10
10.70442638888889
 20
2.413899999999999
 10
10.73782916666666
 20
2.413899999999999
 10
10.77563472222222
 20
2.413899999999999
 10
10.8160375
 20
2.413899999999999
 10
10.85719027777778
 20
2.413899999999999
 10
10.8971625
 20
2.413899999999999
 10
10.93405138888889
 20
2.413899999999999
 10
10.96617638888889
 20
2.413899999999999
 10
10.99199583333333
 20
2.413899999999999
 10
11.01032916666667
 20
2.413899999999999
 10
11.02032916666666
 20
2.413899999999999
 10
11.02209305555555
 20
2.413899999999999
  0
LWPOLYLINE
  5
292
330
2
100
AcDbEntity
  8
PDF_Layer 1
 62
     7
420
 16777215
370
    35
100
AcDbPolyline
 90
       16
 70
     0
 43
0.0
 10
10.66647638888889
 20
2.470418055555555
 10
10.66651805555555
 20
2.470418055555555
 10
10.67172638888889
 20
2.470418055555555
 10
10.68555972222222
 20
2.470418055555555
 10
10.70728194444444
 20
2.470418055555555
 10
10.73569861111111
 20
2.470418055555555
 10
10.76929583333333
 20
2.470418055555555
 10
10.80626805555555
 20
2.470418055555555
 10
10.84460138888889
 20
2.470418055555555
 10
10.88225416666666
 20
2.470418055555555
 10
10.91717083333333
 20
2.470418055555555
 10
10.9474625
 20
2.470418055555555
 10
10.97155972222222
 20
2.470418055555555
 10
10.9880875
 20
2.470418055555555
 10
10.99619861111111
 20
2.470418055555555
 10
10.9969625
 20
2.470418055555555
  0
LWPOLYLINE
  5
293
330
2
100
AcDbEntity
  8
PDF_Layer 1
 62
     7
420
 16777215
370
    35
100
AcDbPolyline
 90
       15
 70
     0
 43
0.0
 10
10.68324166666666
 20
2.50811111111111
 10
10.68365833333333
 20
2.50811111111111
 10
10.69110277777778
 20
2.50811111111111
 10
10.70738055555555
 20
2.50811111111111
 10
10.73149166666667
 20
2.50811111111111
 10
10.76186666666667
 20
2.50811111111111
 10
10.79664444444444
 20
2.50811111111111
 10
10.83363055555556
 20
2.50811111111111
 10
10.87049166666667
 20
2.50811111111111
 10
10.90492222222222
 20
2.50811111111111
 10
10.93474166666666
 20
2.50811111111111
 10
10.95810277777778
 20
2.50811111111111
 10
10.97351944444444
 20
2.50811111111111
 10
10.98003333333333
 20
2.50811111111111
 10
10.98021388888889
 20
2.50811111111111
  0
LWPOLYLINE
  5
294
330
2
100
AcDbEntity
  8
PDF_Layer 1
 62
     7
420
 16777215
370
    35
100
AcDbPolyline
 90
       16
 70
     0
 43
0.0
 10
11.09825277777777
 20
6.838338888888888
 10
11.09743333333333
 20
6.839213888888888
 10
11.09104444444444
 20
6.8462
 10
11.07833611111111
 20
6.860088888888888
 10
11.05948888888889
 20
6.8807
 10
11.03466944444444
 20
6.907824999999999
 10
11.00421111111111
 20
6.941116666666666
 10
10.96844722222222
 20
6.980213888888888
 10
10.92782222222222
 20
7.024630555555555
 10
10.88276666666666
 20
7.073852777777777
 10
10.83386388888889
 20
7.127311111111111
 10
10.78165555555555
 20
7.184380555555555
 10
10.72678055555555
 20
7.244366666666667
 10
10.66982222222222
 20
7.306602777777778
 10
10.61151666666666
 20
7.370338888888888
 10
10.55251666666666
 20
7.434825
  0
LWPOLYLINE
  5
295
330
2
100
AcDbEntity
  8
PDF_Layer 1
 62
     7
420
 16777215
370
    35
100
AcDbPolyline
 90
       31
 70
     0
 43
0.0
 10
11.14900277777778
 20
6.889098611111108
 10
11.14812777777777
 20
6.889918055555553
 10
11.14115555555555
 20
6.896293055555553
 10
11.12726666666666
 20
6.909001388888887
 10
11.10664166666666
 20
6.927876388888886
 10
11.07951666666666
 20
6.952681944444442
 10
11.046225
 20
6.983140277777775
 10
11.00712777777777
 20
7.018890277777775
 10
10.96271111111111
 20
7.059529166666664
 10
10.91348888888888
 20
7.104570833333331
 10
10.86004444444444
 20
7.153473611111109
 10
10.802975
 20
7.205681944444442
 10
10.742975
 20
7.260570833333331
 10
10.68073888888888
 20
7.317515277777776
 10
10.61701666666666
 20
7.375820833333331
 10
10.55251666666666
 20
7.434820833333331
 10
10.61151666666666
 20
7.499320833333331
 10
10.66982222222222
 20
7.563043055555553
 10
10.72678055555555
 20
7.625279166666664
 10
10.78165555555555
 20
7.685293055555553
 10
10.83386388888889
 20
7.742348611111109
 10
10.88276666666666
 20
7.795806944444442
 10
10.92780833333333
 20
7.845029166666664
 10
10.96844722222222
 20
7.889445833333331
 10
11.00419722222222
 20
7.928529166666664
 10
11.03466944444444
 20
7.96183472222222
 10
11.05948888888889
 20
7.988945833333331
 10
11.07833611111111
 20
8.009570833333331
 10
11.09104444444444
 20
8.02345972222222
 10
11.09743333333333
 20
8.030431944444442
 10
11.09825277777777
 20
8.031306944444441
  0
LWPOLYLINE
  5
297
330
2
100
AcDbEntity
  8
PDF_Layer 1
 62
     7
420
 16777215
370
    35
100
AcDbPolyline
 90
       16
 70
     0
 43
0.0
 10
11.14900694444444
 20
7.98055
 10
11.14813194444444
 20
7.979744444444444
 10
11.14115972222222
 20
7.973355555555555
 10
11.12727083333333
 20
7.960661111111111
 10
11.10664583333333
 20
7.94178611111111
 10
11.07952083333333
 20
7.916980555555555
 10
11.04622916666667
 20
7.886508333333333
 10
11.00713194444444
 20
7.850758333333333
 10
10.96271527777777
 20
7.810119444444444
 10
10.91349305555555
 20
7.765091666666666
 10
10.86003472222222
 20
7.716174999999999
 10
10.80297916666666
 20
7.663966666666667
 10
10.74297916666666
 20
7.609077777777777
 10
10.68074305555555
 20
7.552147222222222
 10
10.61700694444444
 20
7.493841666666666
 10
10.55252083333333
 20
7.434827777777777
  0
LWPOLYLINE
  5
298
330
2
100
AcDbEntity
  8
PDF_Layer 1
 62
     7
420
 16777215
370
    35
100
AcDbPolyline
 90
       13
 70
     0
 43
0.0
 10
12.50716111111111
 20
7.434474999999999
 10
12.50716111111111
 20
7.504155555555554
 10
12.50716111111111
 20
7.572669444444443
 10
12.50716111111111
 20
7.638808333333332
 10
12.50716111111111
 20
7.701461111111109
 10
12.50716111111111
 20
7.759558333333332
 10
12.50716111111111
 20
7.81208611111111
 10
12.50716111111111
 20
7.858169444444443
 10
12.50716111111111
 20
7.897002777777776
 10
12.50716111111111
 20
7.927933333333331
 10
12.50716111111111
 20
7.950419444444443
 10
12.50716111111111
 20
7.964099999999999
 10
12.50716111111111
 20
7.96871111111111
  0
LWPOLYLINE
  5
299
330
2
100
AcDbEntity
  8
PDF_Layer 1
 62
     7
420
 16777215
370
    35
100
AcDbPolyline
 90
       13
 70
     0
 43
0.0
 10
12.50716111111111
 20
6.900940277777777
 10
12.50716111111111
 20
6.905468055555555
 10
12.50716111111111
 20
6.919051388888888
 10
12.50716111111111
 20
6.941454166666666
 10
12.50716111111111
 20
6.972301388888888
 10
12.50716111111111
 20
7.011051388888889
 10
12.50716111111111
 20
7.057065277777778
 10
12.50716111111111
 20
7.109551388888888
 10
12.50716111111111
 20
7.167579166666667
 10
12.50716111111111
 20
7.230190277777778
 10
12.50716111111111
 20
7.296315277777777
 10
12.50716111111111
 20
7.3647875
 10
12.50716111111111
 20
7.434481944444444
  0
LWPOLYLINE
  5
29A
330
2
100
AcDbEntity
  8
PDF_Layer 1
 62
     7
420
 16777215
370
    35
100
AcDbPolyline
 90
        4
 70
     0
 43
0.0
 10
12.25659166666666
 20
9.22423611111111
 10
12.23814722222222
 20
9.224249999999999
 10
12.22827222222222
 20
9.224263888888888
 10
12.22685555555555
 20
9.224277777777777
  0
LWPOLYLINE
  5
29B
330
2
100
AcDbEntity
  8
PDF_Layer 1
 62
     7
420
 16777215
370
    35
100
AcDbPolyline
 90
        9
 70
     0
 43
0.0
 10
12.44262638888888
 20
9.224283333333334
 10
12.43822361111111
 20
9.224269444444445
 10
12.42462638888888
 20
9.224241666666667
 10
12.40305694444444
 20
9.224241666666667
 10
12.37541805555555
 20
9.22421388888889
 10
12.34415416666666
 20
9.22421388888889
 10
12.31207083333333
 20
9.22421388888889
 10
12.2819875
 20
9.224227777777779
 10
12.25658472222222
 20
9.224241666666667
  0
LWPOLYLINE
  5
29C
330
2
100
AcDbEntity
  8
PDF_Layer 1
 62
     7
420
 16777215
370
    35
100
AcDbPolyline
 90
        3
 70
     0
 43
0.0
 10
12.41166111111111
 20
9.249647222222222
 10
12.41706388888889
 20
9.249661111111111
 10
12.41721666666667
 20
9.249661111111111
  0
LWPOLYLINE
  5
29D
330
2
100
AcDbEntity
  8
PDF_Layer 1
 62
     7
420
 16777215
370
    35
100
AcDbPolyline
 90
        2
 70
     0
 43
0.0
 10
12.25225138888889
 20
9.249661111111111
 10
12.25244583333333
 20
9.249661111111111
  0
MTEXT
  5
29E
330
2
100
AcDbEntity
  8
PDF_Text
 62
     7
420
 16777215
100
AcDbMText
 10
9.735379166666664
 20
9.125393131510415
 30
0.0
 40
0.2087809244791666
 41
0.0
 46
0.0
 71
     7
 72
     5
  1
28
  7
PDF Arial
 73
     1
 44
1.0
  0
MTEXT
  5
29F
330
2
100
AcDbEntity
  8
PDF_Text
 62
     7
420
 16777215
100
AcDbMText
 10
9.554593055555555
 20
6.734184798177082
 30
0.0
 40
0.2087809244791666
 41
0.0
 46
0.0
 71
     7
 72
     5
  1
43
  7
PDF Arial
 73
     1
 44
1.0
  0
MTEXT
  5
2A0
330
2
100
AcDbEntity
  8
PDF_Text
 62
     7
420
 16777215
100
AcDbMText
 10
11.39031027222222
 20
6.369601464843749
 30
0.0
 40
0.2087809244791666
 41
0.0
 46
0.0
 71
     7
 72
     5
  1
78
  7
PDF Arial
 73
     1
 44
1.0
  0
MTEXT
  5
2A1
330
2
100
AcDbEntity
  8
PDF_Text
 62
     7
420
 16777215
100
AcDbMText
 10
9.409519444444443
 20
6.113138964843749
 30
0.0
 40
0.2087809244791666
 41
0.0
 46
0.0
 71
     7
 72
     5
  1
55
  7
PDF Arial
 73
     1
 44
1.0
  0
MTEXT
  5
2A2
330
2
100
AcDbEntity
  8
PDF_Text
 62
     7
420
 16777215
100
AcDbMText
 10
7.76479722222222
 20
5.480909798177083
 30
0.0
 40
0.2087809244791666
 41
0.0
 46
0.0
 71
     7
 72
     5
  1
202
  7
PDF Arial
 73
     1
 44
1.0
  0
MTEXT
  5
2A3
330
2
100
AcDbEntity
  8
PDF_Text
 62
     7
420
 16777215
100
AcDbMText
 10
9.092502777777776
 20
3.217665538194444
 30
0.0
 40
0.2087809244791666
 41
0.0
 46
0.0
 71
     7
 72
     5
  1
1/2" GAS
  7
PDF Arial
 73
     1
 44
1.0
  0
MTEXT
  5
2A4
330
2
100
AcDbEntity
  8
PDF_Text
 62
     7
420
 16777215
100
AcDbMText
 10
4.18654714626736
 20
8.899302804166664
 30
0.0
 40
0.2087809244791666
 41
0.0
 46
0.0
 71
     7
 72
     5
  1
283
  7
PDF Arial
 11
0.0000000000000001
 21
1.0
 31
0.0
 73
     1
 44
1.0
  0
MTEXT
  5
2A5
330
2
100
AcDbEntity
  8
PDF_Text
 62
     7
420
 16777215
100
AcDbMText
 10
4.643297146267359
 20
8.487054166666665
 30
0.0
 40
0.2087809244791666
 41
0.0
 46
0.0
 71
     7
 72
     5
  1
250
  7
PDF Arial
 11
0.0000000000000001
 21
1.0
 31
0.0
 73
     1
 44
1.0
  0
MTEXT
  5
2A6
330
2
100
AcDbEntity
  8
PDF_Text
 62
     7
420
 16777215
100
AcDbMText
 10
11.99483881293402
 20
4.123061111111111
 30
0.0
 40
0.2087809244791666
 41
0.0
 46
0.0
 71
     7
 72
     5
  1
max45
  7
PDF Arial
 11
0.0000000000000001
 21
1.0
 31
0.0
 73
     1
 44
1.0
  0
MTEXT
  5
2A7
330
2
100
AcDbEntity
  8
PDF_Text
 62
     7
420
 16777215
100
AcDbMText
 10
12.54608881293403
 20
4.524042054166666
 30
0.0
 40
0.2087809244791666
 41
0.0
 46
0.0
 71
     7
 72
     5
  1
350
  7
PDF Arial
 11
0.0000000000000001
 21
1.0
 31
0.0
 73
     1
 44
1.0
  0
MTEXT
  5
2A8
330
2
100
AcDbEntity
  8
PDF_Text
 62
     7
420
 16777215
100
AcDbMText
 10
13.11738047960069
 20
7.368468691666664
 30
0.0
 40
0.2087809244791666
 41
0.0
 46
0.0
 71
     7
 72
     5
  1
131
  7
PDF Arial
 11
0.0000000000000001
 21
1.0
 31
0.0
 73
     1
 44
1.0
  0
VIEWPORT
  5
4A
330
C
100
AcDbEntity
 67
     1
  8
0
100
AcDbViewport
 10
17.24759499286355
 20
11.49745669559334
 30
0.0
 40
36.33732196730226
 41
27.12504315869042
 68
     1
 69
     1
 12
17.24759499286355
 22
11.49745669559334
 13
0.0
 23
0.0
 14
0.5
 24
0.5
 15
0.5
 25
0.5
 16
0.0
 26
0.0
 36
1.0
 17
0.0
 27
0.0
 37
0.0
 42
50.0
 43
0.0
 44
0.0
 45
27.12504315869042
 50
0.0
 51
0.0
 72
  1000
 90
    32864
  1

281
     0
 71
     1
 74
     0
110
0.0
120
0.0
130
0.0
111
1.0
121
0.0
131
0.0
112
0.0
122
1.0
132
0.0
 79
     0
146
0.0
170
     0
 61
     5
348
88
292
     1
282
     1
141
0.0
142
0.0
 63
   250
421
  3355443
  0
ENDSEC
  0
SECTION
  2
OBJECTS
  0
DICTIONARY
  5
7
330
0
100
AcDbDictionary
281
     1
  3
ACAD_CIP_PREVIOUS_PRODUCT_INFO
350
CD
  3
ACAD_COLOR
350
55
  3
ACAD_DETAILVIEWSTYLE
350
C5
  3
ACAD_GROUP
350
1F
  3
ACAD_LAYOUT
350
B
  3
ACAD_MATERIAL
350
54
  3
ACAD_MLEADERSTYLE
350
C1
  3
ACAD_MLINESTYLE
350
20
  3
ACAD_PLOTSETTINGS
350
21
  3
ACAD_PLOTSTYLENAME
350
6
  3
ACAD_SCALELIST
350
AF
  3
ACAD_SECTIONVIEWSTYLE
350
C3
  3
ACAD_TABLESTYLE
350
93
  3
ACAD_VISUALSTYLE
350
82
  3
ACDB_RECOMPOSE_DATA
350
2CE
  3
AcDbVariableDictionary
350
9B
  0
DICTIONARY
  5
2AA
330
4
100
AcDbDictionary
280
     1
281
     1
  3
ADSK_XREC_LAYER_RECONCILED
360
2AB
  0
DICTIONARY
  5
2AC
330
25
100
AcDbDictionary
280
     1
281
     1
  3
ADSK_XREC_LAYER_RECONCILED
360
2AD
  0
DICTIONARY
  5
2AE
330
CE
100
AcDbDictionary
280
     1
281
     1
  3
ADSK_XREC_LAYER_RECONCILED
360
2AF
  0
DICTIONARY
  5
2B0
330
D5
100
AcDbDictionary
280
     1
281
     1
  3
ADSK_XREC_LAYER_RECONCILED
360
2B1
  0
XRECORD
  5
CD
102
{ACAD_REACTORS
330
7
102
}
330
7
100
AcDbXrecord
280
     1
300
ACD
300
2017
300
ACD_F_S
  0
DICTIONARY
  5
55
102
{ACAD_REACTORS
330
7
102
}
330
7
100
AcDbDictionary
281
     1
  0
DICTIONARY
  5
C5
102
{ACAD_REACTORS
330
7
102
}
330
7
100
AcDbDictionary
281
     1
  3
Imperial24
350
C6
  0
DICTIONARY
  5
1F
102
{ACAD_REACTORS
330
7
102
}
330
7
100
AcDbDictionary
281
     1
  0
DICTIONARY
  5
B
102
{ACAD_REACTORS
330
7
102
}
330
7
100
AcDbDictionary
281
     1
  3
Generic 24in x 36in Title Block
350
F
  3
Model
350
A
  0
DICTIONARY
  5
54
102
{ACAD_REACTORS
330
7
102
}
330
7
100
AcDbDictionary
281
     1
  3
ByBlock
350
80
  3
ByLayer
350
7F
  3
Global
350
81
  0
DICTIONARY
  5
C1
102
{ACAD_REACTORS
330
7
102
}
330
7
100
AcDbDictionary
281
     1
  3
Standard
350
C2
  0
DICTIONARY
  5
20
102
{ACAD_REACTORS
330
7
102
}
330
7
100
AcDbDictionary
281
     1
  3
Standard
350
22
  0
DICTIONARY
  5
21
102
{ACAD_REACTORS
330
7
102
}
330
7
100
AcDbDictionary
281
     1
  0
ACDBDICTIONARYWDFLT
  5
6
102
{ACAD_REACTORS
330
7
102
}
330
7
100
AcDbDictionary
281
     1
  3
Normal
350
5
100
AcDbDictionaryWithDefault
340
5
  0
DICTIONARY
  5
AF
102
{ACAD_REACTORS
330
7
102
}
330
7
100
AcDbDictionary
281
     1
  3
A0
350
B0
  3
A1
350
B1
  3
A2
350
B2
  3
A3
350
B3
  3
A4
350
B4
  3
A5
350
B5
  3
A6
350
B6
  3
A7
350
B7
  3
A8
350
B8
  3
A9
350
B9
  3
B0
350
BA
  3
B1
350
BB
  3
B2
350
BC
  3
B3
350
BD
  3
B4
350
BE
  3
B5
350
BF
  3
B6
350
C0
  0
DICTIONARY
  5
C3
102
{ACAD_REACTORS
330
7
102
}
330
7
100
AcDbDictionary
281
     1
  3
Imperial24
350
C4
  0
DICTIONARY
  5
93
102
{ACAD_REACTORS
330
7
102
}
330
7
100
AcDbDictionary
281
     1
  3
Standard
350
94
  0
DICTIONARY
  5
82
102
{ACAD_REACTORS
330
7
102
}
330
7
100
AcDbDictionary
281
     1
  3
2dWireframe
350
88
  3
3D Hidden
350
8A
  3
3dWireframe
350
89
  3
Basic
350
87
  3
Brighten
350
8E
  3
ColorChange
350
92
  3
Conceptual
350
8B
  3
Dim
350
8D
  3
EdgeColorOff
350
AE
  3
Facepattern
350
91
  3
Flat
350
83
  3
FlatWithEdges
350
84
  3
Gouraud
350
85
  3
GouraudWithEdges
350
86
  3
Hidden
350
A6
  3
JitterOff
350
AC
  3
Linepattern
350
90
  3
OverhangOff
350
AD
  3
Realistic
350
8C
  3
Shaded
350
AB
  3
Shaded with edges
350
AA
  3
Shades of Gray
350
A7
  3
Sketchy
350
A8
  3
Thicken
350
8F
  3
Wireframe
350
A5
  3
X-Ray
350
A9
  0
XRECORD
  5
2CE
102
{ACAD_REACTORS
330
7
102
}
330
7
100
AcDbXrecord
280
     1
 90
        1
330
94
330
C4
330
C6
  0
DICTIONARY
  5
9B
102
{ACAD_REACTORS
330
7
102
}
330
7
100
AcDbDictionary
281
     1
  3
CANNOSCALE
350
2C4
  3
CMLEADERSTYLE
350
2C0
  3
CTABLESTYLE
350
9C
  3
CVIEWDETAILSTYLE
350
2C1
  3
CVIEWSECTIONSTYLE
350
2C2
  3
LAYEREVAL
350
2C6
  3
LAYERNOTIFY
350
2C7
  3
LIGHTINGUNITS
350
2C5
  3
MSLTSCALE
350
2C3
  0
XRECORD
  5
2AB
102
{ACAD_REACTORS
330
2AA
102
}
330
2AA
100
AcDbXrecord
280
     1
290
     1
  0
XRECORD
  5
2AD
102
{ACAD_REACTORS
330
2AC
102
}
330
2AC
100
AcDbXrecord
280
     1
290
     1
  0
XRECORD
  5
2AF
102
{ACAD_REACTORS
330
2AE
102
}
330
2AE
100
AcDbXrecord
280
     1
290
     1
  0
XRECORD
  5
2B1
102
{ACAD_REACTORS
330
2B0
102
}
330
2B0
100
AcDbXrecord
280
     1
290
     1
  0
ACDBDETAILVIEWSTYLE
  5
C6
102
{ACAD_XDICTIONARY
360
2CC
102
}
102
{ACAD_REACTORS
330
C5
102
}
330
C5
100
AcDbModelDocViewStyle
 70
     0
  3
Imperial24
290
     0
100
AcDbDetailViewStyle
 70
     0
 71
     0
 90
        3
 71
     1
340
12
 62
   256
 40
0.24
340
0
 62
   256
 40
0.24
300

 40
0.36
280
     3
 71
     2
340
8
 90
       25
 62
   256
 71
     3
340
12
 62
   256
 40
0.24
 90
        1
 40
0.75
 90
        1
300
%<\AcVar ViewType \f "%tc1">% %<\AcVar ViewDetailId>%\PSCALE %<\AcVar ViewScale \f "%sn">%
 71
     4
340
8
 90
       25
 62
   256
340
8
 90
       25
 62
   256
280
     0
  0
LAYOUT
  5
F
102
{ACAD_REACTORS
330
B
102
}
330
B
100
AcDbPlotSettings
  1

  2
none_device
  4
ARCH_D_(24.00_x_36.00_Inches)
  6

 40
6.4
 41
19.1
 42
6.4
 43
19.1
 44
609.5999755859375
 45
914.4000244140626
 46
6.095999999999999
 47
-0.254
 48
0.0
 49
0.0
140
0.0
141
0.0
142
1.0
143
1.0
 70
   692
 72
     0
 73
     1
 74
     1
  7

 75
    16
147
1.0
 76
     0
 77
     2
 78
   300
148
0.2650993882970653
149
0.268587724897764
100
AcDbLayout
  1
Generic 24in x 36in Title Block
 70
     1
 71
     1
 10
-0.7524054877282309
 20
-0.5025428238148726
 11
35.24759547345533
 21
23.49745621500156
 12
0.0
 22
0.0
 32
0.0
 14
1.000000000000000E+20
 24
1.000000000000000E+20
 34
1.000000000000000E+20
 15
-1.000000000000000E+20
 25
-1.000000000000000E+20
 35
-1.000000000000000E+20
146
0.0
 13
0.0
 23
0.0
 33
0.0
 16
1.0
 26
0.0
 36
0.0
 17
0.0
 27
1.0
 37
0.0
 76
     0
330
C
331
4A
  0
LAYOUT
  5
A
102
{ACAD_REACTORS
330
B
102
}
330
B
100
AcDbPlotSettings
  1

  2
none_device
  4
Letter_(8.50_x_11.00_Inches)
  6

 40
6.349999904632568
 41
6.349999904632568
 42
6.350006103515625
 43
6.350006103515625
 44
215.8999938964844
 45
279.3999938964844
 46
20.37045378159827
 47
10.87052656611426
 48
0.0
 49
0.0
140
0.0
141
0.0
142
1.0
143
3.59932905303845
 70
 11956
 72
     0
 73
     1
 74
     1
  7

 75
     0
147
0.2778295580271631
 76
     0
 77
     2
 78
   300
148
5.106903281790129
149
0.2718425107115592
100
AcDbLayout
  1
Model
 70
     1
 71
     0
 10
0.0
 20
0.0
 11
12.0
 21
9.0
 12
0.0
 22
0.0
 32
0.0
 14
0.0
 24
0.0
 34
0.0
 15
0.0
 25
0.0
 35
0.0
146
0.0
 13
0.0
 23
0.0
 33
0.0
 16
1.0
 26
0.0
 36
0.0
 17
0.0
 27
1.0
 37
0.0
 76
     0
330
2
331
7D
  0
MATERIAL
  5
80
102
{ACAD_REACTORS
330
54
102
}
330
54
100
AcDbMaterial
  1
ByBlock
 73
     1
 78
     1
172
     1
176
     1
270
     1
274
     1
 94
       63
  0
MATERIAL
  5
7F
102
{ACAD_REACTORS
330
54
102
}
330
54
100
AcDbMaterial
  1
ByLayer
 73
     1
 78
     1
172
     1
176
     1
270
     1
274
     1
 94
       63
  0
MATERIAL
  5
81
102
{ACAD_REACTORS
330
54
102
}
330
54
100
AcDbMaterial
  1
Global
 73
     1
 78
     1
172
     1
176
     1
270
     1
274
     1
 94
       63
  0
MLEADERSTYLE
  5
C2
102
{ACAD_REACTORS
330
C1
102
}
330
C1
100
AcDbMLeaderStyle
179
     2
170
     2
171
     1
172
     0
 90
        2
 40
0.0
 41
0.0
173
     1
 91
-1056964608
340
15
 92
       -2
290
     1
 42
0.09
291
     1
 43
0.36
  3
Standard
 44
0.18
300

342
12
174
     1
178
     6
175
     1
176
     0
 93
-1056964608
 45
0.18
292
     0
297
     0
 46
0.18
 94
-1056964608
 47
1.0
 49
1.0
140
1.0
293
     1
141
0.0
294
     1
177
     0
142
1.0
295
     1
296
     0
143
0.125
271
     0
272
     9
273
     9
298
     1
  0
MLINESTYLE
  5
22
102
{ACAD_REACTORS
330
20
102
}
330
20
100
AcDbMlineStyle
  2
STANDARD
 70
     0
  3

 62
   256
 51
90.0
 52
90.0
 71
     2
 49
0.5
 62
   256
  6
BYLAYER
 49
-0.5
 62
   256
  6
BYLAYER
  0
ACDBPLACEHOLDER
  5
5
102
{ACAD_REACTORS
330
6
102
}
330
6
  0
SCALE
  5
B0
102
{ACAD_REACTORS
330
AF
102
}
330
AF
100
AcDbScale
 70
     0
300
1:1
140
1.0
141
1.0
290
     1
  0
SCALE
  5
B1
102
{ACAD_REACTORS
330
AF
102
}
330
AF
100
AcDbScale
 70
     0
300
1/128" = 1'-0"
140
0.0078125
141
12.0
290
     0
  0
SCALE
  5
B2
102
{ACAD_REACTORS
330
AF
102
}
330
AF
100
AcDbScale
 70
     0
300
1/64" = 1'-0"
140
0.015625
141
12.0
290
     0
  0
SCALE
  5
B3
102
{ACAD_REACTORS
330
AF
102
}
330
AF
100
AcDbScale
 70
     0
300
1/32" = 1'-0"
140
0.03125
141
12.0
290
     0
  0
SCALE
  5
B4
102
{ACAD_REACTORS
330
AF
102
}
330
AF
100
AcDbScale
 70
     0
300
1/16" = 1'-0"
140
0.0625
141
12.0
290
     0
  0
SCALE
  5
B5
102
{ACAD_REACTORS
330
AF
102
}
330
AF
100
AcDbScale
 70
     0
300
3/32" = 1'-0"
140
0.09375
141
12.0
290
     0
  0
SCALE
  5
B6
102
{ACAD_REACTORS
330
AF
102
}
330
AF
100
AcDbScale
 70
     0
300
1/8" = 1'-0"
140
0.125
141
12.0
290
     0
  0
SCALE
  5
B7
102
{ACAD_REACTORS
330
AF
102
}
330
AF
100
AcDbScale
 70
     0
300
3/16" = 1'-0"
140
0.1875
141
12.0
290
     0
  0
SCALE
  5
B8
102
{ACAD_REACTORS
330
AF
102
}
330
AF
100
AcDbScale
 70
     0
300
1/4" = 1'-0"
140
0.25
141
12.0
290
     0
  0
SCALE
  5
B9
102
{ACAD_REACTORS
330
AF
102
}
330
AF
100
AcDbScale
 70
     0
300
3/8" = 1'-0"
140
0.375
141
12.0
290
     0
  0
SCALE
  5
BA
102
{ACAD_REACTORS
330
AF
102
}
330
AF
100
AcDbScale
 70
     0
300
1/2" = 1'-0"
140
0.5
141
12.0
290
     0
  0
SCALE
  5
BB
102
{ACAD_REACTORS
330
AF
102
}
330
AF
100
AcDbScale
 70
     0
300
3/4" = 1'-0"
140
0.75
141
12.0
290
     0
  0
SCALE
  5
BC
102
{ACAD_REACTORS
330
AF
102
}
330
AF
100
AcDbScale
 70
     0
300
1" = 1'-0"
140
1.0
141
12.0
290
     0
  0
SCALE
  5
BD
102
{ACAD_REACTORS
330
AF
102
}
330
AF
100
AcDbScale
 70
     0
300
1-1/2" = 1'-0"
140
1.5
141
12.0
290
     0
  0
SCALE
  5
BE
102
{ACAD_REACTORS
330
AF
102
}
330
AF
100
AcDbScale
 70
     0
300
3" = 1'-0"
140
3.0
141
12.0
290
     0
  0
SCALE
  5
BF
102
{ACAD_REACTORS
330
AF
102
}
330
AF
100
AcDbScale
 70
     0
300
6" = 1'-0"
140
6.0
141
12.0
290
     0
  0
SCALE
  5
C0
102
{ACAD_REACTORS
330
AF
102
}
330
AF
100
AcDbScale
 70
     0
300
1'-0" = 1'-0"
140
12.0
141
12.0
290
     0
  0
ACDBSECTIONVIEWSTYLE
  5
C4
102
{ACAD_XDICTIONARY
360
2CA
102
}
102
{ACAD_REACTORS
330
C3
102
}
330
C3
100
AcDbModelDocViewStyle
 70
     0
  3
Imperial24
290
     0
100
AcDbSectionViewStyle
 70
     0
 71
     0
 90
       78
 71
     1
340
12
 62
   256
 40
0.24
340
0
340
0
 62
   256
 40
0.24
300
I, O, Q, S, X, Z
 40
0.48
 90
        3
 40
0.18
 90
        1
 71
     2
340
8
 90
       25
 62
   256
340
8
 90
       50
 62
   256
 40
0.24
 40
0.0
 40
0.24
 71
     3
340
12
 62
   256
 40
0.24
 90
        1
 40
0.75
 90
        1
300
%<\AcVar ViewType \f "%tc1">% %<\AcVar ViewSectionStartId>%-%<\AcVar ViewSectionEndId>%\PSCALE %<\AcVar ViewScale \f "%sn">%
 71
     4
 62
   256
 62
   257
300
ANSI31
 40
1.0
 90
        0
290
     0
290
     0
 90
        6
 40
0.0
 40
1.570796326794896
 40
0.2617993877991494
 40
1.308996938995747
 40
-0.2617993877991494
 40
1.832595714594046
  0
TABLESTYLE
  5
94
102
{ACAD_XDICTIONARY
360
2C8
102
}
102
{ACAD_REACTORS
330
93
102
}
330
93
100
AcDbTableStyle
280
     0
  3
Standard
 70
     0
 71
     0
 40
0.06
 41
0.06
280
     0
281
     0
  7
Standard
140
0.18
170
     2
 62
     0
 63
     7
283
     0
 90
      512
 91
        0
  1

274
    -2
284
     1
 64
     0
275
    -2
285
     1
 65
     0
276
    -2
286
     1
 66
     0
277
    -2
287
     1
 67
     0
278
    -2
288
     1
 68
     0
279
    -2
289
     1
 69
     0
  7
Standard
140
0.25
170
     5
 62
     0
 63
     7
283
     0
 90
      512
 91
        0
  1

274
    -2
284
     1
 64
     0
275
    -2
285
     1
 65
     0
276
    -2
286
     1
 66
     0
277
    -2
287
     1
 67
     0
278
    -2
288
     1
 68
     0
279
    -2
289
     1
 69
     0
  7
Standard
140
0.18
170
     5
 62
     0
 63
     7
283
     0
 90
      512
 91
        0
  1

274
    -2
284
     1
 64
     0
275
    -2
285
     1
 65
     0
276
    -2
286
     1
 66
     0
277
    -2
287
     1
 67
     0
278
    -2
288
     1
 68
     0
279
    -2
289
     1
 69
     0
  0
VISUALSTYLE
  5
88
102
{ACAD_REACTORS
330
82
102
}
330
82
100
AcDbVisualStyle
  2
2dWireframe
 70
     4
177
     3
291
     0
 70
    58
 90
        0
176
     1
 90
        2
176
     1
 90
        1
176
     1
 90
        0
176
     1
 40
0.6
176
     1
 40
30.0
176
     1
 62
     7
420
 16777215
176
     1
 90
        1
176
     1
 90
        4
176
     1
 62
     7
176
     1
 62
   257
176
     1
 90
        1
176
     1
 90
        1
176
     1
 40
1.0
176
     1
 90
        0
176
     1
 62
   257
176
     1
 40
1.0
176
     1
 90
        1
176
     1
 90
        6
176
     1
 90
        2
176
     1
 62
     7
176
     1
 90
        5
176
     1
 90
        0
176
     1
 90
        0
176
     1
290
     0
176
     1
 90
        1
176
     1
 40
0.0
176
     1
 90
        0
176
     1
290
     1
176
     1
290
     1
176
     1
290
     0
176
     1
290
     0
176
     1
290
     0
176
     1
290
     0
176
     1
290
     0
176
     1
290
     0
176
     1
290
     0
176
     1
 90
       50
176
     1
 40
0.0
176
     1
 40
1.0
176
     1
 90
        0
176
     1
 62
    18
420
        0
176
     1
 90
       50
176
     1
 90
        3
176
     1
 62
     5
420
      255
176
     1
290
     0
176
     1
 90
       50
176
     1
 90
       50
176
     1
 90
       50
176
     1
290
     0
176
     1
 90
       50
176
     1
 62
   256
176
     0
 40
1.0
176
     0
 90
        2
176
     1
  1
strokes_ogs.tif
176
     1
290
     0
176
     1
 40
1.0
176
     1
 40
1.0
176
     1
  0
VISUALSTYLE
  5
8A
102
{ACAD_REACTORS
330
82
102
}
330
82
100
AcDbVisualStyle
  2
3D Hidden
 70
     6
177
     3
291
     0
 70
    58
 90
        1
176
     1
 90
        2
176
     1
 90
        2
176
     1
 90
        0
176
     1
 40
0.6
176
     1
 40
30.0
176
     1
 62
     7
420
 16777215
176
     1
 90
        2
176
     1
 90
       10
176
     1
 62
     7
176
     1
 62
   257
176
     1
 90
        2
176
     1
 90
        2
176
     1
 40
40.0
176
     1
 90
        0
176
     1
 62
   257
176
     1
 40
1.0
176
     1
 90
        1
176
     1
 90
        6
176
     1
 90
        2
176
     1
 62
     7
176
     1
 90
        3
176
     1
 90
        0
176
     1
 90
        0
176
     1
290
     0
176
     1
 90
        1
176
     1
 40
0.0
176
     1
 90
        0
176
     1
290
     0
176
     1
290
     1
176
     1
290
     1
176
     1
290
     0
176
     1
290
     0
176
     1
290
     0
176
     1
290
     0
176
     1
290
     0
176
     1
290
     0
176
     1
 90
       50
176
     1
 40
0.0
176
     1
 40
1.0
176
     1
 90
        0
176
     1
 62
    18
420
        0
176
     1
 90
       50
176
     1
 90
        3
176
     1
 62
     5
420
      255
176
     1
290
     0
176
     1
 90
       50
176
     1
 90
       50
176
     1
 90
       50
176
     1
290
     0
176
     1
 90
       50
176
     1
 62
   256
176
     0
 40
1.0
176
     0
 90
        2
176
     1
  1
strokes_ogs.tif
176
     1
290
     0
176
     1
 40
1.0
176
     1
 40
1.0
176
     1
  0
VISUALSTYLE
  5
89
102
{ACAD_REACTORS
330
82
102
}
330
82
100
AcDbVisualStyle
  2
3dWireframe
 70
     5
177
     3
291
     0
 70
    58
 90
        0
176
     1
 90
        2
176
     1
 90
        1
176
     1
 90
        0
176
     1
 40
0.6
176
     1
 40
30.0
176
     1
 62
     7
420
 16777215
176
     1
 90
        1
176
     1
 90
        4
176
     1
 62
     7
176
     1
 62
   257
176
     1
 90
        1
176
     1
 90
        1
176
     1
 40
1.0
176
     1
 90
        0
176
     1
 62
   257
176
     1
 40
1.0
176
     1
 90
        1
176
     1
 90
        6
176
     1
 90
        2
176
     1
 62
     7
176
     1
 90
        5
176
     1
 90
        0
176
     1
 90
        0
176
     1
290
     0
176
     1
 90
        1
176
     1
 40
0.0
176
     1
 90
        0
176
     1
290
     0
176
     1
290
     1
176
     1
290
     1
176
     1
290
     0
176
     1
290
     0
176
     1
290
     0
176
     1
290
     0
176
     1
290
     0
176
     1
290
     0
176
     1
 90
       50
176
     1
 40
0.0
176
     1
 40
1.0
176
     1
 90
        0
176
     1
 62
    18
420
        0
176
     1
 90
       50
176
     1
 90
        3
176
     1
 62
     5
420
      255
176
     1
290
     0
176
     1
 90
       50
176
     1
 90
       50
176
     1
 90
       50
176
     1
290
     0
176
     1
 90
       50
176
     1
 62
   256
176
     0
 40
1.0
176
     0
 90
        2
176
     1
  1
strokes_ogs.tif
176
     1
290
     0
176
     1
 40
1.0
176
     1
 40
1.0
176
     1
  0
VISUALSTYLE
  5
87
102
{ACAD_REACTORS
330
82
102
}
330
82
100
AcDbVisualStyle
  2
Basic
 70
     7
177
     3
291
     1
 70
    58
 90
        1
176
     1
 90
        0
176
     1
 90
        1
176
     1
 90
        0
176
     1
 40
0.6
176
     1
 40
30.0
176
     1
 62
     7
420
 16777215
176
     1
 90
        0
176
     1
 90
        4
176
     1
 62
     7
176
     1
 62
   257
176
     1
 90
        1
176
     1
 90
        1
176
     1
 40
1.0
176
     1
 90
        8
176
     1
 62
     7
176
     1
 40
1.0
176
     1
 90
        1
176
     1
 90
        6
176
     1
 90
        2
176
     1
 62
     7
176
     1
 90
        5
176
     1
 90
        0
176
     1
 90
        0
176
     1
290
     0
176
     1
 90
        1
176
     1
 40
0.0
176
     1
 90
        0
176
     1
290
     0
176
     1
290
     1
176
     1
290
     1
176
     1
290
     0
176
     1
290
     0
176
     1
290
     0
176
     1
290
     0
176
     1
290
     0
176
     1
290
     0
176
     1
 90
       50
176
     1
 40
0.0
176
     1
 40
1.0
176
     1
 90
        0
176
     1
 62
    18
420
        0
176
     1
 90
       50
176
     1
 90
        3
176
     1
 62
     5
420
      255
176
     1
290
     0
176
     1
 90
       50
176
     1
 90
       50
176
     1
 90
       50
176
     1
290
     0
176
     1
 90
       50
176
     1
 62
   256
176
     0
 40
1.0
176
     0
 90
        2
176
     1
  1
strokes_ogs.tif
176
     1
290
     0
176
     1
 40
1.0
176
     1
 40
1.0
176
     1
  0
VISUALSTYLE
  5
8E
102
{ACAD_REACTORS
330
82
102
}
330
82
100
AcDbVisualStyle
  2
Brighten
 70
    12
177
     3
291
     1
 70
    58
 90
        2
176
     1
 90
        2
176
     1
 90
        1
176
     1
 90
        0
176
     1
 40
0.6
176
     1
 40
30.0
176
     1
 62
     7
420
 16777215
176
     1
 90
        1
176
     1
 90
        4
176
     1
 62
     7
176
     1
 62
   257
176
     1
 90
        1
176
     1
 90
        1
176
     1
 40
1.0
176
     1
 90
        8
176
     1
 62
     7
176
     1
 40
1.0
176
     1
 90
        1
176
     1
 90
        6
176
     1
 90
        2
176
     1
 62
     7
176
     1
 90
        5
176
     1
 90
        0
176
     1
 90
        0
176
     1
290
     0
176
     1
 90
        1
176
     1
 40
50.0
176
     1
 90
        0
176
     1
290
     0
176
     1
290
     1
176
     1
290
     1
176
     1
290
     0
176
     1
290
     0
176
     1
290
     0
176
     1
290
     0
176
     1
290
     0
176
     1
290
     0
176
     1
 90
       50
176
     1
 40
0.0
176
     1
 40
1.0
176
     1
 90
        0
176
     1
 62
    18
420
        0
176
     1
 90
       50
176
     1
 90
        3
176
     1
 62
     5
420
      255
176
     1
290
     0
176
     1
 90
       50
176
     1
 90
       50
176
     1
 90
       50
176
     1
290
     0
176
     1
 90
       50
176
     1
 62
   256
176
     0
 40
1.0
176
     0
 90
        2
176
     1
  1
strokes_ogs.tif
176
     1
290
     0
176
     1
 40
1.0
176
     1
 40
1.0
176
     1
  0
VISUALSTYLE
  5
92
102
{ACAD_REACTORS
330
82
102
}
330
82
100
AcDbVisualStyle
  2
ColorChange
 70
    16
177
     3
291
     1
 70
    58
 90
        2
176
     1
 90
        2
176
     1
 90
        3
176
     1
 90
        0
176
     1
 40
0.6
176
     1
 40
30.0
176
     1
 62
     8
420
  8421504
176
     1
 90
        1
176
     1
 90
        4
176
     1
 62
     7
176
     1
 62
   257
176
     1
 90
        1
176
     1
 90
        1
176
     1
 40
1.0
176
     1
 90
        8
176
     1
 62
     8
420
  8421504
176
     1
 40
1.0
176
     1
 90
        1
176
     1
 90
        6
176
     1
 90
        2
176
     1
 62
     7
176
     1
 90
        5
176
     1
 90
        0
176
     1
 90
        0
176
     1
290
     0
176
     1
 90
        1
176
     1
 40
0.0
176
     1
 90
        0
176
     1
290
     0
176
     1
290
     1
176
     1
290
     1
176
     1
290
     0
176
     1
290
     0
176
     1
290
     0
176
     1
290
     0
176
     1
290
     0
176
     1
290
     0
176
     1
 90
       50
176
     1
 40
0.0
176
     1
 40
1.0
176
     1
 90
        0
176
     1
 62
    18
420
        0
176
     1
 90
       50
176
     1
 90
        3
176
     1
 62
     5
420
      255
176
     1
290
     0
176
     1
 90
       50
176
     1
 90
       50
176
     1
 90
       50
176
     1
290
     0
176
     1
 90
       50
176
     1
 62
   256
176
     0
 40
1.0
176
     0
 90
        2
176
     1
  1
strokes_ogs.tif
176
     1
290
     0
176
     1
 40
1.0
176
     1
 40
1.0
176
     1
  0
VISUALSTYLE
  5
8B
102
{ACAD_REACTORS
330
82
102
}
330
82
100
AcDbVisualStyle
  2
Conceptual
 70
     9
177
     3
291
     0
 70
    58
 90
        3
176
     1
 90
        2
176
     1
 90
        1
176
     1
 90
        0
176
     1
 40
0.6
176
     1
 40
30.0
176
     1
 62
     7
420
 16777215
176
     1
 90
        2
176
     1
 90
        2
176
     1
 62
     7
176
     1
 62
   257
176
     1
 90
        1
176
     1
 90
        1
176
     1
 40
40.0
176
     1
 90
        8
176
     1
 62
     7
176
     1
 40
1.0
176
     1
 90
        1
176
     1
 90
        6
176
     1
 90
        2
176
     1
 62
     7
176
     1
 90
        5
176
     1
 90
        0
176
     1
 90
        0
176
     1
290
     0
176
     1
 90
        1
176
     1
 40
0.0
176
     1
 90
        0
176
     1
290
     0
176
     1
290
     1
176
     1
290
     1
176
     1
290
     0
176
     1
290
     0
176
     1
290
     0
176
     1
290
     0
176
     1
290
     0
176
     1
290
     0
176
     1
 90
       50
176
     1
 40
0.0
176
     1
 40
1.0
176
     1
 90
        0
176
     1
 62
    18
420
        0
176
     1
 90
       50
176
     1
 90
        3
176
     1
 62
     5
420
      255
176
     1
290
     0
176
     1
 90
       50
176
     1
 90
       50
176
     1
 90
       50
176
     1
290
     0
176
     1
 90
       50
176
     1
 62
   256
176
     0
 40
1.0
176
     0
 90
        2
176
     1
  1
strokes_ogs.tif
176
     1
290
     0
176
     1
 40
1.0
176
     1
 40
1.0
176
     1
  0
VISUALSTYLE
  5
8D
102
{ACAD_REACTORS
330
82
102
}
330
82
100
AcDbVisualStyle
  2
Dim
 70
    11
177
     3
291
     1
 70
    58
 90
        2
176
     1
 90
        2
176
     1
 90
        1
176
     1
 90
        0
176
     1
 40
0.6
176
     1
 40
30.0
176
     1
 62
     7
420
 16777215
176
     1
 90
        1
176
     1
 90
        4
176
     1
 62
     7
176
     1
 62
   257
176
     1
 90
        1
176
     1
 90
        1
176
     1
 40
1.0
176
     1
 90
        8
176
     1
 62
     7
176
     1
 40
1.0
176
     1
 90
        1
176
     1
 90
        6
176
     1
 90
        2
176
     1
 62
     7
176
     1
 90
        5
176
     1
 90
        0
176
     1
 90
        0
176
     1
290
     0
176
     1
 90
        1
176
     1
 40
-50.0
176
     1
 90
        0
176
     1
290
     0
176
     1
290
     1
176
     1
290
     1
176
     1
290
     0
176
     1
290
     0
176
     1
290
     0
176
     1
290
     0
176
     1
290
     0
176
     1
290
     0
176
     1
 90
       50
176
     1
 40
0.0
176
     1
 40
1.0
176
     1
 90
        0
176
     1
 62
    18
420
        0
176
     1
 90
       50
176
     1
 90
        3
176
     1
 62
     5
420
      255
176
     1
290
     0
176
     1
 90
       50
176
     1
 90
       50
176
     1
 90
       50
176
     1
290
     0
176
     1
 90
       50
176
     1
 62
   256
176
     0
 40
1.0
176
     0
 90
        2
176
     1
  1
strokes_ogs.tif
176
     1
290
     0
176
     1
 40
1.0
176
     1
 40
1.0
176
     1
  0
VISUALSTYLE
  5
AE
102
{ACAD_REACTORS
330
82
102
}
330
82
100
AcDbVisualStyle
  2
EdgeColorOff
 70
    22
177
     3
291
     1
 70
    58
 90
        2
176
     0
 90
        2
176
     0
 90
        0
176
     0
 90
        0
176
     0
 40
0.6
176
     0
 40
30.0
176
     0
 62
     7
420
 16777215
176
     0
 90
        1
176
     0
 90
        4
176
     0
 62
     7
176
     0
 62
   257
176
     0
 90
        1
176
     0
 90
        1
176
     0
 40
1.0
176
     0
 90
        8
176
     2
 62
     7
176
     0
 40
1.0
176
     0
 90
        1
176
     0
 90
        6
176
     0
 90
        2
176
     0
 62
     7
176
     0
 90
        5
176
     0
 90
        0
176
     0
 90
        0
176
     0
290
     0
176
     0
 90
        1
176
     0
 40
0.0
176
     0
 90
        0
176
     0
290
     0
176
     0
290
     1
176
     0
290
     1
176
     0
290
     0
176
     0
290
     0
176
     0
290
     0
176
     0
290
     0
176
     0
290
     0
176
     0
290
     0
176
     0
 90
       50
176
     0
 40
0.0
176
     0
 40
1.0
176
     0
 90
        0
176
     0
 62
    18
420
        0
176
     0
 90
       50
176
     0
 90
        3
176
     0
 62
     5
420
      255
176
     0
290
     0
176
     0
 90
       50
176
     0
 90
       50
176
     0
 90
       50
176
     0
290
     0
176
     0
 90
       50
176
     0
 62
   256
176
     0
 40
1.0
176
     0
 90
        2
176
     0
  1
strokes_ogs.tif
176
     0
290
     0
176
     0
 40
1.0
176
     0
 40
1.0
176
     0
  0
VISUALSTYLE
  5
91
102
{ACAD_REACTORS
330
82
102
}
330
82
100
AcDbVisualStyle
  2
Facepattern
 70
    15
177
     3
291
     1
 70
    58
 90
        2
176
     1
 90
        2
176
     1
 90
        1
176
     1
 90
        0
176
     1
 40
0.6
176
     1
 40
30.0
176
     1
 62
     7
420
 16777215
176
     1
 90
        1
176
     1
 90
        4
176
     1
 62
     7
176
     1
 62
   257
176
     1
 90
        1
176
     1
 90
        1
176
     1
 40
1.0
176
     1
 90
        8
176
     1
 62
     7
176
     1
 40
1.0
176
     1
 90
        1
176
     1
 90
        6
176
     1
 90
        2
176
     1
 62
     7
176
     1
 90
        5
176
     1
 90
        0
176
     1
 90
        0
176
     1
290
     0
176
     1
 90
        1
176
     1
 40
0.0
176
     1
 90
        0
176
     1
290
     0
176
     1
290
     1
176
     1
290
     1
176
     1
290
     0
176
     1
290
     0
176
     1
290
     0
176
     1
290
     0
176
     1
290
     0
176
     1
290
     0
176
     1
 90
       50
176
     1
 40
0.0
176
     1
 40
1.0
176
     1
 90
        0
176
     1
 62
    18
420
        0
176
     1
 90
       50
176
     1
 90
        3
176
     1
 62
     5
420
      255
176
     1
290
     0
176
     1
 90
       50
176
     1
 90
       50
176
     1
 90
       50
176
     1
290
     0
176
     1
 90
       50
176
     1
 62
   256
176
     0
 40
1.0
176
     0
 90
        2
176
     1
  1
strokes_ogs.tif
176
     1
290
     0
176
     1
 40
1.0
176
     1
 40
1.0
176
     1
  0
VISUALSTYLE
  5
83
102
{ACAD_REACTORS
330
82
102
}
330
82
100
AcDbVisualStyle
  2
Flat
 70
     0
177
     3
291
     1
 70
    58
 90
        2
176
     1
 90
        1
176
     1
 90
        1
176
     1
 90
        2
176
     1
 40
0.6
176
     1
 40
30.0
176
     1
 62
     7
420
 16777215
176
     1
 90
        0
176
     1
 90
        4
176
     1
 62
     7
176
     1
 62
   257
176
     1
 90
        1
176
     1
 90
        1
176
     1
 40
1.0
176
     1
 90
        8
176
     1
 62
     7
176
     1
 40
1.0
176
     1
 90
        1
176
     1
 90
        6
176
     1
 90
        2
176
     1
 62
     7
176
     1
 90
        5
176
     1
 90
        0
176
     1
 90
        0
176
     1
290
     0
176
     1
 90
        1
176
     1
 40
0.0
176
     1
 90
        0
176
     1
290
     0
176
     1
290
     1
176
     1
290
     1
176
     1
290
     0
176
     1
290
     0
176
     1
290
     0
176
     1
290
     0
176
     1
290
     0
176
     1
290
     0
176
     1
 90
       50
176
     1
 40
0.0
176
     1
 40
1.0
176
     1
 90
        0
176
     1
 62
    18
420
        0
176
     1
 90
       50
176
     1
 90
        3
176
     1
 62
     5
420
      255
176
     1
290
     0
176
     1
 90
       50
176
     1
 90
       50
176
     1
 90
       50
176
     1
290
     0
176
     1
 90
       50
176
     1
 62
   256
176
     0
 40
1.0
176
     0
 90
        2
176
     1
  1
strokes_ogs.tif
176
     1
290
     0
176
     1
 40
1.0
176
     1
 40
1.0
176
     1
  0
VISUALSTYLE
  5
84
102
{ACAD_REACTORS
330
82
102
}
330
82
100
AcDbVisualStyle
  2
FlatWithEdges
 70
     1
177
     3
291
     1
 70
    58
 90
        2
176
     1
 90
        1
176
     1
 90
        1
176
     1
 90
        2
176
     1
 40
0.6
176
     1
 40
30.0
176
     1
 62
     7
420
 16777215
176
     1
 90
        1
176
     1
 90
        4
176
     1
 62
     7
176
     1
 62
   257
176
     1
 90
        1
176
     1
 90
        1
176
     1
 40
1.0
176
     1
 90
        0
176
     1
 62
   257
176
     1
 40
1.0
176
     1
 90
        1
176
     1
 90
        6
176
     1
 90
        2
176
     1
 62
     7
176
     1
 90
        5
176
     1
 90
        0
176
     1
 90
        0
176
     1
290
     0
176
     1
 90
        1
176
     1
 40
0.0
176
     1
 90
        0
176
     1
290
     0
176
     1
290
     1
176
     1
290
     1
176
     1
290
     0
176
     1
290
     0
176
     1
290
     0
176
     1
290
     0
176
     1
290
     0
176
     1
290
     0
176
     1
 90
       50
176
     1
 40
0.0
176
     1
 40
1.0
176
     1
 90
        0
176
     1
 62
    18
420
        0
176
     1
 90
       50
176
     1
 90
        3
176
     1
 62
     5
420
      255
176
     1
290
     0
176
     1
 90
       50
176
     1
 90
       50
176
     1
 90
       50
176
     1
290
     0
176
     1
 90
       50
176
     1
 62
   256
176
     0
 40
1.0
176
     0
 90
        2
176
     1
  1
strokes_ogs.tif
176
     1
290
     0
176
     1
 40
1.0
176
     1
 40
1.0
176
     1
  0
VISUALSTYLE
  5
85
102
{ACAD_REACTORS
330
82
102
}
330
82
100
AcDbVisualStyle
  2
Gouraud
 70
     2
177
     3
291
     1
 70
    58
 90
        2
176
     1
 90
        2
176
     1
 90
        1
176
     1
 90
        2
176
     1
 40
0.6
176
     1
 40
30.0
176
     1
 62
     7
420
 16777215
176
     1
 90
        0
176
     1
 90
        4
176
     1
 62
     7
176
     1
 62
   257
176
     1
 90
        1
176
     1
 90
        1
176
     1
 40
1.0
176
     1
 90
        0
176
     1
 62
     7
176
     1
 40
1.0
176
     1
 90
        1
176
     1
 90
        6
176
     1
 90
        2
176
     1
 62
     7
176
     1
 90
        5
176
     1
 90
        0
176
     1
 90
        0
176
     1
290
     0
176
     1
 90
        1
176
     1
 40
0.0
176
     1
 90
        0
176
     1
290
     0
176
     1
290
     1
176
     1
290
     1
176
     1
290
     0
176
     1
290
     0
176
     1
290
     0
176
     1
290
     0
176
     1
290
     0
176
     1
290
     0
176
     1
 90
       50
176
     1
 40
0.0
176
     1
 40
1.0
176
     1
 90
        0
176
     1
 62
    18
420
        0
176
     1
 90
       50
176
     1
 90
        3
176
     1
 62
     5
420
      255
176
     1
290
     0
176
     1
 90
       50
176
     1
 90
       50
176
     1
 90
       50
176
     1
290
     0
176
     1
 90
       50
176
     1
 62
   256
176
     0
 40
1.0
176
     0
 90
        2
176
     1
  1
strokes_ogs.tif
176
     1
290
     0
176
     1
 40
1.0
176
     1
 40
1.0
176
     1
  0
VISUALSTYLE
  5
86
102
{ACAD_REACTORS
330
82
102
}
330
82
100
AcDbVisualStyle
  2
GouraudWithEdges
 70
     3
177
     3
291
     1
 70
    58
 90
        2
176
     1
 90
        2
176
     1
 90
        1
176
     1
 90
        2
176
     1
 40
0.6
176
     1
 40
30.0
176
     1
 62
     7
420
 16777215
176
     1
 90
        1
176
     1
 90
        4
176
     1
 62
     7
176
     1
 62
   257
176
     1
 90
        1
176
     1
 90
        1
176
     1
 40
1.0
176
     1
 90
        0
176
     1
 62
   257
176
     1
 40
1.0
176
     1
 90
        1
176
     1
 90
        6
176
     1
 90
        2
176
     1
 62
     7
176
     1
 90
        5
176
     1
 90
        0
176
     1
 90
        0
176
     1
290
     0
176
     1
 90
        1
176
     1
 40
0.0
176
     1
 90
        0
176
     1
290
     0
176
     1
290
     1
176
     1
290
     1
176
     1
290
     0
176
     1
290
     0
176
     1
290
     0
176
     1
290
     0
176
     1
290
     0
176
     1
290
     0
176
     1
 90
       50
176
     1
 40
0.0
176
     1
 40
1.0
176
     1
 90
        0
176
     1
 62
    18
420
        0
176
     1
 90
       50
176
     1
 90
        3
176
     1
 62
     5
420
      255
176
     1
290
     0
176
     1
 90
       50
176
     1
 90
       50
176
     1
 90
       50
176
     1
290
     0
176
     1
 90
       50
176
     1
 62
   256
176
     0
 40
1.0
176
     0
 90
        2
176
     1
  1
strokes_ogs.tif
176
     1
290
     0
176
     1
 40
1.0
176
     1
 40
1.0
176
     1
  0
VISUALSTYLE
  5
A6
102
{ACAD_REACTORS
330
82
102
}
330
82
100
AcDbVisualStyle
  2
Hidden
 70
     6
177
     3
291
     0
 70
    58
 90
        1
176
     1
 90
        2
176
     1
 90
        2
176
     1
 90
        0
176
     1
 40
0.6
176
     1
 40
30.0
176
     1
 62
     7
420
 16777215
176
     1
 90
        2
176
     1
 90
        2
176
     1
 62
     7
176
     1
 62
   257
176
     1
 90
        2
176
     1
 90
        1
176
     1
 40
40.0
176
     1
 90
        0
176
     1
 62
   257
176
     1
 40
1.0
176
     1
 90
        1
176
     1
 90
        6
176
     1
 90
        2
176
     1
 62
     7
176
     1
 90
        3
176
     1
 90
        0
176
     1
 90
        0
176
     1
290
     0
176
     1
 90
        1
176
     1
 40
0.0
176
     1
 90
        0
176
     1
290
     0
176
     1
290
     1
176
     1
290
     1
176
     1
290
     0
176
     1
290
     0
176
     1
290
     0
176
     1
290
     0
176
     1
290
     0
176
     1
290
     0
176
     1
 90
       50
176
     1
 40
0.0
176
     1
 40
1.0
176
     1
 90
        0
176
     1
 62
    18
420
        0
176
     1
 90
       50
176
     1
 90
        3
176
     1
 62
     5
420
      255
176
     1
290
     0
176
     1
 90
       50
176
     1
 90
       50
176
     1
 90
       50
176
     1
290
     0
176
     1
 90
       50
176
     1
 62
   256
176
     0
 40
1.0
176
     0
 90
        2
176
     1
  1
strokes_ogs.tif
176
     1
290
     0
176
     1
 40
1.0
176
     1
 40
1.0
176
     1
  0
VISUALSTYLE
  5
AC
102
{ACAD_REACTORS
330
82
102
}
330
82
100
AcDbVisualStyle
  2
JitterOff
 70
    20
177
     3
291
     1
 70
    58
 90
        2
176
     0
 90
        2
176
     0
 90
        0
176
     0
 90
        0
176
     0
 40
0.6
176
     0
 40
30.0
176
     0
 62
     7
420
 16777215
176
     0
 90
        1
176
     0
 90
        4
176
     0
 62
     7
176
     0
 62
   257
176
     0
 90
        1
176
     0
 90
        1
176
     0
 40
1.0
176
     0
 90
       10
176
     2
 62
     7
176
     0
 40
1.0
176
     0
 90
        1
176
     0
 90
        6
176
     0
 90
        2
176
     0
 62
     7
176
     0
 90
        5
176
     0
 90
        0
176
     0
 90
        0
176
     0
290
     0
176
     0
 90
        1
176
     0
 40
0.0
176
     0
 90
        0
176
     0
290
     0
176
     0
290
     1
176
     0
290
     1
176
     0
290
     0
176
     0
290
     0
176
     0
290
     0
176
     0
290
     0
176
     0
290
     0
176
     0
290
     0
176
     0
 90
       50
176
     0
 40
0.0
176
     0
 40
1.0
176
     0
 90
        0
176
     0
 62
    18
420
        0
176
     0
 90
       50
176
     0
 90
        3
176
     0
 62
     5
420
      255
176
     0
290
     0
176
     0
 90
       50
176
     0
 90
       50
176
     0
 90
       50
176
     0
290
     0
176
     0
 90
       50
176
     0
 62
   256
176
     0
 40
1.0
176
     0
 90
        2
176
     0
  1
strokes_ogs.tif
176
     0
290
     0
176
     0
 40
1.0
176
     0
 40
1.0
176
     0
  0
VISUALSTYLE
  5
90
102
{ACAD_REACTORS
330
82
102
}
330
82
100
AcDbVisualStyle
  2
Linepattern
 70
    14
177
     3
291
     1
 70
    58
 90
        2
176
     1
 90
        2
176
     1
 90
        1
176
     1
 90
        0
176
     1
 40
0.6
176
     1
 40
30.0
176
     1
 62
     7
420
 16777215
176
     1
 90
        1
176
     1
 90
        4
176
     1
 62
     7
176
     1
 62
   257
176
     1
 90
        7
176
     1
 90
        7
176
     1
 40
1.0
176
     1
 90
        8
176
     1
 62
     7
176
     1
 40
1.0
176
     1
 90
        1
176
     1
 90
        6
176
     1
 90
        2
176
     1
 62
     7
176
     1
 90
        5
176
     1
 90
        0
176
     1
 90
        0
176
     1
290
     0
176
     1
 90
        1
176
     1
 40
0.0
176
     1
 90
        0
176
     1
290
     0
176
     1
290
     1
176
     1
290
     1
176
     1
290
     0
176
     1
290
     0
176
     1
290
     0
176
     1
290
     0
176
     1
290
     0
176
     1
290
     0
176
     1
 90
       50
176
     1
 40
0.0
176
     1
 40
1.0
176
     1
 90
        0
176
     1
 62
    18
420
        0
176
     1
 90
       50
176
     1
 90
        3
176
     1
 62
     5
420
      255
176
     1
290
     0
176
     1
 90
       50
176
     1
 90
       50
176
     1
 90
       50
176
     1
290
     0
176
     1
 90
       50
176
     1
 62
   256
176
     0
 40
1.0
176
     0
 90
        2
176
     1
  1
strokes_ogs.tif
176
     1
290
     0
176
     1
 40
1.0
176
     1
 40
1.0
176
     1
  0
VISUALSTYLE
  5
AD
102
{ACAD_REACTORS
330
82
102
}
330
82
100
AcDbVisualStyle
  2
OverhangOff
 70
    21
177
     3
291
     1
 70
    58
 90
        2
176
     0
 90
        2
176
     0
 90
        0
176
     0
 90
        0
176
     0
 40
0.6
176
     0
 40
30.0
176
     0
 62
     7
420
 16777215
176
     0
 90
        1
176
     0
 90
        4
176
     0
 62
     7
176
     0
 62
   257
176
     0
 90
        1
176
     0
 90
        1
176
     0
 40
1.0
176
     0
 90
        9
176
     2
 62
     7
176
     0
 40
1.0
176
     0
 90
        1
176
     0
 90
        6
176
     0
 90
        2
176
     0
 62
     7
176
     0
 90
        5
176
     0
 90
        0
176
     0
 90
        0
176
     0
290
     0
176
     0
 90
        1
176
     0
 40
0.0
176
     0
 90
        0
176
     0
290
     0
176
     0
290
     1
176
     0
290
     1
176
     0
290
     0
176
     0
290
     0
176
     0
290
     0
176
     0
290
     0
176
     0
290
     0
176
     0
290
     0
176
     0
 90
       50
176
     0
 40
0.0
176
     0
 40
1.0
176
     0
 90
        0
176
     0
 62
    18
420
        0
176
     0
 90
       50
176
     0
 90
        3
176
     0
 62
     5
420
      255
176
     0
290
     0
176
     0
 90
       50
176
     0
 90
       50
176
     0
 90
       50
176
     0
290
     0
176
     0
 90
       50
176
     0
 62
   256
176
     0
 40
1.0
176
     0
 90
        2
176
     0
  1
strokes_ogs.tif
176
     0
290
     0
176
     0
 40
1.0
176
     0
 40
1.0
176
     0
  0
VISUALSTYLE
  5
8C
102
{ACAD_REACTORS
330
82
102
}
330
82
100
AcDbVisualStyle
  2
Realistic
 70
     8
177
     3
291
     0
 70
    58
 90
        2
176
     1
 90
        2
176
     1
 90
        1
176
     1
 90
        0
176
     1
 40
0.6
176
     1
 40
30.0
176
     1
 62
     7
420
 16777215
176
     1
 90
        1
176
     1
 90
        0
176
     1
 62
     7
176
     1
 62
   257
176
     1
 90
        1
176
     1
 90
        1
176
     1
 40
1.0
176
     1
 90
        8
176
     1
 62
     7
176
     1
 40
1.0
176
     1
 90
        1
176
     1
 90
        6
176
     1
 90
        2
176
     1
 62
     7
176
     1
 90
        5
176
     1
 90
        0
176
     1
 90
        0
176
     1
290
     0
176
     1
 90
       13
176
     1
 40
0.0
176
     1
 90
        0
176
     1
290
     0
176
     1
290
     1
176
     1
290
     1
176
     1
290
     0
176
     1
290
     0
176
     1
290
     0
176
     1
290
     0
176
     1
290
     0
176
     1
290
     0
176
     1
 90
       50
176
     1
 40
0.0
176
     1
 40
1.0
176
     1
 90
        0
176
     1
 62
    18
420
        0
176
     1
 90
       50
176
     1
 90
        3
176
     1
 62
     5
420
      255
176
     1
290
     0
176
     1
 90
       50
176
     1
 90
       50
176
     1
 90
       50
176
     1
290
     0
176
     1
 90
       50
176
     1
 62
   256
176
     0
 40
1.0
176
     0
 90
        2
176
     1
  1
strokes_ogs.tif
176
     1
290
     0
176
     1
 40
1.0
176
     1
 40
1.0
176
     1
  0
VISUALSTYLE
  5
AB
102
{ACAD_REACTORS
330
82
102
}
330
82
100
AcDbVisualStyle
  2
Shaded
 70
    27
177
     3
291
     0
 70
    58
 90
        2
176
     1
 90
        2
176
     1
 90
        1
176
     1
 90
        2
176
     1
 40
0.6
176
     1
 40
30.0
176
     1
 62
     7
420
 16777215
176
     1
 90
        0
176
     1
 90
        4
176
     1
 62
     7
176
     1
 62
   257
176
     1
 90
        1
176
     1
 90
        1
176
     1
 40
1.0
176
     1
 90
        8
176
     1
 62
   257
176
     1
 40
1.0
176
     1
 90
        1
176
     1
 90
        6
176
     1
 90
        2
176
     1
 62
     8
420
  7895160
176
     1
 90
        3
176
     1
 90
        0
176
     1
 90
        0
176
     1
290
     0
176
     1
 90
        5
176
     1
 40
0.0
176
     1
 90
        0
176
     1
290
     0
176
     1
290
     1
176
     1
290
     1
176
     1
290
     0
176
     1
290
     0
176
     1
290
     0
176
     1
290
     0
176
     1
290
     0
176
     1
290
     0
176
     1
 90
       50
176
     1
 40
0.0
176
     1
 40
1.0
176
     1
 90
        0
176
     1
 62
    18
420
        0
176
     1
 90
       50
176
     1
 90
        3
176
     1
 62
     5
420
      255
176
     1
290
     0
176
     1
 90
       50
176
     1
 90
       50
176
     1
 90
       50
176
     1
290
     0
176
     1
 90
       50
176
     1
 62
   256
176
     0
 40
1.0
176
     0
 90
        2
176
     1
  1
strokes_ogs.tif
176
     1
290
     0
176
     1
 40
1.0
176
     1
 40
1.0
176
     1
  0
VISUALSTYLE
  5
AA
102
{ACAD_REACTORS
330
82
102
}
330
82
100
AcDbVisualStyle
  2
Shaded with edges
 70
    26
177
     3
291
     0
 70
    58
 90
        2
176
     1
 90
        2
176
     1
 90
        1
176
     1
 90
        2
176
     1
 40
0.6
176
     1
 40
30.0
176
     1
 62
     7
420
 16777215
176
     1
 90
        1
176
     1
 90
        2
176
     1
 62
     7
176
     1
 62
   257
176
     1
 90
        2
176
     1
 90
        1
176
     1
 40
1.0
176
     1
 90
        8
176
     1
 62
   257
176
     1
 40
1.0
176
     1
 90
        1
176
     1
 90
        6
176
     1
 90
        2
176
     1
 62
     7
176
     1
 90
        3
176
     1
 90
        0
176
     1
 90
        0
176
     1
290
     0
176
     1
 90
        5
176
     1
 40
0.0
176
     1
 90
        0
176
     1
290
     0
176
     1
290
     1
176
     1
290
     1
176
     1
290
     0
176
     1
290
     0
176
     1
290
     0
176
     1
290
     0
176
     1
290
     0
176
     1
290
     0
176
     1
 90
       50
176
     1
 40
0.0
176
     1
 40
1.0
176
     1
 90
        0
176
     1
 62
    18
420
        0
176
     1
 90
       50
176
     1
 90
        3
176
     1
 62
     5
420
      255
176
     1
290
     0
176
     1
 90
       50
176
     1
 90
       50
176
     1
 90
       50
176
     1
290
     0
176
     1
 90
       50
176
     1
 62
   256
176
     0
 40
1.0
176
     0
 90
        2
176
     1
  1
strokes_ogs.tif
176
     1
290
     0
176
     1
 40
1.0
176
     1
 40
1.0
176
     1
  0
VISUALSTYLE
  5
A7
102
{ACAD_REACTORS
330
82
102
}
330
82
100
AcDbVisualStyle
  2
Shades of Gray
 70
    23
177
     3
291
     0
 70
    58
 90
        2
176
     1
 90
        2
176
     1
 90
        3
176
     1
 90
        0
176
     1
 40
0.6
176
     1
 40
30.0
176
     1
 62
     7
420
 16777215
176
     1
 90
        2
176
     1
 90
        2
176
     1
 62
     7
176
     1
 62
     7
176
     1
 90
        1
176
     1
 90
        1
176
     1
 40
40.0
176
     1
 90
        8
176
     1
 62
     7
176
     1
 40
1.0
176
     1
 90
        1
176
     1
 90
        6
176
     1
 90
        2
176
     1
 62
     7
176
     1
 90
        3
176
     1
 90
        0
176
     1
 90
        0
176
     1
290
     0
176
     1
 90
        1
176
     1
 40
0.0
176
     1
 90
        0
176
     1
290
     0
176
     1
290
     1
176
     1
290
     1
176
     1
290
     0
176
     1
290
     0
176
     1
290
     0
176
     1
290
     0
176
     1
290
     0
176
     1
290
     0
176
     1
 90
       50
176
     1
 40
0.0
176
     1
 40
1.0
176
     1
 90
        0
176
     1
 62
    18
420
        0
176
     1
 90
       50
176
     1
 90
        3
176
     1
 62
     5
420
      255
176
     1
290
     0
176
     1
 90
       50
176
     1
 90
       50
176
     1
 90
       50
176
     1
290
     0
176
     1
 90
       50
176
     1
 62
   256
176
     0
 40
1.0
176
     0
 90
        2
176
     1
  1
strokes_ogs.tif
176
     1
290
     0
176
     1
 40
1.0
176
     1
 40
1.0
176
     1
  0
VISUALSTYLE
  5
A8
102
{ACAD_REACTORS
330
82
102
}
330
82
100
AcDbVisualStyle
  2
Sketchy
 70
    24
177
     3
291
     0
 70
    58
 90
        1
176
     1
 90
        2
176
     1
 90
        2
176
     1
 90
        0
176
     1
 40
0.6
176
     1
 40
30.0
176
     1
 62
     7
420
 16777215
176
     1
 90
        2
176
     1
 90
        2
176
     1
 62
     7
176
     1
 62
     7
176
     1
 90
        1
176
     1
 90
        1
176
     1
 40
40.0
176
     1
 90
       11
176
     1
 62
     7
176
     1
 40
1.0
176
     1
 90
        1
176
     1
 90
        6
176
     1
 90
        2
176
     1
 62
     7
176
     1
 90
        6
176
     1
 90
        0
176
     1
 90
        0
176
     1
290
     0
176
     1
 90
        1
176
     1
 40
0.0
176
     1
 90
        0
176
     1
290
     0
176
     1
290
     1
176
     1
290
     1
176
     1
290
     0
176
     1
290
     0
176
     1
290
     0
176
     1
290
     0
176
     1
290
     0
176
     1
290
     0
176
     1
 90
       50
176
     1
 40
0.0
176
     1
 40
1.0
176
     1
 90
        0
176
     1
 62
    18
420
        0
176
     1
 90
       50
176
     1
 90
        3
176
     1
 62
     5
420
      255
176
     1
290
     0
176
     1
 90
       50
176
     1
 90
       50
176
     1
 90
       50
176
     1
290
     0
176
     1
 90
       50
176
     1
 62
   256
176
     0
 40
1.0
176
     0
 90
        2
176
     1
  1
strokes_ogs.tif
176
     1
290
     0
176
     1
 40
1.0
176
     1
 40
1.0
176
     1
  0
VISUALSTYLE
  5
8F
102
{ACAD_REACTORS
330
82
102
}
330
82
100
AcDbVisualStyle
  2
Thicken
 70
    13
177
     3
291
     1
 70
    58
 90
        2
176
     1
 90
        2
176
     1
 90
        1
176
     1
 90
        0
176
     1
 40
0.6
176
     1
 40
30.0
176
     1
 62
     7
420
 16777215
176
     1
 90
        1
176
     1
 90
        4
176
     1
 62
     7
176
     1
 62
   257
176
     1
 90
        1
176
     1
 90
        1
176
     1
 40
1.0
176
     1
 90
       12
176
     1
 62
     7
176
     1
 40
1.0
176
     1
 90
        1
176
     1
 90
        6
176
     1
 90
        2
176
     1
 62
     7
176
     1
 90
        5
176
     1
 90
        0
176
     1
 90
        0
176
     1
290
     0
176
     1
 90
        1
176
     1
 40
0.0
176
     1
 90
        0
176
     1
290
     0
176
     1
290
     1
176
     1
290
     1
176
     1
290
     0
176
     1
290
     0
176
     1
290
     0
176
     1
290
     0
176
     1
290
     0
176
     1
290
     0
176
     1
 90
       50
176
     1
 40
0.0
176
     1
 40
1.0
176
     1
 90
        0
176
     1
 62
    18
420
        0
176
     1
 90
       50
176
     1
 90
        3
176
     1
 62
     5
420
      255
176
     1
290
     0
176
     1
 90
       50
176
     1
 90
       50
176
     1
 90
       50
176
     1
290
     0
176
     1
 90
       50
176
     1
 62
   256
176
     0
 40
1.0
176
     0
 90
        2
176
     1
  1
strokes_ogs.tif
176
     1
290
     0
176
     1
 40
1.0
176
     1
 40
1.0
176
     1
  0
VISUALSTYLE
  5
A5
102
{ACAD_REACTORS
330
82
102
}
330
82
100
AcDbVisualStyle
  2
Wireframe
 70
     5
177
     3
291
     0
 70
    58
 90
        0
176
     1
 90
        2
176
     1
 90
        0
176
     1
 90
        0
176
     1
 40
0.6
176
     1
 40
30.0
176
     1
 62
     7
420
 16777215
176
     1
 90
        1
176
     1
 90
        4
176
     1
 62
     7
176
     1
 62
   257
176
     1
 90
        1
176
     1
 90
        1
176
     1
 40
1.0
176
     1
 90
        0
176
     1
 62
   257
176
     1
 40
1.0
176
     1
 90
        1
176
     1
 90
        6
176
     1
 90
        2
176
     1
 62
     7
176
     1
 90
        3
176
     1
 90
        0
176
     1
 90
        0
176
     1
290
     0
176
     1
 90
        1
176
     1
 40
0.0
176
     1
 90
        0
176
     1
290
     0
176
     1
290
     1
176
     1
290
     1
176
     1
290
     0
176
     1
290
     0
176
     1
290
     0
176
     1
290
     0
176
     1
290
     0
176
     1
290
     0
176
     1
 90
       50
176
     1
 40
0.0
176
     1
 40
1.0
176
     1
 90
        0
176
     1
 62
    18
420
        0
176
     1
 90
       50
176
     1
 90
        3
176
     1
 62
     5
420
      255
176
     1
290
     0
176
     1
 90
       50
176
     1
 90
       50
176
     1
 90
       50
176
     1
290
     0
176
     1
 90
       50
176
     1
 62
   256
176
     0
 40
1.0
176
     0
 90
        2
176
     1
  1
strokes_ogs.tif
176
     1
290
     0
176
     1
 40
1.0
176
     1
 40
1.0
176
     1
  0
VISUALSTYLE
  5
A9
102
{ACAD_REACTORS
330
82
102
}
330
82
100
AcDbVisualStyle
  2
X-Ray
 70
    25
177
     3
291
     0
 70
    58
 90
        2
176
     1
 90
        2
176
     1
 90
        1
176
     1
 90
        1
176
     1
 40
0.5
176
     1
 40
30.0
176
     1
 62
     7
420
 16777215
176
     1
 90
        1
176
     1
 90
        0
176
     1
 62
     7
176
     1
 62
   257
176
     1
 90
        1
176
     1
 90
        1
176
     1
 40
1.0
176
     1
 90
        8
176
     1
 62
     7
176
     1
 40
1.0
176
     1
 90
        1
176
     1
 90
        6
176
     1
 90
        2
176
     1
 62
     7
176
     1
 90
        3
176
     1
 90
        0
176
     1
 90
        0
176
     1
290
     0
176
     1
 90
       13
176
     1
 40
0.0
176
     1
 90
        0
176
     1
290
     0
176
     1
290
     1
176
     1
290
     1
176
     1
290
     0
176
     1
290
     0
176
     1
290
     0
176
     1
290
     0
176
     1
290
     0
176
     1
290
     0
176
     1
 90
       50
176
     1
 40
0.0
176
     1
 40
1.0
176
     1
 90
        0
176
     1
 62
    18
420
        0
176
     1
 90
       50
176
     1
 90
        3
176
     1
 62
     5
420
      255
176
     1
290
     0
176
     1
 90
       50
176
     1
 90
       50
176
     1
 90
       50
176
     1
290
     0
176
     1
 90
       50
176
     1
 62
   256
176
     0
 40
1.0
176
     0
 90
        2
176
     1
  1
strokes_ogs.tif
176
     1
290
     0
176
     1
 40
1.0
176
     1
 40
1.0
176
     1
  0
DICTIONARYVAR
  5
2C4
102
{ACAD_REACTORS
330
9B
102
}
330
9B
100
DictionaryVariables
280
     0
  1
1:1
  0
DICTIONARYVAR
  5
2C0
102
{ACAD_REACTORS
330
9B
102
}
330
9B
100
DictionaryVariables
280
     0
  1
STANDARD
  0
DICTIONARYVAR
  5
9C
102
{ACAD_REACTORS
330
9B
102
}
330
9B
100
DictionaryVariables
280
     0
  1
STANDARD
  0
DICTIONARYVAR
  5
2C1
102
{ACAD_REACTORS
330
9B
102
}
330
9B
100
DictionaryVariables
280
     0
  1
Imperial24
  0
DICTIONARYVAR
  5
2C2
102
{ACAD_REACTORS
330
9B
102
}
330
9B
100
DictionaryVariables
280
     0
  1
Imperial24
  0
DICTIONARYVAR
  5
2C6
102
{ACAD_REACTORS
330
9B
102
}
330
9B
100
DictionaryVariables
280
     0
  1
1
  0
DICTIONARYVAR
  5
2C7
102
{ACAD_REACTORS
330
9B
102
}
330
9B
100
DictionaryVariables
280
     0
  1
15
  0
DICTIONARYVAR
  5
2C5
102
{ACAD_REACTORS
330
9B
102
}
330
9B
100
DictionaryVariables
280
     0
  1
0
  0
DICTIONARYVAR
  5
2C3
102
{ACAD_REACTORS
330
9B
102
}
330
9B
100
DictionaryVariables
280
     0
  1
0
  0
DICTIONARY
  5
2CC
330
C6
100
AcDbDictionary
280
     1
281
     1
  3
ACAD_XREC_ROUNDTRIP
360
2CD
  0
DICTIONARY
  5
2CA
330
C4
100
AcDbDictionary
280
     1
281
     1
  3
ACAD_XREC_ROUNDTRIP
360
2CB
  0
DICTIONARY
  5
2C8
330
94
100
AcDbDictionary
280
     1
281
     1
  3
ACAD_ROUNDTRIP_2008_TABLESTYLE_CELLSTYLEMAP
360
2C9
  0
XRECORD
  5
2CD
102
{ACAD_REACTORS
330
2CC
102
}
330
2CC
100
AcDbXrecord
280
     1
102
DISPLAYNAME
  1
Imperial24
102
FLAGS
 90
        0
  0
XRECORD
  5
2CB
102
{ACAD_REACTORS
330
2CA
102
}
330
2CA
100
AcDbXrecord
280
     1
102
DISPLAYNAME
  1
Imperial24
102
FLAGS
 90
        0
  0
CELLSTYLEMAP
  5
2C9
102
{ACAD_REACTORS
330
2C8
102
}
330
2C8
100
AcDbCellStyleMap
 90
        3
300
CELLSTYLE
  1
TABLEFORMAT_BEGIN
 90
        5
170
     1
 91
        0
 92
    32768
 62
   257
 93
        1
300
CONTENTFORMAT
  1
CONTENTFORMAT_BEGIN
 90
        0
 91
        0
 92
      512
 93
        0
300

 40
0.0
140
1.0
 94
        5
 62
     0
340
12
144
0.25
309
CONTENTFORMAT_END
171
     0
 94
        6
 95
        1
302
GRIDFORMAT
  1
GRIDFORMAT_BEGIN
 90
        0
 91
        1
 62
     0
 92
       -2
340
0
 93
        0
 40
0.045
309
GRIDFORMAT_END
 95
        2
302
GRIDFORMAT
  1
GRIDFORMAT_BEGIN
 90
        0
 91
        1
 62
     0
 92
       -2
340
0
 93
        0
 40
0.045
309
GRIDFORMAT_END
 95
        4
302
GRIDFORMAT
  1
GRIDFORMAT_BEGIN
 90
        0
 91
        1
 62
     0
 92
       -2
340
0
 93
        0
 40
0.045
309
GRIDFORMAT_END
 95
        8
302
GRIDFORMAT
  1
GRIDFORMAT_BEGIN
 90
        0
 91
        1
 62
     0
 92
       -2
340
0
 93
        0
 40
0.045
309
GRIDFORMAT_END
 95
       16
302
GRIDFORMAT
  1
GRIDFORMAT_BEGIN
 90
        0
 91
        1
 62
     0
 92
       -2
340
0
 93
        0
 40
0.045
309
GRIDFORMAT_END
 95
       32
302
GRIDFORMAT
  1
GRIDFORMAT_BEGIN
 90
        0
 91
        1
 62
     0
 92
       -2
340
0
 93
        0
 40
0.045
309
GRIDFORMAT_END
309
TABLEFORMAT_END
  1
CELLSTYLE_BEGIN
 90
        1
 91
        1
300
_TITLE
309
CELLSTYLE_END
300
CELLSTYLE
  1
TABLEFORMAT_BEGIN
 90
        5
170
     1
 91
        0
 92
        0
 62
   257
 93
        1
300
CONTENTFORMAT
  1
CONTENTFORMAT_BEGIN
 90
        0
 91
        0
 92
      512
 93
        0
300

 40
0.0
140
1.0
 94
        5
 62
     0
340
12
144
0.18
309
CONTENTFORMAT_END
171
     0
 94
        6
 95
        1
302
GRIDFORMAT
  1
GRIDFORMAT_BEGIN
 90
        0
 91
        1
 62
     0
 92
       -2
340
0
 93
        0
 40
0.045
309
GRIDFORMAT_END
 95
        2
302
GRIDFORMAT
  1
GRIDFORMAT_BEGIN
 90
        0
 91
        1
 62
     0
 92
       -2
340
0
 93
        0
 40
0.045
309
GRIDFORMAT_END
 95
        4
302
GRIDFORMAT
  1
GRIDFORMAT_BEGIN
 90
        0
 91
        1
 62
     0
 92
       -2
340
0
 93
        0
 40
0.045
309
GRIDFORMAT_END
 95
        8
302
GRIDFORMAT
  1
GRIDFORMAT_BEGIN
 90
        0
 91
        1
 62
     0
 92
       -2
340
0
 93
        0
 40
0.045
309
GRIDFORMAT_END
 95
       16
302
GRIDFORMAT
  1
GRIDFORMAT_BEGIN
 90
        0
 91
        1
 62
     0
 92
       -2
340
0
 93
        0
 40
0.045
309
GRIDFORMAT_END
 95
       32
302
GRIDFORMAT
  1
GRIDFORMAT_BEGIN
 90
        0
 91
        1
 62
     0
 92
       -2
340
0
 93
        0
 40
0.045
309
GRIDFORMAT_END
309
TABLEFORMAT_END
  1
CELLSTYLE_BEGIN
 90
        2
 91
        1
300
_HEADER
309
CELLSTYLE_END
300
CELLSTYLE
  1
TABLEFORMAT_BEGIN
 90
        5
170
     1
 91
        0
 92
        0
 62
   257
 93
        1
300
CONTENTFORMAT
  1
CONTENTFORMAT_BEGIN
 90
        0
 91
        0
 92
      512
 93
        0
300

 40
0.0
140
1.0
 94
        2
 62
     0
340
12
144
0.18
309
CONTENTFORMAT_END
171
     0
 94
        6
 95
        1
302
GRIDFORMAT
  1
GRIDFORMAT_BEGIN
 90
        0
 91
        1
 62
     0
 92
       -2
340
0
 93
        0
 40
0.045
309
GRIDFORMAT_END
 95
        2
302
GRIDFORMAT
  1
GRIDFORMAT_BEGIN
 90
        0
 91
        1
 62
     0
 92
       -2
340
0
 93
        0
 40
0.045
309
GRIDFORMAT_END
 95
        4
302
GRIDFORMAT
  1
GRIDFORMAT_BEGIN
 90
        0
 91
        1
 62
     0
 92
       -2
340
0
 93
        0
 40
0.045
309
GRIDFORMAT_END
 95
        8
302
GRIDFORMAT
  1
GRIDFORMAT_BEGIN
 90
        0
 91
        1
 62
     0
 92
       -2
340
0
 93
        0
 40
0.045
309
GRIDFORMAT_END
 95
       16
302
GRIDFORMAT
  1
GRIDFORMAT_BEGIN
 90
        0
 91
        1
 62
     0
 92
       -2
340
0
 93
        0
 40
0.045
309
GRIDFORMAT_END
 95
       32
302
GRIDFORMAT
  1
GRIDFORMAT_BEGIN
 90
        0
 91
        1
 62
     0
 92
       -2
340
0
 93
        0
 40
0.045
309
GRIDFORMAT_END
309
TABLEFORMAT_END
  1
CELLSTYLE_BEGIN
 90
        3
 91
        2
300
_DATA
309
CELLSTYLE_END
  0
ENDSEC
  0
EOF
