  0
SECTION
  2
HEADER
  9
$ACADVER
  1
AC1027
  9
$ACADMAINTVER
 70
   125
  9
$DWGCODEPAGE
  3
ANSI_1252
  9
$LASTSAVEDBY
  1
fleminab
  9
$REQUIREDVERSIONS
160
                 0
  9
$INSBASE
 10
0.0
 20
0.0
 30
0.0
  9
$EXTMIN
 10
145.9841349455341
 20
106.2436580041467
 30
-0.0015258207003583
  9
$EXTMAX
 10
598.8480556337722
 20
961.3091164362959
 30
0.0000000349246037
  9
$LIMMIN
 10
0.0
 20
0.0
  9
$LIMMAX
 10
1682.0
 20
2378.0
  9
$ORTHOMODE
 70
     0
  9
$REGENMODE
 70
     1
  9
$FILLMODE
 70
     1
  9
$QTEXTMODE
 70
     0
  9
$MIRRTEXT
 70
     1
  9
$LTSCALE
 40
1.0
  9
$ATTMODE
 70
     1
  9
$TEXTSIZE
 40
2.5
  9
$TRACEWID
 40
1.0
  9
$TEXTSTYLE
  7
Standard
  9
$CLAYER
  8
0
  9
$CELTYPE
  6
ByLayer
  9
$CECOLOR
 62
   256
  9
$CELTSCALE
 40
1.0
  9
$DISPSILH
 70
     0
  9
$DIMSCALE
 40
1.0
  9
$DIMASZ
 40
2.5
  9
$DIMEXO
 40
0.625
  9
$DIMDLI
 40
3.75
  9
$DIMRND
 40
0.0
  9
$DIMDLE
 40
0.0
  9
$DIMEXE
 40
1.25
  9
$DIMTP
 40
0.0
  9
$DIMTM
 40
0.0
  9
$DIMTXT
 40
2.5
  9
$DIMCEN
 40
2.5
  9
$DIMTSZ
 40
0.0
  9
$DIMTOL
 70
     0
  9
$DIMLIM
 70
     0
  9
$DIMTIH
 70
     0
  9
$DIMTOH
 70
     0
  9
$DIMSE1
 70
     0
  9
$DIMSE2
 70
     0
  9
$DIMTAD
 70
     1
  9
$DIMZIN
 70
     8
  9
$DIMBLK
  1

  9
$DIMASO
 70
     1
  9
$DIMSHO
 70
     1
  9
$DIMPOST
  1

  9
$DIMAPOST
  1

  9
$DIMALT
 70
     0
  9
$DIMALTD
 70
     3
  9
$DIMALTF
 40
0.03937007874016
  9
$DIMLFAC
 40
1.0
  9
$DIMTOFL
 70
     1
  9
$DIMTVP
 40
0.0
  9
$DIMTIX
 70
     0
  9
$DIMSOXD
 70
     0
  9
$DIMSAH
 70
     0
  9
$DIMBLK1
  1

  9
$DIMBLK2
  1

  9
$DIMSTYLE
  2
ISO-25
  9
$DIMCLRD
 70
     0
  9
$DIMCLRE
 70
     0
  9
$DIMCLRT
 70
     0
  9
$DIMTFAC
 40
1.0
  9
$DIMGAP
 40
0.625
  9
$DIMJUST
 70
     0
  9
$DIMSD1
 70
     0
  9
$DIMSD2
 70
     0
  9
$DIMTOLJ
 70
     0
  9
$DIMTZIN
 70
     8
  9
$DIMALTZ
 70
     0
  9
$DIMALTTZ
 70
     0
  9
$DIMUPT
 70
     0
  9
$DIMDEC
 70
     2
  9
$DIMTDEC
 70
     2
  9
$DIMALTU
 70
     2
  9
$DIMALTTD
 70
     3
  9
$DIMTXSTY
  7
Standard
  9
$DIMAUNIT
 70
     0
  9
$DIMADEC
 70
     0
  9
$DIMALTRND
 40
0.0
  9
$DIMAZIN
 70
     0
  9
$DIMDSEP
 70
    44
  9
$DIMATFIT
 70
     3
  9
$DIMFRAC
 70
     0
  9
$DIMLDRBLK
  1

  9
$DIMLUNIT
 70
     2
  9
$DIMLWD
 70
    -2
  9
$DIMLWE
 70
    -2
  9
$DIMTMOVE
 70
     0
  9
$DIMFXL
 40
1.0
  9
$DIMFXLON
 70
     0
  9
$DIMJOGANG
 40
0.7853981633974483
  9
$DIMTFILL
 70
     0
  9
$DIMTFILLCLR
 70
     0
  9
$DIMARCSYM
 70
     0
  9
$DIMLTYPE
  6

  9
$DIMLTEX1
  6

  9
$DIMLTEX2
  6

  9
$DIMTXTDIRECTION
 70
     0
  9
$LUNITS
 70
     2
  9
$LUPREC
 70
     4
  9
$SKETCHINC
 40
1.0
  9
$FILLETRAD
 40
10.0
  9
$AUNITS
 70
     0
  9
$AUPREC
 70
     0
  9
$MENU
  1
.
  9
$ELEVATION
 40
0.0
  9
$PELEVATION
 40
0.0
  9
$THICKNESS
 40
0.0
  9
$LIMCHECK
 70
     0
  9
$CHAMFERA
 40
10.0
  9
$CHAMFERB
 40
10.0
  9
$CHAMFERC
 40
20.0
  9
$CHAMFERD
 40
0.0
  9
$SKPOLY
 70
     0
  9
$TDCREATE
 40
2455446.799722222
  9
$TDUCREATE
 40
2455446.383060417
  9
$TDUPDATE
 40
2458022.565370370
  9
$TDUUPDATE
 40
2458022.148703704
  9
$TDINDWG
 40
0.0002314931
  9
$TDUSRTIMER
 40
0.0002314931
  9
$USRTIMER
 70
     1
  9
$ANGBASE
 50
0.0
  9
$ANGDIR
 70
     0
  9
$PDMODE
 70
     0
  9
$PDSIZE
 40
0.0
  9
$PLINEWID
 40
0.0
  9
$SPLFRAME
 70
     0
  9
$SPLINETYPE
 70
     6
  9
$SPLINESEGS
 70
     8
  9
$HANDSEED
  5
2B7
  9
$SURFTAB1
 70
     6
  9
$SURFTAB2
 70
     6
  9
$SURFTYPE
 70
     6
  9
$SURFU
 70
     6
  9
$SURFV
 70
     6
  9
$UCSBASE
  2

  9
$UCSNAME
  2

  9
$UCSORG
 10
0.0
 20
0.0
 30
0.0
  9
$UCSXDIR
 10
1.0
 20
0.0
 30
0.0
  9
$UCSYDIR
 10
0.0
 20
1.0
 30
0.0
  9
$UCSORTHOREF
  2

  9
$UCSORTHOVIEW
 70
     0
  9
$UCSORGTOP
 10
0.0
 20
0.0
 30
0.0
  9
$UCSORGBOTTOM
 10
0.0
 20
0.0
 30
0.0
  9
$UCSORGLEFT
 10
0.0
 20
0.0
 30
0.0
  9
$UCSORGRIGHT
 10
0.0
 20
0.0
 30
0.0
  9
$UCSORGFRONT
 10
0.0
 20
0.0
 30
0.0
  9
$UCSORGBACK
 10
0.0
 20
0.0
 30
0.0
  9
$PUCSBASE
  2

  9
$PUCSNAME
  2

  9
$PUCSORG
 10
0.0
 20
0.0
 30
0.0
  9
$PUCSXDIR
 10
1.0
 20
0.0
 30
0.0
  9
$PUCSYDIR
 10
0.0
 20
1.0
 30
0.0
  9
$PUCSORTHOREF
  2

  9
$PUCSORTHOVIEW
 70
     0
  9
$PUCSORGTOP
 10
0.0
 20
0.0
 30
0.0
  9
$PUCSORGBOTTOM
 10
0.0
 20
0.0
 30
0.0
  9
$PUCSORGLEFT
 10
0.0
 20
0.0
 30
0.0
  9
$PUCSORGRIGHT
 10
0.0
 20
0.0
 30
0.0
  9
$PUCSORGFRONT
 10
0.0
 20
0.0
 30
0.0
  9
$PUCSORGBACK
 10
0.0
 20
0.0
 30
0.0
  9
$USERI1
 70
     0
  9
$USERI2
 70
     0
  9
$USERI3
 70
     0
  9
$USERI4
 70
     0
  9
$USERI5
 70
     0
  9
$USERR1
 40
0.0
  9
$USERR2
 40
0.0
  9
$USERR3
 40
0.0
  9
$USERR4
 40
0.0
  9
$USERR5
 40
0.0
  9
$WORLDVIEW
 70
     1
  9
$SHADEDGE
 70
     3
  9
$SHADEDIF
 70
    70
  9
$TILEMODE
 70
     1
  9
$MAXACTVP
 70
    64
  9
$PINSBASE
 10
0.0
 20
0.0
 30
0.0
  9
$PLIMCHECK
 70
     0
  9
$PEXTMIN
 10
0.0
 20
0.0
 30
0.0
  9
$PEXTMAX
 10
1682.0
 20
2378.0
 30
0.0
  9
$PLIMMIN
 10
0.0
 20
0.0
  9
$PLIMMAX
 10
1682.0
 20
2378.0
  9
$UNITMODE
 70
     0
  9
$VISRETAIN
 70
     1
  9
$PLINEGEN
 70
     0
  9
$PSLTSCALE
 70
     1
  9
$TREEDEPTH
 70
  3020
  9
$CMLSTYLE
  2
Standard
  9
$CMLJUST
 70
     0
  9
$CMLSCALE
 40
20.0
  9
$PROXYGRAPHICS
 70
     1
  9
$MEASUREMENT
 70
     1
  9
$CELWEIGHT
370
    -1
  9
$ENDCAPS
280
     0
  9
$JOINSTYLE
280
     0
  9
$LWDISPLAY
290
     0
  9
$INSUNITS
 70
     4
  9
$HYPERLINKBASE
  1

  9
$STYLESHEET
  1

  9
$XEDIT
290
     1
  9
$CEPSNTYPE
380
     0
  9
$PSTYLEMODE
290
     1
  9
$FINGERPRINTGUID
  2
{DF8980A4-511C-416A-8BDC-28F03DBDFE68}
  9
$VERSIONGUID
  2
{18B13A6A-01A8-6449-8A8F-436163A06BDC}
  9
$EXTNAMES
290
     1
  9
$PSVPSCALE
 40
0.0
  9
$OLESTARTUP
290
     0
  9
$SORTENTS
280
   127
  9
$INDEXCTL
280
     0
  9
$HIDETEXT
280
     0
  9
$XCLIPFRAME
280
     2
  9
$HALOGAP
280
     0
  9
$OBSCOLOR
 70
   257
  9
$OBSLTYPE
280
     0
  9
$INTERSECTIONDISPLAY
280
     0
  9
$INTERSECTIONCOLOR
 70
   257
  9
$DIMASSOC
280
     1
  9
$PROJECTNAME
  1

  9
$CAMERADISPLAY
290
     0
  9
$LENSLENGTH
 40
50.0
  9
$CAMERAHEIGHT
 40
0.0
  9
$STEPSPERSEC
 40
2.0
  9
$STEPSIZE
 40
6.0
  9
$3DDWFPREC
 40
2.0
  9
$PSOLWIDTH
 40
5.0
  9
$PSOLHEIGHT
 40
80.0
  9
$LOFTANG1
 40
1.570796326794896
  9
$LOFTANG2
 40
1.570796326794896
  9
$LOFTMAG1
 40
0.0
  9
$LOFTMAG2
 40
0.0
  9
$LOFTPARAM
 70
     7
  9
$LOFTNORMALS
280
     1
  9
$LATITUDE
 40
37.795
  9
$LONGITUDE
 40
-122.394
  9
$NORTHDIRECTION
 40
0.0
  9
$TIMEZONE
 70
 -8000
  9
$LIGHTGLYPHDISPLAY
280
     1
  9
$TILEMODELIGHTSYNCH
280
     1
  9
$CMATERIAL
347
256
  9
$SOLIDHIST
280
     0
  9
$SHOWHIST
280
     1
  9
$DWFFRAME
280
     2
  9
$DGNFRAME
280
     0
  9
$REALWORLDSCALE
290
     1
  9
$INTERFERECOLOR
 62
     1
  9
$INTERFEREOBJVS
345
33
  9
$INTERFEREVPVS
346
26E
  9
$CSHADOW
280
     0
  9
$SHADOWPLANELOCATION
 40
0.0
  0
ENDSEC
  0
SECTION
  2
CLASSES
  0
CLASS
  1
ACDBDICTIONARYWDFLT
  2
AcDbDictionaryWithDefault
  3
ObjectDBX Classes
 90
        0
 91
        1
280
     0
281
     0
  0
CLASS
  1
VISUALSTYLE
  2
AcDbVisualStyle
  3
ObjectDBX Classes
 90
     4095
 91
       26
280
     0
281
     0
  0
CLASS
  1
SCALE
  2
AcDbScale
  3
ObjectDBX Classes
 90
     1153
 91
       33
280
     0
281
     0
  0
CLASS
  1
DICTIONARYVAR
  2
AcDbDictionaryVar
  3
ObjectDBX Classes
 90
        0
 91
       19
280
     0
281
     0
  0
CLASS
  1
MATERIAL
  2
AcDbMaterial
  3
ObjectDBX Classes
 90
     1153
 91
        3
280
     0
281
     0
  0
CLASS
  1
TABLESTYLE
  2
AcDbTableStyle
  3
ObjectDBX Classes
 90
     4095
 91
        1
280
     0
281
     0
  0
CLASS
  1
MLEADERSTYLE
  2
AcDbMLeaderStyle
  3
ACDB_MLEADERSTYLE_CLASS
 90
     4095
 91
        1
280
     0
281
     0
  0
CLASS
  1
ACDBSECTIONVIEWSTYLE
  2
AcDbSectionViewStyle
  3
ObjectDBX Classes
 90
     1025
 91
        1
280
     0
281
     0
  0
CLASS
  1
ACDBDETAILVIEWSTYLE
  2
AcDbDetailViewStyle
  3
ObjectDBX Classes
 90
     1025
 91
        1
280
     0
281
     0
  0
CLASS
  1
CELLSTYLEMAP
  2
AcDbCellStyleMap
  3
ObjectDBX Classes
 90
     1152
 91
        1
280
     0
281
     0
  0
ENDSEC
  0
SECTION
  2
TABLES
  0
TABLE
  2
VPORT
  5
8
330
0
100
AcDbSymbolTable
 70
     1
1001
ACAD
1000
DbSaveVer
1071
        5
  0
VPORT
  5
29
330
8
100
AcDbSymbolTableRecord
100
AcDbViewportTableRecord
  2
*Active
 70
     0
 10
0.0
 20
0.0
 11
1.0
 21
1.0
 12
372.4160952896532
 22
533.7763872202213
 13
0.0
 23
0.0
 14
10.0
 24
10.0
 15
10.0
 25
10.0
 16
0.0
 26
0.0
 36
1.0
 17
0.0
 27
0.0
 37
0.0
 40
861.1876454853627
 41
2.292712066905615
 42
50.0
 43
0.0
 44
0.0
 50
0.0
 51
0.0
 71
     0
 72
   100
 73
     1
 74
     3
 75
     0
 76
     0
 77
     0
 78
     0
281
     0
 65
     1
110
0.0
120
0.0
130
0.0
111
1.0
121
0.0
131
0.0
112
0.0
122
1.0
132
0.0
 79
     0
146
0.0
348
2F
 60
     3
 61
     5
292
     1
282
     1
141
0.0
142
0.0
 63
   250
421
  3355443
1001
ACAD_NAV_VCDISPLAY
1070
     3
  0
ENDTAB
  0
TABLE
  2
LTYPE
  5
5
330
0
100
AcDbSymbolTable
 70
     2
  0
LTYPE
  5
14
330
5
100
AcDbSymbolTableRecord
100
AcDbLinetypeTableRecord
  2
ByBlock
 70
     0
  3

 72
    65
 73
     0
 40
0.0
  0
LTYPE
  5
15
330
5
100
AcDbSymbolTableRecord
100
AcDbLinetypeTableRecord
  2
ByLayer
 70
     0
  3

 72
    65
 73
     0
 40
0.0
  0
LTYPE
  5
16
330
5
100
AcDbSymbolTableRecord
100
AcDbLinetypeTableRecord
  2
Continuous
 70
     0
  3
Solid line
 72
    65
 73
     0
 40
0.0
  0
LTYPE
  5
60
330
5
100
AcDbSymbolTableRecord
100
AcDbLinetypeTableRecord
  2
CENTER2
 70
     0
  3
Center (.5x) ___ _ ___ _ ___ _ ___ _ ___ _ ___
 72
    65
 73
     4
 40
28.575
 49
19.05
 74
     4
 75
     0
340
0
 46
0.0
 50
0.0
 44
0.0
 45
0.0
 49
-3.174999999999999
 74
     4
 75
     0
340
0
 46
0.0
 50
0.0
 44
0.0
 45
0.0
 49
3.174999999999999
 74
     4
 75
     0
340
0
 46
0.0
 50
0.0
 44
0.0
 45
0.0
 49
-3.174999999999999
 74
     4
 75
     0
340
0
 46
0.0
 50
0.0
 44
0.0
 45
0.0
  0
ENDTAB
  0
TABLE
  2
LAYER
  5
2
330
0
100
AcDbSymbolTable
 70
    12
  0
LAYER
  5
10
102
{ACAD_XDICTIONARY
360
282
102
}
330
2
100
AcDbSymbolTableRecord
100
AcDbLayerTableRecord
  2
0
 70
     0
 62
     7
  6
Continuous
370
    -3
390
F
347
266
348
0
  0
LAYER
  5
5D
102
{ACAD_XDICTIONARY
360
284
102
}
330
2
100
AcDbSymbolTableRecord
100
AcDbLayerTableRecord
  2
Default
 70
     0
 62
     7
  6
Continuous
370
    -3
390
F
347
266
348
0
  0
LAYER
  5
77
102
{ACAD_XDICTIONARY
360
286
102
}
330
2
100
AcDbSymbolTableRecord
100
AcDbLayerTableRecord
  2
$DDT_AUDIT_GENERATED_(77)
 70
     0
 62
     7
  6
Continuous
370
    -3
390
F
347
266
348
0
  0
LAYER
  5
8E
102
{ACAD_XDICTIONARY
360
288
102
}
330
2
100
AcDbSymbolTableRecord
100
AcDbLayerTableRecord
  2
$DDT_AUDIT_GENERATED_(8E)
 70
     0
 62
     7
  6
Continuous
370
    -3
390
F
347
266
348
0
  0
LAYER
  5
96
102
{ACAD_XDICTIONARY
360
28A
102
}
330
2
100
AcDbSymbolTableRecord
100
AcDbLayerTableRecord
  2
$DDT_AUDIT_GENERATED_(96)
 70
     0
 62
     7
  6
Continuous
370
    -3
390
F
347
266
348
0
  0
LAYER
  5
BF
102
{ACAD_XDICTIONARY
360
28C
102
}
330
2
100
AcDbSymbolTableRecord
100
AcDbLayerTableRecord
  2
$DDT_AUDIT_GENERATED_(BF)
 70
     0
 62
     7
  6
Continuous
370
    -3
390
F
347
266
348
0
  0
LAYER
  5
C1
102
{ACAD_XDICTIONARY
360
28E
102
}
330
2
100
AcDbSymbolTableRecord
100
AcDbLayerTableRecord
  2
02636038_GEHÄUSE
 70
     0
 62
     7
  6
Continuous
370
    -3
390
F
347
266
348
0
  0
LAYER
  5
D7
102
{ACAD_XDICTIONARY
360
290
102
}
330
2
100
AcDbSymbolTableRecord
100
AcDbLayerTableRecord
  2
$DDT_AUDIT_GENERATED_(D7)
 70
     0
 62
     7
  6
Continuous
370
    -3
390
F
347
266
348
0
  0
LAYER
  5
186
102
{ACAD_XDICTIONARY
360
292
102
}
330
2
100
AcDbSymbolTableRecord
100
AcDbLayerTableRecord
  2
$DDT_AUDIT_GENERATED_(186)
 70
     0
 62
     7
  6
Continuous
370
    -3
390
F
347
266
348
0
  0
LAYER
  5
189
102
{ACAD_XDICTIONARY
360
294
102
}
330
2
100
AcDbSymbolTableRecord
100
AcDbLayerTableRecord
  2
$DDT_AUDIT_GENERATED_(189)
 70
     0
 62
     7
  6
Continuous
370
    -3
390
F
347
266
348
0
  0
LAYER
  5
1A1
102
{ACAD_XDICTIONARY
360
296
102
}
330
2
100
AcDbSymbolTableRecord
100
AcDbLayerTableRecord
  2
DV1_Standard
 70
     0
 62
     7
  6
Continuous
370
    -3
390
F
347
266
348
0
  0
LAYER
  5
1E8
102
{ACAD_XDICTIONARY
360
298
102
}
330
2
100
AcDbSymbolTableRecord
100
AcDbLayerTableRecord
  2
DV2_Standard
 70
     0
 62
     7
  6
Continuous
370
    -3
390
F
347
266
348
0
  0
ENDTAB
  0
TABLE
  2
STYLE
  5
3
330
0
100
AcDbSymbolTable
 70
     2
  0
STYLE
  5
11
330
3
100
AcDbSymbolTableRecord
100
AcDbTextStyleTableRecord
  2
Standard
 70
     0
 40
0.0
 41
1.0
 50
0.0
 71
     0
 42
2.5
  3
txt
  4

  0
STYLE
  5
242
330
3
100
AcDbSymbolTableRecord
100
AcDbTextStyleTableRecord
  2
SEACAD_seiso_ttf
 70
     0
 40
0.0
 41
1.0
 50
0.0
 71
     0
 42
0.2
  3
seiso.ttf
  4

  0
ENDTAB
  0
TABLE
  2
VIEW
  5
6
330
0
100
AcDbSymbolTable
 70
     0
  0
ENDTAB
  0
TABLE
  2
UCS
  5
7
330
0
100
AcDbSymbolTable
 70
     0
  0
ENDTAB
  0
TABLE
  2
APPID
  5
9
330
0
100
AcDbSymbolTable
 70
     2
  0
APPID
  5
12
330
9
100
AcDbSymbolTableRecord
100
AcDbRegAppTableRecord
  2
ACAD
 70
     0
  0
APPID
  5
29A
330
9
100
AcDbSymbolTableRecord
100
AcDbRegAppTableRecord
  2
ACAD_NAV_VCDISPLAY
 70
     0
  0
ENDTAB
  0
TABLE
  2
DIMSTYLE
  5
A
330
0
100
AcDbSymbolTable
 70
     1
100
AcDbDimStyleTable
 71
     0
  0
DIMSTYLE
105
27
330
A
100
AcDbSymbolTableRecord
100
AcDbDimStyleTableRecord
  2
ISO-25
 70
     0
 41
2.5
 42
0.625
 43
3.75
 44
1.25
 73
     0
 74
     0
 77
     1
 78
     8
140
2.5
141
2.5
143
0.03937007874016
147
0.625
171
     3
172
     1
271
     2
272
     2
274
     3
278
    44
283
     0
284
     8
340
11
  0
ENDTAB
  0
TABLE
  2
BLOCK_RECORD
  5
1
330
0
100
AcDbSymbolTable
 70
     6
  0
BLOCK_RECORD
  5
1F
330
1
100
AcDbSymbolTableRecord
100
AcDbBlockTableRecord
  2
*Model_Space
340
22
 70
     0
280
     1
281
     0
  0
BLOCK_RECORD
  5
1B
330
1
100
AcDbSymbolTableRecord
100
AcDbBlockTableRecord
  2
*Paper_Space
340
1E
 70
     0
280
     1
281
     0
  0
BLOCK_RECORD
  5
5E
330
1
100
AcDbSymbolTableRecord
100
AcDbBlockTableRecord
  2
SEANNOT_GROUP
340
0
102
{BLKREFS
331
5F
102
}
 70
     0
280
     1
281
     0
  0
BLOCK_RECORD
  5
65
330
1
100
AcDbSymbolTableRecord
100
AcDbBlockTableRecord
  2
SEANNOT_GROUP1
340
0
102
{BLKREFS
331
66
102
}
 70
     0
280
     1
281
     0
  0
BLOCK_RECORD
  5
6B
330
1
100
AcDbSymbolTableRecord
100
AcDbBlockTableRecord
  2
SEANNOT_GROUP2
340
0
102
{BLKREFS
331
6C
102
}
 70
     0
280
     1
281
     0
  0
BLOCK_RECORD
  5
75
330
1
100
AcDbSymbolTableRecord
100
AcDbBlockTableRecord
  2
SE
340
0
102
{BLKREFS
331
76
102
}
 70
     0
280
     1
281
     0
  0
BLOCK_RECORD
  5
1A5
330
1
100
AcDbSymbolTableRecord
100
AcDbBlockTableRecord
  2
SE1
340
0
102
{BLKREFS
331
1A6
102
}
 70
     0
280
     1
281
     0
  0
BLOCK_RECORD
  5
1EC
330
1
100
AcDbSymbolTableRecord
100
AcDbBlockTableRecord
  2
SE2
340
0
102
{BLKREFS
331
1ED
102
}
 70
     0
280
     1
281
     0
  0
ENDTAB
  0
ENDSEC
  0
SECTION
  2
BLOCKS
  0
BLOCK
  5
20
330
1F
100
AcDbEntity
  8
0
100
AcDbBlockBegin
  2
*Model_Space
 70
     0
 10
0.0
 20
0.0
 30
0.0
  3
*Model_Space
  1

  0
ENDBLK
  5
21
330
1F
100
AcDbEntity
  8
0
100
AcDbBlockEnd
  0
BLOCK
  5
1C
330
1B
100
AcDbEntity
 67
     1
  8
0
100
AcDbBlockBegin
  2
*Paper_Space
 70
     0
 10
0.0
 20
0.0
 30
0.0
  3
*Paper_Space
  1

  0
ENDBLK
  5
1D
330
1B
100
AcDbEntity
 67
     1
  8
0
100
AcDbBlockEnd
  0
BLOCK
  5
63
330
5E
100
AcDbEntity
  8
0
100
AcDbBlockBegin
  2
SEANNOT_GROUP
 70
     0
 10
0.0
 20
0.0
 30
0.0
  3
SEANNOT_GROUP
  1

  0
LINE
  5
61
330
5E
100
AcDbEntity
  8
Default
  6
CENTER2
 62
     7
100
AcDbLine
 10
195.2751871117556
 20
600.4356013310824
 30
0.0
 11
155.2751880058253
 21
600.4356013310824
 31
0.0
  0
LINE
  5
62
330
5E
100
AcDbEntity
  8
Default
  6
CENTER2
 62
     7
100
AcDbLine
 10
175.2751875587904
 20
620.4356008840475
 30
0.0
 11
175.2751875587904
 21
580.4356017781172
 31
0.0
  0
ENDBLK
  5
64
330
5E
100
AcDbEntity
  8
0
100
AcDbBlockEnd
  0
BLOCK
  5
69
330
65
100
AcDbEntity
  8
0
100
AcDbBlockBegin
  2
SEANNOT_GROUP1
 70
     0
 10
0.0
 20
0.0
 30
0.0
  3
SEANNOT_GROUP1
  1

  0
LINE
  5
67
330
65
100
AcDbEntity
  8
Default
  6
CENTER2
 62
     7
100
AcDbLine
 10
391.0591559356395
 20
600.4356013310824
 30
0.0
 11
351.0591568297091
 21
600.4356013310824
 31
0.0
  0
LINE
  5
68
330
65
100
AcDbEntity
  8
Default
  6
CENTER2
 62
     7
100
AcDbLine
 10
371.0591563826743
 20
620.4356008840475
 30
0.0
 11
371.0591563826743
 21
580.4356017781172
 31
0.0
  0
ENDBLK
  5
6A
330
65
100
AcDbEntity
  8
0
100
AcDbBlockEnd
  0
BLOCK
  5
73
330
6B
100
AcDbEntity
  8
0
100
AcDbBlockBegin
  2
SEANNOT_GROUP2
 70
     0
 10
0.0
 20
0.0
 30
0.0
  3
SEANNOT_GROUP2
  1

  0
LINE
  5
6D
330
6B
100
AcDbEntity
  8
Default
  6
CENTER2
 62
     7
100
AcDbLine
 10
195.2858263519067
 20
334.1238320749989
 30
0.0
 11
155.2858272459763
 21
334.1238320749989
 31
0.0
  0
LINE
  5
6E
330
6B
100
AcDbEntity
  8
Default
  6
CENTER2
 62
     7
100
AcDbLine
 10
175.2858267989415
 20
354.1238316279641
 30
0.0
 11
175.2858267989415
 21
314.1238325220338
 31
0.0
  0
LINE
  5
6F
330
6B
100
AcDbEntity
  8
Default
  6
CENTER2
 62
     7
100
AcDbLine
 10
200.285826240148
 20
334.1238320749989
 30
0.0
 11
204.5858267989415
 21
334.1238320749989
 31
0.0
  0
LINE
  5
70
330
6B
100
AcDbEntity
  8
Default
  6
CENTER2
 62
     7
100
AcDbLine
 10
175.2858267989415
 20
359.1238315162054
 30
0.0
 11
175.2858267989415
 21
363.4238320749989
 31
0.0
  0
LINE
  5
71
330
6B
100
AcDbEntity
  8
Default
  6
CENTER2
 62
     7
100
AcDbLine
 10
150.285827357735
 20
334.1238320749989
 30
0.0
 11
145.9858267989415
 21
334.1238320749989
 31
0.0
  0
LINE
  5
72
330
6B
100
AcDbEntity
  8
Default
  6
CENTER2
 62
     7
100
AcDbLine
 10
175.2858267989415
 20
309.1238326337925
 30
0.0
 11
175.2858267989415
 21
304.8238320749989
 31
0.0
  0
ENDBLK
  5
74
330
6B
100
AcDbEntity
  8
0
100
AcDbBlockEnd
  0
BLOCK
  5
1A3
330
75
100
AcDbEntity
  8
0
100
AcDbBlockBegin
  2
SE
 70
     0
 10
0.0
 20
0.0
 30
0.0
  3
SE
  1

  0
SPLINE
  5
78
330
75
100
AcDbEntity
  8
$DDT_AUDIT_GENERATED_(77)
  6
Continuous
 62
     7
100
AcDbSpline
210
0.0
220
0.0
230
1.0
 70
     8
 71
     3
 72
    22
 73
    18
 74
     0
 42
0.000000001
 43
0.0000000001
 40
0.0
 40
0.0
 40
0.0
 40
0.0
 40
0.0152791991551419
 40
0.030839881892571
 40
0.0621558552112856
 40
0.0990430477262244
 40
0.1300373871518456
 40
0.1493672543937826
 40
0.1687290491894861
 40
0.1856462120890466
 40
0.204108141355423
 40
0.2367346912038724
 40
0.2681367202116183
 40
0.3284610487834648
 40
0.3579518447908543
 40
0.3857885191975404
 40
0.3987877988058673
 40
0.3987877988058673
 40
0.3987877988058673
 40
0.3987877988058673
 10
196.9010260786686
 20
640.5759789255234
 30
0.0
 10
196.4576268535116
 20
641.1009985393101
 30
0.0
 10
195.5330230620985
 20
642.2061145431563
 30
0.0
 10
193.5833172609184
 20
644.6128528084862
 30
0.0
 10
190.8612432335421
 20
648.1859817457976
 30
0.0
 10
187.7870784438236
 20
652.9732306632618
 30
0.0
 10
185.9114714714048
 20
657.8579720339789
 30
0.0
 10
185.4821293000532
 20
662.0396427363847
 30
0.0
 10
185.8680206375757
 20
665.3707996890396
 30
0.0
 10
186.8382211217844
 20
668.4856120586702
 30
0.0
 10
188.5455134353737
 20
672.0919723479946
 30
0.0
 10
191.1173637406404
 20
676.0343841134759
 30
0.0
 10
195.1513265733931
 20
681.2996355376497
 30
0.0
 10
198.8500418336456
 20
685.5856015758062
 30
0.0
 10
201.2200388970107
 20
688.2587051637486
 30
0.0
 10
201.9800436134734
 20
689.1028813505445
 30
0.0
 10
202.0841025352754
 20
689.2197590035757
 30
0.0
 10
202.083590163496
 20
689.2196295501592
 30
0.0
  0
SPLINE
  5
79
330
75
100
AcDbEntity
  8
$DDT_AUDIT_GENERATED_(77)
  6
Continuous
 62
     7
100
AcDbSpline
210
0.0
220
0.0
230
1.0
 70
     8
 71
     3
 72
    10
 73
     6
 74
     0
 42
0.000000001
 43
0.0000000001
 40
0.8987868291636857
 40
0.8987868291636857
 40
0.8987868291636857
 40
0.8987868291636857
 40
0.9213816916204681
 40
0.9587984528597955
 40
1.0
 40
1.0
 40
1.0
 40
1.0
 10
202.0835818198261
 20
634.6516102663964
 30
0.0
 10
202.0827526266201
 20
634.6518025397016
 30
0.0
 10
201.8107278040544
 20
634.9518396614254
 30
0.0
 10
200.1744439673214
 20
636.7708831854267
 30
0.0
 10
198.096686524726
 20
639.1602227626954
 30
0.0
 10
196.9010260786686
 20
640.5759789255234
 30
0.0
  0
LINE
  5
7A
330
75
100
AcDbEntity
  8
$DDT_AUDIT_GENERATED_(77)
  6
Continuous
 62
     7
100
AcDbLine
 10
202.0858267989413
 20
710.4356013310824
 30
0.0
 11
148.4858267989418
 21
710.4356013310824
 31
0.0
  0
LINE
  5
7B
330
75
100
AcDbEntity
  8
$DDT_AUDIT_GENERATED_(77)
  6
Continuous
 62
     7
100
AcDbLine
 10
149.4858267989418
 20
711.4356013310823
 30
0.0
 11
201.0858267989413
 21
711.4356013310823
 31
0.0
  0
LINE
  5
7C
330
75
100
AcDbEntity
  8
$DDT_AUDIT_GENERATED_(77)
  6
Continuous
 62
     7
100
AcDbLine
 10
228.9395068487342
 20
638.1856013310823
 30
0.0
 11
228.9395068487342
 21
685.6856013310824
 31
0.0
  0
LINE
  5
7D
330
75
100
AcDbEntity
  8
$DDT_AUDIT_GENERATED_(77)
  6
Continuous
 62
     7
100
AcDbLine
 10
233.1599465285184
 20
639.1198428541525
 30
0.0
 11
233.1599465285184
 21
684.7513598080123
 31
0.0
  0
LINE
  5
7E
330
75
100
AcDbEntity
  8
$DDT_AUDIT_GENERATED_(77)
  6
Continuous
 62
     7
100
AcDbLine
 10
233.2858267989415
 20
639.3056014762603
 30
0.0
 11
233.2858267989415
 21
684.5656011859042
 31
0.0
  0
LINE
  5
7F
330
75
100
AcDbEntity
  8
$DDT_AUDIT_GENERATED_(77)
  6
Continuous
 62
     7
100
AcDbLine
 10
202.0858267989415
 20
689.2176253066706
 30
0.0
 11
202.0858267989415
 21
710.4356013310823
 31
0.0
  0
LINE
  5
80
330
75
100
AcDbEntity
  8
$DDT_AUDIT_GENERATED_(77)
  6
Continuous
 62
     7
100
AcDbLine
 10
202.0858267989415
 20
600.6356013310823
 30
0.0
 11
202.0858267989415
 21
634.6510703347866
 31
0.0
  0
LINE
  5
81
330
75
100
AcDbEntity
  8
$DDT_AUDIT_GENERATED_(77)
  6
Continuous
 62
     7
100
AcDbLine
 10
148.4858267989415
 20
710.4356013310824
 30
0.0
 11
148.4858267989415
 21
600.6356013310825
 31
0.0
  0
LINE
  5
82
330
75
100
AcDbEntity
  8
$DDT_AUDIT_GENERATED_(77)
  6
Continuous
 62
     7
100
AcDbLine
 10
205.6164923170658
 20
638.1856013310823
 30
0.0
 11
228.9395068487342
 21
638.1856013310823
 31
0.0
  0
LINE
  5
83
330
75
100
AcDbEntity
  8
$DDT_AUDIT_GENERATED_(77)
  6
Continuous
 62
     7
100
AcDbLine
 10
228.9395068487342
 20
685.6856013310824
 30
0.0
 11
205.6134015812855
 21
685.6856013310824
 31
0.0
  0
ARC
  5
84
330
75
100
AcDbEntity
  8
$DDT_AUDIT_GENERATED_(77)
  6
Continuous
 62
     7
100
AcDbCircle
 10
205.6208642195021
 20
689.2206137103
 30
0.0
 40
3.535899078300736
100
AcDbArc
 50
180.006052178072
 51
269.9942178814017
  0
ARC
  5
85
330
75
100
AcDbEntity
  8
$DDT_AUDIT_GENERATED_(77)
  6
Continuous
 62
     7
100
AcDbCircle
 10
205.6217784689428
 20
634.6495427501923
 30
0.0
 40
3.535404924933485
100
AcDbArc
 50
89.998145884069
 51
180.0023674550613
  0
ARC
  5
86
330
75
100
AcDbEntity
  8
$DDT_AUDIT_GENERATED_(77)
  6
Continuous
 62
     7
100
AcDbCircle
 10
201.8858267989415
 20
600.6356013310823
 30
0.0
 40
0.2000000000000027
100
AcDbArc
 50
270.0
 51
0.0
  0
ARC
  5
87
330
75
100
AcDbEntity
  8
$DDT_AUDIT_GENERATED_(77)
  6
Continuous
 62
     7
100
AcDbCircle
 10
148.6858267989415
 20
600.6356013310823
 30
0.0
 40
0.1999999999999988
100
AcDbArc
 50
180.0
 51
270.0
  0
ARC
  5
88
330
75
100
AcDbEntity
  8
$DDT_AUDIT_GENERATED_(77)
  6
Continuous
 62
     7
100
AcDbCircle
 10
201.0858267989415
 20
710.4356013310824
 30
0.0
 40
0.9999999999999975
100
AcDbArc
 50
0.0
 51
90.0
  0
ARC
  5
89
330
75
100
AcDbEntity
  8
$DDT_AUDIT_GENERATED_(77)
  6
Continuous
 62
     7
100
AcDbCircle
 10
149.4858267989415
 20
710.4356013310824
 30
0.0
 40
1.0
100
AcDbArc
 50
90.0
 51
180.0
  0
ARC
  5
8A
330
75
100
AcDbEntity
  8
$DDT_AUDIT_GENERATED_(77)
  6
Continuous
 62
     7
100
AcDbCircle
 10
228.9396636452428
 20
648.1856694786324
 30
0.0
 40
10.0
100
AcDbArc
 50
269.9991016221813
 51
294.9627081874535
  0
ARC
  5
8B
330
75
100
AcDbEntity
  8
$DDT_AUDIT_GENERATED_(77)
  6
Continuous
 62
     7
100
AcDbCircle
 10
228.9396636452428
 20
675.6855331835323
 30
0.0
 40
10.0
100
AcDbArc
 50
65.0372918125462
 51
90.00089837781876
  0
ARC
  5
8C
330
75
100
AcDbEntity
  8
$DDT_AUDIT_GENERATED_(77)
  6
Continuous
 62
     7
100
AcDbCircle
 10
233.0858267989415
 20
639.3056014762603
 30
0.0
 40
0.1999999999999946
100
AcDbArc
 50
291.7525421804065
 51
0.0
  0
ARC
  5
8D
330
75
100
AcDbEntity
  8
$DDT_AUDIT_GENERATED_(77)
  6
Continuous
 62
     7
100
AcDbCircle
 10
233.0858267989415
 20
684.5656011859043
 30
0.0
 40
0.1999999999999988
100
AcDbArc
 50
0.0
 51
68.2474578195935
  0
LINE
  5
8F
330
75
100
AcDbEntity
  8
$DDT_AUDIT_GENERATED_(8E)
  6
Continuous
 62
     7
100
AcDbLine
 10
162.8858267989415
 20
818.5754552971864
 30
0.0
 11
162.8858267989415
 21
711.4356013310823
 31
0.0
  0
LINE
  5
90
330
75
100
AcDbEntity
  8
$DDT_AUDIT_GENERATED_(8E)
  6
Continuous
 62
     7
100
AcDbLine
 10
187.6858267989415
 20
711.4356013310823
 30
0.0
 11
187.6858267989415
 21
818.5698919189604
 31
0.0
  0
ARC
  5
91
330
75
100
AcDbEntity
  8
$DDT_AUDIT_GENERATED_(8E)
  6
Continuous
 62
     7
100
AcDbCircle
 10
175.2858267989415
 20
948.8356013310824
 30
0.0
 40
12.4
100
AcDbArc
 50
0.0
 51
180.0
  0
LINE
  5
92
330
75
100
AcDbEntity
  8
$DDT_AUDIT_GENERATED_(8E)
  6
Continuous
 62
     7
100
AcDbLine
 10
162.8858267989415
 20
948.8356013310824
 30
0.0
 11
162.8858267989414
 21
862.895011808443
 31
0.0
  0
LINE
  5
93
330
75
100
AcDbEntity
  8
$DDT_AUDIT_GENERATED_(8E)
  6
Continuous
 62
     7
100
AcDbLine
 10
187.6858267989414
 20
862.8950118084432
 30
0.0
 11
187.6858267989415
 21
948.8356013310824
 31
0.0
  0
LINE
  5
94
330
75
100
AcDbEntity
  8
$DDT_AUDIT_GENERATED_(8E)
  6
Continuous
 62
     7
100
AcDbLine
 10
187.6858267989414
 20
857.9183935208535
 30
0.0
 11
187.6858267989414
 21
862.8950118084432
 31
0.0
  0
LINE
  5
95
330
75
100
AcDbEntity
  8
$DDT_AUDIT_GENERATED_(8E)
  6
Continuous
 62
     7
100
AcDbLine
 10
162.8858267989414
 20
862.895011808443
 30
0.0
 11
162.8858267989414
 21
857.9239897777782
 31
0.0
  0
SPLINE
  5
97
330
75
100
AcDbEntity
  8
$DDT_AUDIT_GENERATED_(96)
  6
Continuous
 62
     7
100
AcDbSpline
210
0.0
220
0.0
230
1.0
 70
     8
 71
     3
 72
    12
 73
     8
 74
     0
 42
0.0000000084259726
 43
0.0000000001
 40
0.0
 40
0.0
 40
0.0
 40
0.0
 40
0.0404446000283909
 40
0.0813548676199832
 40
0.1227366331592042
 40
0.1645955299049174
 40
0.183993296094862
 40
0.183993296094862
 40
0.183993296094862
 40
0.183993296094862
 10
253.8619519119566
 20
687.0774440298472
 30
0.0
 10
253.8628110587848
 20
687.0648985038518
 30
0.0
 10
253.8645169171022
 20
687.0396995848271
 30
0.0
 10
253.8787556516492
 20
686.9984896434742
 30
0.0
 10
253.9018778612232
 20
686.9546160529638
 30
0.0
 10
253.9289463931966
 20
686.9164484126045
 30
0.0
 10
253.9484835801042
 20
686.892914112159
 30
0.0
 10
253.9550085429787
 20
686.8853890149946
 30
0.0
  0
SPLINE
  5
98
330
75
100
AcDbEntity
  8
$DDT_AUDIT_GENERATED_(96)
  6
Continuous
 62
     7
100
AcDbSpline
210
0.0
220
0.0
230
1.0
 70
     8
 71
     3
 72
    17
 73
    13
 74
     0
 42
0.0000000030648282
 43
0.0000000001
 40
0.183993296094862
 40
0.183993296094862
 40
0.183993296094862
 40
0.183993296094862
 40
0.2069370005728339
 40
0.2497663037977956
 40
0.3691263329452398
 40
0.4996186996170738
 40
0.6067953848638817
 40
0.7497259479150595
 40
0.82752062069497
 40
0.8748785357508056
 40
0.9413292823227729
 40
1.0
 40
1.0
 40
1.0
 40
1.0
 10
253.9550085429787
 20
686.8853890149946
 30
0.0
 10
253.962726278024
 20
686.8764883197383
 30
0.0
 10
253.9862073611837
 20
686.8506812683253
 30
0.0
 10
254.0632116263842
 20
686.775808763982
 30
0.0
 10
254.227048411587
 20
686.6487027861563
 30
0.0
 10
254.5021662673997
 20
686.4840436980484
 30
0.0
 10
254.8657869620231
 20
686.3031656207921
 30
0.0
 10
255.239047774113
 20
686.1497841978028
 30
0.0
 10
255.5816169292944
 20
686.0301470185433
 30
0.0
 10
255.8407121919026
 20
685.9480500820037
 30
0.0
 10
256.0842562418602
 20
685.8774229652789
 30
0.0
 10
256.27077140582
 20
685.8304607377805
 30
0.0
 10
256.3582302490594
 20
685.8084396752275
 30
0.0
  0
ARC
  5
99
330
75
100
AcDbEntity
  8
$DDT_AUDIT_GENERATED_(96)
  6
Continuous
 62
     7
100
AcDbCircle
 10
258.9626465871797
 20
696.6107505645058
 30
0.0
 40
11.11183625738293
100
AcDbArc
 50
256.444793150886
 51
269.4808363803209
  0
ARC
  5
9A
330
75
100
AcDbEntity
  8
$DDT_AUDIT_GENERATED_(96)
  6
Continuous
 62
     7
100
AcDbCircle
 10
258.9863954732288
 20
696.5414779211922
 30
0.0
 40
11.04280854928883
100
AcDbArc
 50
269.3543631600868
 51
282.39975234531
  0
SPLINE
  5
9B
330
75
100
AcDbEntity
  8
$DDT_AUDIT_GENERATED_(96)
  6
Continuous
 62
     7
100
AcDbSpline
210
0.0
220
0.0
230
1.0
 70
     8
 71
     3
 72
    19
 73
    15
 74
     0
 42
0.0000000030765769
 43
0.0000000001
 40
0.0
 40
0.0
 40
0.0
 40
0.0
 40
0.0375126661007784
 40
0.0812894050101689
 40
0.1313306299696612
 40
0.1876363974599514
 40
0.2502065238860472
 40
0.3248353115807198
 40
0.3753230786530513
 40
0.4414060356278001
 40
0.5004071699045229
 40
0.6311416628247187
 40
0.7502617899628453
 40
0.815831517006244
 40
0.815831517006244
 40
0.815831517006244
 40
0.815831517006244
 10
261.3576299620219
 20
685.7562626866499
 30
0.0
 10
261.4139772073492
 20
685.7691490412317
 30
0.0
 10
261.5360808732189
 20
685.7970735849805
 30
0.0
 10
261.7268054147932
 20
685.8455449163732
 30
0.0
 10
261.9378084383025
 20
685.9034806761989
 30
0.0
 10
262.1649833470848
 20
685.9718213356213
 30
0.0
 10
262.4113850708586
 20
686.0537046910196
 30
0.0
 10
262.6338304901956
 20
686.1362285761742
 30
0.0
 10
262.8438804236124
 20
686.2221838354261
 30
0.0
 10
263.0221279797608
 20
686.3018076137755
 30
0.0
 10
263.2576465912018
 20
686.41805769403
 30
0.0
 10
263.4962028387817
 20
686.5563587655422
 30
0.0
 10
263.6733042427708
 20
686.6901946814952
 30
0.0
 10
263.746216379849
 20
686.7628240572137
 30
0.0
 10
263.7684174700188
 20
686.7878840909912
 30
0.0
  0
SPLINE
  5
9C
330
75
100
AcDbEntity
  8
$DDT_AUDIT_GENERATED_(96)
  6
Continuous
 62
     7
100
AcDbSpline
210
0.0
220
0.0
230
1.0
 70
     8
 71
     3
 72
    10
 73
     6
 74
     0
 42
0.0000000084112088
 43
0.0000000001
 40
0.815831517006244
 40
0.815831517006244
 40
0.815831517006244
 40
0.815831517006244
 40
0.8349465460221715
 40
0.9181799786748449
 40
1.0
 40
1.0
 40
1.0
 40
1.0
 10
263.7684174700188
 20
686.7878840909912
 30
0.0
 10
263.7748895799682
 20
686.7951896463808
 30
0.0
 10
263.8078668385656
 20
686.8339760734419
 30
0.0
 10
263.8513030066568
 20
686.9005864928496
 30
0.0
 10
263.8584296108926
 20
686.9527481498643
 30
0.0
 10
263.8619654795221
 20
686.9786254422507
 30
0.0
  0
ELLIPSE
  5
9D
330
75
100
AcDbEntity
  8
$DDT_AUDIT_GENERATED_(96)
  6
Continuous
 62
     7
100
AcDbEllipse
 10
258.8619627079375
 20
744.3257127716178
 30
0.0
 11
5.000000000000004
 21
-0.0000000000000278
 31
0.0
210
0.0
220
0.0
230
1.0
 40
0.1736481776639465
 41
3.142016881830159
 42
6.283185307179586
  0
ELLIPSE
  5
9E
330
75
100
AcDbEntity
  8
$DDT_AUDIT_GENERATED_(96)
  6
Continuous
 62
     7
100
AcDbEllipse
 10
258.8619627079375
 20
744.3257127716178
 30
0.0
 11
5.000000000000004
 21
-0.0000000000000278
 31
0.0
210
0.0
220
0.0
230
1.0
 40
0.1736481776639465
 41
0.0
 42
0.00034802537923
  0
ELLIPSE
  5
9F
330
75
100
AcDbEntity
  8
$DDT_AUDIT_GENERATED_(96)
  6
Continuous
 62
     7
100
AcDbEllipse
 10
258.8619627079377
 20
745.3105205246305
 30
0.0
 11
-4.000000000000003
 21
0.0000000000000278
 31
0.0
210
0.0
220
0.0
230
1.0
 40
0.1736481776639651
 41
0.0
 42
6.283185307179586
  0
ARC
  5
A0
330
75
100
AcDbEntity
  8
$DDT_AUDIT_GENERATED_(96)
  6
Continuous
 62
     7
100
AcDbCircle
 10
264.655744064834
 20
686.9846318473024
 30
0.0
 40
0.7938013097755933
100
AcDbArc
 50
190.4528428988277
 51
269.9531717792416
  0
ARC
  5
A1
330
75
100
AcDbEntity
  8
$DDT_AUDIT_GENERATED_(96)
  6
Continuous
 62
     7
100
AcDbCircle
 10
264.655744064834
 20
686.9846318473024
 30
0.0
 40
0.7938013097755933
100
AcDbArc
 50
180.433540407743
 51
190.4528428988277
  0
ARC
  5
A2
330
75
100
AcDbEntity
  8
$DDT_AUDIT_GENERATED_(96)
  6
Continuous
 62
     7
100
AcDbCircle
 10
253.0679386097287
 20
687.0835744485522
 30
0.0
 40
0.7940369677467139
100
AcDbArc
 50
349.3686258970605
 51
359.5576394774033
  0
ARC
  5
A3
330
75
100
AcDbEntity
  8
$DDT_AUDIT_GENERATED_(96)
  6
Continuous
 62
     7
100
AcDbCircle
 10
253.0679386097287
 20
687.0835744485522
 30
0.0
 40
0.7940369677467139
100
AcDbArc
 50
269.0666925421103
 51
349.3686258970605
  0
SPLINE
  5
A4
330
75
100
AcDbEntity
  8
$DDT_AUDIT_GENERATED_(96)
  6
Continuous
 62
     7
100
AcDbSpline
210
0.0
220
0.0
230
1.0
 70
     8
 71
     3
 72
    11
 73
     7
 74
     0
 42
0.0000000013648885
 43
0.0000000001
 40
0.0
 40
0.0
 40
0.0
 40
0.0
 40
0.03125
 40
0.0625
 40
0.0625
 40
0.0860527072622389
 40
0.0860527072622389
 40
0.0860527072622389
 40
0.0860527072622389
 10
270.1587176507221
 20
686.1439497849431
 30
0.0
 10
270.1586907956782
 20
686.2856863940383
 30
0.0
 10
270.1377513651934
 20
686.4893599794945
 30
0.0
 10
270.075087848274
 20
686.5306060417242
 30
0.0
 10
270.0022428205794
 20
686.495205494667
 30
0.0
 10
269.9651223389915
 20
686.4568579131112
 30
0.0
 10
269.9223743524687
 20
686.395710271045
 30
0.0
  0
SPLINE
  5
A5
330
75
100
AcDbEntity
  8
$DDT_AUDIT_GENERATED_(96)
  6
Continuous
 62
     7
100
AcDbSpline
210
0.0
220
0.0
230
1.0
 70
     8
 71
     3
 72
    40
 73
    36
 74
     0
 42
0.000000001
 43
0.0000000001
 40
0.0259281061910893
 40
0.0259281061910893
 40
0.0259281061910893
 40
0.0259281061910893
 40
0.0312499919788964
 40
0.0624999999999999
 40
0.0624999999999999
 40
0.1249999999999994
 40
0.1249999999999994
 40
0.1875000000000005
 40
0.1875000000000005
 40
0.25
 40
0.25
 40
0.3125000000000049
 40
0.3125000000000049
 40
0.3750000000000031
 40
0.3750000000000031
 40
0.4375000000000016
 40
0.4375000000000016
 40
0.5
 40
0.5
 40
0.5624999999999984
 40
0.5624999999999984
 40
0.6249999999999967
 40
0.6249999999999967
 40
0.6874999999999951
 40
0.6874999999999951
 40
0.7499999999999937
 40
0.7499999999999937
 40
0.8125000000000046
 40
0.8125000000000046
 40
0.8750000000000031
 40
0.8750000000000031
 40
0.9375000000000014
 40
0.9375000000000014
 40
0.9687500080210998
 40
1.0
 40
1.0
 40
1.0
 40
1.0
 10
257.7442959388643
 20
637.396916297584
 30
0.0
 10
257.7471397914368
 20
637.3841276319361
 30
0.0
 10
257.7687457671836
 20
637.3043134033284
 30
0.0
 10
257.8046812420464
 20
637.2801495942318
 30
0.0
 10
257.9252462100236
 20
637.3414871085818
 30
0.0
 10
258.0445565433181
 20
637.5431160071092
 30
0.0
 10
258.3601982508952
 20
638.2687029221457
 30
0.0
 10
258.5526356066362
 20
638.7835378832578
 30
0.0
 10
259.0066200494913
 20
640.1098501464854
 30
0.0
 10
259.2664055281447
 20
640.9189459977243
 30
0.0
 10
259.8390683162253
 20
642.7844903403601
 30
0.0
 10
260.152934344465
 20
643.8450768569737
 30
0.0
 10
260.8262484903309
 20
646.1853648157211
 30
0.0
 10
261.1819862553284
 20
647.4540011233219
 30
0.0
 10
261.9200283776367
 20
650.1405789077064
 30
0.0
 10
262.3084559244605
 20
651.582972573288
 30
0.0
 10
263.0903757284463
 20
654.535112651999
 30
0.0
 10
263.4903725659881
 20
656.0702211927328
 30
0.0
 10
264.2913182234841
 20
659.1928691456391
 30
0.0
 10
264.6944421226431
 20
660.7904539446174
 30
0.0
 10
265.4820509315522
 20
663.957089601883
 30
0.0
 10
265.8728985201741
 20
665.5545011149544
 30
0.0
 10
266.6188328340695
 20
668.6528822274437
 30
0.0
 10
266.9844492726515
 20
670.1993263936674
 30
0.0
 10
267.6632939862588
 20
673.1272550775926
 30
0.0
 10
267.9823880367229
 20
674.5328656370638
 30
0.0
 10
268.5741541215008
 20
677.2104099704854
 30
0.0
 10
268.8328817246788
 20
678.4174419135354
 30
0.0
 10
269.3053148122822
 20
680.7042564414675
 30
0.0
 10
269.5008943049041
 20
681.7016597518792
 30
0.0
 10
269.8259212798749
 20
683.4703876401164
 30
0.0
 10
269.949945906368
 20
684.2196800358968
 30
0.0
 10
270.0749674424531
 20
685.115141345541
 30
0.0
 10
270.1379124800316
 20
685.6389402318084
 30
0.0
 10
270.1587445024066
 20
686.0022131758904
 30
0.0
 10
270.1587176507221
 20
686.1439497849431
 30
0.0
  0
SPLINE
  5
A6
330
75
100
AcDbEntity
  8
$DDT_AUDIT_GENERATED_(96)
  6
Continuous
 62
     7
100
AcDbSpline
210
0.0
220
0.0
230
1.0
 70
     8
 71
     3
 72
    10
 73
     6
 74
     0
 42
0.0000000013235875
 43
0.0000000001
 40
0.9205837811814527
 40
0.9205837811814527
 40
0.9205837811814527
 40
0.9205837811814527
 40
0.9331830842083025
 40
0.968650317917031
 40
0.9999981431795244
 40
0.9999981431795244
 40
0.9999981431795244
 40
0.9999981431795244
 10
270.1807561178592
 20
686.3370992655077
 30
0.0
 10
270.2019781639331
 20
686.3628026689656
 30
0.0
 10
270.2769605801203
 20
686.4368912305909
 30
0.0
 10
270.3636095320849
 20
686.4111203964644
 30
0.0
 10
270.3766015198115
 20
686.159053271131
 30
0.0
 10
270.3826962310089
 20
686.040761946968
 30
0.0
  0
SPLINE
  5
A7
330
75
100
AcDbEntity
  8
$DDT_AUDIT_GENERATED_(96)
  6
Continuous
 62
     7
100
AcDbSpline
210
0.0
220
0.0
230
1.0
 70
     8
 71
     3
 72
    10
 73
     6
 74
     0
 42
0.0000000013016181
 43
0.0000000001
 40
0.907221133773004
 40
0.907221133773004
 40
0.907221133773004
 40
0.907221133773004
 40
0.9080503918250904
 40
0.9257468427483159
 40
0.9358364186332945
 40
0.9358364186332945
 40
0.9358364186332945
 40
0.9358364186332945
 10
258.1586582931013
 20
637.526540934557
 30
0.0
 10
258.1570883771692
 20
637.5239508660361
 30
0.0
 10
258.1221674514818
 20
637.4667152108023
 30
0.0
 10
258.0734483952915
 20
637.3999445929914
 30
0.0
 10
258.0338525426894
 20
637.3667623896677
 30
0.0
 10
258.0205157101787
 20
637.358960634028
 30
0.0
  0
SPLINE
  5
A8
330
75
100
AcDbEntity
  8
$DDT_AUDIT_GENERATED_(96)
  6
Continuous
 62
     7
100
AcDbSpline
210
0.0
220
0.0
230
1.0
 70
     8
 71
     3
 72
    10
 73
     6
 74
     0
 42
0.0000000020668042
 43
0.0000000001
 40
0.0374374017058618
 40
0.0374374017058618
 40
0.0374374017058618
 40
0.0374374017058618
 40
0.0402599258201867
 40
0.0612708041097745
 40
0.0803048068857049
 40
0.0803048068857049
 40
0.0803048068857049
 40
0.0803048068857049
 10
271.453033811685
 20
685.0795073365977
 30
0.0
 10
271.450910313048
 20
685.0832022179911
 30
0.0
 10
271.4323354829037
 20
685.111830243792
 30
0.0
 10
271.3896324762233
 20
685.1260964544275
 30
0.0
 10
271.3338941573766
 20
685.0752695682214
 30
0.0
 10
271.3039638480456
 20
685.0370232511367
 30
0.0
  0
SPLINE
  5
A9
330
75
100
AcDbEntity
  8
$DDT_AUDIT_GENERATED_(96)
  6
Continuous
 62
     7
100
AcDbSpline
210
0.0
220
0.0
230
1.0
 70
    12
 71
     3
 72
    16
 73
    12
 74
     0
 42
0.000000001
 43
0.0000000001
 40
0.848323039056914
 40
0.848323039056914
 40
0.848323039056914
 40
0.848323039056914
 40
0.8593749999999996
 40
0.8593749999999996
 40
0.8750000000000005
 40
0.8750000000000005
 40
0.8906250000000001
 40
0.8906250000000001
 40
0.9062499999999998
 40
0.9062499999999998
 40
0.908907425769809
 40
0.908907425769809
 40
0.908907425769809
 40
0.908907425769809
 10
260.4357241320542
 20
639.7694033404684
 30
0.0
 41
1.0
 10
260.4038477577439
 20
639.6868784743918
 30
0.0
 41
1.0
 10
260.3730781087283
 20
639.6089855624078
 30
0.0
 41
1.0
 10
260.3014634765242
 20
639.4320813443687
 30
0.0
 41
1.0
 10
260.2617185882756
 20
639.3376709250012
 30
0.0
 41
1.0
 10
260.1866404074398
 20
639.1672696628236
 30
0.0
 41
1.0
 10
260.1513024454038
 20
639.0912649252885
 30
0.0
 41
1.0
 10
260.0850210004752
 20
638.9576489013088
 30
0.0
 41
1.0
 10
260.05407747413
 20
638.900037440223
 30
0.0
 41
1.0
 10
260.0204689377883
 20
638.8435053276521
 30
0.0
 41
1.0
 10
260.0156480137556
 20
638.8355570457136
 30
0.0
 41
1.0
 10
260.0108915555793
 20
638.8278786609678
 30
0.0
 41
1.0
  0
ELLIPSE
  5
AA
330
75
100
AcDbEntity
  8
$DDT_AUDIT_GENERATED_(96)
  6
Continuous
 62
     7
100
AcDbEllipse
 10
271.266868559859
 20
684.5705848843373
 30
0.0
 11
-0.3000000118791451
 21
-0.000018925007006
 31
0.0
210
0.0
220
0.0
230
1.0
 40
0.9848208690083946
 41
2.996623207408342
 42
3.278564693507406
  0
SPLINE
  5
AB
330
75
100
AcDbEntity
  8
$DDT_AUDIT_GENERATED_(96)
  6
Continuous
 62
     7
100
AcDbSpline
210
0.0
220
0.0
230
1.0
 70
     8
 71
     3
 72
    11
 73
     7
 74
     0
 42
0.000000001
 43
0.0000000001
 40
0.0
 40
0.0
 40
0.0
 40
0.0
 40
0.020864564706775
 40
0.0416822855968783
 40
0.0625520116306627
 40
0.0774429013014103
 40
0.0774429013014103
 40
0.0774429013014103
 40
0.0774429013014103
 10
271.563724360411
 20
684.5279227953144
 30
0.0
 10
271.561239065256
 20
684.4297498274579
 30
0.0
 10
271.5562740553476
 20
684.2336243074202
 30
0.0
 10
271.5159804424025
 20
683.8131361085607
 30
0.0
 10
271.4579929177055
 20
683.3512582891224
 30
0.0
 10
271.4088075788522
 20
683.0125640818558
 30
0.0
 10
271.3862021905498
 20
682.863666980728
 30
0.0
  0
SPLINE
  5
AC
330
75
100
AcDbEntity
  8
$DDT_AUDIT_GENERATED_(96)
  6
Continuous
 62
     7
100
AcDbSpline
210
0.0
220
0.0
230
1.0
 70
     8
 71
     3
 72
    10
 73
     6
 74
     0
 42
0.000000001
 43
0.0000000001
 40
0.818032603784491
 40
0.818032603784491
 40
0.818032603784491
 40
0.818032603784491
 40
0.8749827819954237
 40
0.9062790806620121
 40
0.9083432993703263
 40
0.9083432993703263
 40
0.9083432993703263
 40
0.9083432993703263
 10
260.825130567838
 20
640.6717691465748
 30
0.0
 10
260.6328183841203
 20
640.1270962421019
 30
0.0
 10
260.3751342879014
 20
639.4585295709362
 30
0.0
 10
260.1831874040735
 20
639.0740073240561
 30
0.0
 10
260.1230194230946
 20
638.9758436191932
 30
0.0
 10
260.1193373612836
 20
638.9699366716569
 30
0.0
  0
LINE
  5
AD
330
75
100
AcDbEntity
  8
$DDT_AUDIT_GENERATED_(96)
  6
Continuous
 62
     7
100
AcDbLine
 10
233.5295990912003
 20
686.6317807551848
 30
0.0
 11
233.5295990912003
 21
686.2572911345998
 31
0.0
  0
LINE
  5
AE
330
75
100
AcDbEntity
  8
$DDT_AUDIT_GENERATED_(96)
  6
Continuous
 62
     7
100
AcDbLine
 10
233.5295990912003
 20
637.3385344156924
 30
0.0
 11
233.5295990912003
 21
686.2572911345998
 31
0.0
  0
SPLINE
  5
AF
330
75
100
AcDbEntity
  8
$DDT_AUDIT_GENERATED_(96)
  6
Continuous
 62
     7
100
AcDbSpline
210
0.0
220
0.0
230
1.0
 70
     8
 71
     3
 72
     8
 73
     4
 74
     0
 42
0.0000000023375044
 43
0.0000000001
 40
0.9139633052404308
 40
0.9139633052404308
 40
0.9139633052404308
 40
0.9139633052404308
 40
0.9405561337004135
 40
0.9405561337004135
 40
0.9405561337004135
 40
0.9405561337004135
 10
233.7309214612453
 20
637.2507212490103
 30
0.0
 10
233.7309188138064
 20
637.1838123595004
 30
0.0
 10
233.7309164686474
 20
637.1458795526581
 30
0.0
 10
233.7309145090904
 20
637.1369553520407
 30
0.0
  0
LINE
  5
B0
330
75
100
AcDbEntity
  8
$DDT_AUDIT_GENERATED_(96)
  6
Continuous
 62
     7
100
AcDbLine
 10
233.7313257596162
 20
686.4542459789014
 30
0.0
 11
233.7313289805869
 21
686.8316649521212
 31
0.0
  0
LINE
  5
B1
330
75
100
AcDbEntity
  8
$DDT_AUDIT_GENERATED_(96)
  6
Continuous
 62
     7
100
AcDbLine
 10
263.8619627079368
 20
686.9783568090381
 30
0.0
 11
263.8619627079375
 21
744.3257127716176
 31
0.0
  0
LINE
  5
B2
330
75
100
AcDbEntity
  8
$DDT_AUDIT_GENERATED_(96)
  6
Continuous
 62
     7
100
AcDbLine
 10
253.8619627079376
 20
744.3257127716178
 30
0.0
 11
253.8619627079368
 21
687.0770630911452
 31
0.0
  0
SPLINE
  5
B3
330
75
100
AcDbEntity
  8
$DDT_AUDIT_GENERATED_(96)
  6
Continuous
 62
     7
100
AcDbSpline
210
0.0
220
0.0
230
1.0
 70
     8
 71
     3
 72
    32
 73
    28
 74
     0
 42
0.000000001
 43
0.0000000001
 40
0.0
 40
0.0
 40
0.0
 40
0.0
 40
0.0223089412233944
 40
0.0492771816998436
 40
0.0751838788387524
 40
0.1023949145121887
 40
0.1339167731903306
 40
0.1753102747653914
 40
0.2347930442044868
 40
0.284483256301127
 40
0.3366029094975627
 40
0.3869226709661772
 40
0.4364110130349819
 40
0.485514014419069
 40
0.5344766487888853
 40
0.5834671176071149
 40
0.6326184992132884
 40
0.6821546778925719
 40
0.7324414423964388
 40
0.7842214506460929
 40
0.8394031700026951
 40
0.8812400018694694
 40
0.9111960386160925
 40
0.9396150867350087
 40
0.9672876469410791
 40
0.9949248533547022
 40
1.0
 40
1.0
 40
1.0
 40
1.0
 10
263.8502250320189
 20
744.3256882694809
 30
0.0
 10
263.848785026096
 20
744.4269746084505
 30
0.0
 10
263.8438369297028
 20
744.616572463012
 30
0.0
 10
263.7177718756125
 20
744.9025522928978
 30
0.0
 10
263.5390550757799
 20
745.1364331442391
 30
0.0
 10
263.3254990689427
 20
745.3163738898718
 30
0.0
 10
263.0724300050681
 20
745.463910900424
 30
0.0
 10
262.7279733985697
 20
745.6039693966638
 30
0.0
 10
262.2839573548858
 20
745.7249446041958
 30
0.0
 10
261.7243417724957
 20
745.8301565472935
 30
0.0
 10
261.1249659608863
 20
745.9095728977374
 30
0.0
 10
260.4657299220618
 20
745.9686808743747
 30
0.0
 10
259.7770025266553
 20
746.0062921994518
 30
0.0
 10
259.0703200856369
 20
746.0228896505311
 30
0.0
 10
258.360522389382
 20
746.0185578331171
 30
0.0
 10
257.6637406886685
 20
745.9934693877082
 30
0.0
 10
256.9957224467039
 20
745.9479723587596
 30
0.0
 10
256.3703652642628
 20
745.882364544691
 30
0.0
 10
255.7977540795362
 20
745.7962575384353
 30
0.0
 10
255.2797682354613
 20
745.6860878474185
 30
0.0
 10
254.8626281952703
 20
745.55699647365
 30
0.0
 10
254.5391071192586
 20
745.4066644597718
 30
0.0
 10
254.285938217585
 20
745.2314102766365
 30
0.0
 10
254.0742450134033
 20
745.0108375938265
 30
0.0
 10
253.9228782538594
 20
744.7259627766871
 30
0.0
 10
253.8508641953118
 20
744.4712453658368
 30
0.0
 10
253.8673149229217
 20
744.3461170373621
 30
0.0
 10
253.8703547623344
 20
744.3235063799735
 30
0.0
  0
ARC
  5
B4
330
75
100
AcDbEntity
  8
$DDT_AUDIT_GENERATED_(96)
  6
Continuous
 62
     7
100
AcDbCircle
 10
-44.36261070710709
 20
-32850.77582761227
 30
0.0
 40
33538.64421728646
100
AcDbArc
 50
89.46308293571229
 51
89.47277879116901
  0
ARC
  5
B5
330
75
100
AcDbEntity
  8
$DDT_AUDIT_GENERATED_(96)
  6
Continuous
 62
     7
100
AcDbCircle
 10
-44.36261070710709
 20
-32850.77582761227
 30
0.0
 40
33538.64421728646
100
AcDbArc
 50
89.49115097450713
 51
89.52491238556227
  0
LINE
  5
B6
330
75
100
AcDbEntity
  8
$DDT_AUDIT_GENERATED_(96)
  6
Continuous
 62
     7
100
AcDbLine
 10
233.7309612494293
 20
637.2511949054448
 30
0.0
 11
257.9524769126158
 21
637.4155852950407
 31
0.0
  0
ARC
  5
B7
330
75
100
AcDbEntity
  8
$DDT_AUDIT_GENERATED_(96)
  6
Continuous
 62
     7
100
AcDbCircle
 10
270.0544174066079
 20
686.1777673582013
 30
0.0
 40
0.3391109484078712
100
AcDbArc
 50
43.54403455434955
 51
90.34224612524328
  0
ARC
  5
B8
330
75
100
AcDbEntity
  8
$DDT_AUDIT_GENERATED_(96)
  6
Continuous
 62
     7
100
AcDbCircle
 10
257.8102720250213
 20
637.6671643174169
 30
0.0
 40
0.373353360003465
100
AcDbArc
 50
272.5815539641768
 51
305.2034987405093
  0
LINE
  5
B9
330
75
100
AcDbEntity
  8
$DDT_AUDIT_GENERATED_(96)
  6
Continuous
 62
     7
100
AcDbLine
 10
271.3123566039341
 20
685.0272690673677
 30
0.0
 11
270.3750770736801
 21
686.1133910560716
 31
0.0
  0
LINE
  5
BA
330
75
100
AcDbEntity
  8
$DDT_AUDIT_GENERATED_(96)
  6
Continuous
 62
     7
100
AcDbLine
 10
258.146524469659
 20
637.5180024007814
 30
0.0
 11
260.0118156829215
 21
638.828469975858
 31
0.0
  0
SPLINE
  5
BB
330
75
100
AcDbEntity
  8
$DDT_AUDIT_GENERATED_(96)
  6
Continuous
 62
     7
100
AcDbSpline
210
0.0
220
0.0
230
1.0
 70
     8
 71
     3
 72
     8
 73
     4
 74
     0
 42
0.000000020905315
 43
0.0000000001
 40
0.0
 40
0.0
 40
0.0
 40
0.0
 40
1.0
 40
1.0
 40
1.0
 40
1.0
 10
271.5640753344242
 20
684.6108048001367
 30
0.0
 10
271.5540701128802
 20
684.8386754740896
 30
0.0
 10
271.5187250397599
 20
684.9894272132746
 30
0.0
 10
271.4580401150632
 20
685.0630600176917
 30
0.0
  0
ARC
  5
BC
330
75
100
AcDbEntity
  8
$DDT_AUDIT_GENERATED_(96)
  6
Continuous
 62
     7
100
AcDbCircle
 10
45.49632241189136
 20
716.9755462784361
 30
0.0
 40
228.4451823771787
100
AcDbArc
 50
340.4984376024752
 51
351.4058134472061
  0
ELLIPSE
  5
BD
330
75
100
AcDbEntity
  8
$DDT_AUDIT_GENERATED_(96)
  6
Continuous
 62
     7
100
AcDbEllipse
 10
233.7295990912002
 20
686.6301197952146
 30
0.0
 11
0.1999999999998323
 21
-0.0000000002346456
 31
0.0
210
0.0
220
0.0
230
1.0
 40
0.9999331753091079
 41
1.562439107773633
 42
3.15839991862108
  0
ELLIPSE
  5
BE
330
75
100
AcDbEntity
  8
$DDT_AUDIT_GENERATED_(96)
  6
Continuous
 62
     7
100
AcDbEllipse
 10
233.7295990912003
 20
637.3367541157684
 30
0.0
 11
0.1999999999998114
 21
0.0000000002509104
 31
0.0
210
0.0
220
0.0
230
1.0
 40
0.9999209252121449
 41
3.121698773064909
 42
4.718724575365142
  0
ELLIPSE
  5
C0
330
75
100
AcDbEntity
  8
$DDT_AUDIT_GENERATED_(BF)
  6
Continuous
 62
     7
100
AcDbEllipse
 10
254.0200824884826
 20
637.7617497107768
 30
0.0
 11
-3.346712555185787
 21
-0.14837477198585
 31
0.0
210
0.0
220
0.0
230
0.9999999999999996
 40
0.1734829030759881
 41
0.4725194026122434
 42
2.235163754007177
  0
ELLIPSE
  5
C2
330
75
100
AcDbEntity
  8
02636038_GEHÄUSE
  6
Continuous
 62
     7
100
AcDbEllipse
 10
175.2858286280389
 20
815.3977296917664
 30
0.0
 11
10.05
 21
0.0
 31
0.0
210
0.0
220
0.0
230
1.0
 40
0.1736481776669303
 41
5.698975414659753
 42
6.283185307179586
  0
ELLIPSE
  5
C3
330
75
100
AcDbEntity
  8
02636038_GEHÄUSE
  6
Continuous
 62
     7
100
AcDbEllipse
 10
175.2858286280389
 20
815.3977296917664
 30
0.0
 11
10.05
 21
0.0
 31
0.0
210
0.0
220
0.0
230
1.0
 40
0.1736481776669303
 41
0.0
 42
3.725802546109625
  0
ELLIPSE
  5
C4
330
75
100
AcDbEntity
  8
02636038_GEHÄUSE
  6
Continuous
 62
     7
100
AcDbEllipse
 10
175.2858286280389
 20
815.3977296917664
 30
0.0
 11
10.75000000000001
 21
0.0
 31
0.0
210
0.0
220
0.0
230
1.0
 40
0.1736481776669293
 41
5.331918206742551
 42
6.283185307179586
  0
ELLIPSE
  5
C5
330
75
100
AcDbEntity
  8
02636038_GEHÄUSE
  6
Continuous
 62
     7
100
AcDbEllipse
 10
175.2858286280389
 20
815.3977296917664
 30
0.0
 11
10.75000000000001
 21
0.0
 31
0.0
210
0.0
220
0.0
230
1.0
 40
0.1736481776669293
 41
0.0
 42
4.092859754026828
  0
ELLIPSE
  5
C6
330
75
100
AcDbEntity
  8
02636038_GEHÄUSE
  6
Continuous
 62
     7
100
AcDbEllipse
 10
175.285828628039
 20
815.7104481534824
 30
0.0
 11
-11.3
 21
0.0
 31
0.0
210
0.0
220
0.0
230
1.0
 40
0.1736481776669278
 41
2.831226528364497
 42
4.481447501244531
  0
ARC
  5
C7
330
75
100
AcDbEntity
  8
02636038_GEHÄUSE
  6
Continuous
 62
     7
100
AcDbCircle
 10
175.2858286280389
 20
837.145582144317
 30
0.0
 40
19.69557774286606
100
AcDbArc
 50
262.4538880464182
 51
277.5461119535818
  0
ELLIPSE
  5
C8
330
75
100
AcDbEntity
  8
02636038_GEHÄUSE
  6
Continuous
 62
     7
100
AcDbEllipse
 10
175.285828628039
 20
816.5633166854346
 30
0.0
 11
-11.79999999999999
 21
0.0
 31
0.0
210
0.0
220
0.0
230
1.0
 40
0.1736481776669301
 41
3.141592653589793
 42
4.34204634829298
  0
ELLIPSE
  5
C9
330
75
100
AcDbEntity
  8
02636038_GEHÄUSE
  6
Continuous
 62
     7
100
AcDbEllipse
 10
175.2858286280389
 20
818.3521529508031
 30
0.0
 11
11.79999999999982
 21
0.0
 31
0.0
210
0.0
220
0.0
230
1.0
 40
0.173648177666923
 41
1.200453694703179
 42
1.941138958886613
  0
LINE
  5
CA
330
75
100
AcDbEntity
  8
02636038_GEHÄUSE
  6
Continuous
 62
     7
100
AcDbLine
 10
179.5566599288515
 20
820.2622829051392
 30
0.0
 11
171.0149973272264
 21
820.2622829051392
 31
0.0
  0
LINE
  5
CB
330
75
100
AcDbEntity
  8
02636038_GEHÄUSE
  6
Continuous
 62
     7
100
AcDbLine
 10
179.5566599288515
 20
820.2622829051392
 30
0.0
 11
179.5566599288515
 21
818.473446639771
 31
0.0
  0
SPLINE
  5
CC
330
75
100
AcDbEntity
  8
02636038_GEHÄUSE
  6
Continuous
 62
     7
100
AcDbSpline
210
0.0
220
0.0
230
1.0
 70
     8
 71
     3
 72
    14
 73
    10
 74
     0
 42
0.0000000049511002
 43
0.0000000001
 40
0.0
 40
0.0
 40
0.0
 40
0.0
 40
0.1250000000000004
 40
0.1250000000000004
 40
0.2500000000000009
 40
0.2500000000000009
 40
0.5000000000000008
 40
0.5000000000000008
 40
1.0
 40
1.0
 40
1.0
 40
1.0
 10
179.5566599288515
 20
818.473446639771
 30
0.0
 10
179.5566599288515
 20
818.3904851554654
 30
0.0
 10
179.5245284375716
 20
818.3076261351143
 30
0.0
 10
179.4287308383406
 20
818.1705429627582
 30
0.0
 10
179.3656039740477
 20
818.112424136393
 30
0.0
 10
179.1632940232669
 20
817.9635990938097
 30
0.0
 10
179.0073044130151
 20
817.8932791710423
 30
0.0
 10
178.5365383285807
 20
817.7245105829024
 30
0.0
 10
178.2041250505431
 20
817.6637591037557
 30
0.0
 10
177.8723320593145
 20
817.6205781078186
 30
0.0
  0
SPLINE
  5
CD
330
75
100
AcDbEntity
  8
02636038_GEHÄUSE
  6
Continuous
 62
     7
100
AcDbSpline
210
0.0
220
0.0
230
1.0
 70
     8
 71
     3
 72
    18
 73
    14
 74
     0
 42
0.000000004959011
 43
0.0000000001
 40
0.0
 40
0.0
 40
0.0
 40
0.0
 40
0.2499999999999998
 40
0.2499999999999998
 40
0.4999999999999997
 40
0.4999999999999997
 40
0.6249999999999992
 40
0.6249999999999992
 40
0.749999999999999
 40
0.749999999999999
 40
0.8749999999999994
 40
0.8749999999999994
 40
1.0
 40
1.0
 40
1.0
 40
1.0
 10
172.6993251967633
 20
817.6205781078186
 30
0.0
 10
172.5329324165998
 20
817.6422331944362
 30
0.0
 10
172.367379860383
 20
817.6688961332299
 30
0.0
 10
172.0390121138384
 20
817.7385370941683
 30
0.0
 10
171.8762421161801
 20
817.7813297737468
 30
0.0
 10
171.6407701584111
 20
817.8659539633127
 30
0.0
 10
171.563601216465
 20
817.8976338942984
 30
0.0
 10
171.4132753270427
 20
817.9715324581177
 30
0.0
 10
171.339704734094
 20
818.0140131039012
 30
0.0
 10
171.2056865512919
 20
818.1127881886585
 30
0.0
 10
171.1433081674171
 20
818.1700145463306
 30
0.0
 10
171.0468244944395
 20
818.3080437723988
 30
0.0
 10
171.0149973272264
 20
818.3889984066626
 30
0.0
 10
171.0149973272264
 20
818.473446639771
 30
0.0
  0
LINE
  5
CE
330
75
100
AcDbEntity
  8
02636038_GEHÄUSE
  6
Continuous
 62
     7
100
AcDbLine
 10
171.0149973272264
 20
818.473446639771
 30
0.0
 11
171.0149973272264
 21
820.262282905139
 31
0.0
  0
ELLIPSE
  5
CF
330
75
100
AcDbEntity
  8
02636038_GEHÄUSE
  6
Continuous
 62
     7
100
AcDbEllipse
 10
175.2858286280389
 20
815.7104481534824
 30
0.0
 11
11.30000000000003
 21
0.0000000000000278
 31
0.0
210
0.0
220
0.0
230
1.0
 40
0.1736481776669311
 41
1.801737805935048
 42
3.451958778815087
  0
ELLIPSE
  5
D0
330
75
100
AcDbEntity
  8
02636038_GEHÄUSE
  6
Continuous
 62
     7
100
AcDbEllipse
 10
175.285828628039
 20
816.5633166854346
 30
0.0
 11
11.80000000000006
 21
0.0
 31
0.0
210
0.0
220
0.0
230
1.0
 40
0.173648177666927
 41
1.941138958886621
 42
3.141592653589793
  0
LINE
  5
D1
330
75
100
AcDbEntity
  8
02636038_GEHÄUSE
  6
Continuous
 62
     7
100
AcDbLine
 10
164.525722102751
 20
815.1111705160845
 30
0.0
 11
165.0494441017694
 21
814.8276204349498
 31
0.0
  0
LINE
  5
D2
330
75
100
AcDbEntity
  8
02636038_GEHÄUSE
  6
Continuous
 62
     7
100
AcDbLine
 10
185.5222131543085
 20
814.82762043495
 30
0.0
 11
186.0459351533269
 21
815.1111705160845
 31
0.0
  0
SPLINE
  5
D3
330
75
100
AcDbEntity
  8
02636038_GEHÄUSE
  6
Continuous
 62
     7
100
AcDbSpline
210
0.0
220
0.0
230
1.0
 70
     8
 71
     3
 72
    13
 73
     9
 74
     0
 42
0.0000000049044787
 43
0.0000000001
 40
0.0
 40
0.0
 40
0.0
 40
0.0
 40
0.1423402107128771
 40
0.3035027297157838
 40
0.4695375728608594
 40
0.6557393780638967
 40
0.8825618027591938
 40
1.0
 40
1.0
 40
1.0
 40
1.0
 10
163.4930891977314
 20
816.5620742509553
 30
0.0
 10
163.4987890252713
 20
816.4373654216461
 30
0.0
 10
163.5111199007851
 20
816.2143642744659
 30
0.0
 10
163.6566563857603
 20
815.8796359908398
 30
0.0
 10
163.8625230847969
 20
815.5980590388267
 30
0.0
 10
164.1307651513679
 20
815.3542877310824
 30
0.0
 10
164.3991683001137
 20
815.1712751573919
 30
0.0
 10
164.5868702825439
 20
815.0845530352965
 30
0.0
 10
164.6623624229247
 20
815.0503538132127
 30
0.0
  0
SPLINE
  5
D4
330
75
100
AcDbEntity
  8
02636038_GEHÄUSE
  6
Continuous
 62
     7
100
AcDbSpline
210
0.0
220
0.0
230
1.0
 70
     8
 71
     3
 72
    13
 73
     9
 74
     0
 42
0.0000000050243278
 43
0.0000000001
 40
0.0
 40
0.0
 40
0.0
 40
0.0
 40
0.2419654413406673
 40
0.4608364463861722
 40
0.6453181939361191
 40
0.8133606083365267
 40
0.9748046716725664
 40
1.0
 40
1.0
 40
1.0
 40
1.0
 10
185.9571716793848
 20
815.0755175054342
 30
0.0
 10
186.1008016459772
 20
815.1476460190368
 30
0.0
 10
186.3300676195349
 20
815.2680840660464
 30
0.0
 10
186.6310220943409
 20
815.5162111329042
 30
0.0
 10
186.8701543633595
 20
815.8015409337172
 30
0.0
 10
187.0256736422031
 20
816.1294039835221
 30
0.0
 10
187.0976237668427
 20
816.4101234305602
 30
0.0
 10
187.0811974904497
 20
816.5435446634031
 30
0.0
 10
187.0785680583465
 20
816.5645591199142
 30
0.0
  0
LINE
  5
D5
330
75
100
AcDbEntity
  8
02636038_GEHÄUSE
  6
Continuous
 62
     7
100
AcDbLine
 10
163.4858286280389
 20
820.3408769622031
 30
0.0
 11
163.4858286280389
 21
816.5633166854346
 31
0.0
  0
LINE
  5
D6
330
75
100
AcDbEntity
  8
02636038_GEHÄUSE
  6
Continuous
 62
     7
100
AcDbLine
 10
187.0858286280389
 20
816.5633166854346
 30
0.0
 11
187.0858286280389
 21
820.3387704300963
 31
0.0
  0
ELLIPSE
  5
D8
330
75
100
AcDbEntity
  8
$DDT_AUDIT_GENERATED_(D7)
  6
Continuous
 62
     7
100
AcDbEllipse
 10
175.2858286280389
 20
815.0038065905615
 30
0.0
 11
-9.0
 21
0.0
 31
0.0
210
0.0
220
0.0
230
1.0
 40
0.17364817766693
 41
0.0
 42
6.283185307179586
  0
ELLIPSE
  5
D9
330
75
100
AcDbEntity
  8
$DDT_AUDIT_GENERATED_(D7)
  6
Continuous
 62
     7
100
AcDbEllipse
 10
175.2858286280389
 20
815.0038065905615
 30
0.0
 11
5.250000000000001
 21
0.0
 31
0.0
210
0.0
220
0.0
230
1.0
 40
0.1736481776669294
 41
0.0
 42
6.283185307179586
  0
ELLIPSE
  5
DA
330
75
100
AcDbEntity
  8
$DDT_AUDIT_GENERATED_(D7)
  6
Continuous
 62
     7
100
AcDbEllipse
 10
175.2858286280389
 20
815.0038065905615
 30
0.0
 11
6.249999999999999
 21
0.0
 31
0.0
210
0.0
220
0.0
230
1.0
 40
0.1736481776669287
 41
0.0
 42
6.283185307179586
  0
ELLIPSE
  5
DB
330
75
100
AcDbEntity
  8
$DDT_AUDIT_GENERATED_(D7)
  6
Continuous
 62
     7
100
AcDbEllipse
 10
175.2858286280389
 20
815.0038065905615
 30
0.0
 11
2.750000000000002
 21
0.0
 31
0.0
210
0.0
220
0.0
230
0.9999999999999998
 40
0.1736481776669324
 41
0.0
 42
6.283185307179586
  0
ELLIPSE
  5
DC
330
75
100
AcDbEntity
  8
$DDT_AUDIT_GENERATED_(D7)
  6
Continuous
 62
     7
100
AcDbEllipse
 10
175.2858286280389
 20
815.0038065905615
 30
0.0
 11
-2.149999999999999
 21
0.0
 31
0.0
210
0.0
220
0.0
230
1.0
 40
0.1736481776669276
 41
0.0
 42
6.283185307179586
  0
ELLIPSE
  5
DD
330
75
100
AcDbEntity
  8
$DDT_AUDIT_GENERATED_(D7)
  6
Continuous
 62
     7
100
AcDbEllipse
 10
175.2858286280389
 20
815.2007681411641
 30
0.0
 11
0.5196299438963559
 21
0.0
 31
0.0
210
0.0
220
0.0
230
1.0
 40
0.1736481776669438
 41
0.0
 42
6.283185307179586
  0
ELLIPSE
  5
DE
330
75
100
AcDbEntity
  8
$DDT_AUDIT_GENERATED_(D7)
  6
Continuous
 62
     7
100
AcDbEllipse
 10
175.2858286280389
 20
815.0038065905615
 30
0.0
 11
-8.699999999999995
 21
0.0
 31
0.0
210
0.0
220
0.0
230
1.0
 40
0.1736481776669294
 41
0.0
 42
6.283185307179586
  0
ARC
  5
DF
330
75
100
AcDbEntity
  8
$DDT_AUDIT_GENERATED_(D7)
  6
Continuous
 62
     7
100
AcDbCircle
 10
175.2858286280389
 20
862.6710222558575
 30
0.0
 40
48.94626362829074
100
AcDbArc
 50
269.8829413828033
 51
270.1170586171966
  0
ELLIPSE
  5
E0
330
75
100
AcDbEntity
  8
$DDT_AUDIT_GENERATED_(D7)
  6
Continuous
 62
     7
100
AcDbEllipse
 10
175.2858286280355
 20
815.2007681411683
 30
0.0
 11
8.500000000013264
 21
-0.0000000000006939
 31
0.0
210
0.0
220
0.0
230
1.0
 40
0.1736481776671881
 41
4.724153957673182
 42
4.962423390895818
  0
LINE
  5
E1
330
75
100
AcDbEntity
  8
$DDT_AUDIT_GENERATED_(D7)
  6
Continuous
 62
     7
100
AcDbLine
 10
175.1858286280389
 20
813.9186444075773
 30
0.0
 11
175.1858286280389
 21
813.7248607805167
 31
0.0
  0
LINE
  5
E2
330
75
100
AcDbEntity
  8
$DDT_AUDIT_GENERATED_(D7)
  6
Continuous
 62
     7
100
AcDbLine
 10
175.3858286280389
 20
813.9186444075773
 30
0.0
 11
175.3858286280389
 21
813.7248607805167
 31
0.0
  0
LINE
  5
E3
330
75
100
AcDbEntity
  8
$DDT_AUDIT_GENERATED_(D7)
  6
Continuous
 62
     7
100
AcDbLine
 10
175.5358286280389
 20
815.0734981253156
 30
0.0
 11
175.5358286280389
 21
815.1216647196234
 31
0.0
  0
LINE
  5
E4
330
75
100
AcDbEntity
  8
$DDT_AUDIT_GENERATED_(D7)
  6
Continuous
 62
     7
100
AcDbLine
 10
175.0358286280389
 20
815.0734981253156
 30
0.0
 11
175.0358286280389
 21
815.1216647196234
 31
0.0
  0
ARC
  5
E5
330
75
100
AcDbEntity
  8
$DDT_AUDIT_GENERATED_(D7)
  6
Continuous
 62
     7
100
AcDbCircle
 10
175.2858286280389
 20
827.3708667421036
 30
0.0
 40
12.29990954833257
100
AcDbArc
 50
268.8353628734717
 51
271.1646371265282
  0
ELLIPSE
  5
E6
330
75
100
AcDbEntity
  8
$DDT_AUDIT_GENERATED_(D7)
  6
Continuous
 62
     7
100
AcDbEllipse
 10
175.2858285148111
 20
815.2007680676394
 30
0.0
 11
-8.499999766465478
 21
0.0000000196103134
 31
0.0
210
0.0
220
0.0
230
1.0
 40
0.1736481737822777
 41
1.297231968235691
 42
1.320761923417721
  0
ELLIPSE
  5
E7
330
75
100
AcDbEntity
  8
$DDT_AUDIT_GENERATED_(D7)
  6
Continuous
 62
     7
100
AcDbEllipse
 10
175.2858286280381
 20
815.2007681411626
 30
0.0
 11
-8.499999999996703
 21
0.000000000000222
 31
0.0
210
0.0
220
0.0
230
0.9999999999999998
 40
0.1736481776668633
 41
1.32076191628382
 42
1.559031349506897
  0
LINE
  5
E8
330
75
100
AcDbEntity
  8
$DDT_AUDIT_GENERATED_(D7)
  6
Continuous
 62
     7
100
AcDbLine
 10
172.9894264138041
 20
813.7796454498573
 30
0.0
 11
172.9894264138041
 21
813.9944185928555
 31
0.0
  0
LINE
  5
E9
330
75
100
AcDbEntity
  8
$DDT_AUDIT_GENERATED_(D7)
  6
Continuous
 62
     7
100
AcDbLine
 10
173.2912632923972
 20
813.9752550109268
 30
0.0
 11
172.9894264138041
 21
813.7796454498573
 31
0.0
  0
LINE
  5
EA
330
75
100
AcDbEntity
  8
$DDT_AUDIT_GENERATED_(D7)
  6
Continuous
 62
     7
100
AcDbLine
 10
173.4820140734719
 20
813.9646886835041
 30
0.0
 11
173.1826115790619
 21
813.7706567587519
 31
0.0
  0
ELLIPSE
  5
EB
330
75
100
AcDbEntity
  8
$DDT_AUDIT_GENERATED_(D7)
  6
Continuous
 62
     7
100
AcDbEllipse
 10
175.2858283921939
 20
815.2007680702091
 30
0.0
 11
-8.499999705212813
 21
0.0000000365820152
 31
0.0
210
0.0
220
0.0
230
1.0
 40
0.1736481752568161
 41
1.035432586341632
 42
1.058962541570765
  0
ELLIPSE
  5
EC
330
75
100
AcDbEntity
  8
$DDT_AUDIT_GENERATED_(D7)
  6
Continuous
 62
     7
100
AcDbEllipse
 10
175.2858286280515
 20
815.2007681411696
 30
0.0
 11
-8.500000000018575
 21
-0.0000000000022204
 31
0.0
210
0.0
220
0.0
230
1.0
 40
0.1736481776671778
 41
1.0589625284842
 42
1.297231961706704
  0
LINE
  5
ED
330
75
100
AcDbEntity
  8
$DDT_AUDIT_GENERATED_(D7)
  6
Continuous
 62
     7
100
AcDbLine
 10
170.9495202154853
 20
813.9312772820943
 30
0.0
 11
170.9495202154853
 21
814.2222175249857
 31
0.0
  0
LINE
  5
EE
330
75
100
AcDbEntity
  8
$DDT_AUDIT_GENERATED_(D7)
  6
Continuous
 62
     7
100
AcDbLine
 10
171.6009320743458
 20
814.1272007764412
 30
0.0
 11
170.9495202154853
 21
813.9312772820943
 31
0.0
  0
LINE
  5
EF
330
75
100
AcDbEntity
  8
$DDT_AUDIT_GENERATED_(D7)
  6
Continuous
 62
     7
100
AcDbLine
 10
171.7650243287908
 20
814.1070951169933
 30
0.0
 11
171.1227252962422
 21
813.9139124643275
 31
0.0
  0
ELLIPSE
  5
F0
330
75
100
AcDbEntity
  8
$DDT_AUDIT_GENERATED_(D7)
  6
Continuous
 62
     7
100
AcDbEllipse
 10
175.2858282952421
 20
815.2007680833706
 30
0.0
 11
-8.499999647028277
 21
0.0000000421387925
 31
0.0
210
0.0
220
0.0
230
1.0
 40
0.1736481776660835
 41
0.7736332004892891
 42
0.7971631557169246
  0
ELLIPSE
  5
F1
330
75
100
AcDbEntity
  8
$DDT_AUDIT_GENERATED_(D7)
  6
Continuous
 62
     7
100
AcDbEllipse
 10
175.2858286280423
 20
815.2007681411644
 30
0.0
 11
-8.500000000003893
 21
-0.0000000000002498
 31
0.0
210
0.0
220
0.0
230
1.0
 40
0.1736481776669235
 41
0.7971631406854165
 42
1.035432573908316
  0
LINE
  5
F2
330
75
100
AcDbEntity
  8
$DDT_AUDIT_GENERATED_(D7)
  6
Continuous
 62
     7
100
AcDbLine
 10
169.2051262693936
 20
814.1694228184439
 30
0.0
 11
169.2051262693936
 21
814.571091162705
 31
0.0
  0
LINE
  5
F3
330
75
100
AcDbEntity
  8
$DDT_AUDIT_GENERATED_(D7)
  6
Continuous
 62
     7
100
AcDbLine
 10
170.274843121827
 20
814.3551772004887
 30
0.0
 11
169.2051262693936
 21
814.1694228184439
 31
0.0
  0
LINE
  5
F4
330
75
100
AcDbEntity
  8
$DDT_AUDIT_GENERATED_(D7)
  6
Continuous
 62
     7
100
AcDbLine
 10
170.3979626545132
 20
814.3274415613872
 30
0.0
 11
169.3465476256309
 21
814.1448652576503
 31
0.0
  0
ELLIPSE
  5
F5
330
75
100
AcDbEntity
  8
$DDT_AUDIT_GENERATED_(D7)
  6
Continuous
 62
     7
100
AcDbEllipse
 10
175.2858281602628
 20
815.2007680943089
 30
0.0
 11
-8.499999527394592
 21
0.0000000418521051
 31
0.0
210
0.0
220
0.0
230
1.0
 40
0.1736481804289586
 41
0.511833812553795
 42
0.5353637678773917
  0
ELLIPSE
  5
F6
330
75
100
AcDbEntity
  8
$DDT_AUDIT_GENERATED_(D7)
  6
Continuous
 62
     7
100
AcDbEllipse
 10
175.2858286280641
 20
815.2007681411667
 30
0.0
 11
-8.500000000025796
 21
-0.0000000000023315
 31
0.0
210
0.0
220
0.0
230
1.0
 40
0.1736481776668083
 41
0.5353637528856394
 42
0.7736331861081549
  0
LINE
  5
F7
330
75
100
AcDbEntity
  8
$DDT_AUDIT_GENERATED_(D7)
  6
Continuous
 62
     7
100
AcDbLine
 10
167.8751221402077
 20
814.4778528341582
 30
0.0
 11
167.8751221402077
 21
814.8379788195692
 31
0.0
  0
LINE
  5
F8
330
75
100
AcDbEntity
  8
$DDT_AUDIT_GENERATED_(D7)
  6
Continuous
 62
     7
100
AcDbLine
 10
169.4137944754255
 20
814.6321136940994
 30
0.0
 11
167.8751221402078
 21
814.4778528341584
 31
0.0
  0
LINE
  5
F9
330
75
100
AcDbEntity
  8
$DDT_AUDIT_GENERATED_(D7)
  6
Continuous
 62
     7
100
AcDbLine
 10
169.4862260385685
 20
814.5992730511617
 30
0.0
 11
167.9751221402078
 21
814.4477760875222
 31
0.0
  0
ELLIPSE
  5
FA
330
75
100
AcDbEntity
  8
$DDT_AUDIT_GENERATED_(D7)
  6
Continuous
 62
     7
100
AcDbEllipse
 10
175.2858282382004
 20
815.2007681229378
 30
0.0
 11
-8.499999609927151
 21
0.0000000181518411
 31
0.0
210
0.0
220
0.0
230
1.0
 40
0.1736481812343392
 41
0.2500344165375409
 42
0.2735643716723691
  0
ELLIPSE
  5
FB
330
75
100
AcDbEntity
  8
$DDT_AUDIT_GENERATED_(D7)
  6
Continuous
 62
     7
100
AcDbEllipse
 10
175.2858286280381
 20
815.2007681411642
 30
0.0
 11
-8.499999999999163
 21
-0.0000000000002498
 31
0.0
210
0.0
220
0.0
230
1.0
 40
0.1736481776669524
 41
0.2735643650872514
 42
0.5118337983102373
  0
LINE
  5
FC
330
75
100
AcDbEntity
  8
$DDT_AUDIT_GENERATED_(D7)
  6
Continuous
 62
     7
100
AcDbLine
 10
167.0501454113961
 20
814.8355483333711
 30
0.0
 11
167.0501454113961
 21
815.1834033233972
 31
0.0
  0
LINE
  5
FD
330
75
100
AcDbEntity
  8
$DDT_AUDIT_GENERATED_(D7)
  6
Continuous
 62
     7
100
AcDbLine
 10
169.0508372432558
 20
814.928638301485
 30
0.0
 11
167.0501454113961
 21
814.8355483333711
 31
0.0
  0
LINE
  5
FE
330
75
100
AcDbEntity
  8
$DDT_AUDIT_GENERATED_(D7)
  6
Continuous
 62
     7
100
AcDbLine
 10
169.0681989206687
 20
814.8934913566236
 30
0.0
 11
167.1019092204166
 21
814.8020020814717
 31
0.0
  0
ARC
  5
FF
330
75
100
AcDbEntity
  8
$DDT_AUDIT_GENERATED_(D7)
  6
Continuous
 62
     7
100
AcDbCircle
 10
167.0427055072703
 20
815.2007681411641
 30
0.0
 40
0.2568762259794959
100
AcDbArc
 50
176.1238526716805
 51
183.8761473283447
  0
ELLIPSE
  5
100
330
75
100
AcDbEntity
  8
$DDT_AUDIT_GENERATED_(D7)
  6
Continuous
 62
     7
100
AcDbEllipse
 10
175.2858286280681
 20
815.2007681411651
 30
0.0
 11
-8.500000000029141
 21
-0.0000000000012768
 31
0.0
210
0.0
220
0.0
230
1.0
 40
0.1736481776666482
 41
0.0117649772881309
 42
0.2500344105106262
  0
ARC
  5
101
330
75
100
AcDbEntity
  8
$DDT_AUDIT_GENERATED_(D7)
  6
Continuous
 62
     7
100
AcDbCircle
 10
169.2250651147938
 20
815.2007681411641
 30
0.0
 40
0.1892348465220835
100
AcDbArc
 50
174.7349422714404
 51
180.0000000000344
  0
LINE
  5
102
330
75
100
AcDbEntity
  8
$DDT_AUDIT_GENERATED_(D7)
  6
Continuous
 62
     7
100
AcDbLine
 10
169.0366286792455
 20
815.2181329589305
 30
0.0
 11
169.0366286792455
 21
815.4735590895404
 31
0.0
  0
LINE
  5
103
330
75
100
AcDbEntity
  8
$DDT_AUDIT_GENERATED_(D7)
  6
Continuous
 62
     7
100
AcDbLine
 10
169.0366286792455
 20
815.2181329589305
 30
0.0
 11
166.7864168836886
 21
815.2181329589305
 31
0.0
  0
LINE
  5
104
330
75
100
AcDbEntity
  8
$DDT_AUDIT_GENERATED_(D7)
  6
Continuous
 62
     7
100
AcDbLine
 10
169.0358286280389
 20
815.1834033233972
 30
0.0
 11
166.7864168836886
 21
815.1834033233972
 31
0.0
  0
ELLIPSE
  5
105
330
75
100
AcDbEntity
  8
$DDT_AUDIT_GENERATED_(D7)
  6
Continuous
 62
     7
100
AcDbEllipse
 10
175.2858286280654
 20
815.2007681411628
 30
0.0
 11
-8.500000000026478
 21
0.0000000000011935
 31
0.0
210
0.0
220
0.0
230
0.9999999999999998
 40
0.1736481776666756
 41
6.171271386123281
 42
6.271420329891634
  0
ELLIPSE
  5
106
330
75
100
AcDbEntity
  8
$DDT_AUDIT_GENERATED_(D7)
  6
Continuous
 62
     7
100
AcDbEllipse
 10
175.2858286068037
 20
815.2007681421313
 30
0.0
 11
-6.24999997875212
 21
-0.0000000009633128
 31
0.0
210
0.0
220
0.0
230
1.0
 40
0.1736481779322433
 41
-0.2778000710390591
 42
-0.2457987054921027
  0
LINE
  5
107
330
75
100
AcDbEntity
  8
$DDT_AUDIT_GENERATED_(D7)
  6
Continuous
 62
     7
100
AcDbLine
 10
169.2754469083653
 20
815.4984019070949
 30
0.0
 11
169.2754469083653
 21
815.7832927373025
 31
0.0
  0
LINE
  5
108
330
75
100
AcDbEntity
  8
$DDT_AUDIT_GENERATED_(D7)
  6
Continuous
 62
     7
100
AcDbLine
 10
169.2754469083653
 20
815.4984019070949
 30
0.0
 11
167.2714527309668
 21
815.5916455296775
 31
0.0
  0
LINE
  5
109
330
75
100
AcDbEntity
  8
$DDT_AUDIT_GENERATED_(D7)
  6
Continuous
 62
     7
100
AcDbLine
 10
169.2236830993448
 20
815.4648556551958
 30
0.0
 11
167.1951638409804
 21
815.5592404025478
 31
0.0
  0
ELLIPSE
  5
10A
330
75
100
AcDbEntity
  8
$DDT_AUDIT_GENERATED_(D7)
  6
Continuous
 62
     7
100
AcDbEllipse
 10
175.2858286549271
 20
815.2007681384606
 30
0.0
 11
-6.250000027166161
 21
0.0000000024140412
 31
0.0
210
0.0
220
0.0
230
0.9999999999999998
 40
0.1736481774519383
 41
-0.5395994571610015
 42
-0.5075980917498138
  0
LINE
  5
10B
330
75
100
AcDbEntity
  8
$DDT_AUDIT_GENERATED_(D7)
  6
Continuous
 62
     7
100
AcDbLine
 10
169.9238627190554
 20
815.7583876059742
 30
0.0
 11
169.9238627190554
 21
816.1073061891773
 31
0.0
  0
LINE
  5
10C
330
75
100
AcDbEntity
  8
$DDT_AUDIT_GENERATED_(D7)
  6
Continuous
 62
     7
100
AcDbLine
 10
169.9238627190554
 20
815.7583876059742
 30
0.0
 11
168.3510828879638
 21
815.9160679409545
 31
0.0
  0
LINE
  5
10D
330
75
100
AcDbEntity
  8
$DDT_AUDIT_GENERATED_(D7)
  6
Continuous
 62
     7
100
AcDbLine
 10
169.8238627190554
 20
815.7283108593381
 30
0.0
 11
168.2313995532781
 21
815.8879645632193
 31
0.0
  0
ELLIPSE
  5
10E
330
75
100
AcDbEntity
  8
$DDT_AUDIT_GENERATED_(D7)
  6
Continuous
 62
     7
100
AcDbEllipse
 10
175.2858286511206
 20
815.2007681371605
 30
0.0
 11
-6.250000024478681
 21
0.0000000029204972
 31
0.0
210
0.0
220
0.0
230
1.0
 40
0.1736481776662818
 41
-0.801398844713776
 42
-0.7693974793066643
  0
LINE
  5
10F
330
75
100
AcDbEntity
  8
$DDT_AUDIT_GENERATED_(D7)
  6
Continuous
 62
     7
100
AcDbLine
 10
170.9376876453751
 20
815.9803724598361
 30
0.0
 11
170.9376876453751
 21
816.31233139345
 31
0.0
  0
LINE
  5
110
330
75
100
AcDbEntity
  8
$DDT_AUDIT_GENERATED_(D7)
  6
Continuous
 62
     7
100
AcDbLine
 10
170.9376876453751
 20
815.9803724598361
 30
0.0
 11
169.8049942995456
 21
816.1770625951948
 31
0.0
  0
LINE
  5
111
330
75
100
AcDbEntity
  8
$DDT_AUDIT_GENERATED_(D7)
  6
Continuous
 62
     7
100
AcDbLine
 10
170.7962662891378
 20
815.9558148990424
 30
0.0
 11
169.6504788775027
 21
816.1547787950665
 31
0.0
  0
ELLIPSE
  5
112
330
75
100
AcDbEntity
  8
$DDT_AUDIT_GENERATED_(D7)
  6
Continuous
 62
     7
100
AcDbEllipse
 10
175.2858286572878
 20
815.2007681323725
 30
0.0
 11
-6.25000003655349
 21
0.0000000045350945
 31
0.0
210
0.0
220
0.0
230
0.9999999999999998
 40
0.1736481780723413
 41
-1.063198231714361
 42
-1.031196866373455
  0
LINE
  5
113
330
75
100
AcDbEntity
  8
$DDT_AUDIT_GENERATED_(D7)
  6
Continuous
 62
     7
100
AcDbLine
 10
172.2478311940206
 20
816.1492285677379
 30
0.0
 11
172.2478311940206
 21
816.4194447670949
 31
0.0
  0
LINE
  5
114
330
75
100
AcDbEntity
  8
$DDT_AUDIT_GENERATED_(D7)
  6
Continuous
 62
     7
100
AcDbLine
 10
172.2478311940206
 20
816.1492285677379
 30
0.0
 11
171.526386517523
 21
816.3662156552076
 31
0.0
  0
LINE
  5
115
330
75
100
AcDbEntity
  8
$DDT_AUDIT_GENERATED_(D7)
  6
Continuous
 62
     7
100
AcDbLine
 10
172.0746261132638
 20
816.1318637499711
 30
0.0
 11
171.3466483922648
 21
816.350815764683
 31
0.0
  0
ELLIPSE
  5
116
330
75
100
AcDbEntity
  8
$DDT_AUDIT_GENERATED_(D7)
  6
Continuous
 62
     7
100
AcDbEllipse
 10
175.2858286429737
 20
815.2007681314719
 30
0.0
 11
-6.250000030770912
 21
0.0000000025882352
 31
0.0
210
0.0
220
0.0
230
0.9999999999999998
 40
0.1736481783630107
 41
-1.324997620441402
 42
-1.292996255098499
  0
LINE
  5
117
330
75
100
AcDbEntity
  8
$DDT_AUDIT_GENERATED_(D7)
  6
Continuous
 62
     7
100
AcDbLine
 10
173.7650092472664
 20
816.2534486649734
 30
0.0
 11
173.7650092472664
 21
816.4912845067975
 31
0.0
  0
LINE
  5
118
330
75
100
AcDbEntity
  8
$DDT_AUDIT_GENERATED_(D7)
  6
Continuous
 62
     7
100
AcDbLine
 10
173.7650092472664
 20
816.2534486649734
 30
0.0
 11
173.4165648008338
 21
816.4792629045768
 31
0.0
  0
LINE
  5
119
330
75
100
AcDbEntity
  8
$DDT_AUDIT_GENERATED_(D7)
  6
Continuous
 62
     7
100
AcDbLine
 10
173.5718240820086
 20
816.2444599738678
 30
0.0
 11
173.221631840253
 21
816.4714068963878
 31
0.0
  0
ARC
  5
11A
330
75
100
AcDbEntity
  8
$DDT_AUDIT_GENERATED_(D7)
  6
Continuous
 62
     7
100
AcDbCircle
 10
175.2858286280389
 20
780.2982221162836
 30
0.0
 40
35.98784714392358
100
AcDbArc
 50
89.84079110646211
 51
90.15920889353791
  0
LINE
  5
11B
330
75
100
AcDbEntity
  8
$DDT_AUDIT_GENERATED_(D7)
  6
Continuous
 62
     7
100
AcDbLine
 10
175.3858286280389
 20
816.2859303241482
 30
0.0
 11
175.3858286280389
 21
816.514445935164
 31
0.0
  0
LINE
  5
11C
330
75
100
AcDbEntity
  8
$DDT_AUDIT_GENERATED_(D7)
  6
Continuous
 62
     7
100
AcDbLine
 10
175.1858286280389
 20
816.2859303241482
 30
0.0
 11
175.1858286280389
 21
816.514445935164
 31
0.0
  0
ELLIPSE
  5
11D
330
75
100
AcDbEntity
  8
$DDT_AUDIT_GENERATED_(D7)
  6
Continuous
 62
     7
100
AcDbEllipse
 10
175.2858286131699
 20
815.2007681315073
 30
0.0
 11
6.250000030655344
 21
0.0000000025769942
 31
0.0
210
0.0
220
0.0
230
1.0
 40
0.1736481783613135
 41
1.292996255103317
 42
1.324997620446874
  0
LINE
  5
11E
330
75
100
AcDbEntity
  8
$DDT_AUDIT_GENERATED_(D7)
  6
Continuous
 62
     7
100
AcDbLine
 10
176.9998331740693
 20
816.2444599738678
 30
0.0
 11
177.3500254158249
 21
816.4714068963878
 31
0.0
  0
LINE
  5
11F
330
75
100
AcDbEntity
  8
$DDT_AUDIT_GENERATED_(D7)
  6
Continuous
 62
     7
100
AcDbLine
 10
176.8066480088115
 20
816.2534486649734
 30
0.0
 11
177.1550924552441
 21
816.4792629045768
 31
0.0
  0
LINE
  5
120
330
75
100
AcDbEntity
  8
$DDT_AUDIT_GENERATED_(D7)
  6
Continuous
 62
     7
100
AcDbLine
 10
176.8066480088115
 20
816.2534486649734
 30
0.0
 11
176.8066480088115
 21
816.4912845067975
 31
0.0
  0
ELLIPSE
  5
121
330
75
100
AcDbEntity
  8
$DDT_AUDIT_GENERATED_(D7)
  6
Continuous
 62
     7
100
AcDbEllipse
 10
175.2858285920799
 20
815.2007681303352
 30
0.0
 11
6.250000044989105
 21
0.000000005576567
 31
0.0
210
0.0
220
0.0
230
0.9999999999999998
 40
0.1736481781674656
 41
1.03119686590077
 42
1.063198231207042
  0
LINE
  5
122
330
75
100
AcDbEntity
  8
$DDT_AUDIT_GENERATED_(D7)
  6
Continuous
 62
     7
100
AcDbLine
 10
178.4970311428141
 20
816.1318637499711
 30
0.0
 11
179.225008863813
 21
816.350815764683
 31
0.0
  0
LINE
  5
123
330
75
100
AcDbEntity
  8
$DDT_AUDIT_GENERATED_(D7)
  6
Continuous
 62
     7
100
AcDbLine
 10
178.3238260620572
 20
816.1492285677379
 30
0.0
 11
179.0452707385548
 21
816.3662156552076
 31
0.0
  0
LINE
  5
124
330
75
100
AcDbEntity
  8
$DDT_AUDIT_GENERATED_(D7)
  6
Continuous
 62
     7
100
AcDbLine
 10
178.3238260620572
 20
816.1492285677379
 30
0.0
 11
178.3238260620572
 21
816.4194447670949
 31
0.0
  0
ELLIPSE
  5
125
330
75
100
AcDbEntity
  8
$DDT_AUDIT_GENERATED_(D7)
  6
Continuous
 62
     7
100
AcDbEllipse
 10
175.2858286055532
 20
815.2007681372618
 30
0.0
 11
6.250000023851297
 21
0.0000000028450575
 31
0.0
210
0.0
220
0.0
230
1.0
 40
0.1736481776667198
 41
0.7693974793417079
 42
0.8013988447508989
  0
LINE
  5
126
330
75
100
AcDbEntity
  8
$DDT_AUDIT_GENERATED_(D7)
  6
Continuous
 62
     7
100
AcDbLine
 10
179.7753909669401
 20
815.9558148990424
 30
0.0
 11
180.9211783785751
 21
816.1547787950665
 31
0.0
  0
LINE
  5
127
330
75
100
AcDbEntity
  8
$DDT_AUDIT_GENERATED_(D7)
  6
Continuous
 62
     7
100
AcDbLine
 10
179.6339696107027
 20
815.9803724598361
 30
0.0
 11
180.7666629565322
 21
816.1770625951948
 31
0.0
  0
LINE
  5
128
330
75
100
AcDbEntity
  8
$DDT_AUDIT_GENERATED_(D7)
  6
Continuous
 62
     7
100
AcDbLine
 10
179.6339696107027
 20
815.9803724598361
 30
0.0
 11
179.6339696107027
 21
816.31233139345
 31
0.0
  0
ELLIPSE
  5
129
330
75
100
AcDbEntity
  8
$DDT_AUDIT_GENERATED_(D7)
  6
Continuous
 62
     7
100
AcDbEllipse
 10
175.2858285781056
 20
815.2007681362043
 30
0.0
 11
6.250000050450128
 21
0.0000000044294013
 31
0.0
210
0.0
220
0.0
230
1.0
 40
0.1736481772625748
 41
0.5075980908062955
 42
0.5395994561493405
  0
LINE
  5
12A
330
75
100
AcDbEntity
  8
$DDT_AUDIT_GENERATED_(D7)
  6
Continuous
 62
     7
100
AcDbLine
 10
180.7477945370225
 20
815.7283108593381
 30
0.0
 11
182.3402577027998
 21
815.8879645632193
 31
0.0
  0
LINE
  5
12B
330
75
100
AcDbEntity
  8
$DDT_AUDIT_GENERATED_(D7)
  6
Continuous
 62
     7
100
AcDbLine
 10
180.6477945370225
 20
815.7583876059742
 30
0.0
 11
182.2205743681141
 21
815.9160679409545
 31
0.0
  0
LINE
  5
12C
330
75
100
AcDbEntity
  8
$DDT_AUDIT_GENERATED_(D7)
  6
Continuous
 62
     7
100
AcDbLine
 10
180.6477945370225
 20
815.7583876059742
 30
0.0
 11
180.6477945370225
 21
816.1073061891773
 31
0.0
  0
ELLIPSE
  5
12D
330
75
100
AcDbEntity
  8
$DDT_AUDIT_GENERATED_(D7)
  6
Continuous
 62
     7
100
AcDbEllipse
 10
175.285828649145
 20
815.2007681421251
 30
0.0
 11
6.249999978881135
 21
-0.0000000009573453
 31
0.0
210
0.0
220
0.0
230
1.0
 40
0.1736481779306694
 41
0.2457987054895049
 42
0.277800071036128
  0
LINE
  5
12E
330
75
100
AcDbEntity
  8
$DDT_AUDIT_GENERATED_(D7)
  6
Continuous
 62
     7
100
AcDbLine
 10
181.3479741567331
 20
815.4648556551958
 30
0.0
 11
183.3764934150975
 21
815.5592404025478
 31
0.0
  0
LINE
  5
12F
330
75
100
AcDbEntity
  8
$DDT_AUDIT_GENERATED_(D7)
  6
Continuous
 62
     7
100
AcDbLine
 10
181.2962103477126
 20
815.4984019070949
 30
0.0
 11
183.3002045251111
 21
815.5916455296775
 31
0.0
  0
LINE
  5
130
330
75
100
AcDbEntity
  8
$DDT_AUDIT_GENERATED_(D7)
  6
Continuous
 62
     7
100
AcDbLine
 10
181.2962103477126
 20
815.4984019070949
 30
0.0
 11
181.2962103477126
 21
815.7832927373025
 31
0.0
  0
ARC
  5
131
330
75
100
AcDbEntity
  8
$DDT_AUDIT_GENERATED_(D7)
  6
Continuous
 62
     7
100
AcDbCircle
 10
183.5289517488074
 20
815.2007681411641
 30
0.0
 40
0.2568762259796864
100
AcDbArc
 50
356.1238526716583
 51
3.876147328316451
  0
ELLIPSE
  5
132
330
75
100
AcDbEntity
  8
$DDT_AUDIT_GENERATED_(D7)
  6
Continuous
 62
     7
100
AcDbEllipse
 10
175.2858286280087
 20
815.2007681411628
 30
0.0
 11
8.50000000003023
 21
0.0000000000013045
 31
0.0
210
0.0
220
0.0
230
1.0
 40
0.1736481776666355
 41
0.0117649772882158
 42
0.1119139210563363
  0
ARC
  5
133
330
75
100
AcDbEntity
  8
$DDT_AUDIT_GENERATED_(D7)
  6
Continuous
 62
     7
100
AcDbCircle
 10
181.3465921412841
 20
815.2007681411641
 30
0.0
 40
0.1892348465220819
100
AcDbArc
 50
0.0
 51
5.26505772855963
  0
LINE
  5
134
330
75
100
AcDbEntity
  8
$DDT_AUDIT_GENERATED_(D7)
  6
Continuous
 62
     7
100
AcDbLine
 10
181.5358286280389
 20
815.1834033233972
 30
0.0
 11
183.7852403723892
 21
815.1834033233972
 31
0.0
  0
LINE
  5
135
330
75
100
AcDbEntity
  8
$DDT_AUDIT_GENERATED_(D7)
  6
Continuous
 62
     7
100
AcDbLine
 10
181.5350285768324
 20
815.2181329589305
 30
0.0
 11
183.7852403723892
 21
815.2181329589305
 31
0.0
  0
LINE
  5
136
330
75
100
AcDbEntity
  8
$DDT_AUDIT_GENERATED_(D7)
  6
Continuous
 62
     7
100
AcDbLine
 10
181.5350285768324
 20
815.2181329589305
 30
0.0
 11
181.5350285768324
 21
815.4735590895404
 31
0.0
  0
ELLIPSE
  5
137
330
75
100
AcDbEntity
  8
$DDT_AUDIT_GENERATED_(D7)
  6
Continuous
 62
     7
100
AcDbEllipse
 10
175.285829084787
 20
815.2007681198263
 30
0.0
 11
8.499999542978397
 21
0.0000000212528328
 31
0.0
210
0.0
220
0.0
230
1.0
 40
0.1736481818475698
 41
-0.2735643728029746
 42
-0.2500344175722988
  0
ELLIPSE
  5
138
330
75
100
AcDbEntity
  8
$DDT_AUDIT_GENERATED_(D7)
  6
Continuous
 62
     7
100
AcDbEllipse
 10
175.2858286280184
 20
815.2007681411651
 30
0.0
 11
8.500000000020527
 21
-0.0000000000010547
 31
0.0
210
0.0
220
0.0
230
1.0
 40
0.1736481776667365
 41
6.033150896668842
 42
6.271420329891445
  0
LINE
  5
139
330
75
100
AcDbEntity
  8
$DDT_AUDIT_GENERATED_(D7)
  6
Continuous
 62
     7
100
AcDbLine
 10
183.5215118446818
 20
814.8355483333711
 30
0.0
 11
183.5215118446818
 21
815.1834033233972
 31
0.0
  0
LINE
  5
13A
330
75
100
AcDbEntity
  8
$DDT_AUDIT_GENERATED_(D7)
  6
Continuous
 62
     7
100
AcDbLine
 10
181.5034583354091
 20
814.8934913566236
 30
0.0
 11
183.4697480356613
 21
814.8020020814717
 31
0.0
  0
LINE
  5
13B
330
75
100
AcDbEntity
  8
$DDT_AUDIT_GENERATED_(D7)
  6
Continuous
 62
     7
100
AcDbLine
 10
181.520820012822
 20
814.928638301485
 30
0.0
 11
183.5215118446818
 21
814.8355483333711
 31
0.0
  0
ELLIPSE
  5
13C
330
75
100
AcDbEntity
  8
$DDT_AUDIT_GENERATED_(D7)
  6
Continuous
 62
     7
100
AcDbEllipse
 10
175.2858290360537
 20
815.2007681001888
 30
0.0
 11
8.499999587759967
 21
0.0000000365904529
 31
0.0
210
0.0
220
0.0
230
1.0
 40
0.1736481800691056
 41
-0.5353637659611659
 42
-0.5118338107328518
  0
ELLIPSE
  5
13D
330
75
100
AcDbEntity
  8
$DDT_AUDIT_GENERATED_(D7)
  6
Continuous
 62
     7
100
AcDbEllipse
 10
175.285828628018
 20
815.2007681411657
 30
0.0
 11
8.500000000021005
 21
-0.0000000000017486
 31
0.0
210
0.0
220
0.0
230
1.0
 40
0.1736481776667787
 41
-0.5118337983095512
 42
-0.2735643650869104
  0
LINE
  5
13E
330
75
100
AcDbEntity
  8
$DDT_AUDIT_GENERATED_(D7)
  6
Continuous
 62
     7
100
AcDbLine
 10
182.6965351158701
 20
814.4778528341582
 30
0.0
 11
182.6965351158701
 21
814.8379788195692
 31
0.0
  0
LINE
  5
13F
330
75
100
AcDbEntity
  8
$DDT_AUDIT_GENERATED_(D7)
  6
Continuous
 62
     7
100
AcDbLine
 10
181.0854312175094
 20
814.5992730511617
 30
0.0
 11
182.5965351158701
 21
814.4477760875222
 31
0.0
  0
LINE
  5
140
330
75
100
AcDbEntity
  8
$DDT_AUDIT_GENERATED_(D7)
  6
Continuous
 62
     7
100
AcDbLine
 10
181.1578627806523
 20
814.6321136940994
 30
0.0
 11
182.6965351158701
 21
814.4778528341584
 31
0.0
  0
ELLIPSE
  5
141
330
75
100
AcDbEntity
  8
$DDT_AUDIT_GENERATED_(D7)
  6
Continuous
 62
     7
100
AcDbEllipse
 10
175.2858289628638
 20
815.2007680831161
 30
0.0
 11
8.499999644869564
 21
0.0000000423239499
 31
0.0
210
0.0
220
0.0
230
1.0
 40
0.1736481776748352
 41
-0.7971631558050501
 42
-0.7736332005734568
  0
ELLIPSE
  5
142
330
75
100
AcDbEntity
  8
$DDT_AUDIT_GENERATED_(D7)
  6
Continuous
 62
     7
100
AcDbEllipse
 10
175.2858286280128
 20
815.2007681411671
 30
0.0
 11
8.500000000026833
 21
-0.0000000000024425
 31
0.0
210
0.0
220
0.0
230
1.0
 40
0.1736481776668092
 41
-0.773633186108139
 42
-0.5353637528856332
  0
LINE
  5
143
330
75
100
AcDbEntity
  8
$DDT_AUDIT_GENERATED_(D7)
  6
Continuous
 62
     7
100
AcDbLine
 10
181.3665309866843
 20
814.1694228184439
 30
0.0
 11
181.3665309866843
 21
814.5710911627052
 31
0.0
  0
LINE
  5
144
330
75
100
AcDbEntity
  8
$DDT_AUDIT_GENERATED_(D7)
  6
Continuous
 62
     7
100
AcDbLine
 10
180.1736946015647
 20
814.3274415613872
 30
0.0
 11
181.225109630447
 21
814.1448652576503
 31
0.0
  0
LINE
  5
145
330
75
100
AcDbEntity
  8
$DDT_AUDIT_GENERATED_(D7)
  6
Continuous
 62
     7
100
AcDbLine
 10
180.2968141342509
 20
814.3551772004887
 30
0.0
 11
181.3665309866843
 21
814.1694228184439
 31
0.0
  0
ELLIPSE
  5
146
330
75
100
AcDbEntity
  8
$DDT_AUDIT_GENERATED_(D7)
  6
Continuous
 62
     7
100
AcDbEllipse
 10
175.2858288631867
 20
815.2007680704141
 30
0.0
 11
8.499999706069749
 21
0.0000000364764885
 31
0.0
210
0.0
220
0.0
230
1.0
 40
0.1736481752629542
 41
-1.058962541533395
 42
-1.035432586306231
  0
ELLIPSE
  5
147
330
75
100
AcDbEntity
  8
$DDT_AUDIT_GENERATED_(D7)
  6
Continuous
 62
     7
100
AcDbEllipse
 10
175.2858286280195
 20
815.2007681411681
 30
0.0
 11
8.500000000021888
 21
-0.0000000000025535
 31
0.0
210
0.0
220
0.0
230
1.0
 40
0.1736481776669938
 41
-1.035432573907305
 42
-0.7971631406847868
  0
LINE
  5
148
330
75
100
AcDbEntity
  8
$DDT_AUDIT_GENERATED_(D7)
  6
Continuous
 62
     7
100
AcDbLine
 10
179.6221370405925
 20
813.9312772820943
 30
0.0
 11
179.6221370405925
 21
814.2222175249857
 31
0.0
  0
LINE
  5
149
330
75
100
AcDbEntity
  8
$DDT_AUDIT_GENERATED_(D7)
  6
Continuous
 62
     7
100
AcDbLine
 10
178.8066329272871
 20
814.1070951169933
 30
0.0
 11
179.4489319598357
 21
813.9139124643275
 31
0.0
  0
LINE
  5
14A
330
75
100
AcDbEntity
  8
$DDT_AUDIT_GENERATED_(D7)
  6
Continuous
 62
     7
100
AcDbLine
 10
178.970725181732
 20
814.1272007764412
 30
0.0
 11
179.6221370405925
 21
813.9312772820943
 31
0.0
  0
ELLIPSE
  5
14B
330
75
100
AcDbEntity
  8
$DDT_AUDIT_GENERATED_(D7)
  6
Continuous
 62
     7
100
AcDbEllipse
 10
175.2858287459213
 20
815.2007680649038
 30
0.0
 11
8.49999975709928
 21
0.000000020356633
 31
0.0
210
0.0
220
0.0
230
1.0
 40
0.1736481736522591
 41
-1.320761923714441
 42
-1.297231968507961
  0
ELLIPSE
  5
14C
330
75
100
AcDbEntity
  8
$DDT_AUDIT_GENERATED_(D7)
  6
Continuous
 62
     7
100
AcDbEllipse
 10
175.2858286280405
 20
815.2007681411635
 30
0.0
 11
8.499999999997733
 21
0.0000000000001388
 31
0.0
210
0.0
220
0.0
230
1.0
 40
0.1736481776669216
 41
-1.297231961707794
 42
-1.058962528484766
  0
LINE
  5
14D
330
75
100
AcDbEntity
  8
$DDT_AUDIT_GENERATED_(D7)
  6
Continuous
 62
     7
100
AcDbLine
 10
177.5822308422737
 20
813.7796454498573
 30
0.0
 11
177.5822308422737
 21
813.9944185928555
 31
0.0
  0
LINE
  5
14E
330
75
100
AcDbEntity
  8
$DDT_AUDIT_GENERATED_(D7)
  6
Continuous
 62
     7
100
AcDbLine
 10
177.089643182606
 20
813.9646886835041
 30
0.0
 11
177.389045677016
 21
813.7706567587519
 31
0.0
  0
LINE
  5
14F
330
75
100
AcDbEntity
  8
$DDT_AUDIT_GENERATED_(D7)
  6
Continuous
 62
     7
100
AcDbLine
 10
177.2803939636807
 20
813.9752550109268
 30
0.0
 11
177.5822308422737
 21
813.7796454498573
 31
0.0
  0
ARC
  5
150
330
75
100
AcDbEntity
  8
$DDT_AUDIT_GENERATED_(D7)
  6
Continuous
 62
     7
100
AcDbCircle
 10
175.2858286280389
 20
844.5063657777261
 30
0.0
 40
30.21725070590778
100
AcDbArc
 50
269.6681757197825
 51
270.3318242802175
  0
LINE
  5
151
330
75
100
AcDbEntity
  8
$DDT_AUDIT_GENERATED_(D7)
  6
Continuous
 62
     7
100
AcDbLine
 10
175.1108286280389
 20
814.5272419874814
 30
0.0
 11
175.1108286280389
 21
814.2896218230296
 31
0.0
  0
LINE
  5
152
330
75
100
AcDbEntity
  8
$DDT_AUDIT_GENERATED_(D7)
  6
Continuous
 62
     7
100
AcDbLine
 10
175.4608286280389
 20
814.5272419874814
 30
0.0
 11
175.4608286280389
 21
814.2896218230296
 31
0.0
  0
ELLIPSE
  5
153
330
75
100
AcDbEntity
  8
$DDT_AUDIT_GENERATED_(D7)
  6
Continuous
 62
     7
100
AcDbEllipse
 10
175.285828626183
 20
815.2007681406036
 30
0.0
 11
-5.249999997682747
 21
0.0000000002894351
 31
0.0
210
0.0
220
0.0
230
1.0
 40
0.1736481776356641
 41
1.013858042086944
 42
1.080537060633014
  0
LINE
  5
154
330
75
100
AcDbEntity
  8
$DDT_AUDIT_GENERATED_(D7)
  6
Continuous
 62
     7
100
AcDbLine
 10
173.3191417091117
 20
814.6700295616167
 30
0.0
 11
172.5107329210278
 21
814.4268864986406
 31
0.0
  0
LINE
  5
155
330
75
100
AcDbEntity
  8
$DDT_AUDIT_GENERATED_(D7)
  6
Continuous
 62
     7
100
AcDbLine
 10
173.5852860394324
 20
814.6285233931665
 30
0.0
 11
172.8138418123523
 21
814.3964980675489
 31
0.0
  0
LINE
  5
156
330
75
100
AcDbEntity
  8
$DDT_AUDIT_GENERATED_(D7)
  6
Continuous
 62
     7
100
AcDbLine
 10
172.5107329210278
 20
814.8874591018531
 30
0.0
 11
172.5107329210278
 21
814.4268864986408
 31
0.0
  0
ELLIPSE
  5
157
330
75
100
AcDbEntity
  8
$DDT_AUDIT_GENERATED_(D7)
  6
Continuous
 62
     7
100
AcDbEllipse
 10
175.285828629698
 20
815.200768141325
 30
0.0
 11
-5.250000001676318
 21
-0.0000000001437184
 31
0.0
210
0.0
220
0.0
230
1.0
 40
0.173648177650587
 41
0.4902592662593975
 42
0.5569382847697451
  0
LINE
  5
158
330
75
100
AcDbEntity
  8
$DDT_AUDIT_GENERATED_(D7)
  6
Continuous
 62
     7
100
AcDbLine
 10
172.5467700240618
 20
814.9612511067287
 30
0.0
 11
170.6542218676294
 21
814.7715121354034
 31
0.0
  0
LINE
  5
159
330
75
100
AcDbEntity
  8
$DDT_AUDIT_GENERATED_(D7)
  6
Continuous
 62
     7
100
AcDbLine
 10
172.6055430581356
 20
814.896964370094
 30
0.0
 11
170.8292218676294
 21
814.7188778287901
 31
0.0
  0
LINE
  5
15A
330
75
100
AcDbEntity
  8
$DDT_AUDIT_GENERATED_(D7)
  6
Continuous
 62
     7
100
AcDbLine
 10
170.6542218676294
 20
815.1703797100722
 30
0.0
 11
170.6542218676294
 21
814.7715121354034
 31
0.0
  0
LINE
  5
15B
330
75
100
AcDbEntity
  8
$DDT_AUDIT_GENERATED_(D7)
  6
Continuous
 62
     7
100
AcDbLine
 10
172.5414024585091
 20
815.4408233052965
 30
0.0
 11
172.5414024585091
 21
815.2311565722555
 31
0.0
  0
ELLIPSE
  5
15C
330
75
100
AcDbEntity
  8
$DDT_AUDIT_GENERATED_(D7)
  6
Continuous
 62
     7
100
AcDbEllipse
 10
175.2858286280435
 20
815.2007681411641
 30
0.0
 11
2.750000000004552
 21
0.0
 31
0.0
210
0.0
220
0.0
230
1.0
 40
0.1736481776667863
 41
3.07791326133274
 42
3.141592653589793
  0
LINE
  5
15D
330
75
100
AcDbEntity
  8
$DDT_AUDIT_GENERATED_(D7)
  6
Continuous
 62
     7
100
AcDbLine
 10
172.5414024585091
 20
815.2311565722555
 30
0.0
 11
170.2017015865966
 21
815.2311565722555
 31
0.0
  0
LINE
  5
15E
330
75
100
AcDbEntity
  8
$DDT_AUDIT_GENERATED_(D7)
  6
Continuous
 62
     7
100
AcDbLine
 10
172.5358286280389
 20
815.1703797100722
 30
0.0
 11
170.1242080270773
 21
815.1703797100722
 31
0.0
  0
LINE
  5
15F
330
75
100
AcDbEntity
  8
$DDT_AUDIT_GENERATED_(D7)
  6
Continuous
 62
     7
100
AcDbLine
 10
172.9965858464153
 20
815.8242251810664
 30
0.0
 11
172.9965858464153
 21
815.4653675960107
 31
0.0
  0
ELLIPSE
  5
160
330
75
100
AcDbEntity
  8
$DDT_AUDIT_GENERATED_(D7)
  6
Continuous
 62
     7
100
AcDbEllipse
 10
175.2858286281181
 20
815.2007681411603
 30
0.0
 11
-2.750000000080025
 21
0.0000000000033584
 31
0.0
210
0.0
220
0.0
230
1.0
 40
0.1736481776647017
 41
-0.5872781678468853
 42
-0.4599193833349214
  0
LINE
  5
161
330
75
100
AcDbEntity
  8
$DDT_AUDIT_GENERATED_(D7)
  6
Continuous
 62
     7
100
AcDbLine
 10
172.9965858464153
 20
815.4653675960107
 30
0.0
 11
171.4296844431182
 21
815.6224585843798
 31
0.0
  0
LINE
  5
162
330
75
100
AcDbEntity
  8
$DDT_AUDIT_GENERATED_(D7)
  6
Continuous
 62
     7
100
AcDbLine
 10
172.8215858464153
 20
815.4127332893976
 30
0.0
 11
171.196917605088
 21
815.5756157396046
 31
0.0
  0
LINE
  5
163
330
75
100
AcDbEntity
  8
$DDT_AUDIT_GENERATED_(D7)
  6
Continuous
 62
     7
100
AcDbLine
 10
174.0651699889363
 20
815.8904755511825
 30
0.0
 11
174.0651699889363
 21
815.6286794095217
 31
0.0
  0
ELLIPSE
  5
164
330
75
100
AcDbEntity
  8
$DDT_AUDIT_GENERATED_(D7)
  6
Continuous
 62
     7
100
AcDbEllipse
 10
175.2858286280031
 20
815.2007681411747
 30
0.0
 11
-2.749999999954999
 21
-0.0000000000054956
 31
0.0
210
0.0
220
0.0
230
1.0
 40
0.173648177665779
 41
-1.110876943460378
 42
-0.9835181589446442
  0
LINE
  5
165
330
75
100
AcDbEntity
  8
$DDT_AUDIT_GENERATED_(D7)
  6
Continuous
 62
     7
100
AcDbLine
 10
174.0651699889363
 20
815.6286794095217
 30
0.0
 11
173.3298892183606
 21
815.8498279439516
 31
0.0
  0
LINE
  5
166
330
75
100
AcDbEntity
  8
$DDT_AUDIT_GENERATED_(D7)
  6
Continuous
 62
     7
100
AcDbLine
 10
173.7620610976117
 20
815.5982909784301
 30
0.0
 11
173.0077539554012
 21
815.8251620264506
 31
0.0
  0
ARC
  5
167
330
75
100
AcDbEntity
  8
$DDT_AUDIT_GENERATED_(D7)
  6
Continuous
 62
     7
100
AcDbCircle
 10
175.2858286280389
 20
799.8728123259377
 30
0.0
 40
15.80548925698495
100
AcDbArc
 50
89.36560228355194
 51
90.63439771644807
  0
LINE
  5
168
330
75
100
AcDbEntity
  8
$DDT_AUDIT_GENERATED_(D7)
  6
Continuous
 62
     7
100
AcDbLine
 10
175.4608286280389
 20
815.6773327442442
 30
0.0
 11
175.4608286280389
 21
815.914952908696
 31
0.0
  0
LINE
  5
169
330
75
100
AcDbEntity
  8
$DDT_AUDIT_GENERATED_(D7)
  6
Continuous
 62
     7
100
AcDbLine
 10
175.1108286280389
 20
815.6773327442442
 30
0.0
 11
175.1108286280389
 21
815.914952908696
 31
0.0
  0
ELLIPSE
  5
16A
330
75
100
AcDbEntity
  8
$DDT_AUDIT_GENERATED_(D7)
  6
Continuous
 62
     7
100
AcDbEllipse
 10
175.285828628041
 20
815.2007681411644
 30
0.0
 11
2.749999999997498
 21
-0.0000000000002776
 31
0.0
210
0.0
220
0.0
230
1.0
 40
0.1736481776668861
 41
0.9835181589399015
 42
1.110876943454094
  0
LINE
  5
16B
330
75
100
AcDbEntity
  8
$DDT_AUDIT_GENERATED_(D7)
  6
Continuous
 62
     7
100
AcDbLine
 10
176.5064872671415
 20
815.8904755511825
 30
0.0
 11
176.5064872671415
 21
815.6286794095217
 31
0.0
  0
LINE
  5
16C
330
75
100
AcDbEntity
  8
$DDT_AUDIT_GENERATED_(D7)
  6
Continuous
 62
     7
100
AcDbLine
 10
176.8095961584661
 20
815.5982909784301
 30
0.0
 11
177.5639033006766
 21
815.8251620264506
 31
0.0
  0
LINE
  5
16D
330
75
100
AcDbEntity
  8
$DDT_AUDIT_GENERATED_(D7)
  6
Continuous
 62
     7
100
AcDbLine
 10
176.5064872671415
 20
815.6286794095217
 30
0.0
 11
177.2417680377173
 21
815.8498279439516
 31
0.0
  0
ELLIPSE
  5
16E
330
75
100
AcDbEntity
  8
$DDT_AUDIT_GENERATED_(D7)
  6
Continuous
 62
     7
100
AcDbEllipse
 10
175.285828628044
 20
815.2007681411618
 30
0.0
 11
2.749999999994858
 21
0.0000000000019429
 31
0.0
210
0.0
220
0.0
230
1.0
 40
0.173648177667513
 41
0.4599193833415493
 42
0.5872781678556758
  0
LINE
  5
16F
330
75
100
AcDbEntity
  8
$DDT_AUDIT_GENERATED_(D7)
  6
Continuous
 62
     7
100
AcDbLine
 10
177.5750714096625
 20
815.8242251810664
 30
0.0
 11
177.5750714096625
 21
815.4653675960107
 31
0.0
  0
LINE
  5
170
330
75
100
AcDbEntity
  8
$DDT_AUDIT_GENERATED_(D7)
  6
Continuous
 62
     7
100
AcDbLine
 10
177.7500714096626
 20
815.4127332893976
 30
0.0
 11
179.3747396509898
 21
815.5756157396046
 31
0.0
  0
LINE
  5
171
330
75
100
AcDbEntity
  8
$DDT_AUDIT_GENERATED_(D7)
  6
Continuous
 62
     7
100
AcDbLine
 10
177.5750714096625
 20
815.4653675960107
 30
0.0
 11
179.1419728129596
 21
815.6224585843798
 31
0.0
  0
ELLIPSE
  5
172
330
75
100
AcDbEntity
  8
$DDT_AUDIT_GENERATED_(D7)
  6
Continuous
 62
     7
100
AcDbEllipse
 10
175.2858286280344
 20
815.2007681411641
 30
0.0
 11
-2.750000000004552
 21
0.0
 31
0.0
210
0.0
220
0.0
230
1.0
 40
0.1736481776667863
 41
3.141592653589793
 42
3.205272045846684
  0
LINE
  5
173
330
75
100
AcDbEntity
  8
$DDT_AUDIT_GENERATED_(D7)
  6
Continuous
 62
     7
100
AcDbLine
 10
178.0302547975687
 20
815.4408233052965
 30
0.0
 11
178.0302547975687
 21
815.2311565722555
 31
0.0
  0
LINE
  5
174
330
75
100
AcDbEntity
  8
$DDT_AUDIT_GENERATED_(D7)
  6
Continuous
 62
     7
100
AcDbLine
 10
178.035828628039
 20
815.1703797100722
 30
0.0
 11
180.4474492290006
 21
815.1703797100722
 31
0.0
  0
LINE
  5
175
330
75
100
AcDbEntity
  8
$DDT_AUDIT_GENERATED_(D7)
  6
Continuous
 62
     7
100
AcDbLine
 10
178.0302547975687
 20
815.2311565722555
 30
0.0
 11
180.3699556694813
 21
815.2311565722555
 31
0.0
  0
ELLIPSE
  5
176
330
75
100
AcDbEntity
  8
$DDT_AUDIT_GENERATED_(D7)
  6
Continuous
 62
     7
100
AcDbEllipse
 10
175.2858286284868
 20
815.2007681411136
 30
0.0
 11
5.2499999995476
 21
0.000000000044964
 31
0.0
210
0.0
220
0.0
230
1.0
 40
0.1736481776706946
 41
-0.5569382848840583
 42
-0.4902592663582226
  0
LINE
  5
177
330
75
100
AcDbEntity
  8
$DDT_AUDIT_GENERATED_(D7)
  6
Continuous
 62
     7
100
AcDbLine
 10
177.9661141979423
 20
814.896964370094
 30
0.0
 11
179.7424353884485
 21
814.7188778287901
 31
0.0
  0
LINE
  5
178
330
75
100
AcDbEntity
  8
$DDT_AUDIT_GENERATED_(D7)
  6
Continuous
 62
     7
100
AcDbLine
 10
178.0248872320161
 20
814.9612511067287
 30
0.0
 11
179.9174353884485
 21
814.7715121354034
 31
0.0
  0
LINE
  5
179
330
75
100
AcDbEntity
  8
$DDT_AUDIT_GENERATED_(D7)
  6
Continuous
 62
     7
100
AcDbLine
 10
179.9174353884485
 20
815.1703797100722
 30
0.0
 11
179.9174353884485
 21
814.7715121354034
 31
0.0
  0
ELLIPSE
  5
17A
330
75
100
AcDbEntity
  8
$DDT_AUDIT_GENERATED_(D7)
  6
Continuous
 62
     7
100
AcDbEllipse
 10
175.2858286298722
 20
815.200768140609
 30
0.0
 11
5.249999997707404
 21
0.0000000002859379
 31
0.0
210
0.0
220
0.0
230
1.0
 40
0.1736481776360028
 41
-1.080537060630208
 42
-1.013858042084301
  0
LINE
  5
17B
330
75
100
AcDbEntity
  8
$DDT_AUDIT_GENERATED_(D7)
  6
Continuous
 62
     7
100
AcDbLine
 10
176.9863712166455
 20
814.6285233931665
 30
0.0
 11
177.7578154437255
 21
814.3964980675489
 31
0.0
  0
LINE
  5
17C
330
75
100
AcDbEntity
  8
$DDT_AUDIT_GENERATED_(D7)
  6
Continuous
 62
     7
100
AcDbLine
 10
177.2525155469661
 20
814.6700295616167
 30
0.0
 11
178.0609243350501
 21
814.4268864986406
 31
0.0
  0
LINE
  5
17D
330
75
100
AcDbEntity
  8
$DDT_AUDIT_GENERATED_(D7)
  6
Continuous
 62
     7
100
AcDbLine
 10
178.0609243350501
 20
814.8874591018531
 30
0.0
 11
178.0609243350501
 21
814.4268864986408
 31
0.0
  0
LINE
  5
17E
330
75
100
AcDbEntity
  8
$DDT_AUDIT_GENERATED_(D7)
  6
Continuous
 62
     7
100
AcDbLine
 10
166.2858286280389
 20
816.1743564852553
 30
0.0
 11
166.2858286280389
 21
815.0038065905615
 31
0.0
  0
LINE
  5
17F
330
75
100
AcDbEntity
  8
$DDT_AUDIT_GENERATED_(D7)
  6
Continuous
 62
     7
100
AcDbLine
 10
184.2858286280389
 20
815.0038065905615
 30
0.0
 11
184.2858286280389
 21
816.1743564852553
 31
0.0
  0
LINE
  5
180
330
75
100
AcDbEntity
  8
$DDT_AUDIT_GENERATED_(D7)
  6
Continuous
 62
     7
100
AcDbLine
 10
169.0358286280389
 20
815.2007681411639
 30
0.0
 11
169.0358286280389
 21
815.0038065905615
 31
0.0
  0
LINE
  5
181
330
75
100
AcDbEntity
  8
$DDT_AUDIT_GENERATED_(D7)
  6
Continuous
 62
     7
100
AcDbLine
 10
181.5358286280389
 20
815.0038065905615
 30
0.0
 11
181.5358286280389
 21
815.2007681411639
 31
0.0
  0
LINE
  5
182
330
75
100
AcDbEntity
  8
$DDT_AUDIT_GENERATED_(D7)
  6
Continuous
 62
     7
100
AcDbLine
 10
172.5358286280389
 20
815.2007681411639
 30
0.0
 11
172.5358286280389
 21
815.0038065905615
 31
0.0
  0
LINE
  5
183
330
75
100
AcDbEntity
  8
$DDT_AUDIT_GENERATED_(D7)
  6
Continuous
 62
     7
100
AcDbLine
 10
178.0358286280389
 20
815.0038065905615
 30
0.0
 11
178.0358286280389
 21
815.2007681411639
 31
0.0
  0
LINE
  5
184
330
75
100
AcDbEntity
  8
$DDT_AUDIT_GENERATED_(D7)
  6
Continuous
 62
     7
100
AcDbLine
 10
174.7661986841426
 20
815.3660820014145
 30
0.0
 11
174.7661986841426
 21
815.2007681411639
 31
0.0
  0
LINE
  5
185
330
75
100
AcDbEntity
  8
$DDT_AUDIT_GENERATED_(D7)
  6
Continuous
 62
     7
100
AcDbLine
 10
175.8054585719353
 20
815.2007681411639
 30
0.0
 11
175.8054585719353
 21
815.3660820014145
 31
0.0
  0
ARC
  5
187
330
75
100
AcDbEntity
  8
$DDT_AUDIT_GENERATED_(186)
  6
Continuous
 62
     7
100
AcDbCircle
 10
233.4858267989415
 20
639.5034815025864
 30
0.0
 40
0.1999999999999988
100
AcDbArc
 50
180.0
 51
297.5453531820865
  0
ARC
  5
188
330
75
100
AcDbEntity
  8
$DDT_AUDIT_GENERATED_(186)
  6
Continuous
 62
     7
100
AcDbCircle
 10
233.4858267989415
 20
684.3677211595783
 30
0.0
 40
0.199999999999992
100
AcDbArc
 50
62.4546468179135
 51
180.0
  0
SPLINE
  5
18A
330
75
100
AcDbEntity
  8
$DDT_AUDIT_GENERATED_(189)
  6
Continuous
 62
     7
100
AcDbSpline
210
0.0
220
0.0
230
1.0
 70
     8
 71
     3
 72
    14
 73
    10
 74
     0
 42
0.000000001
 43
0.0000000001
 40
0.0
 40
0.0
 40
0.0
 40
0.0
 40
0.125
 40
0.125
 40
0.25
 40
0.25
 40
0.375
 40
0.375
 40
0.4999963735123942
 40
0.4999963735123942
 40
0.4999963735123942
 40
0.4999963735123942
 10
175.2858174397487
 20
822.4574073240678
 30
0.0
 10
177.118423025959
 20
822.4574048011859
 30
0.0
 10
178.9502982038133
 20
822.3941304038733
 30
0.0
 10
182.3364943407975
 20
822.1505699421683
 30
0.0
 10
183.8894829748604
 20
821.9703797085243
 30
0.0
 10
186.4811648443027
 20
821.5203386776021
 30
0.0
 10
187.5188383624002
 20
821.2506649524495
 30
0.0
 10
188.9214253293727
 20
820.6626665871278
 30
0.0
 10
189.285806460745
 20
820.3445747010791
 30
0.0
 10
189.2858267980903
 20
820.0263569457446
 30
0.0
  0
ELLIPSE
  5
18B
330
75
100
AcDbEntity
  8
$DDT_AUDIT_GENERATED_(189)
  6
Continuous
 62
     7
100
AcDbEllipse
 10
175.2858033692305
 20
819.5339266110476
 30
0.0
 11
13.5000265962877
 21
0.0000000005434264
 31
0.0
210
0.0
220
0.0
230
1.0
 40
0.1736481774672811
 41
1.57079597831855
 42
3.648869851230905
  0
ELLIPSE
  5
18C
330
75
100
AcDbEntity
  8
$DDT_AUDIT_GENERATED_(189)
  6
Continuous
 62
     7
100
AcDbEllipse
 10
175.2857891346991
 20
819.533926611048
 30
0.0
 11
-13.50002659629902
 21
-0.0000000005434542
 31
0.0
210
0.0
220
0.0
230
1.0
 40
0.1736481774672812
 41
2.634325329332073
 42
4.712387577500683
  0
SPLINE
  5
18D
330
75
100
AcDbEntity
  8
$DDT_AUDIT_GENERATED_(189)
  6
Continuous
 62
     7
100
AcDbSpline
210
0.0
220
0.0
230
1.0
 70
     8
 71
     3
 72
    16
 73
    12
 74
     0
 42
0.000000001
 43
0.0000000001
 40
0.4999937286715062
 40
0.4999937286715062
 40
0.4999937286715062
 40
0.4999937286715062
 40
0.5
 40
0.5
 40
0.625
 40
0.625
 40
0.75
 40
0.75
 40
0.875
 40
0.875
 40
1.0
 40
1.0
 40
1.0
 40
1.0
 10
161.2858268016642
 20
820.0262826311361
 30
0.0
 10
161.2858267998395
 20
820.0262985967713
 30
0.0
 10
161.285826798932
 20
820.0263145624068
 30
0.0
 10
161.2858269913097
 20
820.3445572773494
 30
0.0
 10
161.6502093469764
 20
820.6626588116233
 30
0.0
 10
163.0528163933669
 20
821.2506651938831
 30
0.0
 10
164.0904892191949
 20
821.5203386869207
 30
0.0
 10
166.6821689266765
 20
821.9703793983724
 30
0.0
 10
168.2351560950363
 20
822.1505695453314
 30
0.0
 10
171.6213491053477
 20
822.3941300338207
 30
0.0
 10
173.4532226275616
 20
822.4574045448871
 30
0.0
 10
175.2858174397487
 20
822.4574073240678
 30
0.0
  0
ELLIPSE
  5
18E
330
75
100
AcDbEntity
  8
$DDT_AUDIT_GENERATED_(189)
  6
Continuous
 62
     7
100
AcDbEllipse
 10
175.285813642989
 20
856.9599341424074
 30
0.0
 11
-13.50002659623924
 21
-0.0000000005443979
 31
0.0
210
0.0
220
0.0
230
1.0
 40
0.173648177467309
 41
4.127862788241882
 42
4.137797611650357
  0
ELLIPSE
  5
18F
330
75
100
AcDbEntity
  8
$DDT_AUDIT_GENERATED_(189)
  6
Continuous
 62
     7
100
AcDbEllipse
 10
175.28582762676
 20
856.959934142408
 30
0.0
 11
13.50002659624813
 21
0.0000000005437317
 31
0.0
210
0.0
220
0.0
230
1.0
 40
0.1736481774673167
 41
1.570797773812133
 42
2.383839350175756
  0
ELLIPSE
  5
190
330
75
100
AcDbEntity
  8
$DDT_AUDIT_GENERATED_(189)
  6
Continuous
 62
     7
100
AcDbEllipse
 10
175.2858080813757
 20
819.5339312344476
 30
0.0
 11
12.8
 21
0.0
 31
0.0
210
0.0
220
0.0
230
1.0
 40
0.1736481776669292
 41
5.885284956780447
 42
6.283185307179586
  0
ELLIPSE
  5
191
330
75
100
AcDbEntity
  8
$DDT_AUDIT_GENERATED_(189)
  6
Continuous
 62
     7
100
AcDbEllipse
 10
175.2858080813757
 20
819.5339312344476
 30
0.0
 11
12.8
 21
0.0
 31
0.0
210
0.0
220
0.0
230
1.0
 40
0.1736481776669292
 41
2.641295241897188
 42
3.539501289203204
  0
ELLIPSE
  5
192
330
75
100
AcDbEntity
  8
$DDT_AUDIT_GENERATED_(189)
  6
Continuous
 62
     7
100
AcDbEllipse
 10
175.2858080813757
 20
819.5339312344476
 30
0.0
 11
12.8
 21
0.0
 31
0.0
210
0.0
220
0.0
230
1.0
 40
0.1736481776669292
 41
0.5685445521272799
 42
2.641295241897188
  0
ELLIPSE
  5
193
330
75
100
AcDbEntity
  8
$DDT_AUDIT_GENERATED_(189)
  6
Continuous
 62
     7
100
AcDbEllipse
 10
175.2858080813757
 20
819.5339312344476
 30
0.0
 11
12.8
 21
0.0
 31
0.0
210
0.0
220
0.0
230
1.0
 40
0.1736481776669292
 41
0.0
 42
0.5685445521272799
  0
ELLIPSE
  5
194
330
75
100
AcDbEntity
  8
$DDT_AUDIT_GENERATED_(189)
  6
Continuous
 62
     7
100
AcDbEllipse
 10
175.2858080813757
 20
820.0263351109537
 30
0.0
 11
12.3
 21
0.0
 31
0.0
210
0.0
220
0.0
230
1.0
 40
0.1736481776669293
 41
3.137961478546754
 42
3.427706387200128
  0
ELLIPSE
  5
195
330
75
100
AcDbEntity
  8
$DDT_AUDIT_GENERATED_(189)
  6
Continuous
 62
     7
100
AcDbEllipse
 10
175.2858080813757
 20
820.0263351109537
 30
0.0
 11
12.3
 21
0.0
 31
0.0
210
0.0
220
0.0
230
1.0
 40
0.1736481776669293
 41
5.997083411553964
 42
6.283185307179586
  0
LINE
  5
196
330
75
100
AcDbEntity
  8
$DDT_AUDIT_GENERATED_(189)
  6
Continuous
 62
     7
100
AcDbLine
 10
189.2858267989416
 20
820.0263303164117
 30
0.0
 11
189.2858267989416
 21
856.4675300935356
 31
0.0
  0
LINE
  5
197
330
75
100
AcDbEntity
  8
$DDT_AUDIT_GENERATED_(189)
  6
Continuous
 62
     7
100
AcDbLine
 10
161.2858267989415
 20
856.467530093786
 30
0.0
 11
161.2858267989415
 21
820.026330272852
 31
0.0
  0
SPLINE
  5
198
330
75
100
AcDbEntity
  8
$DDT_AUDIT_GENERATED_(189)
  6
Continuous
 62
     7
100
AcDbSpline
210
0.0
220
0.0
230
1.0
 70
     8
 71
     3
 72
    14
 73
    10
 74
     0
 42
0.0000000018747082
 43
0.0000000001
 40
0.0
 40
0.0
 40
0.0
 40
0.0
 40
0.1035149617185992
 40
0.1823384516529201
 40
0.2420883971158317
 40
0.3150807077108358
 40
0.3948332663227805
 40
0.5270931581716561
 40
0.5504952730030713
 40
0.5504952730030713
 40
0.5504952730030713
 40
0.5504952730030713
 10
161.2857617825974
 20
820.0262921681209
 30
0.0
 10
161.3096474694375
 20
819.8565407643357
 30
0.0
 10
161.3482381230485
 20
819.6086221339069
 30
0.0
 10
161.5936890100768
 20
819.2950023438015
 30
0.0
 10
161.841182410864
 20
819.0827310917921
 30
0.0
 10
162.1465444178656
 20
818.8874944472257
 30
0.0
 10
162.6043786992023
 20
818.663135493273
 30
0.0
 10
163.0688187935079
 20
818.4922755694879
 30
0.0
 10
163.4193253153248
 20
818.384743939934
 30
0.0
 10
163.4729838823547
 20
818.3687083300645
 30
0.0
  0
SPLINE
  5
199
330
75
100
AcDbEntity
  8
$DDT_AUDIT_GENERATED_(189)
  6
Continuous
 62
     7
100
AcDbSpline
210
0.0
220
0.0
230
1.0
 70
     8
 71
     3
 72
    14
 73
    10
 74
     0
 42
0.0000000022478681
 43
0.0000000001
 40
0.3398887386214243
 40
0.3398887386214243
 40
0.3398887386214243
 40
0.3398887386214243
 40
0.4077356462725473
 40
0.5266010878941252
 40
0.6222145568153432
 40
0.7097179128697796
 40
0.7813396137321488
 40
0.8758499661908951
 40
1.0
 40
1.0
 40
1.0
 40
1.0
 10
187.0982595345996
 20
818.3685035871041
 30
0.0
 10
187.228067107887
 20
818.4072472346374
 30
0.0
 10
187.5699550320024
 20
818.5162502069044
 30
0.0
 10
188.0202398383073
 20
818.6891420941579
 30
0.0
 10
188.4251298732966
 20
818.8875092789755
 30
0.0
 10
188.7304699238526
 20
819.0827195477378
 30
0.0
 10
188.9778801256361
 20
819.2949913602799
 30
0.0
 10
189.2233569585929
 20
819.6086469213287
 30
0.0
 10
189.2619571571298
 20
819.8565924059659
 30
0.0
 10
189.2858548509438
 20
820.0263837195894
 30
0.0
  0
ARC
  5
19A
330
75
100
AcDbEntity
  8
$DDT_AUDIT_GENERATED_(189)
  6
Continuous
 62
     7
100
AcDbCircle
 10
175.3653065528114
 20
786.5214145508407
 30
0.0
 40
72.78881131460832
100
AcDbArc
 50
86.00094485193672
 51
90.06257730521518
  0
ARC
  5
19B
330
75
100
AcDbEntity
  8
$DDT_AUDIT_GENERATED_(189)
  6
Continuous
 62
     7
100
AcDbCircle
 10
178.0286202579818
 20
821.8661779236882
 30
0.0
 40
37.34485876717258
100
AcDbArc
 50
82.86124669746211
 51
86.29534194357356
  0
ARC
  5
19C
330
75
100
AcDbEntity
  8
$DDT_AUDIT_GENERATED_(189)
  6
Continuous
 62
     7
100
AcDbCircle
 10
180.7087675535157
 20
837.090960804543
 30
0.0
 40
21.91846397141254
100
AcDbArc
 50
79.4640687809812
 51
84.86753429642963
  0
SPLINE
  5
19D
330
75
100
AcDbEntity
  8
$DDT_AUDIT_GENERATED_(189)
  6
Continuous
 62
     7
100
AcDbSpline
210
0.0
220
0.0
230
1.0
 70
     8
 71
     3
 72
    16
 73
    12
 74
     0
 42
0.0000000018597559
 43
0.0000000001
 40
0.0
 40
0.0
 40
0.0
 40
0.0
 40
0.1241547333071397
 40
0.2186796038931738
 40
0.2903199401366606
 40
0.3778402846260724
 40
0.4734685212899148
 40
0.6320533506287429
 40
0.7832824304442779
 40
0.9273455989240851
 40
1.0
 40
1.0
 40
1.0
 40
1.0
 10
189.2858543825037
 20
856.4674919418752
 30
0.0
 10
189.2619614745632
 20
856.6372667442413
 30
0.0
 10
189.2233667151556
 20
856.8852005618632
 30
0.0
 10
188.9779069761238
 20
857.1988560198001
 30
0.0
 10
188.7304907255133
 20
857.411133677135
 30
0.0
 10
188.4250808622832
 20
857.6064035235701
 30
0.0
 10
187.9671818092413
 20
857.8305921921726
 30
0.0
 10
187.3002219474484
 20
858.0770558244051
 30
0.0
 10
186.3778156601277
 20
858.3258043802505
 30
0.0
 10
185.5092435955401
 20
858.5198910861164
 30
0.0
 10
184.9409409317324
 20
858.606127907988
 30
0.0
 10
184.7166048628795
 20
858.6398889209895
 30
0.0
  0
SPLINE
  5
19E
330
75
100
AcDbEntity
  8
$DDT_AUDIT_GENERATED_(189)
  6
Continuous
 62
     7
100
AcDbSpline
210
0.0
220
0.0
230
1.0
 70
     8
 71
     3
 72
    17
 73
    13
 74
     0
 42
0.000000002028551
 43
0.0000000001
 40
0.0
 40
0.0
 40
0.0
 40
0.0
 40
0.0202516546426703
 40
0.134376552805236
 40
0.2507622491112482
 40
0.3742704463897403
 40
0.4998634925683938
 40
0.6008868068504937
 40
0.6933428602063395
 40
0.7690199824623455
 40
0.8688647658228783
 40
1.0
 40
1.0
 40
1.0
 40
1.0
 10
165.4140543002502
 20
858.5701528634766
 30
0.0
 10
165.3555979622291
 20
858.5610907715773
 30
0.0
 10
165.0228142323502
 20
858.5094451909178
 30
0.0
 10
164.4605757238747
 20
858.3828481609739
 30
0.0
 10
163.7340049279617
 20
858.2072934352146
 30
0.0
 10
163.080099277952
 20
858.0075665320546
 30
0.0
 10
162.5513133569728
 20
857.8047435160618
 30
0.0
 10
162.146517610337
 20
857.6063564841584
 30
0.0
 10
161.8412066626835
 20
857.4111549397605
 30
0.0
 10
161.5937137549003
 20
857.1988960627335
 30
0.0
 10
161.3482460428816
 20
856.8852763497368
 30
0.0
 10
161.3096508759348
 20
856.6373490839225
 30
0.0
 10
161.2857613141575
 20
856.4675834957878
 30
0.0
  0
SPLINE
  5
19F
330
75
100
AcDbEntity
  8
$DDT_AUDIT_GENERATED_(189)
  6
Continuous
 62
     7
100
AcDbSpline
210
0.0
220
0.0
230
1.0
 70
     8
 71
     3
 72
    14
 73
    10
 74
     0
 42
0.000000004727675
 43
0.0000000001
 40
0.0
 40
0.0
 40
0.0
 40
0.0
 40
0.0370847475809392
 40
0.2018187337086429
 40
0.364063894139605
 40
0.5223714768941617
 40
0.674763070883691
 40
0.8199772557966673
 40
0.8692882989640693
 40
0.8692882989640693
 40
0.8692882989640693
 40
0.8692882989640693
 10
185.9372173308088
 20
820.7385819975254
 30
0.0
 10
185.9906627373714
 20
820.7250794959689
 30
0.0
 10
186.2391287377212
 20
820.6621126195623
 30
0.0
 10
186.6340785444418
 20
820.5305685253357
 30
0.0
 10
187.059982693334
 20
820.3616169348165
 30
0.0
 10
187.3633171802829
 20
820.1997920424011
 30
0.0
 10
187.5414811522136
 20
820.0651369284216
 30
0.0
 10
187.5884921210983
 20
819.999845206108
 30
0.0
 10
187.590497690433
 20
819.9955530154852
 30
0.0
 10
187.5902768112963
 20
819.9959867558586
 30
0.0
  0
SPLINE
  5
1A0
330
75
100
AcDbEntity
  8
$DDT_AUDIT_GENERATED_(189)
  6
Continuous
 62
     7
100
AcDbSpline
210
0.0
220
0.0
230
1.0
 70
     8
 71
     3
 72
    13
 73
     9
 74
     0
 42
0.0000000060864652
 43
0.0000000001
 40
0.1482007341554743
 40
0.1482007341554743
 40
0.1482007341554743
 40
0.1482007341554743
 40
0.2166977067237748
 40
0.370109615820576
 40
0.5318588067495204
 40
0.6974604288530272
 40
0.8710752944058723
 40
1.0
 40
1.0
 40
1.0
 40
1.0
 10
162.9815511076826
 20
819.995579545009
 30
0.0
 10
162.9813407936652
 20
819.9953994744717
 30
0.0
 10
162.9838354520418
 20
820.002168731073
 30
0.0
 10
163.0332489340417
 20
820.0664090150233
 30
0.0
 10
163.1948766592833
 20
820.190320249635
 30
0.0
 10
163.465789239753
 20
820.3380357664194
 30
0.0
 10
163.8119604783304
 20
820.4860849627372
 30
0.0
 10
164.0784332794916
 20
820.5718290425613
 30
0.0
 10
164.2140135521575
 20
820.6150526160991
 30
0.0
  0
LINE
  5
1A2
330
75
100
AcDbEntity
  8
DV1_Standard
  6
Continuous
 62
     7
100
AcDbLine
 10
148.6858267989415
 20
600.4356013310824
 30
0.0
 11
201.8645483186393
 21
600.4356013310824
 31
0.0
  0
ENDBLK
  5
1A4
330
75
100
AcDbEntity
  8
0
100
AcDbBlockEnd
  0
BLOCK
  5
1EA
330
1A5
100
AcDbEntity
  8
0
100
AcDbBlockBegin
  2
SE1
 70
     0
 10
0.0
 20
0.0
 30
0.0
  3
SE1
  1

  0
LINE
  5
1A7
330
1A5
100
AcDbEntity
  8
$DDT_AUDIT_GENERATED_(77)
  6
Continuous
 62
     7
100
AcDbLine
 10
396.8622121077324
 20
711.4356013310823
 30
0.0
 11
345.2622121077325
 21
711.4356013310823
 31
0.0
  0
LINE
  5
1A8
330
1A5
100
AcDbEntity
  8
$DDT_AUDIT_GENERATED_(77)
  6
Continuous
 62
     7
100
AcDbLine
 10
397.8622121077324
 20
600.6356013310823
 30
0.0
 11
397.8622121077324
 21
710.4356013310823
 31
0.0
  0
LINE
  5
1A9
330
1A5
100
AcDbEntity
  8
$DDT_AUDIT_GENERATED_(77)
  6
Continuous
 62
     7
100
AcDbLine
 10
344.2622121077324
 20
710.4356013310824
 30
0.0
 11
344.2622121077324
 21
600.6356013310825
 31
0.0
  0
ARC
  5
1AA
330
1A5
100
AcDbEntity
  8
$DDT_AUDIT_GENERATED_(77)
  6
Continuous
 62
     7
100
AcDbCircle
 10
397.6622121077324
 20
600.6356013310823
 30
0.0
 40
0.2000000000000027
100
AcDbArc
 50
270.0
 51
0.0
  0
ARC
  5
1AB
330
1A5
100
AcDbEntity
  8
$DDT_AUDIT_GENERATED_(77)
  6
Continuous
 62
     7
100
AcDbCircle
 10
344.4622121077324
 20
600.6356013310823
 30
0.0
 40
0.1999999999999988
100
AcDbArc
 50
180.0
 51
270.0
  0
ARC
  5
1AC
330
1A5
100
AcDbEntity
  8
$DDT_AUDIT_GENERATED_(77)
  6
Continuous
 62
     7
100
AcDbCircle
 10
396.8622121077324
 20
710.4356013310824
 30
0.0
 40
0.9999999999999975
100
AcDbArc
 50
0.0
 51
90.0
  0
ARC
  5
1AD
330
1A5
100
AcDbEntity
  8
$DDT_AUDIT_GENERATED_(77)
  6
Continuous
 62
     7
100
AcDbCircle
 10
345.2622121077324
 20
710.4356013310824
 30
0.0
 40
1.0
100
AcDbArc
 50
90.0
 51
180.0
  0
LINE
  5
1AE
330
1A5
100
AcDbEntity
  8
$DDT_AUDIT_GENERATED_(8E)
  6
Continuous
 62
     7
100
AcDbLine
 10
565.2706022836506
 20
860.7417744053734
 30
0.0
 11
589.6938345583533
 21
865.0482492115131
 31
0.0
  0
LINE
  5
1AF
330
1A5
100
AcDbEntity
  8
$DDT_AUDIT_GENERATED_(8E)
  6
Continuous
 62
     7
100
AcDbLine
 10
358.6622121077324
 20
844.8356013310823
 30
0.0
 11
358.6622121077324
 21
711.4356013310823
 31
0.0
  0
LINE
  5
1B0
330
1A5
100
AcDbEntity
  8
$DDT_AUDIT_GENERATED_(8E)
  6
Continuous
 62
     7
100
AcDbLine
 10
383.4622121077324
 20
711.4356013310823
 30
0.0
 11
383.4622121077324
 21
844.8356013310824
 31
0.0
  0
ARC
  5
1B1
330
1A5
100
AcDbEntity
  8
$DDT_AUDIT_GENERATED_(8E)
  6
Continuous
 62
     7
100
AcDbCircle
 10
475.0622121077324
 20
844.8356013310823
 30
0.0
 40
91.59999999999998
100
AcDbArc
 50
9.999999999999985
 51
180.0
  0
ARC
  5
1B2
330
1A5
100
AcDbEntity
  8
$DDT_AUDIT_GENERATED_(8E)
  6
Continuous
 62
     7
100
AcDbCircle
 10
475.0622121077324
 20
844.8356013310823
 30
0.0
 40
116.4
100
AcDbArc
 50
10.00000000000001
 51
179.9999999999999
  0
LINE
  5
1B3
330
1A5
100
AcDbEntity
  8
$DDT_AUDIT_GENERATED_(8E)
  6
Continuous
 62
     7
100
AcDbLine
 10
590.7403489143417
 20
859.113171370428
 30
0.0
 11
589.6938345583534
 21
865.0482492115131
 31
0.0
  0
LINE
  5
1B4
330
1A5
100
AcDbEntity
  8
$DDT_AUDIT_GENERATED_(8E)
  6
Continuous
 62
     7
100
AcDbLine
 10
565.2706022836506
 20
860.7417744053732
 30
0.0
 11
566.317116638766
 21
854.8066965692385
 31
0.0
  0
LINE
  5
1B5
330
1A5
100
AcDbEntity
  8
$DDT_AUDIT_GENERATED_(96)
  6
Continuous
 62
     7
100
AcDbLine
 10
390.5157230007106
 20
743.457471883298
 30
0.0
 11
383.4622121077324
 21
744.701196162429
 31
0.0
  0
LINE
  5
1B6
330
1A5
100
AcDbEntity
  8
$DDT_AUDIT_GENERATED_(96)
  6
Continuous
 62
     7
100
AcDbLine
 10
383.4622121077325
 20
745.7166227743145
 30
0.0
 11
389.7045634253619
 21
744.6159278139747
 31
0.0
  0
LINE
  5
1B7
330
1A5
100
AcDbEntity
  8
$DDT_AUDIT_GENERATED_(96)
  6
Continuous
 62
     7
100
AcDbLine
 10
384.8694032497014
 20
711.4356013310823
 30
0.0
 11
390.5157230007106
 21
743.4574718832979
 31
0.0
  0
ARC
  5
1B8
330
1A5
100
AcDbEntity
  8
$DDT_AUDIT_GENERATED_(96)
  6
Continuous
 62
     7
100
AcDbCircle
 10
389.5309152476981
 20
743.6311200609619
 30
0.0
 40
0.9999999999999282
100
AcDbArc
 50
350.0000000001727
 51
80.00000000017591
  0
LINE
  5
1B9
330
1A5
100
AcDbEntity
  8
02636038_GEHÄUSE
  6
Continuous
 62
     7
100
AcDbLine
 10
596.443929618339
 20
817.2644476016859
 30
0.0
 11
575.2705629285765
 21
813.531011781847
 31
0.0
  0
LINE
  5
1BA
330
1A5
100
AcDbEntity
  8
02636038_GEHÄUSE
  6
Continuous
 62
     7
100
AcDbLine
 10
596.1691870235912
 20
820.2622829051392
 30
0.0
 11
596.957033226001
 21
820.4012014472727
 31
0.0
  0
LINE
  5
1BB
330
1A5
100
AcDbEntity
  8
02636038_GEHÄUSE
  6
Continuous
 62
     7
100
AcDbLine
 10
596.6349908544259
 20
817.6205781078186
 30
0.0
 11
596.4846071212455
 21
818.473446639771
 31
0.0
  0
LINE
  5
1BC
330
1A5
100
AcDbEntity
  8
02636038_GEHÄUSE
  6
Continuous
 62
     7
100
AcDbLine
 10
596.4846071212455
 20
818.473446639771
 30
0.0
 11
596.1691870235913
 21
820.262282905139
 31
0.0
  0
LINE
  5
1BD
330
1A5
100
AcDbEntity
  8
02636038_GEHÄUSE
  6
Continuous
 62
     7
100
AcDbLine
 10
574.9692202881573
 20
813.8003181991461
 30
0.0
 11
596.6349908544258
 21
817.6205781078186
 31
0.0
  0
LINE
  5
1BE
330
1A5
100
AcDbEntity
  8
02636038_GEHÄUSE
  6
Continuous
 62
     7
100
AcDbLine
 10
574.8188365549768
 20
814.6531867310985
 30
0.0
 11
596.4846071212454
 21
818.473446639771
 31
0.0
  0
LINE
  5
1BF
330
1A5
100
AcDbEntity
  8
02636038_GEHÄUSE
  6
Continuous
 62
     7
100
AcDbLine
 10
574.5034164573227
 20
816.4420229964667
 30
0.0
 11
573.7155702549129
 21
816.3031044543332
 31
0.0
  0
LINE
  5
1C0
330
1A5
100
AcDbEntity
  8
02636038_GEHÄUSE
  6
Continuous
 62
     7
100
AcDbLine
 10
574.5034164573227
 20
816.4420229964667
 30
0.0
 11
574.8188365549768
 21
814.6531867310985
 31
0.0
  0
LINE
  5
1C1
330
1A5
100
AcDbEntity
  8
02636038_GEHÄUSE
  6
Continuous
 62
     7
100
AcDbLine
 10
574.8188365549768
 20
814.6531867310985
 30
0.0
 11
574.9692202881573
 21
813.8003181991461
 31
0.0
  0
LINE
  5
1C2
330
1A5
100
AcDbEntity
  8
02636038_GEHÄUSE
  6
Continuous
 62
     7
100
AcDbLine
 10
574.9992970347935
 20
813.6297444927555
 30
0.0
 11
575.2705629285766
 21
813.5310117818468
 31
0.0
  0
LINE
  5
1C3
330
1A5
100
AcDbEntity
  8
02636038_GEHÄUSE
  6
Continuous
 62
     7
100
AcDbLine
 10
596.443929618339
 20
817.2644476016859
 30
0.0
 11
596.665067601062
 21
817.450004401428
 31
0.0
  0
LINE
  5
1C4
330
1A5
100
AcDbEntity
  8
02636038_GEHÄUSE
  6
Continuous
 62
     7
100
AcDbLine
 10
573.5071924419218
 20
817.4848737567605
 30
0.0
 11
573.7155702549129
 21
816.3031044543332
 31
0.0
  0
LINE
  5
1C5
330
1A5
100
AcDbEntity
  8
02636038_GEHÄUSE
  6
Continuous
 62
     7
100
AcDbLine
 10
596.957033226001
 20
820.4012014472727
 30
0.0
 11
596.7486554138409
 21
821.5829707449884
 31
0.0
  0
LINE
  5
1C6
330
1A5
100
AcDbEntity
  8
$DDT_AUDIT_GENERATED_(D7)
  6
Continuous
 62
     7
100
AcDbLine
 10
594.7899753216344
 20
816.566640189564
 30
0.0
 11
577.0634357674146
 21
813.4409729915592
 31
0.0
  0
LINE
  5
1C7
330
1A5
100
AcDbEntity
  8
$DDT_AUDIT_GENERATED_(D7)
  6
Continuous
 62
     7
100
AcDbLine
 10
576.993976496348
 20
813.834896092764
 30
0.0
 11
577.0634357674147
 21
813.4409729915592
 31
0.0
  0
LINE
  5
1C8
330
1A5
100
AcDbEntity
  8
$DDT_AUDIT_GENERATED_(D7)
  6
Continuous
 62
     7
100
AcDbLine
 10
594.7899753216344
 20
816.566640189564
 30
0.0
 11
594.7205160505676
 21
816.9605632907687
 31
0.0
  0
LINE
  5
1C9
330
1A5
100
AcDbEntity
  8
$DDT_AUDIT_GENERATED_(189)
  6
Continuous
 62
     7
100
AcDbLine
 10
598.8284456968601
 20
822.4574073240678
 30
0.0
 11
598.8123635719708
 21
822.4545716114999
 31
0.0
  0
LINE
  5
1CA
330
1A5
100
AcDbEntity
  8
$DDT_AUDIT_GENERATED_(189)
  6
Continuous
 62
     7
100
AcDbLine
 10
598.4228795125249
 20
821.8781816252526
 30
0.0
 11
571.8330177957852
 21
817.1896715968426
 31
0.0
  0
LINE
  5
1CB
330
1A5
100
AcDbEntity
  8
$DDT_AUDIT_GENERATED_(189)
  6
Continuous
 62
     7
100
AcDbLine
 10
571.2538014624161
 20
817.5952534889006
 30
0.0
 11
598.8123777883405
 21
822.4545741182293
 31
0.0
  0
LINE
  5
1CC
330
1A5
100
AcDbEntity
  8
$DDT_AUDIT_GENERATED_(189)
  6
Continuous
 62
     7
100
AcDbLine
 10
598.8123777883405
 20
822.4545741182293
 30
0.0
 11
598.8284456968602
 21
822.4574073240678
 31
0.0
  0
ARC
  5
1CD
330
1A5
100
AcDbEntity
  8
$DDT_AUDIT_GENERATED_(189)
  6
Continuous
 62
     7
100
AcDbCircle
 10
571.7461849732704
 20
817.6820484283553
 30
0.0
 40
0.4999748826453302
100
AcDbArc
 50
189.9971155768583
 51
280.001523829289
  0
ARC
  5
1CE
330
1A5
100
AcDbEntity
  8
$DDT_AUDIT_GENERATED_(189)
  6
Continuous
 62
     7
100
AcDbCircle
 10
598.336057795784
 20
822.3705720495352
 30
0.0
 40
0.4999863402363096
100
AcDbArc
 50
279.9999999884002
 51
301.1595351434471
  0
ARC
  5
1CF
330
1A5
100
AcDbEntity
  8
$DDT_AUDIT_GENERATED_(189)
  6
Continuous
 62
     7
100
AcDbCircle
 10
598.336057795784
 20
822.3705720495352
 30
0.0
 40
0.4999863402363096
100
AcDbArc
 50
319.954904324162
 51
10.00158024599083
  0
LINE
  5
1D0
330
1A5
100
AcDbEntity
  8
$DDT_AUDIT_GENERATED_(189)
  6
Continuous
 62
     7
100
AcDbLine
 10
565.2338028957294
 20
854.6156791282102
 30
0.0
 11
591.8236646123732
 21
859.3041891566045
 31
0.0
  0
ARC
  5
1D1
330
1A5
100
AcDbEntity
  8
$DDT_AUDIT_GENERATED_(189)
  6
Continuous
 62
     7
100
AcDbCircle
 10
565.3206246024548
 20
854.1232887607232
 30
0.0
 40
0.4999862825646183
100
AcDbArc
 50
99.9999999883115
 51
121.1891693736608
  0
ARC
  5
1D2
330
1A5
100
AcDbEntity
  8
$DDT_AUDIT_GENERATED_(189)
  6
Continuous
 62
     7
100
AcDbCircle
 10
591.9104863231934
 20
858.8117987658954
 30
0.0
 40
0.499986306144865
100
AcDbArc
 50
78.89536446706107
 51
99.99999998833615
  0
ARC
  5
1D3
330
1A5
100
AcDbEntity
  8
$DDT_AUDIT_GENERATED_(189)
  6
Continuous
 62
     7
100
AcDbCircle
 10
591.9104863231934
 20
858.8117987658954
 30
0.0
 40
0.499986306144865
100
AcDbArc
 50
9.998419500412396
 51
60.00661941699677
  0
LINE
  5
1D4
330
1A5
100
AcDbEntity
  8
$DDT_AUDIT_GENERATED_(189)
  6
Continuous
 62
     7
100
AcDbLine
 10
592.4028790118447
 20
858.898606877163
 30
0.0
 11
592.3867954468118
 21
858.8957709107209
 31
0.0
  0
LINE
  5
1D5
330
1A5
100
AcDbEntity
  8
$DDT_AUDIT_GENERATED_(189)
  6
Continuous
 62
     7
100
AcDbLine
 10
592.3867954468118
 20
858.8957709107209
 30
0.0
 11
564.8442915738227
 21
854.0392843945621
 31
0.0
  0
LINE
  5
1D6
330
1A5
100
AcDbEntity
  8
$DDT_AUDIT_GENERATED_(189)
  6
Continuous
 62
     7
100
AcDbLine
 10
564.8442915738227
 20
854.0392843945621
 30
0.0
 11
564.828234759515
 21
854.0364531449945
 31
0.0
  0
LINE
  5
1D7
330
1A5
100
AcDbEntity
  8
$DDT_AUDIT_GENERATED_(189)
  6
Continuous
 62
     7
100
AcDbLine
 10
567.0715833490183
 20
844.8429729665171
 30
0.0
 11
567.4471158356083
 21
843.0204959779276
 31
0.0
  0
LINE
  5
1D8
330
1A5
100
AcDbEntity
  8
$DDT_AUDIT_GENERATED_(189)
  6
Continuous
 62
     7
100
AcDbLine
 10
569.947649594012
 20
828.839264334552
 30
0.0
 11
570.218088328343
 21
826.9982564819358
 31
0.0
  0
LINE
  5
1D9
330
1A5
100
AcDbEntity
  8
$DDT_AUDIT_GENERATED_(189)
  6
Continuous
 62
     7
100
AcDbLine
 10
567.4236851588629
 20
843.0163645174411
 30
0.0
 11
567.4471158356083
 21
843.0204959779276
 31
0.0
  0
LINE
  5
1DA
330
1A5
100
AcDbEntity
  8
$DDT_AUDIT_GENERATED_(189)
  6
Continuous
 62
     7
100
AcDbLine
 10
569.9242189172666
 20
828.8351328740656
 30
0.0
 11
569.947649594012
 21
828.8392643345522
 31
0.0
  0
ELLIPSE
  5
1DB
330
1A5
100
AcDbEntity
  8
$DDT_AUDIT_GENERATED_(189)
  6
Continuous
 62
     7
100
AcDbEllipse
 10
570.688938202251
 20
827.0812800185691
 30
0.0
 11
0.4964421330040937
 21
0.0595416541448457
 31
0.0
210
0.0
220
0.0
230
1.0
 40
0.1773228213491127
 41
3.129337298067307
 42
3.443495946028924
  0
LINE
  5
1DC
330
1A5
100
AcDbEntity
  8
$DDT_AUDIT_GENERATED_(189)
  6
Continuous
 62
     7
100
AcDbLine
 10
598.8314456968602
 20
822.4403140599886
 30
0.0
 11
592.4023360216807
 21
858.9016068771627
 31
0.0
  0
LINE
  5
1DD
330
1A5
100
AcDbEntity
  8
$DDT_AUDIT_GENERATED_(189)
  6
Continuous
 62
     7
100
AcDbLine
 10
570.1496132172593
 20
823.8574956268481
 30
0.0
 11
571.2543444468511
 21
817.5922534889007
 31
0.0
  0
LINE
  5
1DE
330
1A5
100
AcDbEntity
  8
$DDT_AUDIT_GENERATED_(189)
  6
Continuous
 62
     7
100
AcDbLine
 10
564.8252347595148
 20
854.0535463750183
 30
0.0
 11
565.9330343359093
 21
847.7709027776313
 31
0.0
  0
ARC
  5
1DF
330
1A5
100
AcDbEntity
  8
$DDT_AUDIT_GENERATED_(189)
  6
Continuous
 62
     7
100
AcDbCircle
 10
598.3555744719599
 20
822.3460894879789
 30
0.0
 40
0.4689584271490994
100
AcDbArc
 50
300.6290935593491
 51
13.36341618111908
  0
ARC
  5
1E0
330
1A5
100
AcDbEntity
  8
$DDT_AUDIT_GENERATED_(189)
  6
Continuous
 62
     7
100
AcDbCircle
 10
571.7362227535659
 20
817.6523617809388
 30
0.0
 40
0.4689362255232671
100
AcDbArc
 50
186.6342793815911
 51
259.3373244466251
  0
ARC
  5
1E1
330
1A5
100
AcDbEntity
  8
$DDT_AUDIT_GENERATED_(189)
  6
Continuous
 62
     7
100
AcDbCircle
 10
565.3010946766277
 20
854.147786720577
 30
0.0
 40
0.4689362300068771
100
AcDbArc
 50
120.6626689473819
 51
193.3657202550832
  0
ARC
  5
1E2
330
1A5
100
AcDbEntity
  8
$DDT_AUDIT_GENERATED_(189)
  6
Continuous
 62
     7
100
AcDbCircle
 10
591.9204448712669
 20
858.8414793474008
 30
0.0
 40
0.4689648267103787
100
AcDbArc
 50
6.636536057728181
 51
79.43275668866746
  0
SPLINE
  5
1E3
330
1A5
100
AcDbEntity
  8
$DDT_AUDIT_GENERATED_(189)
  6
Continuous
 62
     7
100
AcDbSpline
210
0.0
220
0.0
230
1.0
 70
     8
 71
     3
 72
    24
 73
    20
 74
     0
 42
0.0000000030106563
 43
0.0000000001
 40
0.0
 40
0.0
 40
0.0
 40
0.0
 40
0.0015623724811463
 40
0.0165835743702366
 40
0.0280752979749141
 40
0.0355255825864589
 40
0.0381432071009387
 40
0.0401005611184276
 40
0.0425453594059478
 40
0.0468492111455825
 40
0.0573331598423932
 40
0.0959852163806088
 40
0.2111054080897681
 40
0.3676229107783114
 40
0.5254531537504109
 40
0.6751798893625717
 40
0.8218735450588173
 40
0.9660986754362797
 40
1.0
 40
1.0
 40
1.0
 40
1.0
 10
566.1357952019199
 20
847.4945532671355
 30
0.0
 10
566.1329632391726
 20
847.4961123363522
 30
0.0
 10
566.1071117766204
 20
847.510371844417
 30
0.0
 10
566.0666665629414
 20
847.5486657308236
 30
0.0
 10
566.0246971320053
 20
847.5951203654243
 30
0.0
 10
566.0008993494797
 20
847.6292519244454
 30
0.0
 10
565.9908689226361
 20
847.6452915775798
 30
0.0
 10
565.9871288863968
 20
847.6515135398019
 30
0.0
 10
565.9844236027086
 20
847.6561278467075
 30
0.0
 10
565.9820260727084
 20
847.6603212990752
 30
0.0
 10
565.9806626611133
 20
847.6627855142774
 30
0.0
 10
565.9875934418034
 20
847.6502693704459
 30
0.0
 10
566.0294668885102
 20
847.5733403971052
 30
0.0
 10
566.1492754592112
 20
847.347591407931
 30
0.0
 10
566.3447274789962
 20
846.9408173238786
 30
0.0
 10
566.5789384338783
 20
846.3865091824656
 30
0.0
 10
566.8092898128332
 20
845.7257884463906
 30
0.0
 10
566.9802850388061
 20
845.1559793993482
 30
0.0
 10
567.0440900233977
 20
844.8477997394061
 30
0.0
 10
567.0581952662923
 20
844.7794154081494
 30
0.0
  0
SPLINE
  5
1E4
330
1A5
100
AcDbEntity
  8
$DDT_AUDIT_GENERATED_(189)
  6
Continuous
 62
     7
100
AcDbSpline
210
0.0
220
0.0
230
1.0
 70
     8
 71
     3
 72
    16
 73
    12
 74
     0
 42
0.0000000426770409
 43
0.0000000001
 40
0.0
 40
0.0
 40
0.0
 40
0.0
 40
0.0442823202555147
 40
0.0757374415130085
 40
0.0905914521486497
 40
0.1015528823591715
 40
0.1166243118494662
 40
0.1455492482517252
 40
0.2287028840619961
 40
0.6642848759811023
 40
1.0
 40
1.0
 40
1.0
 40
1.0
 10
565.9367200432744
 20
847.7700797206594
 30
0.0
 10
565.9413944508291
 20
847.7540128105591
 30
0.0
 10
565.9480599088722
 20
847.7311783705866
 30
0.0
 10
565.9607865086849
 20
847.7018705834321
 30
0.0
 10
565.9675916614865
 20
847.6876240179379
 30
0.0
 10
565.9707999455457
 20
847.6812025394671
 30
0.0
 10
565.9734103279547
 20
847.6761095687944
 30
0.0
 10
565.976341388101
 20
847.6705443710622
 30
0.0
 10
565.981823225092
 20
847.660328212404
 30
0.0
 10
565.9916151784763
 20
847.6432648704266
 30
0.0
 10
566.0212035610684
 20
847.5874564495535
 30
0.0
 10
566.0364188443967
 20
847.5588150018085
 30
0.0
  0
LINE
  5
1E5
330
1A5
100
AcDbEntity
  8
$DDT_AUDIT_GENERATED_(189)
  6
Continuous
 62
     7
100
AcDbLine
 10
567.4236851588629
 20
843.0163645174411
 30
0.0
 11
569.9242189172666
 21
828.8351328740656
 31
0.0
  0
ARC
  5
1E6
330
1A5
100
AcDbEntity
  8
$DDT_AUDIT_GENERATED_(189)
  6
Continuous
 62
     7
100
AcDbCircle
 10
559.2438444832724
 20
825.5631940486951
 30
0.0
 40
11.04369303023877
100
AcDbArc
 50
351.1178845754259
 51
7.592574792539044
  0
SPLINE
  5
1E7
330
1A5
100
AcDbEntity
  8
$DDT_AUDIT_GENERATED_(189)
  6
Continuous
 62
     7
100
AcDbSpline
210
0.0
220
0.0
230
1.0
 70
     8
 71
     3
 72
     8
 73
     4
 74
     0
 42
0.0000000139934828
 43
0.0000000001
 40
0.8191614607070535
 40
0.8191614607070535
 40
0.8191614607070535
 40
0.8191614607070535
 40
0.9013594127749112
 40
0.9013594127749112
 40
0.9013594127749112
 40
0.9013594127749112
 10
570.1677250789215
 20
824.0438578881207
 30
0.0
 10
570.1636089947732
 20
824.0159198948083
 30
0.0
 10
570.1605859322953
 20
823.9962293660939
 30
0.0
 10
570.1590069016254
 20
823.9857685183263
 30
0.0
  0
LINE
  5
1E9
330
1A5
100
AcDbEntity
  8
DV2_Standard
  6
Continuous
 62
     7
100
AcDbLine
 10
344.4622121077324
 20
600.4356013310824
 30
0.0
 11
397.6561006576162
 21
600.4356013310824
 31
0.0
  0
ENDBLK
  5
1EB
330
1A5
100
AcDbEntity
  8
0
100
AcDbBlockEnd
  0
BLOCK
  5
240
330
1EC
100
AcDbEntity
  8
0
100
AcDbBlockBegin
  2
SE2
 70
     0
 10
0.0
 20
0.0
 30
0.0
  3
SE2
  1

  0
ARC
  5
1EE
330
1EC
100
AcDbEntity
  8
$DDT_AUDIT_GENERATED_(77)
  6
Continuous
 62
     7
100
AcDbCircle
 10
175.2858267989415
 20
334.1238320749989
 30
0.0
 40
26.8
100
AcDbArc
 50
297.5606031052631
 51
0.0
  0
ARC
  5
1EF
330
1EC
100
AcDbEntity
  8
$DDT_AUDIT_GENERATED_(77)
  6
Continuous
 62
     7
100
AcDbCircle
 10
175.2858267989415
 20
334.1238320749989
 30
0.0
 40
26.8
100
AcDbArc
 50
0.0
 51
242.4393968947367
  0
ARC
  5
1F0
330
1EC
100
AcDbEntity
  8
$DDT_AUDIT_GENERATED_(77)
  6
Continuous
 62
     7
100
AcDbCircle
 10
175.2858267989415
 20
334.1238320749989
 30
0.0
 40
25.8
100
AcDbArc
 50
0.0
 51
241.2740868490343
  0
ARC
  5
1F1
330
1EC
100
AcDbEntity
  8
$DDT_AUDIT_GENERATED_(77)
  6
Continuous
 62
     7
100
AcDbCircle
 10
175.2858267989415
 20
334.1238320749989
 30
0.0
 40
25.8
100
AcDbArc
 50
298.7259131509656
 51
0.0
  0
LINE
  5
1F2
330
1EC
100
AcDbEntity
  8
$DDT_AUDIT_GENERATED_(77)
  6
Continuous
 62
     7
100
AcDbLine
 10
228.9395068487342
 20
357.8738320749987
 30
0.0
 11
228.9395068487342
 21
310.3738320749991
 31
0.0
  0
LINE
  5
1F3
330
1EC
100
AcDbEntity
  8
$DDT_AUDIT_GENERATED_(77)
  6
Continuous
 62
     7
100
AcDbLine
 10
233.1599465285184
 20
356.9395905519286
 30
0.0
 11
233.1599465285184
 21
311.3080735980692
 31
0.0
  0
LINE
  5
1F4
330
1EC
100
AcDbEntity
  8
$DDT_AUDIT_GENERATED_(77)
  6
Continuous
 62
     7
100
AcDbLine
 10
233.2858267989415
 20
356.7538319298207
 30
0.0
 11
233.2858267989415
 21
311.4938322201772
 31
0.0
  0
ARC
  5
1F5
330
1EC
100
AcDbEntity
  8
$DDT_AUDIT_GENERATED_(77)
  6
Continuous
 62
     7
100
AcDbCircle
 10
175.2858267989415
 20
334.1238320749989
 30
0.0
 40
12.75
100
AcDbArc
 50
346.5440277691659
 51
0.0
  0
ARC
  5
1F6
330
1EC
100
AcDbEntity
  8
$DDT_AUDIT_GENERATED_(77)
  6
Continuous
 62
     7
100
AcDbCircle
 10
175.2858267989415
 20
334.1238320749989
 30
0.0
 40
12.75
100
AcDbArc
 50
0.0
 51
193.4559722308341
  0
LINE
  5
1F7
330
1EC
100
AcDbEntity
  8
$DDT_AUDIT_GENERATED_(77)
  6
Continuous
 62
     7
100
AcDbLine
 10
190.5154964283276
 20
310.3738320749989
 30
0.0
 11
228.9395068487342
 21
310.3738320749989
 31
0.0
  0
LINE
  5
1F8
330
1EC
100
AcDbEntity
  8
$DDT_AUDIT_GENERATED_(77)
  6
Continuous
 62
     7
100
AcDbLine
 10
228.9395068487342
 20
357.8738320749989
 30
0.0
 11
190.5179758358072
 21
357.8738320749989
 31
0.0
  0
ARC
  5
1F9
330
1EC
100
AcDbEntity
  8
$DDT_AUDIT_GENERATED_(77)
  6
Continuous
 62
     7
100
AcDbCircle
 10
190.3689284256438
 20
369.9056538360316
 30
0.0
 40
12.03265789232139
100
AcDbArc
 50
247.9628962101417
 51
270.6783391757426
  0
ARC
  5
1FA
330
1EC
100
AcDbEntity
  8
$DDT_AUDIT_GENERATED_(77)
  6
Continuous
 62
     7
100
AcDbCircle
 10
190.3593912835513
 20
298.3878006900662
 30
0.0
 40
11.986994644529
100
AcDbArc
 50
89.2734547638461
 51
102.9364525018047
  0
ARC
  5
1FB
330
1EC
100
AcDbEntity
  8
$DDT_AUDIT_GENERATED_(77)
  6
Continuous
 62
     7
100
AcDbCircle
 10
228.9396636452428
 20
320.373900222549
 30
0.0
 40
10.0
100
AcDbArc
 50
269.9991016221813
 51
294.9627081874536
  0
ARC
  5
1FC
330
1EC
100
AcDbEntity
  8
$DDT_AUDIT_GENERATED_(77)
  6
Continuous
 62
     7
100
AcDbCircle
 10
228.9396636452428
 20
347.8737639274488
 30
0.0
 40
10.0
100
AcDbArc
 50
65.03729181254634
 51
90.00089837781876
  0
ARC
  5
1FD
330
1EC
100
AcDbEntity
  8
$DDT_AUDIT_GENERATED_(77)
  6
Continuous
 62
     7
100
AcDbCircle
 10
233.0858267989415
 20
311.4938322201769
 30
0.0
 40
0.1999999999999978
100
AcDbArc
 50
291.7525421803929
 51
0.0
  0
ARC
  5
1FE
330
1EC
100
AcDbEntity
  8
$DDT_AUDIT_GENERATED_(77)
  6
Continuous
 62
     7
100
AcDbCircle
 10
233.0858267989415
 20
356.7538319298209
 30
0.0
 40
0.1999999999999988
100
AcDbArc
 50
0.0
 51
68.24745781960711
  0
ARC
  5
1FF
330
1EC
100
AcDbEntity
  8
$DDT_AUDIT_GENERATED_(8E)
  6
Continuous
 62
     7
100
AcDbCircle
 10
175.2858267989415
 20
334.1238320749989
 30
0.0
 40
12.4
100
AcDbArc
 50
0.0
 51
180.0
  0
ELLIPSE
  5
200
330
1EC
100
AcDbEntity
  8
$DDT_AUDIT_GENERATED_(8E)
  6
Continuous
 62
     7
100
AcDbEllipse
 10
175.2858267989415
 20
125.9673439850599
 30
0.0
 11
-12.40000000000003
 21
-0.0000000000012768
 31
0.0
210
0.0
220
0.0
230
1.0
 40
0.9848077530122031
 41
2.610215455206578
 42
3.141592653589793
  0
ELLIPSE
  5
201
330
1EC
100
AcDbEntity
  8
$DDT_AUDIT_GENERATED_(8E)
  6
Continuous
 62
     7
100
AcDbEllipse
 10
175.2858267989415
 20
125.9673439850599
 30
0.0
 11
-12.40000000000003
 21
-0.0000000000012768
 31
0.0
210
0.0
220
0.0
230
1.0
 40
0.9848077530122031
 41
0.0000000000000002
 42
0.5313713877741089
  0
LINE
  5
202
330
1EC
100
AcDbEntity
  8
$DDT_AUDIT_GENERATED_(8E)
  6
Continuous
 62
     7
100
AcDbLine
 10
162.8858267989415
 20
334.1238320749989
 30
0.0
 11
162.8858267989414
 21
127.7038257617293
 31
0.0
  0
LINE
  5
203
330
1EC
100
AcDbEntity
  8
$DDT_AUDIT_GENERATED_(8E)
  6
Continuous
 62
     7
100
AcDbLine
 10
187.6858267989414
 20
127.7038257617292
 30
0.0
 11
187.6858267989415
 21
334.1238320749989
 31
0.0
  0
LINE
  5
204
330
1EC
100
AcDbEntity
  8
$DDT_AUDIT_GENERATED_(8E)
  6
Continuous
 62
     7
100
AcDbLine
 10
187.6858267989414
 20
125.9673439850599
 30
0.0
 11
187.6858267989414
 21
127.7038257617292
 31
0.0
  0
LINE
  5
205
330
1EC
100
AcDbEntity
  8
$DDT_AUDIT_GENERATED_(8E)
  6
Continuous
 62
     7
100
AcDbLine
 10
162.8858267989414
 20
127.7038257617292
 30
0.0
 11
162.8858267989414
 21
125.9673439850599
 31
0.0
  0
ARC
  5
206
330
1EC
100
AcDbEntity
  8
$DDT_AUDIT_GENERATED_(96)
  6
Continuous
 62
     7
100
AcDbCircle
 10
258.8641047923352
 20
329.8387402325448
 30
0.0
 40
4.899048777072636
100
AcDbArc
 50
59.38695040992326
 51
90.02505229175168
  0
ARC
  5
207
330
1EC
100
AcDbEntity
  8
$DDT_AUDIT_GENERATED_(96)
  6
Continuous
 62
     7
100
AcDbCircle
 10
258.8782309599748
 20
329.8261317310423
 30
0.0
 40
4.911683751817752
100
AcDbArc
 50
90.18977278121992
 51
120.8805753030037
  0
ARC
  5
208
330
1EC
100
AcDbEntity
  8
$DDT_AUDIT_GENERATED_(96)
  6
Continuous
 62
     7
100
AcDbCircle
 10
258.9674986513493
 20
329.6534913769581
 30
0.0
 40
5.105681190135504
100
AcDbArc
 50
120.7459710001235
 51
179.5841915221931
  0
ARC
  5
209
330
1EC
100
AcDbEntity
  8
$DDT_AUDIT_GENERATED_(96)
  6
Continuous
 62
     7
100
AcDbCircle
 10
258.7693919824541
 20
329.6697529275312
 30
0.0
 40
5.092716991555712
100
AcDbArc
 50
0.4301119290143954
 51
5.318434530522901
  0
ARC
  5
20A
330
1EC
100
AcDbEntity
  8
$DDT_AUDIT_GENERATED_(96)
  6
Continuous
 62
     7
100
AcDbCircle
 10
258.7693919824541
 20
329.6697529275312
 30
0.0
 40
5.092716991555712
100
AcDbArc
 50
5.318434530522901
 51
59.43805427690765
  0
ELLIPSE
  5
20B
330
1EC
100
AcDbEntity
  8
$DDT_AUDIT_GENERATED_(96)
  6
Continuous
 62
     7
100
AcDbEllipse
 10
258.8619627079375
 20
319.5943599470843
 30
0.0
 11
-5.000000000000004
 21
-0.0000000000000659
 31
0.0
210
0.0
220
0.0
230
1.0
 40
0.9848077530127358
 41
5.493574788824132
 42
6.283185307179586
  0
ELLIPSE
  5
20C
330
1EC
100
AcDbEntity
  8
$DDT_AUDIT_GENERATED_(96)
  6
Continuous
 62
     7
100
AcDbEllipse
 10
258.8619627079375
 20
319.5943599470843
 30
0.0
 11
-5.000000000000004
 21
-0.0000000000000659
 31
0.0
210
0.0
220
0.0
230
1.0
 40
0.9848077530127358
 41
3.892257559655172
 42
5.493574788824132
  0
ELLIPSE
  5
20D
330
1EC
100
AcDbEntity
  8
$DDT_AUDIT_GENERATED_(96)
  6
Continuous
 62
     7
100
AcDbEllipse
 10
258.8619627079375
 20
319.5943599470843
 30
0.0
 11
-5.000000000000004
 21
-0.0000000000000659
 31
0.0
210
0.0
220
0.0
230
1.0
 40
0.9848077530127358
 41
2.371507731057409
 42
3.892257559655172
  0
ELLIPSE
  5
20E
330
1EC
100
AcDbEntity
  8
$DDT_AUDIT_GENERATED_(96)
  6
Continuous
 62
     7
100
AcDbEllipse
 10
258.8619627079375
 20
319.5943599470843
 30
0.0
 11
-5.000000000000004
 21
-0.0000000000000659
 31
0.0
210
0.0
220
0.0
230
1.0
 40
0.9848077530127358
 41
0.0
 42
0.7704411212965213
  0
ELLIPSE
  5
20F
330
1EC
100
AcDbEntity
  8
$DDT_AUDIT_GENERATED_(96)
  6
Continuous
 62
     7
100
AcDbEllipse
 10
258.8619627079377
 20
319.4207117694203
 30
0.0
 11
3.999999999999989
 21
0.0000000000004025
 31
0.0
210
0.0
220
0.0
230
1.0
 40
0.9848077530127349
 41
0.0
 42
6.283185307179586
  0
ARC
  5
210
330
1EC
100
AcDbEntity
  8
$DDT_AUDIT_GENERATED_(96)
  6
Continuous
 62
     7
100
AcDbCircle
 10
258.8625729326526
 20
329.631581063476
 30
0.0
 40
5.849740347406272
100
AcDbArc
 50
60.4059104276903
 51
90.07365027354508
  0
ARC
  5
211
330
1EC
100
AcDbEntity
  8
$DDT_AUDIT_GENERATED_(96)
  6
Continuous
 62
     7
100
AcDbCircle
 10
259.0066824185062
 20
329.7810922378342
 30
0.0
 40
5.648799264326136
100
AcDbArc
 50
0.6701606286093352
 51
60.92801234166765
  0
SPLINE
  5
212
330
1EC
100
AcDbEntity
  8
$DDT_AUDIT_GENERATED_(96)
  6
Continuous
 62
     7
100
AcDbSpline
210
0.0
220
0.0
230
1.0
 70
     8
 71
     3
 72
     8
 73
     4
 74
     0
 42
0.000000042363649
 43
0.0000000001
 40
0.8832282640695748
 40
0.8832282640695748
 40
0.8832282640695748
 40
0.8832282640695748
 40
1.0
 40
1.0
 40
1.0
 40
1.0
 10
263.873567394966
 20
329.7314775119794
 30
0.0
 10
263.8656776970653
 20
329.7234908951939
 30
0.0
 10
263.861964574282
 20
329.7155972626452
 30
0.0
 10
263.8619654795221
 20
329.7079829293715
 30
0.0
  0
ARC
  5
213
330
1EC
100
AcDbEntity
  8
$DDT_AUDIT_GENERATED_(96)
  6
Continuous
 62
     7
100
AcDbCircle
 10
259.3279590127271
 20
329.8763282346077
 30
0.0
 40
5.327216115707146
100
AcDbArc
 50
328.3824838465905
 51
359.6863066119716
  0
ARC
  5
214
330
1EC
100
AcDbEntity
  8
$DDT_AUDIT_GENERATED_(96)
  6
Continuous
 62
     7
100
AcDbCircle
 10
258.3700612299553
 20
329.8599649145528
 30
0.0
 40
5.315142370139632
100
AcDbArc
 50
180.3259816070606
 51
211.9026638855126
  0
ARC
  5
215
330
1EC
100
AcDbEntity
  8
$DDT_AUDIT_GENERATED_(96)
  6
Continuous
 62
     7
100
AcDbCircle
 10
258.7289126441107
 20
329.7574335271924
 30
0.0
 40
5.674368272616064
100
AcDbArc
 50
119.3269374698528
 51
179.2700335413518
  0
ARC
  5
216
330
1EC
100
AcDbEntity
  8
$DDT_AUDIT_GENERATED_(96)
  6
Continuous
 62
     7
100
AcDbCircle
 10
258.8661307163146
 20
329.6177134570404
 30
0.0
 40
5.863613584263065
100
AcDbArc
 50
90.10824062922271
 51
119.8272229949449
  0
SPLINE
  5
217
330
1EC
100
AcDbEntity
  8
$DDT_AUDIT_GENERATED_(96)
  6
Continuous
 62
     7
100
AcDbSpline
210
0.0
220
0.0
230
1.0
 70
     8
 71
     3
 72
    25
 73
    21
 74
     0
 42
0.000000001
 43
0.0000000001
 40
0.0
 40
0.0
 40
0.0
 40
0.0
 40
0.03125
 40
0.0625
 40
0.0625
 40
0.125
 40
0.125
 40
0.1875
 40
0.1875
 40
0.25
 40
0.25
 40
0.3125
 40
0.3125
 40
0.375
 40
0.375
 40
0.4375
 40
0.4375
 40
0.5000000000000001
 40
0.5000000000000001
 40
0.5560908058005795
 40
0.5560908058005795
 40
0.5560908058005795
 40
0.5560908058005795
 10
270.1587176507221
 20
329.8554349572307
 30
0.0
 10
270.1586907956782
 20
330.6593580430253
 30
0.0
 10
270.1377513651934
 20
332.2817446142274
 30
0.0
 10
270.075087848274
 20
333.9212147144288
 30
0.0
 10
269.9504731770738
 20
336.3705326898811
 30
0.0
 10
269.8264584759773
 20
337.9979792151332
 30
0.0
 10
269.5035102316609
 20
341.1666960567158
 30
0.0
 10
269.3019385423805
 20
342.7278627851805
 30
0.0
 10
268.8389168894274
 20
345.6680875253525
 30
0.0
 10
268.5677278031301
 20
347.1038852852466
 30
0.0
 10
267.9871831173207
 20
349.6993802964138
 30
0.0
 10
267.6638907558255
 20
350.9302202149749
 30
0.0
 10
266.983509487588
 20
353.1223539620861
 30
0.0
 10
266.6247870687389
 20
354.1001916060458
 30
0.0
 10
265.8687751551728
 20
355.8114344122105
 30
0.0
 10
265.4881557010597
 20
356.5125514998001
 30
0.0
 10
264.6953358556981
 20
357.6637581912501
 30
0.0
 10
264.2918635331657
 20
358.0922871855421
 30
0.0
 10
263.5342477233328
 20
358.6142572081324
 30
0.0
 10
263.173476720844
 20
358.7402810304543
 30
0.0
 10
262.8205095664029
 20
358.7424499305274
 30
0.0
  0
SPLINE
  5
218
330
1EC
100
AcDbEntity
  8
$DDT_AUDIT_GENERATED_(96)
  6
Continuous
 62
     7
100
AcDbSpline
210
0.0
220
0.0
230
1.0
 70
     8
 71
     3
 72
    23
 73
    19
 74
     0
 42
0.000000001
 43
0.0000000001
 40
0.5569921664283577
 40
0.5569921664283577
 40
0.5569921664283577
 40
0.5569921664283577
 40
0.5624999999999984
 40
0.5624999999999984
 40
0.6249999999999967
 40
0.6249999999999967
 40
0.6874999999999951
 40
0.6874999999999951
 40
0.7499999999999937
 40
0.7499999999999937
 40
0.8125000000000046
 40
0.8125000000000046
 40
0.8750000000000031
 40
0.8750000000000031
 40
0.9375000000000014
 40
0.9375000000000014
 40
0.9687500080210998
 40
1.0
 40
1.0
 40
1.0
 40
1.0
 10
264.983925154186
 20
309.5161889758224
 30
0.0
 10
265.0187658593779
 20
309.5164442534095
 30
0.0
 10
265.0535423811854
 20
309.5178946209861
 30
0.0
 10
265.4820509315522
 20
309.550583336227
 30
0.0
 10
265.8728985201741
 20
309.7364153737719
 30
0.0
 10
266.6188328340695
 20
310.4055683570142
 30
0.0
 10
266.9844492726515
 20
310.9004039130767
 30
0.0
 10
267.6632939862588
 20
312.1655225792856
 30
0.0
 10
267.9823880367229
 20
312.9402273657142
 30
0.0
 10
268.5741541215008
 20
314.7870507310672
 30
0.0
 10
268.8328817246788
 20
315.8052097548323
 30
0.0
 10
269.3053148122822
 20
318.1588386064623
 30
0.0
 10
269.5008943049041
 20
319.4159584960814
 30
0.0
 10
269.8259212798749
 20
322.152768645316
 30
0.0
 10
269.949945906368
 20
323.6168161732886
 30
0.0
 10
270.0749674424531
 20
325.8979420897263
 30
0.0
 10
270.1379124800316
 20
327.4582056904771
 30
0.0
 10
270.1587445024066
 20
329.0515118714292
 30
0.0
 10
270.1587176507221
 20
329.8554349572307
 30
0.0
  0
SPLINE
  5
219
330
1EC
100
AcDbEntity
  8
$DDT_AUDIT_GENERATED_(96)
  6
Continuous
 62
     7
100
AcDbSpline
210
0.0
220
0.0
230
1.0
 70
     8
 71
     3
 72
     8
 73
     4
 74
     0
 42
0.000000001
 43
0.0000000001
 40
0.5068070200125601
 40
0.5068070200125601
 40
0.5068070200125601
 40
0.5068070200125601
 40
0.5155323378113036
 40
0.5155323378113036
 40
0.5155323378113036
 40
0.5155323378113036
 10
264.2232348683934
 20
358.1981104697811
 30
0.0
 10
264.2796114034104
 20
358.1548110656
 30
0.0
 10
264.335989725297
 20
358.1085458468022
 30
0.0
 10
264.3923490489791
 20
358.0593426500298
 30
0.0
  0
SPLINE
  5
21A
330
1EC
100
AcDbEntity
  8
$DDT_AUDIT_GENERATED_(96)
  6
Continuous
 62
     7
100
AcDbSpline
210
0.0
220
0.0
230
1.0
 70
     8
 71
     3
 72
     9
 73
     5
 74
     0
 42
0.000000001
 43
0.0000000001
 40
0.3713485361073658
 40
0.3713485361073658
 40
0.3713485361073658
 40
0.3713485361073658
 40
0.3738974821885005
 40
0.3740253416615655
 40
0.3740253416615655
 40
0.3740253416615655
 40
0.3740253416615655
 10
266.5294845745734
 20
310.2213719874823
 30
0.0
 10
266.5141845993063
 20
310.2068639731489
 30
0.0
 10
266.4980913753918
 20
310.191894873346
 30
0.0
 10
266.4819715732418
 20
310.177206558413
 30
0.0
 10
266.4812015391421
 20
310.1765056014941
 30
0.0
  0
SPLINE
  5
21B
330
1EC
100
AcDbEntity
  8
$DDT_AUDIT_GENERATED_(96)
  6
Continuous
 62
     7
100
AcDbSpline
210
0.0
220
0.0
230
1.0
 70
     8
 71
     3
 72
    13
 73
     9
 74
     0
 42
0.000000001
 43
0.0000000001
 40
0.1852729721130372
 40
0.1852729721130372
 40
0.1852729721130372
 40
0.1852729721130372
 40
0.1997592624097132
 40
0.2249248455437974
 40
0.250689079789669
 40
0.3025730048574783
 40
0.3757884894448105
 40
0.4855131786050551
 40
0.4855131786050551
 40
0.4855131786050551
 40
0.4855131786050551
 10
270.509599362379
 20
343.442289815581
 30
0.0
 10
270.4600932341699
 20
343.7655513287946
 30
0.0
 10
270.320040301308
 20
344.640901813002
 30
0.0
 10
270.0691895717309
 20
346.0381321709272
 30
0.0
 10
269.6380451273028
 20
348.1260039268864
 30
0.0
 10
268.9283442378501
 20
350.9222672185895
 30
0.0
 10
267.6694957987101
 20
354.4730245347299
 30
0.0
 10
266.5696324240393
 20
356.1689114091756
 30
0.0
 10
265.9046689117115
 20
356.7472909719703
 30
0.0
  0
SPLINE
  5
21C
330
1EC
100
AcDbEntity
  8
$DDT_AUDIT_GENERATED_(96)
  6
Continuous
 62
     7
100
AcDbSpline
210
0.0
220
0.0
230
1.0
 70
    12
 71
     3
 72
    34
 73
    30
 74
     0
 42
0.000000001
 43
0.0000000001
 40
0.1902356395573562
 40
0.1902356395573562
 40
0.1902356395573562
 40
0.1902356395573562
 40
0.2031249999999999
 40
0.2031249999999999
 40
0.2187499999999995
 40
0.2187499999999995
 40
0.2343750000000004
 40
0.2343750000000004
 40
0.25
 40
0.25
 40
0.2656249999999996
 40
0.2656249999999996
 40
0.2734375
 40
0.2734375
 40
0.2773437499999989
 40
0.2773437499999989
 40
0.2812500000000005
 40
0.2812500000000005
 40
0.2968750000000001
 40
0.2968750000000001
 40
0.3124999999999996
 40
0.3124999999999996
 40
0.3281250000000005
 40
0.3281250000000005
 40
0.3437500000000001
 40
0.3437500000000001
 40
0.3593749999999997
 40
0.3593749999999997
 40
0.3710539696010739
 40
0.3710539696010739
 40
0.3710539696010739
 40
0.3710539696010739
 10
270.4462823106174
 20
317.7928102271383
 30
0.0
 41
1.0
 10
270.4007978189791
 20
317.5692012942355
 30
0.0
 41
1.0
 10
270.354109517414
 20
317.3507760499974
 30
0.0
 41
1.0
 10
270.248203730638
 20
316.8788257021055
 30
0.0
 41
1.0
 10
270.1884300881228
 20
316.627690493619
 30
0.0
 41
1.0
 10
270.0654397679388
 20
316.1401983501526
 30
0.0
 41
1.0
 10
270.0022230610991
 20
315.9038415283043
 30
0.0
 41
1.0
 10
269.872354715937
 20
315.4458757530501
 30
0.0
 41
1.0
 10
269.8057026912677
 20
315.2242657904541
 30
0.0
 41
1.0
 10
269.668943985357
 20
314.7959160254854
 30
0.0
 41
1.0
 10
269.5988404591196
 20
314.5891808089584
 30
0.0
 41
1.0
 10
269.4910740276226
 20
314.2903121488219
 30
0.0
 41
1.0
 10
269.4547164625918
 20
314.1925627364389
 30
0.0
 41
1.0
 10
269.3995217341941
 20
314.048768514648
 30
0.0
 41
1.0
 10
269.3810024854433
 20
314.0012810052904
 30
0.0
 41
1.0
 10
269.343832530923
 20
313.9074760910158
 30
0.0
 41
1.0
 10
269.3251751600576
 20
313.8611403674728
 30
0.0
 41
1.0
 10
269.2315287290562
 20
313.6322755752354
 30
0.0
 41
1.0
 10
269.1554617058251
 20
313.4581805700967
 30
0.0
 41
1.0
 10
269.0010765333363
 20
313.1275974854842
 30
0.0
 41
1.0
 10
268.9227574230476
 20
312.9711105575696
 30
0.0
 41
1.0
 10
268.7639023976971
 20
312.6755364445035
 30
0.0
 41
1.0
 10
268.6833677410462
 20
312.5364419741986
 30
0.0
 41
1.0
 10
268.5201005117328
 20
312.275445700036
 30
0.0
 41
1.0
 10
268.4373679204042
 20
312.1535439796708
 30
0.0
 41
1.0
 10
268.2697045498519
 20
311.9269018860943
 30
0.0
 41
1.0
 10
268.1847737775739
 20
311.8221613817711
 30
0.0
 41
1.0
 10
268.0344259918205
 20
311.6542400625511
 30
0.0
 41
1.0
 10
267.9694970533065
 20
311.5872457666041
 30
0.0
 41
1.0
 10
267.9039436069642
 20
311.5251407777574
 30
0.0
 41
1.0
  0
SPLINE
  5
21D
330
1EC
100
AcDbEntity
  8
$DDT_AUDIT_GENERATED_(96)
  6
Continuous
 62
     7
100
AcDbSpline
210
0.0
220
0.0
230
1.0
 70
     8
 71
     3
 72
    16
 73
    12
 74
     0
 42
0.000000001
 43
0.0000000001
 40
0.5831689182655443
 40
0.5831689182655443
 40
0.5831689182655443
 40
0.5831689182655443
 40
0.6249279281876838
 40
0.6874267009302147
 40
0.7499276914608402
 40
0.8124306644527747
 40
0.8749149461383451
 40
0.9062229029801171
 40
0.9374641018568983
 40
0.9687488110766858
 40
1.0
 40
1.0
 40
1.0
 40
1.0
 10
267.2089925433215
 20
355.015747344773
 30
0.0
 10
267.4525449419955
 20
354.60062578964
 30
0.0
 10
268.0508148693286
 20
353.4179893339398
 30
0.0
 10
268.9494112316207
 20
350.9722767876237
 30
0.0
 10
269.8432408755176
 20
347.566560095261
 30
0.0
 10
270.5843429888354
 20
343.6203740898839
 30
0.0
 10
271.0479764029815
 20
339.9981873863849
 30
0.0
 10
271.3133623359255
 20
336.9947059497105
 30
0.0
 10
271.4563794914434
 20
334.7078512613462
 30
0.0
 10
271.5469487172732
 20
332.4110494421152
 30
0.0
 10
271.5581344777595
 20
330.89696350436
 30
0.0
 10
271.563724360411
 20
330.1403263229452
 30
0.0
  0
SPLINE
  5
21E
330
1EC
100
AcDbEntity
  8
$DDT_AUDIT_GENERATED_(96)
  6
Continuous
 62
     7
100
AcDbSpline
210
0.0
220
0.0
230
1.0
 70
     8
 71
     3
 72
    15
 73
    11
 74
     0
 42
0.000000001
 43
0.0000000001
 40
0.0
 40
0.0
 40
0.0
 40
0.0
 40
0.020864564706775
 40
0.0416822855968783
 40
0.0625520116306627
 40
0.0937998455872428
 40
0.1250976704030147
 40
0.1875821413627235
 40
0.2500837318398994
 40
0.2933403393059218
 40
0.2933403393059218
 40
0.2933403393059218
 40
0.2933403393059218
 10
271.563724360411
 20
330.1403263229452
 30
0.0
 10
271.561239065256
 20
329.6395250355772
 30
0.0
 10
271.5562740553476
 20
328.6390468279111
 30
0.0
 10
271.5159804424025
 20
327.1671885854956
 30
0.0
 10
271.4412285734736
 20
325.4869234490333
 30
0.0
 10
271.3131255977202
 20
323.6282831575576
 30
0.0
 10
271.0480886335209
 20
320.9882077185569
 30
0.0
 10
270.5843368920203
 20
318.001153849941
 30
0.0
 10
269.9193540348523
 20
315.3711548381106
 30
0.0
 10
269.4284678282028
 20
314.0758253104408
 30
0.0
 10
269.2174948461587
 20
313.609509679403
 30
0.0
  0
LINE
  5
21F
330
1EC
100
AcDbEntity
  8
$DDT_AUDIT_GENERATED_(96)
  6
Continuous
 62
     7
100
AcDbLine
 10
233.5295990912003
 20
329.8354022665472
 30
0.0
 11
233.5295990912003
 21
358.7644231836332
 31
0.0
  0
LINE
  5
220
330
1EC
100
AcDbEntity
  8
$DDT_AUDIT_GENERATED_(96)
  6
Continuous
 62
     7
100
AcDbLine
 10
233.5295990912003
 20
329.8354022665472
 30
0.0
 11
233.5295990912003
 21
309.4696167534075
 31
0.0
  0
LINE
  5
221
330
1EC
100
AcDbEntity
  8
$DDT_AUDIT_GENERATED_(96)
  6
Continuous
 62
     7
100
AcDbLine
 10
253.8619627079368
 20
329.6888203031467
 30
0.0
 11
253.8619627079376
 21
319.5943599470839
 31
0.0
  0
LINE
  5
222
330
1EC
100
AcDbEntity
  8
$DDT_AUDIT_GENERATED_(96)
  6
Continuous
 62
     7
100
AcDbLine
 10
263.8619627079375
 20
319.5943599470847
 30
0.0
 11
263.8619627079368
 21
329.7062659328609
 31
0.0
  0
ARC
  5
223
330
1EC
100
AcDbEntity
  8
$DDT_AUDIT_GENERATED_(96)
  6
Continuous
 62
     7
100
AcDbCircle
 10
258.8441445014487
 20
319.6095898634091
 30
0.0
 40
4.954492968940884
100
AcDbArc
 50
224.1519479552828
 51
270.2060574588449
  0
ARC
  5
224
330
1EC
100
AcDbEntity
  8
$DDT_AUDIT_GENERATED_(96)
  6
Continuous
 62
     7
100
AcDbCircle
 10
258.884998582962
 20
319.6019532260241
 30
0.0
 40
4.946877926275823
100
AcDbArc
 50
269.7331926912184
 51
315.8915608899138
  0
ARC
  5
225
330
1EC
100
AcDbEntity
  8
$DDT_AUDIT_GENERATED_(96)
  6
Continuous
 62
     7
100
AcDbCircle
 10
259.4893596640736
 20
1828.844857580218
 30
0.0
 40
1470.106209590043
100
AcDbArc
 50
268.9960559983091
 51
270.1299436476598
  0
ARC
  5
226
330
1EC
100
AcDbEntity
  8
$DDT_AUDIT_GENERATED_(96)
  6
Continuous
 62
     7
100
AcDbCircle
 10
299.0675154492607
 20
-5927.427993388381
 30
0.0
 40
6237.037312172518
100
AcDbArc
 50
90.31310316114762
 51
90.60021322342191
  0
LINE
  5
227
330
1EC
100
AcDbEntity
  8
$DDT_AUDIT_GENERATED_(96)
  6
Continuous
 62
     7
100
AcDbLine
 10
263.1661578861476
 20
358.6670210414782
 30
0.0
 11
262.8315667076977
 21
358.7420810404005
 31
0.0
  0
ARC
  5
228
330
1EC
100
AcDbEntity
  8
$DDT_AUDIT_GENERATED_(96)
  6
Continuous
 62
     7
100
AcDbCircle
 10
263.012958616579
 20
356.9862934918938
 30
0.0
 40
1.687695207117735
100
AcDbArc
 50
45.20357937144341
 51
84.79184922139905
  0
LINE
  5
229
330
1EC
100
AcDbEntity
  8
$DDT_AUDIT_GENERATED_(96)
  6
Continuous
 62
     7
100
AcDbLine
 10
264.3914989540506
 20
358.0608746469546
 30
0.0
 11
264.2020915807399
 21
358.1839069126912
 31
0.0
  0
LINE
  5
22A
330
1EC
100
AcDbEntity
  8
$DDT_AUDIT_GENERATED_(96)
  6
Continuous
 62
     7
100
AcDbLine
 10
266.4735183351167
 20
310.1829704087482
 30
0.0
 11
266.5299444261763
 21
310.2221678436274
 31
0.0
  0
SPLINE
  5
22B
330
1EC
100
AcDbEntity
  8
$DDT_AUDIT_GENERATED_(96)
  6
Continuous
 62
     7
100
AcDbSpline
210
0.0
220
0.0
230
1.0
 70
     8
 71
     3
 72
     8
 73
     4
 74
     0
 42
0.0000000095907971
 43
0.0000000001
 40
0.0
 40
0.0
 40
0.0
 40
0.0
 40
0.9235422773163218
 40
0.9235422773163218
 40
0.9235422773163218
 40
0.9235422773163218
 10
265.5620594185444
 20
309.6482608553365
 30
0.0
 10
265.6977654749467
 20
309.6257385529991
 30
0.0
 10
265.9672782382324
 20
309.7760398824256
 30
0.0
 10
266.3705977084017
 20
310.0991648436158
 30
0.0
  0
LINE
  5
22C
330
1EC
100
AcDbEntity
  8
$DDT_AUDIT_GENERATED_(96)
  6
Continuous
 62
     7
100
AcDbLine
 10
264.9914471583557
 20
309.5165096548615
 30
0.0
 11
265.5620594185444
 21
309.6482608553366
 31
0.0
  0
LINE
  5
22D
330
1EC
100
AcDbEntity
  8
$DDT_AUDIT_GENERATED_(96)
  6
Continuous
 62
     7
100
AcDbLine
 10
265.9268235278023
 20
356.7286910672316
 30
0.0
 11
264.4151682122443
 21
358.0403816155933
 31
0.0
  0
LINE
  5
22E
330
1EC
100
AcDbEntity
  8
$DDT_AUDIT_GENERATED_(96)
  6
Continuous
 62
     7
100
AcDbLine
 10
266.4910142285719
 20
310.1849179070277
 30
0.0
 11
267.9335916121548
 21
311.5529434904158
 31
0.0
  0
ARC
  5
22F
330
1EC
100
AcDbEntity
  8
$DDT_AUDIT_GENERATED_(96)
  6
Continuous
 62
     7
100
AcDbCircle
 10
233.7295990890051
 20
358.764319384593
 30
0.0
 40
0.1999999978110857
100
AcDbArc
 50
90.6370512693585
 51
180.0069196390073
  0
ARC
  5
230
330
1EC
100
AcDbEntity
  8
$DDT_AUDIT_GENERATED_(96)
  6
Continuous
 62
     7
100
AcDbCircle
 10
233.7295990925182
 20
309.4668070489426
 30
0.0
 40
0.1999999753466619
100
AcDbArc
 50
179.9983027271329
 51
271.5521147292177
  0
ARC
  5
231
330
1EC
100
AcDbEntity
  8
$DDT_AUDIT_GENERATED_(186)
  6
Continuous
 62
     7
100
AcDbCircle
 10
233.4858267989415
 20
311.691712246503
 30
0.0
 40
0.1999999999999988
100
AcDbArc
 50
180.0
 51
297.5453531820789
  0
ARC
  5
232
330
1EC
100
AcDbEntity
  8
$DDT_AUDIT_GENERATED_(186)
  6
Continuous
 62
     7
100
AcDbCircle
 10
233.4858267989415
 20
356.5559519034948
 30
0.0
 40
0.1999999999999982
100
AcDbArc
 50
62.45464681792072
 51
180.0
  0
ARC
  5
233
330
1EC
100
AcDbEntity
  8
$DDT_AUDIT_GENERATED_(189)
  6
Continuous
 62
     7
100
AcDbCircle
 10
175.4916152038901
 20
126.5704872887262
 30
0.0
 40
13.78885796213236
100
AcDbArc
 50
0.0000169737000595
 51
27.48188688457228
  0
ARC
  5
234
330
1EC
100
AcDbEntity
  8
$DDT_AUDIT_GENERATED_(189)
  6
Continuous
 62
     7
100
AcDbCircle
 10
175.4916152038901
 20
126.5704872887262
 30
0.0
 40
13.78885796213236
100
AcDbArc
 50
269.1448326594256
 51
0.0
  0
ARC
  5
235
330
1EC
100
AcDbEntity
  8
$DDT_AUDIT_GENERATED_(189)
  6
Continuous
 62
     7
100
AcDbCircle
 10
175.4916151808322
 20
120.1449206250276
 30
0.0
 40
13.78885798313664
100
AcDbArc
 50
269.144832747118
 51
288.8201500310183
  0
ARC
  5
236
330
1EC
100
AcDbEntity
  8
$DDT_AUDIT_GENERATED_(189)
  6
Continuous
 62
     7
100
AcDbCircle
 10
175.4916151808322
 20
120.1449206250276
 30
0.0
 40
13.78885798313664
100
AcDbArc
 50
288.8201500310183
 51
0.0
  0
ARC
  5
237
330
1EC
100
AcDbEntity
  8
$DDT_AUDIT_GENERATED_(189)
  6
Continuous
 62
     7
100
AcDbCircle
 10
175.0800380787666
 20
120.1449205811609
 30
0.0
 40
13.78885766496535
100
AcDbArc
 50
180.0000060178022
 51
251.2225210807844
  0
ARC
  5
238
330
1EC
100
AcDbEntity
  8
$DDT_AUDIT_GENERATED_(189)
  6
Continuous
 62
     7
100
AcDbCircle
 10
175.0800381183327
 20
126.5704873053761
 30
0.0
 40
13.78885770360403
100
AcDbArc
 50
180.0012355639045
 51
270.855090733299
  0
ARC
  5
239
330
1EC
100
AcDbEntity
  8
$DDT_AUDIT_GENERATED_(189)
  6
Continuous
 62
     7
100
AcDbCircle
 10
175.0800381183327
 20
126.5704873053761
 30
0.0
 40
13.78885770360403
100
AcDbArc
 50
152.5181106252175
 51
180.0012355639045
  0
ELLIPSE
  5
23A
330
1EC
100
AcDbEntity
  8
$DDT_AUDIT_GENERATED_(189)
  6
Continuous
 62
     7
100
AcDbEllipse
 10
175.2858286313754
 20
126.5884820302979
 30
0.0
 11
12.73121473751266
 21
0.0000000000010825
 31
0.0
210
0.0
220
0.0
230
0.9999999999999998
 40
0.9848077530122118
 41
0.0
 42
0.2286031346354965
  0
ELLIPSE
  5
23B
330
1EC
100
AcDbEntity
  8
$DDT_AUDIT_GENERATED_(189)
  6
Continuous
 62
     7
100
AcDbEllipse
 10
175.2858286313754
 20
126.5884820302979
 30
0.0
 11
12.73121473751266
 21
0.0000000000010825
 31
0.0
210
0.0
220
0.0
230
0.9999999999999998
 40
0.9848077530122118
 41
2.912990789226198
 42
6.283185307179586
  0
LINE
  5
23C
330
1EC
100
AcDbEntity
  8
$DDT_AUDIT_GENERATED_(189)
  6
Continuous
 62
     7
100
AcDbLine
 10
189.2858267989416
 20
120.1449205872873
 30
0.0
 11
189.2858267989416
 21
126.5704873173814
 31
0.0
  0
LINE
  5
23D
330
1EC
100
AcDbEntity
  8
$DDT_AUDIT_GENERATED_(189)
  6
Continuous
 62
     7
100
AcDbLine
 10
161.2858267989415
 20
126.5704873174256
 30
0.0
 11
161.2858267989415
 21
120.1449205796065
 31
0.0
  0
ARC
  5
23E
330
1EC
100
AcDbEntity
  8
$DDT_AUDIT_GENERATED_(189)
  6
Continuous
 62
     7
100
AcDbCircle
 10
175.2645725662056
 20
120.3140529709434
 30
0.0
 40
13.96218797750424
100
AcDbArc
 50
250.7595387081039
 51
270.0871429223807
  0
ARC
  5
23F
330
1EC
100
AcDbEntity
  8
$DDT_AUDIT_GENERATED_(189)
  6
Continuous
 62
     7
100
AcDbCircle
 10
175.3068386456647
 20
120.3177031541772
 30
0.0
 40
13.96583700380418
100
AcDbArc
 50
269.9137206720559
 51
289.2783690799994
  0
ENDBLK
  5
241
330
1EC
100
AcDbEntity
  8
0
100
AcDbBlockEnd
  0
ENDSEC
  0
SECTION
  2
ENTITIES
  0
INSERT
  5
5F
330
1F
100
AcDbEntity
  8
Default
100
AcDbBlockReference
  2
SEANNOT_GROUP
 10
0.0
 20
0.0
 30
0.0
  0
INSERT
  5
66
330
1F
100
AcDbEntity
  8
Default
100
AcDbBlockReference
  2
SEANNOT_GROUP1
 10
0.0
 20
0.0
 30
0.0
  0
INSERT
  5
6C
330
1F
100
AcDbEntity
  8
Default
100
AcDbBlockReference
  2
SEANNOT_GROUP2
 10
0.0
 20
0.0
 30
0.0
  0
INSERT
  5
76
330
1F
100
AcDbEntity
  8
Default
100
AcDbBlockReference
  2
SE
 10
0.0
 20
0.0
 30
0.0
  0
INSERT
  5
1A6
330
1F
100
AcDbEntity
  8
Default
100
AcDbBlockReference
  2
SE1
 10
0.0
 20
0.0
 30
0.0
  0
INSERT
  5
1ED
330
1F
100
AcDbEntity
  8
Default
100
AcDbBlockReference
  2
SE2
 10
0.0
 20
0.0
 30
0.0
  0
TEXT
  5
244
330
1F
100
AcDbEntity
  8
Default
  6
Continuous
 62
     7
100
AcDbText
 10
5.936263508136633
 20
37.05887568490223
 30
0.0
 40
10.0
  1
 
  7
SEACAD_seiso_ttf
 11
5.936263508136634
 21
47.05887568490223
 31
0.0
100
AcDbText
 73
     3
  0
ENDSEC
  0
SECTION
  2
OBJECTS
  0
DICTIONARY
  5
C
330
0
100
AcDbDictionary
281
     1
  3
ACAD_CIP_PREVIOUS_PRODUCT_INFO
350
281
  3
ACAD_COLOR
350
278
  3
ACAD_DETAILVIEWSTYLE
350
27D
  3
ACAD_GROUP
350
D
  3
ACAD_LAYOUT
350
1A
  3
ACAD_MATERIAL
350
255
  3
ACAD_MLEADERSTYLE
350
251
  3
ACAD_MLINESTYLE
350
17
  3
ACAD_PLOTSETTINGS
350
19
  3
ACAD_PLOTSTYLENAME
350
E
  3
ACAD_SCALELIST
350
3B
  3
ACAD_SECTIONVIEWSTYLE
350
27B
  3
ACAD_TABLESTYLE
350
250
  3
ACAD_VISUALSTYLE
350
2A
  3
ACDB_RECOMPOSE_DATA
350
2B6
  3
AcDbVariableDictionary
350
24E
  0
DICTIONARY
  5
282
330
10
100
AcDbDictionary
280
     1
281
     1
  3
ADSK_XREC_LAYER_RECONCILED
360
283
  0
DICTIONARY
  5
284
330
5D
100
AcDbDictionary
280
     1
281
     1
  3
ADSK_XREC_LAYER_RECONCILED
360
285
  0
DICTIONARY
  5
286
330
77
100
AcDbDictionary
280
     1
281
     1
  3
ADSK_XREC_LAYER_RECONCILED
360
287
  0
DICTIONARY
  5
288
330
8E
100
AcDbDictionary
280
     1
281
     1
  3
ADSK_XREC_LAYER_RECONCILED
360
289
  0
DICTIONARY
  5
28A
330
96
100
AcDbDictionary
280
     1
281
     1
  3
ADSK_XREC_LAYER_RECONCILED
360
28B
  0
DICTIONARY
  5
28C
330
BF
100
AcDbDictionary
280
     1
281
     1
  3
ADSK_XREC_LAYER_RECONCILED
360
28D
  0
DICTIONARY
  5
28E
330
C1
100
AcDbDictionary
280
     1
281
     1
  3
ADSK_XREC_LAYER_RECONCILED
360
28F
  0
DICTIONARY
  5
290
330
D7
100
AcDbDictionary
280
     1
281
     1
  3
ADSK_XREC_LAYER_RECONCILED
360
291
  0
DICTIONARY
  5
292
330
186
100
AcDbDictionary
280
     1
281
     1
  3
ADSK_XREC_LAYER_RECONCILED
360
293
  0
DICTIONARY
  5
294
330
189
100
AcDbDictionary
280
     1
281
     1
  3
ADSK_XREC_LAYER_RECONCILED
360
295
  0
DICTIONARY
  5
296
330
1A1
100
AcDbDictionary
280
     1
281
     1
  3
ADSK_XREC_LAYER_RECONCILED
360
297
  0
DICTIONARY
  5
298
330
1E8
100
AcDbDictionary
280
     1
281
     1
  3
ADSK_XREC_LAYER_RECONCILED
360
299
  0
XRECORD
  5
281
102
{ACAD_REACTORS
330
C
102
}
330
C
100
AcDbXrecord
280
     1
300
ACD
300
2017
300
ACD_F_S
  0
DICTIONARY
  5
278
102
{ACAD_REACTORS
330
C
102
}
330
C
100
AcDbDictionary
281
     1
  0
DICTIONARY
  5
27D
102
{ACAD_REACTORS
330
C
102
}
330
C
100
AcDbDictionary
281
     1
  3
Metric50
350
27E
  0
DICTIONARY
  5
D
102
{ACAD_REACTORS
330
C
102
}
330
C
100
AcDbDictionary
281
     1
  0
DICTIONARY
  5
1A
102
{ACAD_REACTORS
330
C
102
}
330
C
100
AcDbDictionary
281
     1
  3
Layout1
350
1E
  3
Model
350
22
  0
DICTIONARY
  5
255
102
{ACAD_REACTORS
330
C
102
}
330
C
100
AcDbDictionary
281
     1
  3
ByBlock
350
25E
  3
ByLayer
350
256
  3
Global
350
266
  0
DICTIONARY
  5
251
102
{ACAD_REACTORS
330
C
102
}
330
C
100
AcDbDictionary
281
     1
  3
Standard
350
27A
  0
DICTIONARY
  5
17
102
{ACAD_REACTORS
330
C
102
}
330
C
100
AcDbDictionary
281
     1
  3
Standard
350
18
  0
DICTIONARY
  5
19
102
{ACAD_REACTORS
330
C
102
}
330
C
100
AcDbDictionary
281
     1
  0
ACDBDICTIONARYWDFLT
  5
E
102
{ACAD_REACTORS
330
C
102
}
330
C
100
AcDbDictionary
281
     1
  3
Normal
350
F
100
AcDbDictionaryWithDefault
340
F
  0
DICTIONARY
  5
3B
102
{ACAD_REACTORS
330
C
102
}
330
C
100
AcDbDictionary
281
     1
  3
A0
350
3C
  3
A1
350
3D
  3
A2
350
3E
  3
A3
350
3F
  3
A4
350
40
  3
A5
350
41
  3
A6
350
42
  3
A7
350
43
  3
A8
350
44
  3
A9
350
45
  3
B0
350
46
  3
B1
350
47
  3
B2
350
48
  3
B3
350
49
  3
B4
350
4A
  3
B5
350
4B
  3
B6
350
4C
  3
B7
350
4D
  3
B8
350
4E
  3
B9
350
4F
  3
C0
350
50
  3
C1
350
51
  3
C2
350
52
  3
C3
350
53
  3
C4
350
54
  3
C5
350
55
  3
C6
350
56
  3
C7
350
57
  3
C8
350
58
  3
C9
350
59
  3
D0
350
5A
  3
D1
350
5B
  3
D2
350
5C
  0
DICTIONARY
  5
27B
102
{ACAD_REACTORS
330
C
102
}
330
C
100
AcDbDictionary
281
     1
  3
Metric50
350
27C
  0
DICTIONARY
  5
250
102
{ACAD_REACTORS
330
C
102
}
330
C
100
AcDbDictionary
281
     1
  3
Standard
350
279
  0
DICTIONARY
  5
2A
102
{ACAD_REACTORS
330
C
102
}
330
C
100
AcDbDictionary
281
     1
  3
2dWireframe
350
2F
  3
3D Hidden
350
31
  3
3dWireframe
350
30
  3
Basic
350
32
  3
Brighten
350
36
  3
ColorChange
350
3A
  3
Conceptual
350
34
  3
Dim
350
35
  3
EdgeColorOff
350
277
  3
Facepattern
350
39
  3
Flat
350
2B
  3
FlatWithEdges
350
2C
  3
Gouraud
350
2D
  3
GouraudWithEdges
350
2E
  3
Hidden
350
26F
  3
JitterOff
350
275
  3
Linepattern
350
38
  3
OverhangOff
350
276
  3
Realistic
350
33
  3
Shaded
350
274
  3
Shaded with edges
350
273
  3
Shades of Gray
350
270
  3
Sketchy
350
271
  3
Thicken
350
37
  3
Wireframe
350
26E
  3
X-Ray
350
272
  0
XRECORD
  5
2B6
102
{ACAD_REACTORS
330
C
102
}
330
C
100
AcDbXrecord
280
     1
 90
        1
330
279
330
27C
330
27E
  0
DICTIONARY
  5
24E
102
{ACAD_REACTORS
330
C
102
}
330
C
100
AcDbDictionary
281
     1
  3
CANNOSCALE
350
24F
  3
CMLEADERSTYLE
350
2A9
  3
CTABLESTYLE
350
2A8
  3
CVIEWDETAILSTYLE
350
2AA
  3
CVIEWSECTIONSTYLE
350
2AB
  3
LAYEREVAL
350
2AE
  3
LAYERNOTIFY
350
2AF
  3
LIGHTINGUNITS
350
2AD
  3
MSLTSCALE
350
2AC
  0
XRECORD
  5
283
102
{ACAD_REACTORS
330
282
102
}
330
282
100
AcDbXrecord
280
     1
290
     1
  0
XRECORD
  5
285
102
{ACAD_REACTORS
330
284
102
}
330
284
100
AcDbXrecord
280
     1
290
     1
  0
XRECORD
  5
287
102
{ACAD_REACTORS
330
286
102
}
330
286
100
AcDbXrecord
280
     1
290
     1
  0
XRECORD
  5
289
102
{ACAD_REACTORS
330
288
102
}
330
288
100
AcDbXrecord
280
     1
290
     1
  0
XRECORD
  5
28B
102
{ACAD_REACTORS
330
28A
102
}
330
28A
100
AcDbXrecord
280
     1
290
     1
  0
XRECORD
  5
28D
102
{ACAD_REACTORS
330
28C
102
}
330
28C
100
AcDbXrecord
280
     1
290
     1
  0
XRECORD
  5
28F
102
{ACAD_REACTORS
330
28E
102
}
330
28E
100
AcDbXrecord
280
     1
290
     1
  0
XRECORD
  5
291
102
{ACAD_REACTORS
330
290
102
}
330
290
100
AcDbXrecord
280
     1
290
     1
  0
XRECORD
  5
293
102
{ACAD_REACTORS
330
292
102
}
330
292
100
AcDbXrecord
280
     1
290
     1
  0
XRECORD
  5
295
102
{ACAD_REACTORS
330
294
102
}
330
294
100
AcDbXrecord
280
     1
290
     1
  0
XRECORD
  5
297
102
{ACAD_REACTORS
330
296
102
}
330
296
100
AcDbXrecord
280
     1
290
     1
  0
XRECORD
  5
299
102
{ACAD_REACTORS
330
298
102
}
330
298
100
AcDbXrecord
280
     1
290
     1
  0
ACDBDETAILVIEWSTYLE
  5
27E
102
{ACAD_XDICTIONARY
360
2B4
102
}
102
{ACAD_REACTORS
330
27D
102
}
330
27D
100
AcDbModelDocViewStyle
 70
     0
  3
Metric50
290
     0
100
AcDbDetailViewStyle
 70
     0
 71
     0
 90
        3
 71
     1
340
11
 62
   256
 40
5.0
340
0
 62
   256
 40
5.0
300

 40
0.0
280
     1
 71
     2
340
16
 90
       25
 62
   256
 71
     3
340
11
 62
   256
 40
5.0
 90
        0
 40
15.0
 90
        1
300
%<\AcVar ViewDetailId>% (%<\AcVar ViewScale \f "%sn">%)
 71
     4
340
16
 90
       25
 62
   256
340
16
 90
       25
 62
   256
280
     0
  0
LAYOUT
  5
1E
102
{ACAD_REACTORS
330
1A
102
}
330
1A
100
AcDbPlotSettings
  1

  2
none_device
  4

  6

 40
0.0
 41
0.0
 42
0.0
 43
0.0
 44
0.0
 45
0.0
 46
0.0
 47
0.0
 48
0.0
 49
0.0
140
0.0
141
0.0
142
1.0
143
1.0
 70
   688
 72
     0
 73
     0
 74
     5
  7

 75
    16
147
1.0
 76
     0
 77
     2
 78
   300
148
0.0
149
0.0
100
AcDbLayout
  1
Layout1
 70
     1
 71
     1
 10
0.0
 20
0.0
 11
1682.0
 21
2378.0
 12
0.0
 22
0.0
 32
0.0
 14
0.0
 24
0.0
 34
0.0
 15
1682.0
 25
2378.0
 35
0.0
146
0.0
 13
0.0
 23
0.0
 33
0.0
 16
1.0
 26
0.0
 36
0.0
 17
0.0
 27
1.0
 37
0.0
 76
     0
330
1B
  0
LAYOUT
  5
22
102
{ACAD_REACTORS
330
1A
102
}
330
1A
100
AcDbPlotSettings
  1

  2
none_device
  4

  6

 40
0.0
 41
0.0
 42
0.0
 43
0.0
 44
0.0
 45
0.0
 46
0.0
 47
0.0
 48
0.0
 49
0.0
140
0.0
141
0.0
142
1.0
143
1.0
 70
  1712
 72
     0
 73
     0
 74
     0
  7

 75
     0
147
1.0
 76
     0
 77
     2
 78
   300
148
0.0
149
0.0
100
AcDbLayout
  1
Model
 70
     1
 71
     0
 10
0.0
 20
0.0
 11
1682.0
 21
2378.0
 12
0.0
 22
0.0
 32
0.0
 14
0.0
 24
0.0
 34
0.0
 15
1682.0
 25
2378.0
 35
0.0
146
0.0
 13
0.0
 23
0.0
 33
0.0
 16
1.0
 26
0.0
 36
0.0
 17
0.0
 27
1.0
 37
0.0
 76
     0
330
1F
331
29
  0
MATERIAL
  5
25E
102
{ACAD_XDICTIONARY
360
25F
102
}
102
{ACAD_REACTORS
330
255
102
}
330
255
100
AcDbMaterial
  1
ByBlock
 72
     0
 43
0.0008202099737533
 43
0.0
 43
0.0
 43
0.0
 43
0.0
 43
0.0008202099737533
 43
0.0
 43
0.0
 43
0.0
 43
0.0
 43
1.0
 43
0.0
 43
0.0
 43
0.0
 43
0.0
 43
1.0
 77
     0
 47
0.0008202099737533
 47
0.0
 47
0.0
 47
0.0
 47
0.0
 47
0.0008202099737533
 47
0.0
 47
0.0
 47
0.0
 47
0.0
 47
1.0
 47
0.0
 47
0.0
 47
0.0
 47
0.0
 47
1.0
171
     0
 49
0.0008202099737533
 49
0.0
 49
0.0
 49
0.0
 49
0.0
 49
0.0008202099737533
 49
0.0
 49
0.0
 49
0.0
 49
0.0
 49
1.0
 49
0.0
 49
0.0
 49
0.0
 49
0.0
 49
1.0
175
     0
142
0.0008202099737533
142
0.0
142
0.0
142
0.0
142
0.0
142
0.0008202099737533
142
0.0
142
0.0
142
0.0
142
0.0
142
1.0
142
0.0
142
0.0
142
0.0
142
0.0
142
1.0
179
     0
144
0.0008202099737533
144
0.0
144
0.0
144
0.0
144
0.0
144
0.0008202099737533
144
0.0
144
0.0
144
0.0
144
0.0
144
1.0
144
0.0
144
0.0
144
0.0
144
0.0
144
1.0
147
0.0008202099737533
147
0.0
147
0.0
147
0.0
147
0.0
147
0.0008202099737533
147
0.0
147
0.0
147
0.0
147
0.0
147
1.0
147
0.0
147
0.0
147
0.0
147
0.0
147
1.0
  0
MATERIAL
  5
256
102
{ACAD_XDICTIONARY
360
257
102
}
102
{ACAD_REACTORS
330
255
102
}
330
255
100
AcDbMaterial
  1
ByLayer
 72
     0
 43
0.0008202099737533
 43
0.0
 43
0.0
 43
0.0
 43
0.0
 43
0.0008202099737533
 43
0.0
 43
0.0
 43
0.0
 43
0.0
 43
1.0
 43
0.0
 43
0.0
 43
0.0
 43
0.0
 43
1.0
 77
     0
 47
0.0008202099737533
 47
0.0
 47
0.0
 47
0.0
 47
0.0
 47
0.0008202099737533
 47
0.0
 47
0.0
 47
0.0
 47
0.0
 47
1.0
 47
0.0
 47
0.0
 47
0.0
 47
0.0
 47
1.0
171
     0
 49
0.0008202099737533
 49
0.0
 49
0.0
 49
0.0
 49
0.0
 49
0.0008202099737533
 49
0.0
 49
0.0
 49
0.0
 49
0.0
 49
1.0
 49
0.0
 49
0.0
 49
0.0
 49
0.0
 49
1.0
175
     0
142
0.0008202099737533
142
0.0
142
0.0
142
0.0
142
0.0
142
0.0008202099737533
142
0.0
142
0.0
142
0.0
142
0.0
142
1.0
142
0.0
142
0.0
142
0.0
142
0.0
142
1.0
179
     0
144
0.0008202099737533
144
0.0
144
0.0
144
0.0
144
0.0
144
0.0008202099737533
144
0.0
144
0.0
144
0.0
144
0.0
144
1.0
144
0.0
144
0.0
144
0.0
144
0.0
144
1.0
147
0.0008202099737533
147
0.0
147
0.0
147
0.0
147
0.0
147
0.0008202099737533
147
0.0
147
0.0
147
0.0
147
0.0
147
1.0
147
0.0
147
0.0
147
0.0
147
0.0
147
1.0
  0
MATERIAL
  5
266
102
{ACAD_XDICTIONARY
360
267
102
}
102
{ACAD_REACTORS
330
255
102
}
330
255
100
AcDbMaterial
  1
Global
 72
     0
 43
0.0008202099737533
 43
0.0
 43
0.0
 43
0.0
 43
0.0
 43
0.0008202099737533
 43
0.0
 43
0.0
 43
0.0
 43
0.0
 43
1.0
 43
0.0
 43
0.0
 43
0.0
 43
0.0
 43
1.0
 77
     0
 47
0.0008202099737533
 47
0.0
 47
0.0
 47
0.0
 47
0.0
 47
0.0008202099737533
 47
0.0
 47
0.0
 47
0.0
 47
0.0
 47
1.0
 47
0.0
 47
0.0
 47
0.0
 47
0.0
 47
1.0
171
     0
 49
0.0008202099737533
 49
0.0
 49
0.0
 49
0.0
 49
0.0
 49
0.0008202099737533
 49
0.0
 49
0.0
 49
0.0
 49
0.0
 49
1.0
 49
0.0
 49
0.0
 49
0.0
 49
0.0
 49
1.0
175
     0
142
0.0008202099737533
142
0.0
142
0.0
142
0.0
142
0.0
142
0.0008202099737533
142
0.0
142
0.0
142
0.0
142
0.0
142
1.0
142
0.0
142
0.0
142
0.0
142
0.0
142
1.0
179
     0
144
0.0008202099737533
144
0.0
144
0.0
144
0.0
144
0.0
144
0.0008202099737533
144
0.0
144
0.0
144
0.0
144
0.0
144
1.0
144
0.0
144
0.0
144
0.0
144
0.0
144
1.0
147
0.0008202099737533
147
0.0
147
0.0
147
0.0
147
0.0
147
0.0008202099737533
147
0.0
147
0.0
147
0.0
147
0.0
147
1.0
147
0.0
147
0.0
147
0.0
147
0.0
147
1.0
  0
MLEADERSTYLE
  5
27A
102
{ACAD_REACTORS
330
251
102
}
330
251
100
AcDbMLeaderStyle
179
     2
170
     2
171
     1
172
     0
 90
        2
 40
0.0
 41
0.0
173
     1
 91
-1056964608
340
14
 92
       -2
290
     1
 42
2.0
291
     1
 43
0.36
  3
Standard
 44
4.0
300

342
11
174
     1
178
     6
175
     1
176
     0
 93
-1056964608
 45
4.0
292
     0
297
     0
 46
4.0
 94
-1056964608
 47
1.0
 49
1.0
140
1.0
293
     1
141
0.0
294
     1
177
     0
142
1.0
295
     1
296
     0
143
0.125
271
     0
272
     9
273
     9
298
     1
  0
MLINESTYLE
  5
18
102
{ACAD_REACTORS
330
17
102
}
330
17
100
AcDbMlineStyle
  2
STANDARD
 70
     0
  3

 62
   256
 51
90.0
 52
90.0
 71
     2
 49
0.5
 62
   256
  6
BYLAYER
 49
-0.5
 62
   256
  6
BYLAYER
  0
ACDBPLACEHOLDER
  5
F
102
{ACAD_REACTORS
330
E
102
}
330
E
  0
SCALE
  5
3C
102
{ACAD_REACTORS
330
3B
102
}
330
3B
100
AcDbScale
 70
     0
300
1:1
140
1.0
141
1.0
290
     1
  0
SCALE
  5
3D
102
{ACAD_REACTORS
330
3B
102
}
330
3B
100
AcDbScale
 70
     0
300
1:2
140
1.0
141
2.0
290
     0
  0
SCALE
  5
3E
102
{ACAD_REACTORS
330
3B
102
}
330
3B
100
AcDbScale
 70
     0
300
1:4
140
1.0
141
4.0
290
     0
  0
SCALE
  5
3F
102
{ACAD_REACTORS
330
3B
102
}
330
3B
100
AcDbScale
 70
     0
300
1:5
140
1.0
141
5.0
290
     0
  0
SCALE
  5
40
102
{ACAD_REACTORS
330
3B
102
}
330
3B
100
AcDbScale
 70
     0
300
1:8
140
1.0
141
8.0
290
     0
  0
SCALE
  5
41
102
{ACAD_REACTORS
330
3B
102
}
330
3B
100
AcDbScale
 70
     0
300
1:10
140
1.0
141
10.0
290
     0
  0
SCALE
  5
42
102
{ACAD_REACTORS
330
3B
102
}
330
3B
100
AcDbScale
 70
     0
300
1:16
140
1.0
141
16.0
290
     0
  0
SCALE
  5
43
102
{ACAD_REACTORS
330
3B
102
}
330
3B
100
AcDbScale
 70
     0
300
1:20
140
1.0
141
20.0
290
     0
  0
SCALE
  5
44
102
{ACAD_REACTORS
330
3B
102
}
330
3B
100
AcDbScale
 70
     0
300
1:30
140
1.0
141
30.0
290
     0
  0
SCALE
  5
45
102
{ACAD_REACTORS
330
3B
102
}
330
3B
100
AcDbScale
 70
     0
300
1:40
140
1.0
141
40.0
290
     0
  0
SCALE
  5
46
102
{ACAD_REACTORS
330
3B
102
}
330
3B
100
AcDbScale
 70
     0
300
1:50
140
1.0
141
50.0
290
     0
  0
SCALE
  5
47
102
{ACAD_REACTORS
330
3B
102
}
330
3B
100
AcDbScale
 70
     0
300
1:100
140
1.0
141
100.0
290
     0
  0
SCALE
  5
48
102
{ACAD_REACTORS
330
3B
102
}
330
3B
100
AcDbScale
 70
     0
300
2:1
140
2.0
141
1.0
290
     0
  0
SCALE
  5
49
102
{ACAD_REACTORS
330
3B
102
}
330
3B
100
AcDbScale
 70
     0
300
4:1
140
4.0
141
1.0
290
     0
  0
SCALE
  5
4A
102
{ACAD_REACTORS
330
3B
102
}
330
3B
100
AcDbScale
 70
     0
300
8:1
140
8.0
141
1.0
290
     0
  0
SCALE
  5
4B
102
{ACAD_REACTORS
330
3B
102
}
330
3B
100
AcDbScale
 70
     0
300
10:1
140
10.0
141
1.0
290
     0
  0
SCALE
  5
4C
102
{ACAD_REACTORS
330
3B
102
}
330
3B
100
AcDbScale
 70
     0
300
100:1
140
100.0
141
1.0
290
     0
  0
SCALE
  5
4D
102
{ACAD_REACTORS
330
3B
102
}
330
3B
100
AcDbScale
 70
     0
300
1/128" = 1'-0"
140
0.0078125
141
12.0
290
     0
  0
SCALE
  5
4E
102
{ACAD_REACTORS
330
3B
102
}
330
3B
100
AcDbScale
 70
     0
300
1/64" = 1'-0"
140
0.015625
141
12.0
290
     0
  0
SCALE
  5
4F
102
{ACAD_REACTORS
330
3B
102
}
330
3B
100
AcDbScale
 70
     0
300
1/32" = 1'-0"
140
0.03125
141
12.0
290
     0
  0
SCALE
  5
50
102
{ACAD_REACTORS
330
3B
102
}
330
3B
100
AcDbScale
 70
     0
300
1/16" = 1'-0"
140
0.0625
141
12.0
290
     0
  0
SCALE
  5
51
102
{ACAD_REACTORS
330
3B
102
}
330
3B
100
AcDbScale
 70
     0
300
3/32" = 1'-0"
140
0.09375
141
12.0
290
     0
  0
SCALE
  5
52
102
{ACAD_REACTORS
330
3B
102
}
330
3B
100
AcDbScale
 70
     0
300
1/8" = 1'-0"
140
0.125
141
12.0
290
     0
  0
SCALE
  5
53
102
{ACAD_REACTORS
330
3B
102
}
330
3B
100
AcDbScale
 70
     0
300
3/16" = 1'-0"
140
0.1875
141
12.0
290
     0
  0
SCALE
  5
54
102
{ACAD_REACTORS
330
3B
102
}
330
3B
100
AcDbScale
 70
     0
300
1/4" = 1'-0"
140
0.25
141
12.0
290
     0
  0
SCALE
  5
55
102
{ACAD_REACTORS
330
3B
102
}
330
3B
100
AcDbScale
 70
     0
300
3/8" = 1'-0"
140
0.375
141
12.0
290
     0
  0
SCALE
  5
56
102
{ACAD_REACTORS
330
3B
102
}
330
3B
100
AcDbScale
 70
     0
300
1/2" = 1'-0"
140
0.5
141
12.0
290
     0
  0
SCALE
  5
57
102
{ACAD_REACTORS
330
3B
102
}
330
3B
100
AcDbScale
 70
     0
300
3/4" = 1'-0"
140
0.75
141
12.0
290
     0
  0
SCALE
  5
58
102
{ACAD_REACTORS
330
3B
102
}
330
3B
100
AcDbScale
 70
     0
300
1" = 1'-0"
140
1.0
141
12.0
290
     0
  0
SCALE
  5
59
102
{ACAD_REACTORS
330
3B
102
}
330
3B
100
AcDbScale
 70
     0
300
1-1/2" = 1'-0"
140
1.5
141
12.0
290
     0
  0
SCALE
  5
5A
102
{ACAD_REACTORS
330
3B
102
}
330
3B
100
AcDbScale
 70
     0
300
3" = 1'-0"
140
3.0
141
12.0
290
     0
  0
SCALE
  5
5B
102
{ACAD_REACTORS
330
3B
102
}
330
3B
100
AcDbScale
 70
     0
300
6" = 1'-0"
140
6.0
141
12.0
290
     0
  0
SCALE
  5
5C
102
{ACAD_REACTORS
330
3B
102
}
330
3B
100
AcDbScale
 70
     0
300
1'-0" = 1'-0"
140
12.0
141
12.0
290
     0
  0
ACDBSECTIONVIEWSTYLE
  5
27C
102
{ACAD_XDICTIONARY
360
2B2
102
}
102
{ACAD_REACTORS
330
27B
102
}
330
27B
100
AcDbModelDocViewStyle
 70
     0
  3
Metric50
290
     0
100
AcDbSectionViewStyle
 70
     0
 71
     0
 90
      102
 71
     1
340
11
 62
   256
 40
5.0
340
0
340
0
 62
   256
 40
5.0
300
I, O, Q, S, X, Z
 40
10.0
 90
        0
 40
2.5
 90
        0
 71
     2
340
16
 90
       25
 62
   256
340
16
 90
       50
 62
   256
 40
5.0
 40
2.5
 40
5.0
 71
     3
340
11
 62
   256
 40
5.0
 90
        0
 40
15.0
 90
        1
300
%<\AcVar ViewSectionStartId>%-%<\AcVar ViewSectionEndId>% (%<\AcVar ViewScale \f "%sn">%)
 71
     4
 62
   256
 62
   257
300
ANSI31
 40
1.0
 90
        0
290
     0
290
     0
 90
        6
 40
0.0
 40
1.570796326794896
 40
0.2617993877991494
 40
1.308996938995747
 40
-0.2617993877991494
 40
1.832595714594046
  0
TABLESTYLE
  5
279
102
{ACAD_XDICTIONARY
360
2B0
102
}
102
{ACAD_REACTORS
330
250
102
}
330
250
100
AcDbTableStyle
280
     0
  3
Standard
 70
     0
 71
     0
 40
1.5
 41
1.5
280
     0
281
     0
  7
Standard
140
4.5
170
     2
 62
     0
 63
     7
283
     0
 90
      512
 91
        0
  1

274
    -2
284
     1
 64
     0
275
    -2
285
     1
 65
     0
276
    -2
286
     1
 66
     0
277
    -2
287
     1
 67
     0
278
    -2
288
     1
 68
     0
279
    -2
289
     1
 69
     0
  7
Standard
140
6.0
170
     5
 62
     0
 63
     7
283
     0
 90
      512
 91
        0
  1

274
    -2
284
     1
 64
     0
275
    -2
285
     1
 65
     0
276
    -2
286
     1
 66
     0
277
    -2
287
     1
 67
     0
278
    -2
288
     1
 68
     0
279
    -2
289
     1
 69
     0
  7
Standard
140
4.5
170
     5
 62
     0
 63
     7
283
     0
 90
      512
 91
        0
  1

274
    -2
284
     1
 64
     0
275
    -2
285
     1
 65
     0
276
    -2
286
     1
 66
     0
277
    -2
287
     1
 67
     0
278
    -2
288
     1
 68
     0
279
    -2
289
     1
 69
     0
  0
VISUALSTYLE
  5
2F
102
{ACAD_REACTORS
330
2A
102
}
330
2A
100
AcDbVisualStyle
  2
2dWireframe
 70
     4
177
     3
291
     0
 70
    58
 90
        0
176
     1
 90
        2
176
     1
 90
        0
176
     1
 90
        0
176
     1
 40
0.6
176
     1
 40
30.0
176
     1
 62
     7
176
     1
 90
        1
176
     1
 90
        4
176
     1
 62
     7
176
     1
 62
   257
176
     1
 90
        1
176
     1
 90
        1
176
     1
 40
1.0
176
     1
 90
        0
176
     1
 62
   257
176
     1
 40
1.0
176
     1
 90
        1
176
     1
 90
        6
176
     1
 90
        2
176
     1
 62
     7
176
     1
 90
        5
176
     1
 90
        0
176
     1
 90
        0
176
     1
290
     0
176
     1
 90
        1
176
     1
 40
0.0
176
     1
 90
        0
176
     1
290
     1
176
     1
290
     1
176
     1
290
     0
176
     1
290
     0
176
     1
290
     0
176
     1
290
     0
176
     1
290
     0
176
     1
290
     0
176
     1
290
     0
176
     1
 90
       50
176
     1
 40
0.0
176
     1
 40
1.0
176
     1
 90
        0
176
     1
 62
    18
420
        0
176
     1
 90
       50
176
     1
 90
        3
176
     1
 62
     5
420
      255
176
     1
290
     0
176
     1
 90
       50
176
     1
 90
       50
176
     1
 90
       50
176
     1
290
     0
176
     1
 90
       50
176
     1
 62
   256
176
     0
 40
1.0
176
     0
 90
        2
176
     1
  1
strokes_ogs.tif
176
     1
290
     0
176
     1
 40
1.0
176
     1
 40
1.0
176
     1
  0
VISUALSTYLE
  5
31
102
{ACAD_REACTORS
330
2A
102
}
330
2A
100
AcDbVisualStyle
  2
3D Hidden
 70
     6
177
     3
291
     0
 70
    58
 90
        1
176
     1
 90
        2
176
     1
 90
        2
176
     1
 90
        0
176
     1
 40
0.6
176
     1
 40
30.0
176
     1
 62
     7
176
     1
 90
        2
176
     1
 90
        2
176
     1
 62
     7
176
     1
 62
   257
176
     1
 90
        2
176
     1
 90
        1
176
     1
 40
40.0
176
     1
 90
        0
176
     1
 62
   257
176
     1
 40
1.0
176
     1
 90
        1
176
     1
 90
        6
176
     1
 90
        2
176
     1
 62
     7
176
     1
 90
        3
176
     1
 90
        0
176
     1
 90
        0
176
     1
290
     0
176
     1
 90
        1
176
     1
 40
0.0
176
     1
 90
        0
176
     1
290
     0
176
     1
290
     1
176
     1
290
     1
176
     1
290
     0
176
     1
290
     0
176
     1
290
     0
176
     1
290
     0
176
     1
290
     0
176
     1
290
     0
176
     1
 90
       50
176
     1
 40
0.0
176
     1
 40
1.0
176
     1
 90
        0
176
     1
 62
    18
420
        0
176
     1
 90
       50
176
     1
 90
        3
176
     1
 62
     5
420
      255
176
     1
290
     0
176
     1
 90
       50
176
     1
 90
       50
176
     1
 90
       50
176
     1
290
     0
176
     1
 90
       50
176
     1
 62
   256
176
     0
 40
1.0
176
     0
 90
        2
176
     1
  1
strokes_ogs.tif
176
     1
290
     0
176
     1
 40
1.0
176
     1
 40
1.0
176
     1
  0
VISUALSTYLE
  5
30
102
{ACAD_REACTORS
330
2A
102
}
330
2A
100
AcDbVisualStyle
  2
3dWireframe
 70
     5
177
     3
291
     0
 70
    58
 90
        0
176
     1
 90
        2
176
     1
 90
        0
176
     1
 90
        0
176
     1
 40
0.6
176
     1
 40
30.0
176
     1
 62
     7
176
     1
 90
        1
176
     1
 90
        4
176
     1
 62
     7
176
     1
 62
   257
176
     1
 90
        1
176
     1
 90
        1
176
     1
 40
1.0
176
     1
 90
        0
176
     1
 62
   257
176
     1
 40
1.0
176
     1
 90
        1
176
     1
 90
        6
176
     1
 90
        2
176
     1
 62
     7
176
     1
 90
        5
176
     1
 90
        0
176
     1
 90
        0
176
     1
290
     0
176
     1
 90
        1
176
     1
 40
0.0
176
     1
 90
        0
176
     1
290
     0
176
     1
290
     1
176
     1
290
     1
176
     1
290
     0
176
     1
290
     0
176
     1
290
     0
176
     1
290
     0
176
     1
290
     0
176
     1
290
     0
176
     1
 90
       50
176
     1
 40
0.0
176
     1
 40
1.0
176
     1
 90
        0
176
     1
 62
    18
420
        0
176
     1
 90
       50
176
     1
 90
        3
176
     1
 62
     5
420
      255
176
     1
290
     0
176
     1
 90
       50
176
     1
 90
       50
176
     1
 90
       50
176
     1
290
     0
176
     1
 90
       50
176
     1
 62
   256
176
     0
 40
1.0
176
     0
 90
        2
176
     1
  1
strokes_ogs.tif
176
     1
290
     0
176
     1
 40
1.0
176
     1
 40
1.0
176
     1
  0
VISUALSTYLE
  5
32
102
{ACAD_REACTORS
330
2A
102
}
330
2A
100
AcDbVisualStyle
  2
Basic
 70
     7
177
     3
291
     1
 70
    58
 90
        1
176
     1
 90
        0
176
     1
 90
        1
176
     1
 90
        0
176
     1
 40
0.6
176
     1
 40
30.0
176
     1
 62
     7
176
     1
 90
        0
176
     1
 90
        4
176
     1
 62
     7
176
     1
 62
   257
176
     1
 90
        1
176
     1
 90
        1
176
     1
 40
1.0
176
     1
 90
        8
176
     1
 62
     7
176
     1
 40
1.0
176
     1
 90
        1
176
     1
 90
        6
176
     1
 90
        2
176
     1
 62
     7
176
     1
 90
        5
176
     1
 90
        0
176
     1
 90
        0
176
     1
290
     0
176
     1
 90
        1
176
     1
 40
0.0
176
     1
 90
        0
176
     1
290
     0
176
     1
290
     1
176
     1
290
     1
176
     1
290
     0
176
     1
290
     0
176
     1
290
     0
176
     1
290
     0
176
     1
290
     0
176
     1
290
     0
176
     1
 90
       50
176
     1
 40
0.0
176
     1
 40
1.0
176
     1
 90
        0
176
     1
 62
    18
420
        0
176
     1
 90
       50
176
     1
 90
        3
176
     1
 62
     5
420
      255
176
     1
290
     0
176
     1
 90
       50
176
     1
 90
       50
176
     1
 90
       50
176
     1
290
     0
176
     1
 90
       50
176
     1
 62
   256
176
     0
 40
1.0
176
     0
 90
        2
176
     1
  1
strokes_ogs.tif
176
     1
290
     0
176
     1
 40
1.0
176
     1
 40
1.0
176
     1
  0
VISUALSTYLE
  5
36
102
{ACAD_REACTORS
330
2A
102
}
330
2A
100
AcDbVisualStyle
  2
Brighten
 70
    12
177
     3
291
     1
 70
    58
 90
        2
176
     1
 90
        2
176
     1
 90
        0
176
     1
 90
        0
176
     1
 40
0.6
176
     1
 40
30.0
176
     1
 62
     7
176
     1
 90
        1
176
     1
 90
        4
176
     1
 62
     7
176
     1
 62
   257
176
     1
 90
        1
176
     1
 90
        1
176
     1
 40
1.0
176
     1
 90
        8
176
     1
 62
     7
176
     1
 40
1.0
176
     1
 90
        1
176
     1
 90
        6
176
     1
 90
        2
176
     1
 62
     7
176
     1
 90
        5
176
     1
 90
        0
176
     1
 90
        0
176
     1
290
     0
176
     1
 90
        1
176
     1
 40
50.0
176
     1
 90
        0
176
     1
290
     0
176
     1
290
     1
176
     1
290
     1
176
     1
290
     0
176
     1
290
     0
176
     1
290
     0
176
     1
290
     0
176
     1
290
     0
176
     1
290
     0
176
     1
 90
       50
176
     1
 40
0.0
176
     1
 40
1.0
176
     1
 90
        0
176
     1
 62
    18
420
        0
176
     1
 90
       50
176
     1
 90
        3
176
     1
 62
     5
420
      255
176
     1
290
     0
176
     1
 90
       50
176
     1
 90
       50
176
     1
 90
       50
176
     1
290
     0
176
     1
 90
       50
176
     1
 62
   256
176
     0
 40
1.0
176
     0
 90
        2
176
     1
  1
strokes_ogs.tif
176
     1
290
     0
176
     1
 40
1.0
176
     1
 40
1.0
176
     1
  0
VISUALSTYLE
  5
3A
102
{ACAD_REACTORS
330
2A
102
}
330
2A
100
AcDbVisualStyle
  2
ColorChange
 70
    16
177
     3
291
     1
 70
    58
 90
        2
176
     1
 90
        2
176
     1
 90
        3
176
     1
 90
        0
176
     1
 40
0.6
176
     1
 40
30.0
176
     1
 62
     8
176
     1
 90
        1
176
     1
 90
        4
176
     1
 62
     7
176
     1
 62
   257
176
     1
 90
        1
176
     1
 90
        1
176
     1
 40
1.0
176
     1
 90
        8
176
     1
 62
     8
176
     1
 40
1.0
176
     1
 90
        1
176
     1
 90
        6
176
     1
 90
        2
176
     1
 62
     7
176
     1
 90
        5
176
     1
 90
        0
176
     1
 90
        0
176
     1
290
     0
176
     1
 90
        1
176
     1
 40
0.0
176
     1
 90
        0
176
     1
290
     0
176
     1
290
     1
176
     1
290
     1
176
     1
290
     0
176
     1
290
     0
176
     1
290
     0
176
     1
290
     0
176
     1
290
     0
176
     1
290
     0
176
     1
 90
       50
176
     1
 40
0.0
176
     1
 40
1.0
176
     1
 90
        0
176
     1
 62
    18
420
        0
176
     1
 90
       50
176
     1
 90
        3
176
     1
 62
     5
420
      255
176
     1
290
     0
176
     1
 90
       50
176
     1
 90
       50
176
     1
 90
       50
176
     1
290
     0
176
     1
 90
       50
176
     1
 62
   256
176
     0
 40
1.0
176
     0
 90
        2
176
     1
  1
strokes_ogs.tif
176
     1
290
     0
176
     1
 40
1.0
176
     1
 40
1.0
176
     1
  0
VISUALSTYLE
  5
34
102
{ACAD_REACTORS
330
2A
102
}
330
2A
100
AcDbVisualStyle
  2
Conceptual
 70
     9
177
     3
291
     0
 70
    58
 90
        3
176
     1
 90
        2
176
     1
 90
        0
176
     1
 90
        0
176
     1
 40
0.6
176
     1
 40
30.0
176
     1
 62
     7
176
     1
 90
        2
176
     1
 90
        2
176
     1
 62
     7
176
     1
 62
   257
176
     1
 90
        1
176
     1
 90
        1
176
     1
 40
40.0
176
     1
 90
        8
176
     1
 62
     7
176
     1
 40
1.0
176
     1
 90
        1
176
     1
 90
        6
176
     1
 90
        2
176
     1
 62
     7
176
     1
 90
        3
176
     1
 90
        0
176
     1
 90
        0
176
     1
290
     0
176
     1
 90
        1
176
     1
 40
0.0
176
     1
 90
        0
176
     1
290
     0
176
     1
290
     1
176
     1
290
     1
176
     1
290
     0
176
     1
290
     0
176
     1
290
     0
176
     1
290
     0
176
     1
290
     0
176
     1
290
     0
176
     1
 90
       50
176
     1
 40
0.0
176
     1
 40
1.0
176
     1
 90
        0
176
     1
 62
    18
420
        0
176
     1
 90
       50
176
     1
 90
        3
176
     1
 62
     5
420
      255
176
     1
290
     0
176
     1
 90
       50
176
     1
 90
       50
176
     1
 90
       50
176
     1
290
     0
176
     1
 90
       50
176
     1
 62
   256
176
     0
 40
1.0
176
     0
 90
        2
176
     1
  1
strokes_ogs.tif
176
     1
290
     0
176
     1
 40
1.0
176
     1
 40
1.0
176
     1
  0
VISUALSTYLE
  5
35
102
{ACAD_REACTORS
330
2A
102
}
330
2A
100
AcDbVisualStyle
  2
Dim
 70
    11
177
     3
291
     1
 70
    58
 90
        2
176
     1
 90
        2
176
     1
 90
        0
176
     1
 90
        0
176
     1
 40
0.6
176
     1
 40
30.0
176
     1
 62
     7
176
     1
 90
        1
176
     1
 90
        4
176
     1
 62
     7
176
     1
 62
   257
176
     1
 90
        1
176
     1
 90
        1
176
     1
 40
1.0
176
     1
 90
        8
176
     1
 62
     7
176
     1
 40
1.0
176
     1
 90
        1
176
     1
 90
        6
176
     1
 90
        2
176
     1
 62
     7
176
     1
 90
        5
176
     1
 90
        0
176
     1
 90
        0
176
     1
290
     0
176
     1
 90
        1
176
     1
 40
-50.0
176
     1
 90
        0
176
     1
290
     0
176
     1
290
     1
176
     1
290
     1
176
     1
290
     0
176
     1
290
     0
176
     1
290
     0
176
     1
290
     0
176
     1
290
     0
176
     1
290
     0
176
     1
 90
       50
176
     1
 40
0.0
176
     1
 40
1.0
176
     1
 90
        0
176
     1
 62
    18
420
        0
176
     1
 90
       50
176
     1
 90
        3
176
     1
 62
     5
420
      255
176
     1
290
     0
176
     1
 90
       50
176
     1
 90
       50
176
     1
 90
       50
176
     1
290
     0
176
     1
 90
       50
176
     1
 62
   256
176
     0
 40
1.0
176
     0
 90
        2
176
     1
  1
strokes_ogs.tif
176
     1
290
     0
176
     1
 40
1.0
176
     1
 40
1.0
176
     1
  0
VISUALSTYLE
  5
277
102
{ACAD_REACTORS
330
2A
102
}
330
2A
100
AcDbVisualStyle
  2
EdgeColorOff
 70
    22
177
     3
291
     1
 70
    58
 90
        2
176
     0
 90
        2
176
     0
 90
        0
176
     0
 90
        0
176
     0
 40
0.6
176
     0
 40
30.0
176
     0
 62
     7
420
 16777215
176
     0
 90
        1
176
     0
 90
        4
176
     0
 62
     7
176
     0
 62
   257
176
     0
 90
        1
176
     0
 90
        1
176
     0
 40
1.0
176
     0
 90
        8
176
     2
 62
     7
176
     0
 40
1.0
176
     0
 90
        1
176
     0
 90
        6
176
     0
 90
        2
176
     0
 62
     7
176
     0
 90
        5
176
     0
 90
        0
176
     0
 90
        0
176
     0
290
     0
176
     0
 90
        1
176
     0
 40
0.0
176
     0
 90
        0
176
     0
290
     0
176
     0
290
     1
176
     0
290
     1
176
     0
290
     0
176
     0
290
     0
176
     0
290
     0
176
     0
290
     0
176
     0
290
     0
176
     0
290
     0
176
     0
 90
       50
176
     0
 40
0.0
176
     0
 40
1.0
176
     0
 90
        0
176
     0
 62
    18
420
        0
176
     0
 90
       50
176
     0
 90
        3
176
     0
 62
     5
420
      255
176
     0
290
     0
176
     0
 90
       50
176
     0
 90
       50
176
     0
 90
       50
176
     0
290
     0
176
     0
 90
       50
176
     0
 62
   256
176
     0
 40
1.0
176
     0
 90
        2
176
     0
  1
strokes_ogs.tif
176
     0
290
     0
176
     0
 40
1.0
176
     0
 40
1.0
176
     0
  0
VISUALSTYLE
  5
39
102
{ACAD_REACTORS
330
2A
102
}
330
2A
100
AcDbVisualStyle
  2
Facepattern
 70
    15
177
     3
291
     1
 70
    58
 90
        2
176
     1
 90
        2
176
     1
 90
        0
176
     1
 90
        0
176
     1
 40
0.6
176
     1
 40
30.0
176
     1
 62
     7
176
     1
 90
        1
176
     1
 90
        4
176
     1
 62
     7
176
     1
 62
   257
176
     1
 90
        1
176
     1
 90
        1
176
     1
 40
1.0
176
     1
 90
        8
176
     1
 62
     7
176
     1
 40
1.0
176
     1
 90
        1
176
     1
 90
        6
176
     1
 90
        2
176
     1
 62
     7
176
     1
 90
        5
176
     1
 90
        0
176
     1
 90
        0
176
     1
290
     0
176
     1
 90
        1
176
     1
 40
0.0
176
     1
 90
        0
176
     1
290
     0
176
     1
290
     1
176
     1
290
     1
176
     1
290
     0
176
     1
290
     0
176
     1
290
     0
176
     1
290
     0
176
     1
290
     0
176
     1
290
     0
176
     1
 90
       50
176
     1
 40
0.0
176
     1
 40
1.0
176
     1
 90
        0
176
     1
 62
    18
420
        0
176
     1
 90
       50
176
     1
 90
        3
176
     1
 62
     5
420
      255
176
     1
290
     0
176
     1
 90
       50
176
     1
 90
       50
176
     1
 90
       50
176
     1
290
     0
176
     1
 90
       50
176
     1
 62
   256
176
     0
 40
1.0
176
     0
 90
        2
176
     1
  1
strokes_ogs.tif
176
     1
290
     0
176
     1
 40
1.0
176
     1
 40
1.0
176
     1
  0
VISUALSTYLE
  5
2B
102
{ACAD_REACTORS
330
2A
102
}
330
2A
100
AcDbVisualStyle
  2
Flat
 70
     0
177
     3
291
     1
 70
    58
 90
        2
176
     1
 90
        1
176
     1
 90
        1
176
     1
 90
        2
176
     1
 40
0.6
176
     1
 40
30.0
176
     1
 62
     7
176
     1
 90
        0
176
     1
 90
        4
176
     1
 62
     7
176
     1
 62
   257
176
     1
 90
        1
176
     1
 90
        1
176
     1
 40
1.0
176
     1
 90
        8
176
     1
 62
     7
176
     1
 40
1.0
176
     1
 90
        1
176
     1
 90
        6
176
     1
 90
        2
176
     1
 62
     7
176
     1
 90
        5
176
     1
 90
        0
176
     1
 90
        0
176
     1
290
     0
176
     1
 90
       13
176
     1
 40
0.0
176
     1
 90
        0
176
     1
290
     0
176
     1
290
     1
176
     1
290
     1
176
     1
290
     0
176
     1
290
     0
176
     1
290
     0
176
     1
290
     0
176
     1
290
     0
176
     1
290
     0
176
     1
 90
       50
176
     1
 40
0.0
176
     1
 40
1.0
176
     1
 90
        0
176
     1
 62
    18
420
        0
176
     1
 90
       50
176
     1
 90
        3
176
     1
 62
     5
420
      255
176
     1
290
     0
176
     1
 90
       50
176
     1
 90
       50
176
     1
 90
       50
176
     1
290
     0
176
     1
 90
       50
176
     1
 62
   256
176
     0
 40
1.0
176
     0
 90
        2
176
     1
  1
strokes_ogs.tif
176
     1
290
     0
176
     1
 40
1.0
176
     1
 40
1.0
176
     1
  0
VISUALSTYLE
  5
2C
102
{ACAD_REACTORS
330
2A
102
}
330
2A
100
AcDbVisualStyle
  2
FlatWithEdges
 70
     1
177
     3
291
     1
 70
    58
 90
        2
176
     1
 90
        1
176
     1
 90
        1
176
     1
 90
        2
176
     1
 40
0.6
176
     1
 40
30.0
176
     1
 62
     7
176
     1
 90
        1
176
     1
 90
        4
176
     1
 62
     7
176
     1
 62
   257
176
     1
 90
        1
176
     1
 90
        1
176
     1
 40
1.0
176
     1
 90
        0
176
     1
 62
   257
176
     1
 40
1.0
176
     1
 90
        1
176
     1
 90
        6
176
     1
 90
        2
176
     1
 62
     7
176
     1
 90
        5
176
     1
 90
        0
176
     1
 90
        0
176
     1
290
     0
176
     1
 90
       13
176
     1
 40
0.0
176
     1
 90
        0
176
     1
290
     0
176
     1
290
     1
176
     1
290
     1
176
     1
290
     0
176
     1
290
     0
176
     1
290
     0
176
     1
290
     0
176
     1
290
     0
176
     1
290
     0
176
     1
 90
       50
176
     1
 40
0.0
176
     1
 40
1.0
176
     1
 90
        0
176
     1
 62
    18
420
        0
176
     1
 90
       50
176
     1
 90
        3
176
     1
 62
     5
420
      255
176
     1
290
     0
176
     1
 90
       50
176
     1
 90
       50
176
     1
 90
       50
176
     1
290
     0
176
     1
 90
       50
176
     1
 62
   256
176
     0
 40
1.0
176
     0
 90
        2
176
     1
  1
strokes_ogs.tif
176
     1
290
     0
176
     1
 40
1.0
176
     1
 40
1.0
176
     1
  0
VISUALSTYLE
  5
2D
102
{ACAD_REACTORS
330
2A
102
}
330
2A
100
AcDbVisualStyle
  2
Gouraud
 70
     2
177
     3
291
     1
 70
    58
 90
        2
176
     1
 90
        2
176
     1
 90
        1
176
     1
 90
        2
176
     1
 40
0.6
176
     1
 40
30.0
176
     1
 62
     7
176
     1
 90
        0
176
     1
 90
        4
176
     1
 62
     7
176
     1
 62
   257
176
     1
 90
        1
176
     1
 90
        1
176
     1
 40
1.0
176
     1
 90
        0
176
     1
 62
     7
176
     1
 40
1.0
176
     1
 90
        1
176
     1
 90
        6
176
     1
 90
        2
176
     1
 62
     7
176
     1
 90
        5
176
     1
 90
        0
176
     1
 90
        0
176
     1
290
     0
176
     1
 90
       13
176
     1
 40
0.0
176
     1
 90
        0
176
     1
290
     0
176
     1
290
     1
176
     1
290
     1
176
     1
290
     0
176
     1
290
     0
176
     1
290
     0
176
     1
290
     0
176
     1
290
     0
176
     1
290
     0
176
     1
 90
       50
176
     1
 40
0.0
176
     1
 40
1.0
176
     1
 90
        0
176
     1
 62
    18
420
        0
176
     1
 90
       50
176
     1
 90
        3
176
     1
 62
     5
420
      255
176
     1
290
     0
176
     1
 90
       50
176
     1
 90
       50
176
     1
 90
       50
176
     1
290
     0
176
     1
 90
       50
176
     1
 62
   256
176
     0
 40
1.0
176
     0
 90
        2
176
     1
  1
strokes_ogs.tif
176
     1
290
     0
176
     1
 40
1.0
176
     1
 40
1.0
176
     1
  0
VISUALSTYLE
  5
2E
102
{ACAD_REACTORS
330
2A
102
}
330
2A
100
AcDbVisualStyle
  2
GouraudWithEdges
 70
     3
177
     3
291
     1
 70
    58
 90
        2
176
     1
 90
        2
176
     1
 90
        1
176
     1
 90
        2
176
     1
 40
0.6
176
     1
 40
30.0
176
     1
 62
     7
176
     1
 90
        1
176
     1
 90
        4
176
     1
 62
     7
176
     1
 62
   257
176
     1
 90
        1
176
     1
 90
        1
176
     1
 40
1.0
176
     1
 90
        0
176
     1
 62
   257
176
     1
 40
1.0
176
     1
 90
        1
176
     1
 90
        6
176
     1
 90
        2
176
     1
 62
     7
176
     1
 90
        5
176
     1
 90
        0
176
     1
 90
        0
176
     1
290
     0
176
     1
 90
       13
176
     1
 40
0.0
176
     1
 90
        0
176
     1
290
     0
176
     1
290
     1
176
     1
290
     1
176
     1
290
     0
176
     1
290
     0
176
     1
290
     0
176
     1
290
     0
176
     1
290
     0
176
     1
290
     0
176
     1
 90
       50
176
     1
 40
0.0
176
     1
 40
1.0
176
     1
 90
        0
176
     1
 62
    18
420
        0
176
     1
 90
       50
176
     1
 90
        3
176
     1
 62
     5
420
      255
176
     1
290
     0
176
     1
 90
       50
176
     1
 90
       50
176
     1
 90
       50
176
     1
290
     0
176
     1
 90
       50
176
     1
 62
   256
176
     0
 40
1.0
176
     0
 90
        2
176
     1
  1
strokes_ogs.tif
176
     1
290
     0
176
     1
 40
1.0
176
     1
 40
1.0
176
     1
  0
VISUALSTYLE
  5
26F
102
{ACAD_REACTORS
330
2A
102
}
330
2A
100
AcDbVisualStyle
  2
Hidden
 70
     6
177
     3
291
     0
 70
    58
 90
        1
176
     1
 90
        2
176
     1
 90
        2
176
     1
 90
        0
176
     1
 40
0.6
176
     1
 40
30.0
176
     1
 62
     7
420
 16777215
176
     1
 90
        2
176
     1
 90
        2
176
     1
 62
     7
176
     1
 62
   257
176
     1
 90
        2
176
     1
 90
        1
176
     1
 40
40.0
176
     1
 90
        0
176
     1
 62
   257
176
     1
 40
1.0
176
     1
 90
        1
176
     1
 90
        6
176
     1
 90
        2
176
     1
 62
     7
176
     1
 90
        3
176
     1
 90
        0
176
     1
 90
        0
176
     1
290
     0
176
     1
 90
        1
176
     1
 40
0.0
176
     1
 90
        0
176
     1
290
     0
176
     1
290
     1
176
     1
290
     1
176
     1
290
     0
176
     1
290
     0
176
     1
290
     0
176
     1
290
     0
176
     1
290
     0
176
     1
290
     0
176
     1
 90
       50
176
     1
 40
0.0
176
     1
 40
1.0
176
     1
 90
        0
176
     1
 62
    18
420
        0
176
     1
 90
       50
176
     1
 90
        3
176
     1
 62
     5
420
      255
176
     1
290
     0
176
     1
 90
       50
176
     1
 90
       50
176
     1
 90
       50
176
     1
290
     0
176
     1
 90
       50
176
     1
 62
   256
176
     0
 40
1.0
176
     0
 90
        2
176
     1
  1
strokes_ogs.tif
176
     1
290
     0
176
     1
 40
1.0
176
     1
 40
1.0
176
     1
  0
VISUALSTYLE
  5
275
102
{ACAD_REACTORS
330
2A
102
}
330
2A
100
AcDbVisualStyle
  2
JitterOff
 70
    20
177
     3
291
     1
 70
    58
 90
        2
176
     0
 90
        2
176
     0
 90
        0
176
     0
 90
        0
176
     0
 40
0.6
176
     0
 40
30.0
176
     0
 62
     7
420
 16777215
176
     0
 90
        1
176
     0
 90
        4
176
     0
 62
     7
176
     0
 62
   257
176
     0
 90
        1
176
     0
 90
        1
176
     0
 40
1.0
176
     0
 90
       10
176
     2
 62
     7
176
     0
 40
1.0
176
     0
 90
        1
176
     0
 90
        6
176
     0
 90
        2
176
     0
 62
     7
176
     0
 90
        5
176
     0
 90
        0
176
     0
 90
        0
176
     0
290
     0
176
     0
 90
        1
176
     0
 40
0.0
176
     0
 90
        0
176
     0
290
     0
176
     0
290
     1
176
     0
290
     1
176
     0
290
     0
176
     0
290
     0
176
     0
290
     0
176
     0
290
     0
176
     0
290
     0
176
     0
290
     0
176
     0
 90
       50
176
     0
 40
0.0
176
     0
 40
1.0
176
     0
 90
        0
176
     0
 62
    18
420
        0
176
     0
 90
       50
176
     0
 90
        3
176
     0
 62
     5
420
      255
176
     0
290
     0
176
     0
 90
       50
176
     0
 90
       50
176
     0
 90
       50
176
     0
290
     0
176
     0
 90
       50
176
     0
 62
   256
176
     0
 40
1.0
176
     0
 90
        2
176
     0
  1
strokes_ogs.tif
176
     0
290
     0
176
     0
 40
1.0
176
     0
 40
1.0
176
     0
  0
VISUALSTYLE
  5
38
102
{ACAD_REACTORS
330
2A
102
}
330
2A
100
AcDbVisualStyle
  2
Linepattern
 70
    14
177
     3
291
     1
 70
    58
 90
        2
176
     1
 90
        2
176
     1
 90
        0
176
     1
 90
        0
176
     1
 40
0.6
176
     1
 40
30.0
176
     1
 62
     7
176
     1
 90
        1
176
     1
 90
        4
176
     1
 62
     7
176
     1
 62
   257
176
     1
 90
        7
176
     1
 90
        7
176
     1
 40
1.0
176
     1
 90
        8
176
     1
 62
     7
176
     1
 40
1.0
176
     1
 90
        1
176
     1
 90
        6
176
     1
 90
        2
176
     1
 62
     7
176
     1
 90
        5
176
     1
 90
        0
176
     1
 90
        0
176
     1
290
     0
176
     1
 90
        1
176
     1
 40
0.0
176
     1
 90
        0
176
     1
290
     0
176
     1
290
     1
176
     1
290
     1
176
     1
290
     0
176
     1
290
     0
176
     1
290
     0
176
     1
290
     0
176
     1
290
     0
176
     1
290
     0
176
     1
 90
       50
176
     1
 40
0.0
176
     1
 40
1.0
176
     1
 90
        0
176
     1
 62
    18
420
        0
176
     1
 90
       50
176
     1
 90
        3
176
     1
 62
     5
420
      255
176
     1
290
     0
176
     1
 90
       50
176
     1
 90
       50
176
     1
 90
       50
176
     1
290
     0
176
     1
 90
       50
176
     1
 62
   256
176
     0
 40
1.0
176
     0
 90
        2
176
     1
  1
strokes_ogs.tif
176
     1
290
     0
176
     1
 40
1.0
176
     1
 40
1.0
176
     1
  0
VISUALSTYLE
  5
276
102
{ACAD_REACTORS
330
2A
102
}
330
2A
100
AcDbVisualStyle
  2
OverhangOff
 70
    21
177
     3
291
     1
 70
    58
 90
        2
176
     0
 90
        2
176
     0
 90
        0
176
     0
 90
        0
176
     0
 40
0.6
176
     0
 40
30.0
176
     0
 62
     7
420
 16777215
176
     0
 90
        1
176
     0
 90
        4
176
     0
 62
     7
176
     0
 62
   257
176
     0
 90
        1
176
     0
 90
        1
176
     0
 40
1.0
176
     0
 90
        9
176
     2
 62
     7
176
     0
 40
1.0
176
     0
 90
        1
176
     0
 90
        6
176
     0
 90
        2
176
     0
 62
     7
176
     0
 90
        5
176
     0
 90
        0
176
     0
 90
        0
176
     0
290
     0
176
     0
 90
        1
176
     0
 40
0.0
176
     0
 90
        0
176
     0
290
     0
176
     0
290
     1
176
     0
290
     1
176
     0
290
     0
176
     0
290
     0
176
     0
290
     0
176
     0
290
     0
176
     0
290
     0
176
     0
290
     0
176
     0
 90
       50
176
     0
 40
0.0
176
     0
 40
1.0
176
     0
 90
        0
176
     0
 62
    18
420
        0
176
     0
 90
       50
176
     0
 90
        3
176
     0
 62
     5
420
      255
176
     0
290
     0
176
     0
 90
       50
176
     0
 90
       50
176
     0
 90
       50
176
     0
290
     0
176
     0
 90
       50
176
     0
 62
   256
176
     0
 40
1.0
176
     0
 90
        2
176
     0
  1
strokes_ogs.tif
176
     0
290
     0
176
     0
 40
1.0
176
     0
 40
1.0
176
     0
  0
VISUALSTYLE
  5
33
102
{ACAD_REACTORS
330
2A
102
}
330
2A
100
AcDbVisualStyle
  2
Realistic
 70
     8
177
     3
291
     0
 70
    58
 90
        2
176
     1
 90
        2
176
     1
 90
        0
176
     1
 90
        0
176
     1
 40
0.6
176
     1
 40
30.0
176
     1
 62
     7
176
     1
 90
        1
176
     1
 90
        0
176
     1
 62
     7
176
     1
 62
   257
176
     1
 90
        1
176
     1
 90
        1
176
     1
 40
1.0
176
     1
 90
        8
176
     1
 62
     8
176
     1
 40
1.0
176
     1
 90
        1
176
     1
 90
        6
176
     1
 90
        2
176
     1
 62
     7
176
     1
 90
        5
176
     1
 90
        0
176
     1
 90
        0
176
     1
290
     0
176
     1
 90
       13
176
     1
 40
0.0
176
     1
 90
        0
176
     1
290
     0
176
     1
290
     1
176
     1
290
     1
176
     1
290
     0
176
     1
290
     0
176
     1
290
     0
176
     1
290
     0
176
     1
290
     0
176
     1
290
     0
176
     1
 90
       50
176
     1
 40
0.0
176
     1
 40
1.0
176
     1
 90
        0
176
     1
 62
    18
420
        0
176
     1
 90
       50
176
     1
 90
        3
176
     1
 62
     5
420
      255
176
     1
290
     0
176
     1
 90
       50
176
     1
 90
       50
176
     1
 90
       50
176
     1
290
     0
176
     1
 90
       50
176
     1
 62
   256
176
     0
 40
1.0
176
     0
 90
        2
176
     1
  1
strokes_ogs.tif
176
     1
290
     0
176
     1
 40
1.0
176
     1
 40
1.0
176
     1
  0
VISUALSTYLE
  5
274
102
{ACAD_REACTORS
330
2A
102
}
330
2A
100
AcDbVisualStyle
  2
Shaded
 70
    27
177
     3
291
     0
 70
    58
 90
        2
176
     1
 90
        2
176
     1
 90
        1
176
     1
 90
        2
176
     1
 40
0.6
176
     1
 40
30.0
176
     1
 62
     7
420
 16777215
176
     1
 90
        0
176
     1
 90
        4
176
     1
 62
     7
176
     1
 62
   257
176
     1
 90
        1
176
     1
 90
        1
176
     1
 40
1.0
176
     1
 90
        8
176
     1
 62
   257
176
     1
 40
1.0
176
     1
 90
        1
176
     1
 90
        6
176
     1
 90
        2
176
     1
 62
     8
420
  7895160
176
     1
 90
        3
176
     1
 90
        0
176
     1
 90
        0
176
     1
290
     0
176
     1
 90
        5
176
     1
 40
0.0
176
     1
 90
        0
176
     1
290
     0
176
     1
290
     1
176
     1
290
     1
176
     1
290
     0
176
     1
290
     0
176
     1
290
     0
176
     1
290
     0
176
     1
290
     0
176
     1
290
     0
176
     1
 90
       50
176
     1
 40
0.0
176
     1
 40
1.0
176
     1
 90
        0
176
     1
 62
    18
420
        0
176
     1
 90
       50
176
     1
 90
        3
176
     1
 62
     5
420
      255
176
     1
290
     0
176
     1
 90
       50
176
     1
 90
       50
176
     1
 90
       50
176
     1
290
     0
176
     1
 90
       50
176
     1
 62
   256
176
     0
 40
1.0
176
     0
 90
        2
176
     1
  1
strokes_ogs.tif
176
     1
290
     0
176
     1
 40
1.0
176
     1
 40
1.0
176
     1
  0
VISUALSTYLE
  5
273
102
{ACAD_REACTORS
330
2A
102
}
330
2A
100
AcDbVisualStyle
  2
Shaded with edges
 70
    26
177
     3
291
     0
 70
    58
 90
        2
176
     1
 90
        2
176
     1
 90
        1
176
     1
 90
        2
176
     1
 40
0.6
176
     1
 40
30.0
176
     1
 62
     7
420
 16777215
176
     1
 90
        1
176
     1
 90
        2
176
     1
 62
     7
176
     1
 62
   257
176
     1
 90
        2
176
     1
 90
        1
176
     1
 40
1.0
176
     1
 90
        8
176
     1
 62
   257
176
     1
 40
1.0
176
     1
 90
        1
176
     1
 90
        6
176
     1
 90
        2
176
     1
 62
     7
176
     1
 90
        3
176
     1
 90
        0
176
     1
 90
        0
176
     1
290
     0
176
     1
 90
        5
176
     1
 40
0.0
176
     1
 90
        0
176
     1
290
     0
176
     1
290
     1
176
     1
290
     1
176
     1
290
     0
176
     1
290
     0
176
     1
290
     0
176
     1
290
     0
176
     1
290
     0
176
     1
290
     0
176
     1
 90
       50
176
     1
 40
0.0
176
     1
 40
1.0
176
     1
 90
        0
176
     1
 62
    18
420
        0
176
     1
 90
       50
176
     1
 90
        3
176
     1
 62
     5
420
      255
176
     1
290
     0
176
     1
 90
       50
176
     1
 90
       50
176
     1
 90
       50
176
     1
290
     0
176
     1
 90
       50
176
     1
 62
   256
176
     0
 40
1.0
176
     0
 90
        2
176
     1
  1
strokes_ogs.tif
176
     1
290
     0
176
     1
 40
1.0
176
     1
 40
1.0
176
     1
  0
VISUALSTYLE
  5
270
102
{ACAD_REACTORS
330
2A
102
}
330
2A
100
AcDbVisualStyle
  2
Shades of Gray
 70
    23
177
     3
291
     0
 70
    58
 90
        2
176
     1
 90
        2
176
     1
 90
        3
176
     1
 90
        0
176
     1
 40
0.6
176
     1
 40
30.0
176
     1
 62
     7
420
 16777215
176
     1
 90
        2
176
     1
 90
        2
176
     1
 62
     7
176
     1
 62
     7
176
     1
 90
        1
176
     1
 90
        1
176
     1
 40
40.0
176
     1
 90
        8
176
     1
 62
     7
176
     1
 40
1.0
176
     1
 90
        1
176
     1
 90
        6
176
     1
 90
        2
176
     1
 62
     7
176
     1
 90
        3
176
     1
 90
        0
176
     1
 90
        0
176
     1
290
     0
176
     1
 90
        1
176
     1
 40
0.0
176
     1
 90
        0
176
     1
290
     0
176
     1
290
     1
176
     1
290
     1
176
     1
290
     0
176
     1
290
     0
176
     1
290
     0
176
     1
290
     0
176
     1
290
     0
176
     1
290
     0
176
     1
 90
       50
176
     1
 40
0.0
176
     1
 40
1.0
176
     1
 90
        0
176
     1
 62
    18
420
        0
176
     1
 90
       50
176
     1
 90
        3
176
     1
 62
     5
420
      255
176
     1
290
     0
176
     1
 90
       50
176
     1
 90
       50
176
     1
 90
       50
176
     1
290
     0
176
     1
 90
       50
176
     1
 62
   256
176
     0
 40
1.0
176
     0
 90
        2
176
     1
  1
strokes_ogs.tif
176
     1
290
     0
176
     1
 40
1.0
176
     1
 40
1.0
176
     1
  0
VISUALSTYLE
  5
271
102
{ACAD_REACTORS
330
2A
102
}
330
2A
100
AcDbVisualStyle
  2
Sketchy
 70
    24
177
     3
291
     0
 70
    58
 90
        1
176
     1
 90
        2
176
     1
 90
        2
176
     1
 90
        0
176
     1
 40
0.6
176
     1
 40
30.0
176
     1
 62
     7
420
 16777215
176
     1
 90
        2
176
     1
 90
        2
176
     1
 62
     7
176
     1
 62
     7
176
     1
 90
        1
176
     1
 90
        1
176
     1
 40
40.0
176
     1
 90
       11
176
     1
 62
     7
176
     1
 40
1.0
176
     1
 90
        1
176
     1
 90
        6
176
     1
 90
        2
176
     1
 62
     7
176
     1
 90
        6
176
     1
 90
        0
176
     1
 90
        0
176
     1
290
     0
176
     1
 90
        1
176
     1
 40
0.0
176
     1
 90
        0
176
     1
290
     0
176
     1
290
     1
176
     1
290
     1
176
     1
290
     0
176
     1
290
     0
176
     1
290
     0
176
     1
290
     0
176
     1
290
     0
176
     1
290
     0
176
     1
 90
       50
176
     1
 40
0.0
176
     1
 40
1.0
176
     1
 90
        0
176
     1
 62
    18
420
        0
176
     1
 90
       50
176
     1
 90
        3
176
     1
 62
     5
420
      255
176
     1
290
     0
176
     1
 90
       50
176
     1
 90
       50
176
     1
 90
       50
176
     1
290
     0
176
     1
 90
       50
176
     1
 62
   256
176
     0
 40
1.0
176
     0
 90
        2
176
     1
  1
strokes_ogs.tif
176
     1
290
     0
176
     1
 40
1.0
176
     1
 40
1.0
176
     1
  0
VISUALSTYLE
  5
37
102
{ACAD_REACTORS
330
2A
102
}
330
2A
100
AcDbVisualStyle
  2
Thicken
 70
    13
177
     3
291
     1
 70
    58
 90
        2
176
     1
 90
        2
176
     1
 90
        0
176
     1
 90
        0
176
     1
 40
0.6
176
     1
 40
30.0
176
     1
 62
     7
176
     1
 90
        1
176
     1
 90
        4
176
     1
 62
     7
176
     1
 62
   257
176
     1
 90
        1
176
     1
 90
        1
176
     1
 40
1.0
176
     1
 90
       12
176
     1
 62
     7
176
     1
 40
1.0
176
     1
 90
        1
176
     1
 90
        6
176
     1
 90
        2
176
     1
 62
     7
176
     1
 90
        5
176
     1
 90
        0
176
     1
 90
        0
176
     1
290
     0
176
     1
 90
        1
176
     1
 40
0.0
176
     1
 90
        0
176
     1
290
     0
176
     1
290
     1
176
     1
290
     1
176
     1
290
     0
176
     1
290
     0
176
     1
290
     0
176
     1
290
     0
176
     1
290
     0
176
     1
290
     0
176
     1
 90
       50
176
     1
 40
0.0
176
     1
 40
1.0
176
     1
 90
        0
176
     1
 62
    18
420
        0
176
     1
 90
       50
176
     1
 90
        3
176
     1
 62
     5
420
      255
176
     1
290
     0
176
     1
 90
       50
176
     1
 90
       50
176
     1
 90
       50
176
     1
290
     0
176
     1
 90
       50
176
     1
 62
   256
176
     0
 40
1.0
176
     0
 90
        2
176
     1
  1
strokes_ogs.tif
176
     1
290
     0
176
     1
 40
1.0
176
     1
 40
1.0
176
     1
  0
VISUALSTYLE
  5
26E
102
{ACAD_REACTORS
330
2A
102
}
330
2A
100
AcDbVisualStyle
  2
Wireframe
 70
     5
177
     3
291
     0
 70
    58
 90
        0
176
     1
 90
        2
176
     1
 90
        0
176
     1
 90
        0
176
     1
 40
0.6
176
     1
 40
30.0
176
     1
 62
     7
420
 16777215
176
     1
 90
        1
176
     1
 90
        4
176
     1
 62
     7
176
     1
 62
   257
176
     1
 90
        1
176
     1
 90
        1
176
     1
 40
1.0
176
     1
 90
        0
176
     1
 62
   257
176
     1
 40
1.0
176
     1
 90
        1
176
     1
 90
        6
176
     1
 90
        2
176
     1
 62
     7
176
     1
 90
        3
176
     1
 90
        0
176
     1
 90
        0
176
     1
290
     0
176
     1
 90
        1
176
     1
 40
0.0
176
     1
 90
        0
176
     1
290
     0
176
     1
290
     1
176
     1
290
     1
176
     1
290
     0
176
     1
290
     0
176
     1
290
     0
176
     1
290
     0
176
     1
290
     0
176
     1
290
     0
176
     1
 90
       50
176
     1
 40
0.0
176
     1
 40
1.0
176
     1
 90
        0
176
     1
 62
    18
420
        0
176
     1
 90
       50
176
     1
 90
        3
176
     1
 62
     5
420
      255
176
     1
290
     0
176
     1
 90
       50
176
     1
 90
       50
176
     1
 90
       50
176
     1
290
     0
176
     1
 90
       50
176
     1
 62
   256
176
     0
 40
1.0
176
     0
 90
        2
176
     1
  1
strokes_ogs.tif
176
     1
290
     0
176
     1
 40
1.0
176
     1
 40
1.0
176
     1
  0
VISUALSTYLE
  5
272
102
{ACAD_REACTORS
330
2A
102
}
330
2A
100
AcDbVisualStyle
  2
X-Ray
 70
    25
177
     3
291
     0
 70
    58
 90
        2
176
     1
 90
        2
176
     1
 90
        1
176
     1
 90
        1
176
     1
 40
0.5
176
     1
 40
30.0
176
     1
 62
     7
420
 16777215
176
     1
 90
        1
176
     1
 90
        0
176
     1
 62
     7
176
     1
 62
   257
176
     1
 90
        1
176
     1
 90
        1
176
     1
 40
1.0
176
     1
 90
        8
176
     1
 62
     7
176
     1
 40
1.0
176
     1
 90
        1
176
     1
 90
        6
176
     1
 90
        2
176
     1
 62
     7
176
     1
 90
        3
176
     1
 90
        0
176
     1
 90
        0
176
     1
290
     0
176
     1
 90
       13
176
     1
 40
0.0
176
     1
 90
        0
176
     1
290
     0
176
     1
290
     1
176
     1
290
     1
176
     1
290
     0
176
     1
290
     0
176
     1
290
     0
176
     1
290
     0
176
     1
290
     0
176
     1
290
     0
176
     1
 90
       50
176
     1
 40
0.0
176
     1
 40
1.0
176
     1
 90
        0
176
     1
 62
    18
420
        0
176
     1
 90
       50
176
     1
 90
        3
176
     1
 62
     5
420
      255
176
     1
290
     0
176
     1
 90
       50
176
     1
 90
       50
176
     1
 90
       50
176
     1
290
     0
176
     1
 90
       50
176
     1
 62
   256
176
     0
 40
1.0
176
     0
 90
        2
176
     1
  1
strokes_ogs.tif
176
     1
290
     0
176
     1
 40
1.0
176
     1
 40
1.0
176
     1
  0
DICTIONARYVAR
  5
24F
102
{ACAD_REACTORS
330
24E
102
}
330
24E
100
DictionaryVariables
280
     0
  1
1:1
  0
DICTIONARYVAR
  5
2A9
102
{ACAD_REACTORS
330
24E
102
}
330
24E
100
DictionaryVariables
280
     0
  1
STANDARD
  0
DICTIONARYVAR
  5
2A8
102
{ACAD_REACTORS
330
24E
102
}
330
24E
100
DictionaryVariables
280
     0
  1
STANDARD
  0
DICTIONARYVAR
  5
2AA
102
{ACAD_REACTORS
330
24E
102
}
330
24E
100
DictionaryVariables
280
     0
  1
Metric50
  0
DICTIONARYVAR
  5
2AB
102
{ACAD_REACTORS
330
24E
102
}
330
24E
100
DictionaryVariables
280
     0
  1
Metric50
  0
DICTIONARYVAR
  5
2AE
102
{ACAD_REACTORS
330
24E
102
}
330
24E
100
DictionaryVariables
280
     0
  1
1
  0
DICTIONARYVAR
  5
2AF
102
{ACAD_REACTORS
330
24E
102
}
330
24E
100
DictionaryVariables
280
     0
  1
15
  0
DICTIONARYVAR
  5
2AD
102
{ACAD_REACTORS
330
24E
102
}
330
24E
100
DictionaryVariables
280
     0
  1
0
  0
DICTIONARYVAR
  5
2AC
102
{ACAD_REACTORS
330
24E
102
}
330
24E
100
DictionaryVariables
280
     0
  1
0
  0
DICTIONARY
  5
2B4
330
27E
100
AcDbDictionary
280
     1
281
     1
  3
ACAD_XREC_ROUNDTRIP
360
2B5
  0
DICTIONARY
  5
25F
330
25E
100
AcDbDictionary
280
     1
281
     1
  3
BUMPTILE
360
261
  3
DIFFUSETILE
360
260
  3
OPACITYTILE
360
264
  3
REFLECTIONTILE
360
263
  3
REFRACTIONTILE
360
265
  3
SPECULARTILE
360
262
  0
DICTIONARY
  5
257
330
256
100
AcDbDictionary
280
     1
281
     1
  3
BUMPTILE
360
259
  3
DIFFUSETILE
360
258
  3
OPACITYTILE
360
25C
  3
REFLECTIONTILE
360
25B
  3
REFRACTIONTILE
360
25D
  3
SPECULARTILE
360
25A
  0
DICTIONARY
  5
267
330
266
100
AcDbDictionary
280
     1
281
     1
  3
BUMPTILE
360
269
  3
DIFFUSETILE
360
268
  3
OPACITYTILE
360
26C
  3
REFLECTIONTILE
360
26B
  3
REFRACTIONTILE
360
26D
  3
SPECULARTILE
360
26A
  0
DICTIONARY
  5
2B2
330
27C
100
AcDbDictionary
280
     1
281
     1
  3
ACAD_XREC_ROUNDTRIP
360
2B3
  0
DICTIONARY
  5
2B0
330
279
100
AcDbDictionary
280
     1
281
     1
  3
ACAD_ROUNDTRIP_2008_TABLESTYLE_CELLSTYLEMAP
360
2B1
  0
XRECORD
  5
2B5
102
{ACAD_REACTORS
330
2B4
102
}
330
2B4
100
AcDbXrecord
280
     1
102
DISPLAYNAME
  1
Metric50
102
FLAGS
 90
        0
  0
XRECORD
  5
261
102
{ACAD_REACTORS
330
25F
102
}
330
25F
100
AcDbXrecord
280
     1
270
     1
271
     1
  0
XRECORD
  5
260
102
{ACAD_REACTORS
330
25F
102
}
330
25F
100
AcDbXrecord
280
     1
270
     1
271
     1
  0
XRECORD
  5
264
102
{ACAD_REACTORS
330
25F
102
}
330
25F
100
AcDbXrecord
280
     1
270
     1
271
     1
  0
XRECORD
  5
263
102
{ACAD_REACTORS
330
25F
102
}
330
25F
100
AcDbXrecord
280
     1
270
     1
271
     1
  0
XRECORD
  5
265
102
{ACAD_REACTORS
330
25F
102
}
330
25F
100
AcDbXrecord
280
     1
270
     1
271
     1
  0
XRECORD
  5
262
102
{ACAD_REACTORS
330
25F
102
}
330
25F
100
AcDbXrecord
280
     1
270
     1
271
     1
  0
XRECORD
  5
259
102
{ACAD_REACTORS
330
257
102
}
330
257
100
AcDbXrecord
280
     1
270
     1
271
     1
  0
XRECORD
  5
258
102
{ACAD_REACTORS
330
257
102
}
330
257
100
AcDbXrecord
280
     1
270
     1
271
     1
  0
XRECORD
  5
25C
102
{ACAD_REACTORS
330
257
102
}
330
257
100
AcDbXrecord
280
     1
270
     1
271
     1
  0
XRECORD
  5
25B
102
{ACAD_REACTORS
330
257
102
}
330
257
100
AcDbXrecord
280
     1
270
     1
271
     1
  0
XRECORD
  5
25D
102
{ACAD_REACTORS
330
257
102
}
330
257
100
AcDbXrecord
280
     1
270
     1
271
     1
  0
XRECORD
  5
25A
102
{ACAD_REACTORS
330
257
102
}
330
257
100
AcDbXrecord
280
     1
270
     1
271
     1
  0
XRECORD
  5
269
102
{ACAD_REACTORS
330
267
102
}
330
267
100
AcDbXrecord
280
     1
270
     1
271
     1
  0
XRECORD
  5
268
102
{ACAD_REACTORS
330
267
102
}
330
267
100
AcDbXrecord
280
     1
270
     1
271
     1
  0
XRECORD
  5
26C
102
{ACAD_REACTORS
330
267
102
}
330
267
100
AcDbXrecord
280
     1
270
     1
271
     1
  0
XRECORD
  5
26B
102
{ACAD_REACTORS
330
267
102
}
330
267
100
AcDbXrecord
280
     1
270
     1
271
     1
  0
XRECORD
  5
26D
102
{ACAD_REACTORS
330
267
102
}
330
267
100
AcDbXrecord
280
     1
270
     1
271
     1
  0
XRECORD
  5
26A
102
{ACAD_REACTORS
330
267
102
}
330
267
100
AcDbXrecord
280
     1
270
     1
271
     1
  0
XRECORD
  5
2B3
102
{ACAD_REACTORS
330
2B2
102
}
330
2B2
100
AcDbXrecord
280
     1
102
DISPLAYNAME
  1
Metric50
102
FLAGS
 90
        0
  0
CELLSTYLEMAP
  5
2B1
102
{ACAD_REACTORS
330
2B0
102
}
330
2B0
100
AcDbCellStyleMap
 90
        3
300
CELLSTYLE
  1
TABLEFORMAT_BEGIN
 90
        5
170
     1
 91
        0
 92
    32768
 62
   257
 93
        1
300
CONTENTFORMAT
  1
CONTENTFORMAT_BEGIN
 90
        0
 91
        0
 92
      512
 93
        0
300

 40
0.0
140
1.0
 94
        5
 62
     0
340
11
144
6.0
309
CONTENTFORMAT_END
171
     1
301
MARGIN
  1
CELLMARGIN_BEGIN
 40
1.5
 40
1.5
 40
1.5
 40
1.5
 40
4.5
 40
4.5
309
CELLMARGIN_END
 94
        6
 95
        1
302
GRIDFORMAT
  1
GRIDFORMAT_BEGIN
 90
        0
 91
        1
 62
     0
 92
       -2
340
0
 93
        0
 40
1.125
309
GRIDFORMAT_END
 95
        2
302
GRIDFORMAT
  1
GRIDFORMAT_BEGIN
 90
        0
 91
        1
 62
     0
 92
       -2
340
0
 93
        0
 40
1.125
309
GRIDFORMAT_END
 95
        4
302
GRIDFORMAT
  1
GRIDFORMAT_BEGIN
 90
        0
 91
        1
 62
     0
 92
       -2
340
0
 93
        0
 40
1.125
309
GRIDFORMAT_END
 95
        8
302
GRIDFORMAT
  1
GRIDFORMAT_BEGIN
 90
        0
 91
        1
 62
     0
 92
       -2
340
0
 93
        0
 40
1.125
309
GRIDFORMAT_END
 95
       16
302
GRIDFORMAT
  1
GRIDFORMAT_BEGIN
 90
        0
 91
        1
 62
     0
 92
       -2
340
0
 93
        0
 40
1.125
309
GRIDFORMAT_END
 95
       32
302
GRIDFORMAT
  1
GRIDFORMAT_BEGIN
 90
        0
 91
        1
 62
     0
 92
       -2
340
0
 93
        0
 40
1.125
309
GRIDFORMAT_END
309
TABLEFORMAT_END
  1
CELLSTYLE_BEGIN
 90
        1
 91
        1
300
_TITLE
309
CELLSTYLE_END
300
CELLSTYLE
  1
TABLEFORMAT_BEGIN
 90
        5
170
     1
 91
        0
 92
        0
 62
   257
 93
        1
300
CONTENTFORMAT
  1
CONTENTFORMAT_BEGIN
 90
        0
 91
        0
 92
      512
 93
        0
300

 40
0.0
140
1.0
 94
        5
 62
     0
340
11
144
4.5
309
CONTENTFORMAT_END
171
     1
301
MARGIN
  1
CELLMARGIN_BEGIN
 40
1.5
 40
1.5
 40
1.5
 40
1.5
 40
4.5
 40
4.5
309
CELLMARGIN_END
 94
        6
 95
        1
302
GRIDFORMAT
  1
GRIDFORMAT_BEGIN
 90
        0
 91
        1
 62
     0
 92
       -2
340
0
 93
        0
 40
1.125
309
GRIDFORMAT_END
 95
        2
302
GRIDFORMAT
  1
GRIDFORMAT_BEGIN
 90
        0
 91
        1
 62
     0
 92
       -2
340
0
 93
        0
 40
1.125
309
GRIDFORMAT_END
 95
        4
302
GRIDFORMAT
  1
GRIDFORMAT_BEGIN
 90
        0
 91
        1
 62
     0
 92
       -2
340
0
 93
        0
 40
1.125
309
GRIDFORMAT_END
 95
        8
302
GRIDFORMAT
  1
GRIDFORMAT_BEGIN
 90
        0
 91
        1
 62
     0
 92
       -2
340
0
 93
        0
 40
1.125
309
GRIDFORMAT_END
 95
       16
302
GRIDFORMAT
  1
GRIDFORMAT_BEGIN
 90
        0
 91
        1
 62
     0
 92
       -2
340
0
 93
        0
 40
1.125
309
GRIDFORMAT_END
 95
       32
302
GRIDFORMAT
  1
GRIDFORMAT_BEGIN
 90
        0
 91
        1
 62
     0
 92
       -2
340
0
 93
        0
 40
1.125
309
GRIDFORMAT_END
309
TABLEFORMAT_END
  1
CELLSTYLE_BEGIN
 90
        2
 91
        1
300
_HEADER
309
CELLSTYLE_END
300
CELLSTYLE
  1
TABLEFORMAT_BEGIN
 90
        5
170
     1
 91
        0
 92
        0
 62
   257
 93
        1
300
CONTENTFORMAT
  1
CONTENTFORMAT_BEGIN
 90
        0
 91
        0
 92
      512
 93
        0
300

 40
0.0
140
1.0
 94
        2
 62
     0
340
11
144
4.5
309
CONTENTFORMAT_END
171
     1
301
MARGIN
  1
CELLMARGIN_BEGIN
 40
1.5
 40
1.5
 40
1.5
 40
1.5
 40
4.5
 40
4.5
309
CELLMARGIN_END
 94
        6
 95
        1
302
GRIDFORMAT
  1
GRIDFORMAT_BEGIN
 90
        0
 91
        1
 62
     0
 92
       -2
340
0
 93
        0
 40
1.125
309
GRIDFORMAT_END
 95
        2
302
GRIDFORMAT
  1
GRIDFORMAT_BEGIN
 90
        0
 91
        1
 62
     0
 92
       -2
340
0
 93
        0
 40
1.125
309
GRIDFORMAT_END
 95
        4
302
GRIDFORMAT
  1
GRIDFORMAT_BEGIN
 90
        0
 91
        1
 62
     0
 92
       -2
340
0
 93
        0
 40
1.125
309
GRIDFORMAT_END
 95
        8
302
GRIDFORMAT
  1
GRIDFORMAT_BEGIN
 90
        0
 91
        1
 62
     0
 92
       -2
340
0
 93
        0
 40
1.125
309
GRIDFORMAT_END
 95
       16
302
GRIDFORMAT
  1
GRIDFORMAT_BEGIN
 90
        0
 91
        1
 62
     0
 92
       -2
340
0
 93
        0
 40
1.125
309
GRIDFORMAT_END
 95
       32
302
GRIDFORMAT
  1
GRIDFORMAT_BEGIN
 90
        0
 91
        1
 62
     0
 92
       -2
340
0
 93
        0
 40
1.125
309
GRIDFORMAT_END
309
TABLEFORMAT_END
  1
CELLSTYLE_BEGIN
 90
        3
 91
        2
300
_DATA
309
CELLSTYLE_END
  0
ENDSEC
  0
EOF
