999
Erzeugt mit innoplus bad 
0
SECTION
2
HEADER
9
$ACADVER
1
AC1009
9
$DWGCODEPAGE
3
ISO8859-1
0
ENDSEC
0
SECTION
2
TABLES
0
TABLE
2
LAYER
70
1
0
LAYER
2
0
70
0
62
7
6
CONTINUOUS
0
ENDTAB
0
ENDSEC
0
SECTION
2
ENTITIES
0
LINE
8
0
6
CONTINUOUS
10
0.000000
20
-21.125000
30
0.0
11
10.795579
21
-21.125000
31
0.0
0
LINE
8
0
6
CONTINUOUS
10
10.795579
20
-8.125000
30
0.0
11
0.000000
21
-8.125000
31
0.0
0
LINE
8
0
6
CONTINUOUS
10
10.795579
20
-21.125000
30
0.0
11
21.574512
21
-21.125000
31
0.0
0
LINE
8
0
6
CONTINUOUS
10
21.574512
20
-8.125000
30
0.0
11
10.795579
21
-8.125000
31
0.0
0
LINE
8
0
6
CONTINUOUS
10
21.574512
20
-21.125000
30
0.0
11
32.320178
21
-21.125000
31
0.0
0
LINE
8
0
6
CONTINUOUS
10
32.320178
20
-8.125000
30
0.0
11
21.574512
21
-8.125000
31
0.0
0
LINE
8
0
6
CONTINUOUS
10
32.320178
20
-21.125000
30
0.0
11
43.016010
21
-21.125000
31
0.0
0
LINE
8
0
6
CONTINUOUS
10
43.016010
20
-8.125000
30
0.0
11
32.320178
21
-8.125000
31
0.0
0
LINE
8
0
6
CONTINUOUS
10
43.016010
20
-21.125000
30
0.0
11
53.645513
21
-21.125000
31
0.0
0
LINE
8
0
6
CONTINUOUS
10
53.645513
20
-8.125000
30
0.0
11
43.016010
21
-8.125000
31
0.0
0
LINE
8
0
6
CONTINUOUS
10
53.645513
20
-21.125000
30
0.0
11
64.192299
21
-21.125000
31
0.0
0
LINE
8
0
6
CONTINUOUS
10
64.192299
20
-8.125000
30
0.0
11
53.645513
21
-8.125000
31
0.0
0
LINE
8
0
6
CONTINUOUS
10
64.192299
20
-21.125000
30
0.0
11
74.640106
21
-21.125000
31
0.0
0
LINE
8
0
6
CONTINUOUS
10
74.640106
20
-8.125000
30
0.0
11
64.192299
21
-8.125000
31
0.0
0
LINE
8
0
6
CONTINUOUS
10
74.640106
20
-21.125000
30
0.0
11
84.972822
21
-21.125000
31
0.0
0
LINE
8
0
6
CONTINUOUS
10
84.972822
20
-8.125000
30
0.0
11
74.640106
21
-8.125000
31
0.0
0
LINE
8
0
6
CONTINUOUS
10
84.972822
20
-21.125000
30
0.0
11
95.174517
21
-21.125000
31
0.0
0
LINE
8
0
6
CONTINUOUS
10
95.174517
20
-8.125000
30
0.0
11
84.972822
21
-8.125000
31
0.0
0
LINE
8
0
6
CONTINUOUS
10
95.174517
20
-21.125000
30
0.0
11
105.229459
21
-21.125000
31
0.0
0
LINE
8
0
6
CONTINUOUS
10
105.229459
20
-8.125000
30
0.0
11
95.174517
21
-8.125000
31
0.0
0
LINE
8
0
6
CONTINUOUS
10
105.229459
20
-21.125000
30
0.0
11
115.122146
21
-21.125000
31
0.0
0
LINE
8
0
6
CONTINUOUS
10
115.122146
20
-8.125000
30
0.0
11
105.229459
21
-8.125000
31
0.0
0
LINE
8
0
6
CONTINUOUS
10
115.122146
20
-21.125000
30
0.0
11
124.837322
21
-21.125000
31
0.0
0
LINE
8
0
6
CONTINUOUS
10
124.837322
20
-8.125000
30
0.0
11
115.122146
21
-8.125000
31
0.0
0
LINE
8
0
6
CONTINUOUS
10
124.837322
20
-21.125000
30
0.0
11
134.360008
21
-21.125000
31
0.0
0
LINE
8
0
6
CONTINUOUS
10
134.360008
20
-8.125000
30
0.0
11
124.837322
21
-8.125000
31
0.0
0
LINE
8
0
6
CONTINUOUS
10
134.360008
20
-21.125000
30
0.0
11
143.675521
21
-21.125000
31
0.0
0
LINE
8
0
6
CONTINUOUS
10
143.675521
20
-8.125000
30
0.0
11
134.360008
21
-8.125000
31
0.0
0
LINE
8
0
6
CONTINUOUS
10
143.675521
20
-21.125000
30
0.0
11
152.769496
21
-21.125000
31
0.0
0
LINE
8
0
6
CONTINUOUS
10
152.769496
20
-8.125000
30
0.0
11
143.675521
21
-8.125000
31
0.0
0
LINE
8
0
6
CONTINUOUS
10
152.769496
20
-21.125000
30
0.0
11
161.627912
21
-21.125000
31
0.0
0
LINE
8
0
6
CONTINUOUS
10
161.627912
20
-8.125000
30
0.0
11
152.769496
21
-8.125000
31
0.0
0
LINE
8
0
6
CONTINUOUS
10
161.627912
20
-21.125000
30
0.0
11
170.237110
21
-21.125000
31
0.0
0
LINE
8
0
6
CONTINUOUS
10
170.237110
20
-8.125000
30
0.0
11
161.627912
21
-8.125000
31
0.0
0
LINE
8
0
6
CONTINUOUS
10
170.237110
20
-21.125000
30
0.0
11
178.583814
21
-21.125000
31
0.0
0
LINE
8
0
6
CONTINUOUS
10
178.583814
20
-8.125000
30
0.0
11
170.237110
21
-8.125000
31
0.0
0
LINE
8
0
6
CONTINUOUS
10
178.583814
20
-21.125000
30
0.0
11
186.655155
21
-21.125000
31
0.0
0
LINE
8
0
6
CONTINUOUS
10
186.655155
20
-8.125000
30
0.0
11
178.583814
21
-8.125000
31
0.0
0
LINE
8
0
6
CONTINUOUS
10
186.655155
20
-21.125000
30
0.0
11
194.438687
21
-21.125000
31
0.0
0
LINE
8
0
6
CONTINUOUS
10
194.438687
20
-8.125000
30
0.0
11
186.655155
21
-8.125000
31
0.0
0
LINE
8
0
6
CONTINUOUS
10
194.438687
20
-21.125000
30
0.0
11
201.922409
21
-21.125000
31
0.0
0
LINE
8
0
6
CONTINUOUS
10
201.922409
20
-8.125000
30
0.0
11
194.438687
21
-8.125000
31
0.0
0
LINE
8
0
6
CONTINUOUS
10
201.922409
20
-21.125000
30
0.0
11
209.094781
21
-21.125000
31
0.0
0
LINE
8
0
6
CONTINUOUS
10
209.094781
20
-8.125000
30
0.0
11
201.922409
21
-8.125000
31
0.0
0
LINE
8
0
6
CONTINUOUS
10
209.094781
20
-21.125000
30
0.0
11
215.944744
21
-21.125000
31
0.0
0
LINE
8
0
6
CONTINUOUS
10
215.944744
20
-8.125000
30
0.0
11
209.094781
21
-8.125000
31
0.0
0
LINE
8
0
6
CONTINUOUS
10
215.944744
20
-21.125000
30
0.0
11
222.461736
21
-21.125000
31
0.0
0
LINE
8
0
6
CONTINUOUS
10
222.461736
20
-8.125000
30
0.0
11
215.944744
21
-8.125000
31
0.0
0
LINE
8
0
6
CONTINUOUS
10
222.461736
20
-21.125000
30
0.0
11
228.635709
21
-21.125000
31
0.0
0
LINE
8
0
6
CONTINUOUS
10
228.635709
20
-8.125000
30
0.0
11
222.461736
21
-8.125000
31
0.0
0
LINE
8
0
6
CONTINUOUS
10
228.635709
20
-21.125000
30
0.0
11
234.457141
21
-21.125000
31
0.0
0
LINE
8
0
6
CONTINUOUS
10
234.457141
20
-8.125000
30
0.0
11
228.635709
21
-8.125000
31
0.0
0
LINE
8
0
6
CONTINUOUS
10
234.457141
20
-21.125000
30
0.0
11
239.917057
21
-21.125000
31
0.0
0
LINE
8
0
6
CONTINUOUS
10
239.917057
20
-8.125000
30
0.0
11
234.457141
21
-8.125000
31
0.0
0
LINE
8
0
6
CONTINUOUS
10
239.917057
20
-21.125000
30
0.0
11
245.007039
21
-21.125000
31
0.0
0
LINE
8
0
6
CONTINUOUS
10
245.007039
20
-8.125000
30
0.0
11
239.917057
21
-8.125000
31
0.0
0
LINE
8
0
6
CONTINUOUS
10
245.007039
20
-21.125000
30
0.0
11
249.719238
21
-21.125000
31
0.0
0
LINE
8
0
6
CONTINUOUS
10
249.719238
20
-8.125000
30
0.0
11
245.007039
21
-8.125000
31
0.0
0
LINE
8
0
6
CONTINUOUS
10
249.719238
20
-21.125000
30
0.0
11
254.046388
21
-21.125000
31
0.0
0
LINE
8
0
6
CONTINUOUS
10
254.046388
20
-8.125000
30
0.0
11
249.719238
21
-8.125000
31
0.0
0
LINE
8
0
6
CONTINUOUS
10
254.046388
20
-21.125000
30
0.0
11
257.981816
21
-21.125000
31
0.0
0
LINE
8
0
6
CONTINUOUS
10
257.981816
20
-8.125000
30
0.0
11
254.046388
21
-8.125000
31
0.0
0
LINE
8
0
6
CONTINUOUS
10
257.981816
20
-21.125000
30
0.0
11
261.519456
21
-21.125000
31
0.0
0
LINE
8
0
6
CONTINUOUS
10
261.519456
20
-8.125000
30
0.0
11
257.981816
21
-8.125000
31
0.0
0
LINE
8
0
6
CONTINUOUS
10
261.519456
20
-21.125000
30
0.0
11
264.653851
21
-21.125000
31
0.0
0
LINE
8
0
6
CONTINUOUS
10
264.653851
20
-8.125000
30
0.0
11
261.519456
21
-8.125000
31
0.0
0
LINE
8
0
6
CONTINUOUS
10
264.653851
20
-21.125000
30
0.0
11
267.380169
21
-21.125000
31
0.0
0
LINE
8
0
6
CONTINUOUS
10
267.380169
20
-8.125000
30
0.0
11
264.653851
21
-8.125000
31
0.0
0
LINE
8
0
6
CONTINUOUS
10
267.380169
20
-21.125000
30
0.0
11
269.694207
21
-21.125000
31
0.0
0
LINE
8
0
6
CONTINUOUS
10
269.694207
20
-8.125000
30
0.0
11
267.380169
21
-8.125000
31
0.0
0
LINE
8
0
6
CONTINUOUS
10
269.694207
20
-21.125000
30
0.0
11
271.592395
21
-21.125000
31
0.0
0
LINE
8
0
6
CONTINUOUS
10
271.592395
20
-8.125000
30
0.0
11
269.694207
21
-8.125000
31
0.0
0
LINE
8
0
6
CONTINUOUS
10
271.592395
20
-21.125000
30
0.0
11
273.071808
21
-21.125000
31
0.0
0
LINE
8
0
6
CONTINUOUS
10
273.071808
20
-8.125000
30
0.0
11
271.592395
21
-8.125000
31
0.0
0
LINE
8
0
6
CONTINUOUS
10
273.071808
20
-21.125000
30
0.0
11
274.130164
21
-21.125000
31
0.0
0
LINE
8
0
6
CONTINUOUS
10
274.130164
20
-8.125000
30
0.0
11
273.071808
21
-8.125000
31
0.0
0
LINE
8
0
6
CONTINUOUS
10
274.130164
20
-21.125000
30
0.0
11
274.765831
21
-21.125000
31
0.0
0
LINE
8
0
6
CONTINUOUS
10
274.765831
20
-8.125000
30
0.0
11
274.130164
21
-8.125000
31
0.0
0
LINE
8
0
6
CONTINUOUS
10
274.977828
20
-21.125000
30
0.0
11
274.977828
21
-16.132392
31
0.0
0
LINE
8
0
6
CONTINUOUS
10
274.977828
20
-16.125000
30
0.0
11
274.977828
21
-13.125000
31
0.0
0
LINE
8
0
6
CONTINUOUS
10
274.977828
20
-13.125000
30
0.0
11
274.977828
21
-8.125000
31
0.0
0
LINE
8
0
6
CONTINUOUS
10
274.765831
20
-21.125000
30
0.0
11
274.977828
21
-21.125000
31
0.0
0
LINE
8
0
6
CONTINUOUS
10
274.977828
20
-8.125000
30
0.0
11
274.765831
21
-8.125000
31
0.0
0
LINE
8
0
6
CONTINUOUS
10
-274.977828
20
-21.125000
30
0.0
11
-274.765830
21
-21.125000
31
0.0
0
LINE
8
0
6
CONTINUOUS
10
-274.977828
20
-8.125000
30
0.0
11
-274.977828
21
-13.125000
31
0.0
0
LINE
8
0
6
CONTINUOUS
10
-274.977828
20
-13.125000
30
0.0
11
-274.977828
21
-16.125000
31
0.0
0
LINE
8
0
6
CONTINUOUS
10
-274.977828
20
-16.125000
30
0.0
11
-274.977828
21
-21.125000
31
0.0
0
LINE
8
0
6
CONTINUOUS
10
-274.765830
20
-8.125000
30
0.0
11
-274.977828
21
-8.125000
31
0.0
0
LINE
8
0
6
CONTINUOUS
10
-274.765830
20
-21.125000
30
0.0
11
-274.130163
21
-21.125000
31
0.0
0
LINE
8
0
6
CONTINUOUS
10
-274.130163
20
-8.125000
30
0.0
11
-274.765830
21
-8.125000
31
0.0
0
LINE
8
0
6
CONTINUOUS
10
-274.130163
20
-21.125000
30
0.0
11
-273.071808
21
-21.125000
31
0.0
0
LINE
8
0
6
CONTINUOUS
10
-273.071808
20
-8.125000
30
0.0
11
-274.130163
21
-8.125000
31
0.0
0
LINE
8
0
6
CONTINUOUS
10
-273.071808
20
-21.125000
30
0.0
11
-271.592395
21
-21.125000
31
0.0
0
LINE
8
0
6
CONTINUOUS
10
-271.592395
20
-8.125000
30
0.0
11
-273.071808
21
-8.125000
31
0.0
0
LINE
8
0
6
CONTINUOUS
10
-271.592395
20
-21.125000
30
0.0
11
-269.694207
21
-21.125000
31
0.0
0
LINE
8
0
6
CONTINUOUS
10
-269.694206
20
-8.125000
30
0.0
11
-271.592395
21
-8.125000
31
0.0
0
LINE
8
0
6
CONTINUOUS
10
-269.694206
20
-21.125000
30
0.0
11
-267.380169
21
-21.125000
31
0.0
0
LINE
8
0
6
CONTINUOUS
10
-267.380169
20
-8.125000
30
0.0
11
-269.694206
21
-8.125000
31
0.0
0
LINE
8
0
6
CONTINUOUS
10
-267.380169
20
-21.125000
30
0.0
11
-264.653851
21
-21.125000
31
0.0
0
LINE
8
0
6
CONTINUOUS
10
-264.653851
20
-8.125000
30
0.0
11
-267.380169
21
-8.125000
31
0.0
0
LINE
8
0
6
CONTINUOUS
10
-264.653851
20
-21.125000
30
0.0
11
-261.519455
21
-21.125000
31
0.0
0
LINE
8
0
6
CONTINUOUS
10
-261.519455
20
-8.125000
30
0.0
11
-264.653851
21
-8.125000
31
0.0
0
LINE
8
0
6
CONTINUOUS
10
-261.519455
20
-21.125000
30
0.0
11
-257.981817
21
-21.125000
31
0.0
0
LINE
8
0
6
CONTINUOUS
10
-257.981816
20
-8.125000
30
0.0
11
-261.519455
21
-8.125000
31
0.0
0
LINE
8
0
6
CONTINUOUS
10
-257.981816
20
-21.125000
30
0.0
11
-254.046387
21
-21.125000
31
0.0
0
LINE
8
0
6
CONTINUOUS
10
-254.046387
20
-8.125000
30
0.0
11
-257.981816
21
-8.125000
31
0.0
0
LINE
8
0
6
CONTINUOUS
10
-254.046387
20
-21.125000
30
0.0
11
-249.719239
21
-21.125000
31
0.0
0
LINE
8
0
6
CONTINUOUS
10
-249.719238
20
-8.125000
30
0.0
11
-254.046387
21
-8.125000
31
0.0
0
LINE
8
0
6
CONTINUOUS
10
-249.719238
20
-21.125000
30
0.0
11
-245.007039
21
-21.125000
31
0.0
0
LINE
8
0
6
CONTINUOUS
10
-245.007039
20
-8.125000
30
0.0
11
-249.719238
21
-8.125000
31
0.0
0
LINE
8
0
6
CONTINUOUS
10
-245.007039
20
-21.125000
30
0.0
11
-239.917058
21
-21.125000
31
0.0
0
LINE
8
0
6
CONTINUOUS
10
-239.917057
20
-8.125000
30
0.0
11
-245.007039
21
-8.125000
31
0.0
0
LINE
8
0
6
CONTINUOUS
10
-239.917057
20
-21.125000
30
0.0
11
-234.457141
21
-21.125000
31
0.0
0
LINE
8
0
6
CONTINUOUS
10
-234.457141
20
-8.125000
30
0.0
11
-239.917057
21
-8.125000
31
0.0
0
LINE
8
0
6
CONTINUOUS
10
-234.457141
20
-21.125000
30
0.0
11
-228.635709
21
-21.125000
31
0.0
0
LINE
8
0
6
CONTINUOUS
10
-228.635708
20
-8.125000
30
0.0
11
-234.457141
21
-8.125000
31
0.0
0
LINE
8
0
6
CONTINUOUS
10
-228.635708
20
-21.125000
30
0.0
11
-222.461736
21
-21.125000
31
0.0
0
LINE
8
0
6
CONTINUOUS
10
-222.461736
20
-8.125000
30
0.0
11
-228.635708
21
-8.125000
31
0.0
0
LINE
8
0
6
CONTINUOUS
10
-222.461736
20
-21.125000
30
0.0
11
-215.944745
21
-21.125000
31
0.0
0
LINE
8
0
6
CONTINUOUS
10
-215.944744
20
-8.125000
30
0.0
11
-222.461736
21
-8.125000
31
0.0
0
LINE
8
0
6
CONTINUOUS
10
-215.944744
20
-21.125000
30
0.0
11
-209.094781
21
-21.125000
31
0.0
0
LINE
8
0
6
CONTINUOUS
10
-209.094781
20
-8.125000
30
0.0
11
-215.944744
21
-8.125000
31
0.0
0
LINE
8
0
6
CONTINUOUS
10
-209.094781
20
-21.125000
30
0.0
11
-201.922410
21
-21.125000
31
0.0
0
LINE
8
0
6
CONTINUOUS
10
-201.922409
20
-8.125000
30
0.0
11
-209.094781
21
-8.125000
31
0.0
0
LINE
8
0
6
CONTINUOUS
10
-201.922409
20
-21.125000
30
0.0
11
-194.438687
21
-21.125000
31
0.0
0
LINE
8
0
6
CONTINUOUS
10
-194.438687
20
-8.125000
30
0.0
11
-201.922409
21
-8.125000
31
0.0
0
LINE
8
0
6
CONTINUOUS
10
-194.438687
20
-21.125000
30
0.0
11
-186.655156
21
-21.125000
31
0.0
0
LINE
8
0
6
CONTINUOUS
10
-186.655155
20
-8.125000
30
0.0
11
-194.438687
21
-8.125000
31
0.0
0
LINE
8
0
6
CONTINUOUS
10
-186.655155
20
-21.125000
30
0.0
11
-178.583814
21
-21.125000
31
0.0
0
LINE
8
0
6
CONTINUOUS
10
-178.583814
20
-8.125000
30
0.0
11
-186.655155
21
-8.125000
31
0.0
0
LINE
8
0
6
CONTINUOUS
10
-178.583814
20
-21.125000
30
0.0
11
-170.237111
21
-21.125000
31
0.0
0
LINE
8
0
6
CONTINUOUS
10
-170.237110
20
-8.125000
30
0.0
11
-178.583814
21
-8.125000
31
0.0
0
LINE
8
0
6
CONTINUOUS
10
-170.237110
20
-21.125000
30
0.0
11
-161.627912
21
-21.125000
31
0.0
0
LINE
8
0
6
CONTINUOUS
10
-161.627912
20
-8.125000
30
0.0
11
-170.237110
21
-8.125000
31
0.0
0
LINE
8
0
6
CONTINUOUS
10
-161.627912
20
-21.125000
30
0.0
11
-152.769497
21
-21.125000
31
0.0
0
LINE
8
0
6
CONTINUOUS
10
-152.769496
20
-8.125000
30
0.0
11
-161.627912
21
-8.125000
31
0.0
0
LINE
8
0
6
CONTINUOUS
10
-152.769496
20
-21.125000
30
0.0
11
-143.675521
21
-21.125000
31
0.0
0
LINE
8
0
6
CONTINUOUS
10
-143.675521
20
-8.125000
30
0.0
11
-152.769496
21
-8.125000
31
0.0
0
LINE
8
0
6
CONTINUOUS
10
-143.675521
20
-21.125000
30
0.0
11
-134.360009
21
-21.125000
31
0.0
0
LINE
8
0
6
CONTINUOUS
10
-134.360008
20
-8.125000
30
0.0
11
-143.675521
21
-8.125000
31
0.0
0
LINE
8
0
6
CONTINUOUS
10
-134.360008
20
-21.125000
30
0.0
11
-124.837322
21
-21.125000
31
0.0
0
LINE
8
0
6
CONTINUOUS
10
-124.837322
20
-8.125000
30
0.0
11
-134.360008
21
-8.125000
31
0.0
0
LINE
8
0
6
CONTINUOUS
10
-124.837322
20
-21.125000
30
0.0
11
-115.122146
21
-21.125000
31
0.0
0
LINE
8
0
6
CONTINUOUS
10
-115.122145
20
-8.125000
30
0.0
11
-124.837322
21
-8.125000
31
0.0
0
LINE
8
0
6
CONTINUOUS
10
-115.122145
20
-21.125000
30
0.0
11
-105.229459
21
-21.125000
31
0.0
0
LINE
8
0
6
CONTINUOUS
10
-105.229459
20
-8.125000
30
0.0
11
-115.122145
21
-8.125000
31
0.0
0
LINE
8
0
6
CONTINUOUS
10
-105.229459
20
-21.125000
30
0.0
11
-95.174517
21
-21.125000
31
0.0
0
LINE
8
0
6
CONTINUOUS
10
-95.174517
20
-8.125000
30
0.0
11
-105.229459
21
-8.125000
31
0.0
0
LINE
8
0
6
CONTINUOUS
10
-95.174517
20
-21.125000
30
0.0
11
-84.972822
21
-21.125000
31
0.0
0
LINE
8
0
6
CONTINUOUS
10
-84.972822
20
-8.125000
30
0.0
11
-95.174517
21
-8.125000
31
0.0
0
LINE
8
0
6
CONTINUOUS
10
-84.972822
20
-21.125000
30
0.0
11
-74.640106
21
-21.125000
31
0.0
0
LINE
8
0
6
CONTINUOUS
10
-74.640105
20
-8.125000
30
0.0
11
-84.972822
21
-8.125000
31
0.0
0
LINE
8
0
6
CONTINUOUS
10
-74.640105
20
-21.125000
30
0.0
11
-64.192299
21
-21.125000
31
0.0
0
LINE
8
0
6
CONTINUOUS
10
-64.192299
20
-8.125000
30
0.0
11
-74.640105
21
-8.125000
31
0.0
0
LINE
8
0
6
CONTINUOUS
10
-64.192299
20
-21.125000
30
0.0
11
-53.645514
21
-21.125000
31
0.0
0
LINE
8
0
6
CONTINUOUS
10
-53.645513
20
-8.125000
30
0.0
11
-64.192299
21
-8.125000
31
0.0
0
LINE
8
0
6
CONTINUOUS
10
-53.645513
20
-21.125000
30
0.0
11
-43.016009
21
-21.125000
31
0.0
0
LINE
8
0
6
CONTINUOUS
10
-43.016009
20
-8.125000
30
0.0
11
-53.645513
21
-8.125000
31
0.0
0
LINE
8
0
6
CONTINUOUS
10
-43.016009
20
-21.125000
30
0.0
11
-32.320179
21
-21.125000
31
0.0
0
LINE
8
0
6
CONTINUOUS
10
-32.320178
20
-8.125000
30
0.0
11
-43.016009
21
-8.125000
31
0.0
0
LINE
8
0
6
CONTINUOUS
10
-32.320178
20
-21.125000
30
0.0
11
-21.574512
21
-21.125000
31
0.0
0
LINE
8
0
6
CONTINUOUS
10
-21.574512
20
-8.125000
30
0.0
11
-32.320178
21
-8.125000
31
0.0
0
LINE
8
0
6
CONTINUOUS
10
-21.574512
20
-21.125000
30
0.0
11
-10.795579
21
-21.125000
31
0.0
0
LINE
8
0
6
CONTINUOUS
10
-10.795579
20
-8.125000
30
0.0
11
-21.574512
21
-8.125000
31
0.0
0
LINE
8
0
6
CONTINUOUS
10
-10.795579
20
-21.125000
30
0.0
11
0.000000
21
-21.125000
31
0.0
0
LINE
8
0
6
CONTINUOUS
10
0.000000
20
-8.125000
30
0.0
11
-10.795579
21
-8.125000
31
0.0
0
LINE
8
0
6
CONTINUOUS
10
270.250424
20
-21.125000
30
0.0
11
270.250424
21
-15.875000
31
0.0
0
LINE
8
0
6
CONTINUOUS
10
268.423087
20
-21.125000
30
0.0
11
270.250424
21
-21.125000
31
0.0
0
LINE
8
0
6
CONTINUOUS
10
262.965789
20
-21.125000
30
0.0
11
268.423087
21
-21.125000
31
0.0
0
LINE
8
0
6
CONTINUOUS
10
253.952329
20
-21.125000
30
0.0
11
262.965789
21
-21.125000
31
0.0
0
LINE
8
0
6
CONTINUOUS
10
241.504600
20
-21.125000
30
0.0
11
253.952329
21
-21.125000
31
0.0
0
LINE
8
0
6
CONTINUOUS
10
225.790935
20
-21.125000
30
0.0
11
241.504600
21
-21.125000
31
0.0
0
LINE
8
0
6
CONTINUOUS
10
207.023835
20
-21.125000
30
0.0
11
225.790935
21
-21.125000
31
0.0
0
LINE
8
0
6
CONTINUOUS
10
185.457094
20
-21.125000
30
0.0
11
207.023835
21
-21.125000
31
0.0
0
LINE
8
0
6
CONTINUOUS
10
161.382363
20
-21.125000
30
0.0
11
185.457094
21
-21.125000
31
0.0
0
LINE
8
0
6
CONTINUOUS
10
135.125212
20
-21.125000
30
0.0
11
161.382363
21
-21.125000
31
0.0
0
LINE
8
0
6
CONTINUOUS
10
107.040725
20
-21.125000
30
0.0
11
135.125212
21
-21.125000
31
0.0
0
LINE
8
0
6
CONTINUOUS
10
77.508695
20
-21.125000
30
0.0
11
107.040725
21
-21.125000
31
0.0
0
LINE
8
0
6
CONTINUOUS
10
46.928494
20
-21.125000
30
0.0
11
77.508695
21
-21.125000
31
0.0
0
LINE
8
0
6
CONTINUOUS
10
15.713665
20
-21.125000
30
0.0
11
46.928494
21
-21.125000
31
0.0
0
LINE
8
0
6
CONTINUOUS
10
-15.713664
20
-21.125000
30
0.0
11
15.713665
21
-21.125000
31
0.0
0
LINE
8
0
6
CONTINUOUS
10
-46.928493
20
-21.125000
30
0.0
11
-15.713664
21
-21.125000
31
0.0
0
LINE
8
0
6
CONTINUOUS
10
-77.508695
20
-21.125000
30
0.0
11
-46.928493
21
-21.125000
31
0.0
0
LINE
8
0
6
CONTINUOUS
10
-107.040724
20
-21.125000
30
0.0
11
-77.508695
21
-21.125000
31
0.0
0
LINE
8
0
6
CONTINUOUS
10
-135.125212
20
-21.125000
30
0.0
11
-107.040724
21
-21.125000
31
0.0
0
LINE
8
0
6
CONTINUOUS
10
-161.382362
20
-21.125000
30
0.0
11
-135.125212
21
-21.125000
31
0.0
0
LINE
8
0
6
CONTINUOUS
10
-185.457093
20
-21.125000
30
0.0
11
-161.382362
21
-21.125000
31
0.0
0
LINE
8
0
6
CONTINUOUS
10
-207.023835
20
-21.125000
30
0.0
11
-185.457093
21
-21.125000
31
0.0
0
LINE
8
0
6
CONTINUOUS
10
-225.790935
20
-21.125000
30
0.0
11
-207.023835
21
-21.125000
31
0.0
0
LINE
8
0
6
CONTINUOUS
10
-241.504600
20
-21.125000
30
0.0
11
-225.790935
21
-21.125000
31
0.0
0
LINE
8
0
6
CONTINUOUS
10
-253.952329
20
-21.125000
30
0.0
11
-241.504600
21
-21.125000
31
0.0
0
LINE
8
0
6
CONTINUOUS
10
-262.965789
20
-21.125000
30
0.0
11
-253.952329
21
-21.125000
31
0.0
0
LINE
8
0
6
CONTINUOUS
10
-268.423087
20
-21.125000
30
0.0
11
-262.965789
21
-21.125000
31
0.0
0
LINE
8
0
6
CONTINUOUS
10
-270.250424
20
-21.125000
30
0.0
11
-268.423087
21
-21.125000
31
0.0
0
LINE
8
0
6
CONTINUOUS
10
-270.250424
20
-15.875000
30
0.0
11
-270.250424
21
-21.125000
31
0.0
0
LINE
8
0
6
CONTINUOUS
10
21.574512
20
-16.125000
30
0.0
11
32.320178
21
-21.125000
31
0.0
0
LINE
8
0
6
CONTINUOUS
10
32.320178
20
-21.125000
30
0.0
11
45.839585
21
-27.125000
31
0.0
0
LINE
8
0
6
CONTINUOUS
10
30.599047
20
-17.125000
30
0.0
11
21.574512
21
-16.125000
31
0.0
0
LINE
8
0
6
CONTINUOUS
10
45.839585
20
-27.125000
30
0.0
11
30.599047
21
-17.125000
31
0.0
0
LINE
8
0
6
CONTINUOUS
10
43.016010
20
-16.125000
30
0.0
11
53.645513
21
-21.125000
31
0.0
0
LINE
8
0
6
CONTINUOUS
10
53.645513
20
-21.125000
30
0.0
11
76.085226
21
-27.125000
31
0.0
0
LINE
8
0
6
CONTINUOUS
10
61.009441
20
-17.125000
30
0.0
11
43.016010
21
-16.125000
31
0.0
0
LINE
8
0
6
CONTINUOUS
10
76.085226
20
-27.125000
30
0.0
11
61.009441
21
-17.125000
31
0.0
0
LINE
8
0
6
CONTINUOUS
10
64.192299
20
-16.125000
30
0.0
11
74.640106
21
-21.125000
31
0.0
0
LINE
8
0
6
CONTINUOUS
10
74.640106
20
-21.125000
30
0.0
11
105.861776
21
-27.125000
31
0.0
0
LINE
8
0
6
CONTINUOUS
10
91.043692
20
-17.125000
30
0.0
11
64.192299
21
-16.125000
31
0.0
0
LINE
8
0
6
CONTINUOUS
10
105.861776
20
-27.125000
30
0.0
11
91.043692
21
-17.125000
31
0.0
0
LINE
8
0
6
CONTINUOUS
10
84.972822
20
-16.125000
30
0.0
11
95.174517
21
-21.125000
31
0.0
0
LINE
8
0
6
CONTINUOUS
10
95.174517
20
-21.125000
30
0.0
11
134.985652
21
-27.125000
31
0.0
0
LINE
8
0
6
CONTINUOUS
10
120.516628
20
-17.125000
30
0.0
11
84.972822
21
-16.125000
31
0.0
0
LINE
8
0
6
CONTINUOUS
10
134.985652
20
-27.125000
30
0.0
11
120.516628
21
-17.125000
31
0.0
0
LINE
8
0
6
CONTINUOUS
10
105.229459
20
-16.125000
30
0.0
11
115.122146
21
-21.125000
31
0.0
0
LINE
8
0
6
CONTINUOUS
10
115.122146
20
-21.125000
30
0.0
11
163.277298
21
-27.125000
31
0.0
0
LINE
8
0
6
CONTINUOUS
10
149.246539
20
-17.125000
30
0.0
11
105.229459
21
-16.125000
31
0.0
0
LINE
8
0
6
CONTINUOUS
10
163.277298
20
-27.125000
30
0.0
11
149.246539
21
-17.125000
31
0.0
0
LINE
8
0
6
CONTINUOUS
10
124.837322
20
-16.125000
30
0.0
11
134.360008
21
-21.125000
31
0.0
0
LINE
8
0
6
CONTINUOUS
10
134.360008
20
-21.125000
30
0.0
11
190.562284
21
-27.125000
31
0.0
0
LINE
8
0
6
CONTINUOUS
10
177.056295
20
-17.125000
30
0.0
11
124.837322
21
-16.125000
31
0.0
0
LINE
8
0
6
CONTINUOUS
10
190.562284
20
-27.125000
30
0.0
11
177.056295
21
-17.125000
31
0.0
0
LINE
8
0
6
CONTINUOUS
10
143.675521
20
-16.125000
30
0.0
11
152.769496
21
-21.125000
31
0.0
0
LINE
8
0
6
CONTINUOUS
10
152.769496
20
-21.125000
30
0.0
11
216.672391
21
-27.125000
31
0.0
0
LINE
8
0
6
CONTINUOUS
10
203.774440
20
-17.125000
30
0.0
11
143.675521
21
-16.125000
31
0.0
0
LINE
8
0
6
CONTINUOUS
10
216.672391
20
-27.125000
30
0.0
11
203.774440
21
-17.125000
31
0.0
0
LINE
8
0
6
CONTINUOUS
10
161.627912
20
-16.125000
30
0.0
11
170.237110
21
-21.125000
31
0.0
0
LINE
8
0
6
CONTINUOUS
10
170.237110
20
-21.125000
30
0.0
11
241.446640
21
-27.125000
31
0.0
0
LINE
8
0
6
CONTINUOUS
10
229.236248
20
-17.125000
30
0.0
11
161.627912
21
-16.125000
31
0.0
0
LINE
8
0
6
CONTINUOUS
10
241.446640
20
-27.125000
30
0.0
11
229.236248
21
-17.125000
31
0.0
0
LINE
8
0
6
CONTINUOUS
10
178.583814
20
-16.125000
30
0.0
11
186.655155
21
-21.125000
31
0.0
0
LINE
8
0
6
CONTINUOUS
10
186.655155
20
-21.125000
30
0.0
11
264.732291
21
-27.125000
31
0.0
0
LINE
8
0
6
CONTINUOUS
10
253.284739
20
-17.125000
30
0.0
11
178.583814
21
-16.125000
31
0.0
0
LINE
8
0
6
CONTINUOUS
10
264.732291
20
-27.125000
30
0.0
11
253.284739
21
-17.125000
31
0.0
0
LINE
8
0
6
CONTINUOUS
10
194.438687
20
-16.125000
30
0.0
11
201.922409
21
-21.125000
31
0.0
0
LINE
8
0
6
CONTINUOUS
10
201.922409
20
-21.125000
30
0.0
11
286.385779
21
-27.125000
31
0.0
0
LINE
8
0
6
CONTINUOUS
10
275.771645
20
-17.125000
30
0.0
11
194.438687
21
-16.125000
31
0.0
0
LINE
8
0
6
CONTINUOUS
10
286.385779
20
-27.125000
30
0.0
11
275.771645
21
-17.125000
31
0.0
0
LINE
8
0
6
CONTINUOUS
10
209.094781
20
-16.125000
30
0.0
11
215.944744
21
-21.125000
31
0.0
0
LINE
8
0
6
CONTINUOUS
10
215.944744
20
-21.125000
30
0.0
11
306.273603
21
-27.125000
31
0.0
0
LINE
8
0
6
CONTINUOUS
10
296.558327
20
-17.125000
30
0.0
11
209.094781
21
-16.125000
31
0.0
0
LINE
8
0
6
CONTINUOUS
10
306.273603
20
-27.125000
30
0.0
11
296.558327
21
-17.125000
31
0.0
0
LINE
8
0
6
CONTINUOUS
10
222.461736
20
-16.125000
30
0.0
11
228.635708
21
-21.125000
31
0.0
0
LINE
8
0
6
CONTINUOUS
10
228.635708
20
-21.125000
30
0.0
11
324.273149
21
-27.125000
31
0.0
0
LINE
8
0
6
CONTINUOUS
10
315.516628
20
-17.125000
30
0.0
11
222.461736
21
-16.125000
31
0.0
0
LINE
8
0
6
CONTINUOUS
10
324.273149
20
-27.125000
30
0.0
11
315.516628
21
-17.125000
31
0.0
0
LINE
8
0
6
CONTINUOUS
10
234.457141
20
-16.125000
30
0.0
11
239.917057
21
-21.125000
31
0.0
0
LINE
8
0
6
CONTINUOUS
10
239.917057
20
-21.125000
30
0.0
11
340.273443
21
-27.125000
31
0.0
0
LINE
8
0
6
CONTINUOUS
10
332.529664
20
-17.125000
30
0.0
11
234.457141
21
-16.125000
31
0.0
0
LINE
8
0
6
CONTINUOUS
10
340.273443
20
-27.125000
30
0.0
11
332.529664
21
-17.125000
31
0.0
0
LINE
8
0
6
CONTINUOUS
10
245.007039
20
-16.125000
30
0.0
11
249.719238
21
-21.125000
31
0.0
0
LINE
8
0
6
CONTINUOUS
10
249.719238
20
-21.125000
30
0.0
11
354.175838
21
-27.125000
31
0.0
0
LINE
8
0
6
CONTINUOUS
10
347.492544
20
-17.125000
30
0.0
11
245.007039
21
-16.125000
31
0.0
0
LINE
8
0
6
CONTINUOUS
10
354.175838
20
-27.125000
30
0.0
11
347.492544
21
-17.125000
31
0.0
0
LINE
8
0
6
CONTINUOUS
10
254.046388
20
-16.125000
30
0.0
11
257.981816
21
-21.125000
31
0.0
0
LINE
8
0
6
CONTINUOUS
10
257.981816
20
-21.125000
30
0.0
11
365.894621
21
-27.125000
31
0.0
0
LINE
8
0
6
CONTINUOUS
10
360.313018
20
-17.125000
30
0.0
11
254.046388
21
-16.125000
31
0.0
0
LINE
8
0
6
CONTINUOUS
10
365.894621
20
-27.125000
30
0.0
11
360.313018
21
-17.125000
31
0.0
0
LINE
8
0
6
CONTINUOUS
10
261.519456
20
-16.125000
30
0.0
11
264.653851
21
-21.125000
31
0.0
0
LINE
8
0
6
CONTINUOUS
10
264.653851
20
-21.125000
30
0.0
11
375.357542
21
-27.125000
31
0.0
0
LINE
8
0
6
CONTINUOUS
10
370.912041
20
-17.125000
30
0.0
11
261.519456
21
-16.125000
31
0.0
0
LINE
8
0
6
CONTINUOUS
10
375.357542
20
-27.125000
30
0.0
11
370.912041
21
-17.125000
31
0.0
0
LINE
8
0
6
CONTINUOUS
10
267.380169
20
-16.125000
30
0.0
11
269.682432
21
-21.099558
31
0.0
0
LINE
8
0
6
CONTINUOUS
10
269.694207
20
-21.125000
30
0.0
11
382.506259
21
-27.125000
31
0.0
0
LINE
8
0
6
CONTINUOUS
10
379.224269
20
-17.125000
30
0.0
11
267.380169
21
-16.125000
31
0.0
0
LINE
8
0
6
CONTINUOUS
10
382.506259
20
-27.125000
30
0.0
11
379.224269
21
-17.125000
31
0.0
0
LINE
8
0
6
CONTINUOUS
10
271.592395
20
-16.125000
30
0.0
11
273.071808
21
-21.125000
31
0.0
0
LINE
8
0
6
CONTINUOUS
10
273.071808
20
-21.125000
30
0.0
11
387.296698
21
-27.125000
31
0.0
0
LINE
8
0
6
CONTINUOUS
10
385.198453
20
-17.125000
30
0.0
11
271.592395
21
-16.125000
31
0.0
0
LINE
8
0
6
CONTINUOUS
10
387.296698
20
-27.125000
30
0.0
11
385.198453
21
-17.125000
31
0.0
0
LINE
8
0
6
CONTINUOUS
10
274.130164
20
-16.125000
30
0.0
11
274.765830
21
-21.125000
31
0.0
0
LINE
8
0
6
CONTINUOUS
10
274.765830
20
-21.125000
30
0.0
11
389.699324
21
-27.125000
31
0.0
0
LINE
8
0
6
CONTINUOUS
10
388.797760
20
-17.125000
30
0.0
11
274.130164
21
-16.125000
31
0.0
0
LINE
8
0
6
CONTINUOUS
10
389.699324
20
-27.125000
30
0.0
11
388.797760
21
-17.125000
31
0.0
0
LINE
8
0
6
CONTINUOUS
10
10.795579
20
-21.125000
30
0.0
11
10.255800
21
-20.875000
31
0.0
0
LINE
8
0
6
CONTINUOUS
10
5.741748
20
-20.875000
30
0.0
11
15.311328
21
-27.125000
31
0.0
0
LINE
8
0
6
CONTINUOUS
10
11.334525
20
-20.875000
30
0.0
11
10.795579
21
-21.125000
31
0.0
0
LINE
8
0
6
CONTINUOUS
10
10.795579
20
-21.125000
30
0.0
11
15.311328
21
-27.125000
31
0.0
0
LINE
8
0
6
CONTINUOUS
10
15.311328
20
-27.125000
30
0.0
11
24.866153
21
-20.875000
31
0.0
0
LINE
8
0
6
CONTINUOUS
10
32.854970
20
-20.875000
30
0.0
11
32.320178
21
-21.125000
31
0.0
0
LINE
8
0
6
CONTINUOUS
10
32.320178
20
-21.125000
30
0.0
11
45.839585
21
-27.125000
31
0.0
0
LINE
8
0
6
CONTINUOUS
10
45.839585
20
-27.125000
30
0.0
11
55.320745
21
-20.875000
31
0.0
0
LINE
8
0
6
CONTINUOUS
10
54.172852
20
-20.875000
30
0.0
11
53.645513
21
-21.125000
31
0.0
0
LINE
8
0
6
CONTINUOUS
10
53.645513
20
-21.125000
30
0.0
11
76.085226
21
-27.125000
31
0.0
0
LINE
8
0
6
CONTINUOUS
10
76.085226
20
-27.125000
30
0.0
11
85.434267
21
-20.875000
31
0.0
0
LINE
8
0
6
CONTINUOUS
10
75.156741
20
-20.875000
30
0.0
11
74.640106
21
-21.125000
31
0.0
0
LINE
8
0
6
CONTINUOUS
10
74.640106
20
-21.125000
30
0.0
11
105.861776
21
-27.125000
31
0.0
0
LINE
8
0
6
CONTINUOUS
10
105.861776
20
-27.125000
30
0.0
11
115.021058
21
-20.875000
31
0.0
0
LINE
8
0
6
CONTINUOUS
10
95.677264
20
-20.875000
30
0.0
11
95.174517
21
-21.125000
31
0.0
0
LINE
8
0
6
CONTINUOUS
10
95.174517
20
-21.125000
30
0.0
11
134.985652
21
-27.125000
31
0.0
0
LINE
8
0
6
CONTINUOUS
10
134.985652
20
-27.125000
30
0.0
11
143.898706
21
-20.875000
31
0.0
0
LINE
8
0
6
CONTINUOUS
10
115.607904
20
-20.875000
30
0.0
11
115.122146
21
-21.125000
31
0.0
0
LINE
8
0
6
CONTINUOUS
10
115.122146
20
-21.125000
30
0.0
11
163.277298
21
-27.125000
31
0.0
0
LINE
8
0
6
CONTINUOUS
10
163.277298
20
-27.125000
30
0.0
11
171.889171
21
-20.875000
31
0.0
0
LINE
8
0
6
CONTINUOUS
10
134.825783
20
-20.875000
30
0.0
11
134.360008
21
-21.125000
31
0.0
0
LINE
8
0
6
CONTINUOUS
10
134.360008
20
-21.125000
30
0.0
11
190.562284
21
-27.125000
31
0.0
0
LINE
8
0
6
CONTINUOUS
10
190.562284
20
-27.125000
30
0.0
11
198.819882
21
-20.875000
31
0.0
0
LINE
8
0
6
CONTINUOUS
10
153.212417
20
-20.875000
30
0.0
11
152.769496
21
-21.125000
31
0.0
0
LINE
8
0
6
CONTINUOUS
10
152.769496
20
-21.125000
30
0.0
11
216.672391
21
-27.125000
31
0.0
0
LINE
8
0
6
CONTINUOUS
10
216.672391
20
-27.125000
30
0.0
11
224.524802
21
-20.875000
31
0.0
0
LINE
8
0
6
CONTINUOUS
10
170.654445
20
-20.875000
30
0.0
11
170.237110
21
-21.125000
31
0.0
0
LINE
8
0
6
CONTINUOUS
10
170.237110
20
-21.125000
30
0.0
11
241.446640
21
-27.125000
31
0.0
0
LINE
8
0
6
CONTINUOUS
10
241.446640
20
-27.125000
30
0.0
11
248.845452
21
-20.875000
31
0.0
0
LINE
8
0
6
CONTINUOUS
10
187.044331
20
-20.875000
30
0.0
11
186.655155
21
-21.125000
31
0.0
0
LINE
8
0
6
CONTINUOUS
10
275.771645
20
-17.125000
30
0.0
11
270.000000
21
-17.054037
31
0.0
0
LINE
8
0
6
CONTINUOUS
10
186.655155
20
-21.125000
30
0.0
11
264.732291
21
-27.125000
31
0.0
0
LINE
8
0
6
CONTINUOUS
10
264.732291
20
-27.125000
30
0.0
11
275.771645
21
-17.125000
31
0.0
0
LINE
8
0
6
CONTINUOUS
10
202.281028
20
-20.875000
30
0.0
11
201.922409
21
-21.125000
31
0.0
0
LINE
8
0
6
CONTINUOUS
10
296.558327
20
-17.125000
30
0.0
11
270.000000
21
-16.821350
31
0.0
0
LINE
8
0
6
CONTINUOUS
10
201.922409
20
-21.125000
30
0.0
11
286.385779
21
-27.125000
31
0.0
0
LINE
8
0
6
CONTINUOUS
10
286.385779
20
-27.125000
30
0.0
11
296.558327
21
-17.125000
31
0.0
0
LINE
8
0
6
CONTINUOUS
10
216.270594
20
-20.875000
30
0.0
11
215.944744
21
-21.125000
31
0.0
0
LINE
8
0
6
CONTINUOUS
10
315.516628
20
-17.125000
30
0.0
11
270.000000
21
-16.635863
31
0.0
0
LINE
8
0
6
CONTINUOUS
10
215.944744
20
-21.125000
30
0.0
11
306.273603
21
-27.125000
31
0.0
0
LINE
8
0
6
CONTINUOUS
10
306.273603
20
-27.125000
30
0.0
11
315.516628
21
-17.125000
31
0.0
0
LINE
8
0
6
CONTINUOUS
10
228.926780
20
-20.875000
30
0.0
11
228.635708
21
-21.125000
31
0.0
0
LINE
8
0
6
CONTINUOUS
10
332.529664
20
-17.125000
30
0.0
11
270.000000
21
-16.487414
31
0.0
0
LINE
8
0
6
CONTINUOUS
10
228.635708
20
-21.125000
30
0.0
11
324.273149
21
-27.125000
31
0.0
0
LINE
8
0
6
CONTINUOUS
10
324.273149
20
-27.125000
30
0.0
11
332.529664
21
-17.125000
31
0.0
0
LINE
8
0
6
CONTINUOUS
10
240.171556
20
-20.875000
30
0.0
11
239.917057
21
-21.125000
31
0.0
0
LINE
8
0
6
CONTINUOUS
10
347.492544
20
-17.125000
30
0.0
11
270.000000
21
-16.368868
31
0.0
0
LINE
8
0
6
CONTINUOUS
10
239.917057
20
-21.125000
30
0.0
11
340.273443
21
-27.125000
31
0.0
0
LINE
8
0
6
CONTINUOUS
10
340.273443
20
-27.125000
30
0.0
11
347.492544
21
-17.125000
31
0.0
0
LINE
8
0
6
CONTINUOUS
10
249.935595
20
-20.875000
30
0.0
11
249.719238
21
-21.125000
31
0.0
0
LINE
8
0
6
CONTINUOUS
10
360.313018
20
-17.125000
30
0.0
11
270.000000
21
-16.275128
31
0.0
0
LINE
8
0
6
CONTINUOUS
10
249.719238
20
-21.125000
30
0.0
11
354.175838
21
-27.125000
31
0.0
0
LINE
8
0
6
CONTINUOUS
10
354.175838
20
-27.125000
30
0.0
11
360.313018
21
-17.125000
31
0.0
0
LINE
8
0
6
CONTINUOUS
10
258.158698
20
-20.875000
30
0.0
11
257.981816
21
-21.125000
31
0.0
0
LINE
8
0
6
CONTINUOUS
10
370.912041
20
-17.125000
30
0.0
11
270.000000
21
-16.202524
31
0.0
0
LINE
8
0
6
CONTINUOUS
10
257.981816
20
-21.125000
30
0.0
11
365.894621
21
-27.125000
31
0.0
0
LINE
8
0
6
CONTINUOUS
10
365.894621
20
-27.125000
30
0.0
11
370.912041
21
-17.125000
31
0.0
0
LINE
8
0
6
CONTINUOUS
10
264.790167
20
-20.875000
30
0.0
11
264.653851
21
-21.125000
31
0.0
0
LINE
8
0
6
CONTINUOUS
10
379.224269
20
-17.125000
30
0.0
11
270.000000
21
-16.148424
31
0.0
0
LINE
8
0
6
CONTINUOUS
10
264.653851
20
-21.125000
30
0.0
11
375.357542
21
-27.125000
31
0.0
0
LINE
8
0
6
CONTINUOUS
10
375.357542
20
-27.125000
30
0.0
11
379.224269
21
-17.125000
31
0.0
0
LINE
8
0
6
CONTINUOUS
10
271.592395
20
-16.125000
30
0.0
11
269.703424
21
-21.100720
31
0.0
0
LINE
8
0
6
CONTINUOUS
10
385.198453
20
-17.125000
30
0.0
11
271.592395
21
-16.125000
31
0.0
0
LINE
8
0
6
CONTINUOUS
10
269.694207
20
-21.125000
30
0.0
11
382.506259
21
-27.125000
31
0.0
0
LINE
8
0
6
CONTINUOUS
10
382.506259
20
-27.125000
30
0.0
11
385.198453
21
-17.125000
31
0.0
0
LINE
8
0
6
CONTINUOUS
10
274.130164
20
-16.125000
30
0.0
11
273.071808
21
-21.125000
31
0.0
0
LINE
8
0
6
CONTINUOUS
10
388.797760
20
-17.125000
30
0.0
11
274.130164
21
-16.125000
31
0.0
0
LINE
8
0
6
CONTINUOUS
10
273.071808
20
-21.125000
30
0.0
11
387.296698
21
-27.125000
31
0.0
0
LINE
8
0
6
CONTINUOUS
10
387.296698
20
-27.125000
30
0.0
11
388.797760
21
-17.125000
31
0.0
0
LINE
8
0
6
CONTINUOUS
10
274.977828
20
-16.125000
30
0.0
11
274.765830
21
-21.125000
31
0.0
0
LINE
8
0
6
CONTINUOUS
10
390.000000
20
-17.125000
30
0.0
11
274.977828
21
-16.125000
31
0.0
0
LINE
8
0
6
CONTINUOUS
10
274.765830
20
-21.125000
30
0.0
11
389.699324
21
-27.125000
31
0.0
0
LINE
8
0
6
CONTINUOUS
10
389.699324
20
-27.125000
30
0.0
11
390.000000
21
-17.125000
31
0.0
0
LINE
8
0
6
CONTINUOUS
10
-32.320178
20
-21.125000
30
0.0
11
-21.574512
21
-16.125000
31
0.0
0
LINE
8
0
6
CONTINUOUS
10
-45.839585
20
-27.125000
30
0.0
11
-32.320178
21
-21.125000
31
0.0
0
LINE
8
0
6
CONTINUOUS
10
-21.574512
20
-16.125000
30
0.0
11
-30.599047
21
-17.125000
31
0.0
0
LINE
8
0
6
CONTINUOUS
10
-30.599047
20
-17.125000
30
0.0
11
-45.839584
21
-27.125000
31
0.0
0
LINE
8
0
6
CONTINUOUS
10
-53.645513
20
-21.125000
30
0.0
11
-43.016010
21
-16.125000
31
0.0
0
LINE
8
0
6
CONTINUOUS
10
-76.085226
20
-27.125000
30
0.0
11
-53.645513
21
-21.125000
31
0.0
0
LINE
8
0
6
CONTINUOUS
10
-43.016010
20
-16.125000
30
0.0
11
-61.009441
21
-17.125000
31
0.0
0
LINE
8
0
6
CONTINUOUS
10
-61.009441
20
-17.125000
30
0.0
11
-76.085225
21
-27.125000
31
0.0
0
LINE
8
0
6
CONTINUOUS
10
-74.640106
20
-21.125000
30
0.0
11
-64.192299
21
-16.125000
31
0.0
0
LINE
8
0
6
CONTINUOUS
10
-105.861776
20
-27.125000
30
0.0
11
-74.640106
21
-21.125000
31
0.0
0
LINE
8
0
6
CONTINUOUS
10
-64.192299
20
-16.125000
30
0.0
11
-91.043692
21
-17.125000
31
0.0
0
LINE
8
0
6
CONTINUOUS
10
-91.043692
20
-17.125000
30
0.0
11
-105.861775
21
-27.125000
31
0.0
0
LINE
8
0
6
CONTINUOUS
10
-95.174517
20
-21.125000
30
0.0
11
-84.972822
21
-16.125000
31
0.0
0
LINE
8
0
6
CONTINUOUS
10
-134.985652
20
-27.125000
30
0.0
11
-95.174517
21
-21.125000
31
0.0
0
LINE
8
0
6
CONTINUOUS
10
-84.972822
20
-16.125000
30
0.0
11
-120.516628
21
-17.125000
31
0.0
0
LINE
8
0
6
CONTINUOUS
10
-120.516628
20
-17.125000
30
0.0
11
-134.985652
21
-27.125000
31
0.0
0
LINE
8
0
6
CONTINUOUS
10
-115.122146
20
-21.125000
30
0.0
11
-105.229459
21
-16.125000
31
0.0
0
LINE
8
0
6
CONTINUOUS
10
-163.277298
20
-27.125000
30
0.0
11
-115.122146
21
-21.125000
31
0.0
0
LINE
8
0
6
CONTINUOUS
10
-105.229459
20
-16.125000
30
0.0
11
-149.246539
21
-17.125000
31
0.0
0
LINE
8
0
6
CONTINUOUS
10
-149.246539
20
-17.125000
30
0.0
11
-163.277297
21
-27.125000
31
0.0
0
LINE
8
0
6
CONTINUOUS
10
-134.360008
20
-21.125000
30
0.0
11
-124.837322
21
-16.125000
31
0.0
0
LINE
8
0
6
CONTINUOUS
10
-190.562284
20
-27.125000
30
0.0
11
-134.360008
21
-21.125000
31
0.0
0
LINE
8
0
6
CONTINUOUS
10
-124.837322
20
-16.125000
30
0.0
11
-177.056295
21
-17.125000
31
0.0
0
LINE
8
0
6
CONTINUOUS
10
-177.056295
20
-17.125000
30
0.0
11
-190.562284
21
-27.125000
31
0.0
0
LINE
8
0
6
CONTINUOUS
10
-152.769496
20
-21.125000
30
0.0
11
-143.675521
21
-16.125000
31
0.0
0
LINE
8
0
6
CONTINUOUS
10
-216.672391
20
-27.125000
30
0.0
11
-152.769496
21
-21.125000
31
0.0
0
LINE
8
0
6
CONTINUOUS
10
-143.675521
20
-16.125000
30
0.0
11
-203.774440
21
-17.125000
31
0.0
0
LINE
8
0
6
CONTINUOUS
10
-203.774440
20
-17.125000
30
0.0
11
-216.672391
21
-27.125000
31
0.0
0
LINE
8
0
6
CONTINUOUS
10
-170.237110
20
-21.125000
30
0.0
11
-161.627912
21
-16.125000
31
0.0
0
LINE
8
0
6
CONTINUOUS
10
-241.446640
20
-27.125000
30
0.0
11
-170.237110
21
-21.125000
31
0.0
0
LINE
8
0
6
CONTINUOUS
10
-161.627912
20
-16.125000
30
0.0
11
-229.236248
21
-17.125000
31
0.0
0
LINE
8
0
6
CONTINUOUS
10
-229.236248
20
-17.125000
30
0.0
11
-241.446640
21
-27.125000
31
0.0
0
LINE
8
0
6
CONTINUOUS
10
-186.655155
20
-21.125000
30
0.0
11
-178.583814
21
-16.125000
31
0.0
0
LINE
8
0
6
CONTINUOUS
10
-264.732291
20
-27.125000
30
0.0
11
-186.655155
21
-21.125000
31
0.0
0
LINE
8
0
6
CONTINUOUS
10
-178.583814
20
-16.125000
30
0.0
11
-253.284739
21
-17.125000
31
0.0
0
LINE
8
0
6
CONTINUOUS
10
-253.284739
20
-17.125000
30
0.0
11
-264.732291
21
-27.125000
31
0.0
0
LINE
8
0
6
CONTINUOUS
10
-201.922409
20
-21.125000
30
0.0
11
-194.438687
21
-16.125000
31
0.0
0
LINE
8
0
6
CONTINUOUS
10
-286.385779
20
-27.125000
30
0.0
11
-201.922409
21
-21.125000
31
0.0
0
LINE
8
0
6
CONTINUOUS
10
-194.438687
20
-16.125000
30
0.0
11
-275.771645
21
-17.125000
31
0.0
0
LINE
8
0
6
CONTINUOUS
10
-275.771645
20
-17.125000
30
0.0
11
-286.385779
21
-27.125000
31
0.0
0
LINE
8
0
6
CONTINUOUS
10
-215.944744
20
-21.125000
30
0.0
11
-209.094781
21
-16.125000
31
0.0
0
LINE
8
0
6
CONTINUOUS
10
-306.273603
20
-27.125000
30
0.0
11
-215.944744
21
-21.125000
31
0.0
0
LINE
8
0
6
CONTINUOUS
10
-209.094781
20
-16.125000
30
0.0
11
-296.558327
21
-17.125000
31
0.0
0
LINE
8
0
6
CONTINUOUS
10
-296.558327
20
-17.125000
30
0.0
11
-306.273603
21
-27.125000
31
0.0
0
LINE
8
0
6
CONTINUOUS
10
-228.635708
20
-21.125000
30
0.0
11
-222.461736
21
-16.125000
31
0.0
0
LINE
8
0
6
CONTINUOUS
10
-324.273149
20
-27.125000
30
0.0
11
-228.635708
21
-21.125000
31
0.0
0
LINE
8
0
6
CONTINUOUS
10
-222.461736
20
-16.125000
30
0.0
11
-315.516628
21
-17.125000
31
0.0
0
LINE
8
0
6
CONTINUOUS
10
-315.516628
20
-17.125000
30
0.0
11
-324.273149
21
-27.125000
31
0.0
0
LINE
8
0
6
CONTINUOUS
10
-239.917057
20
-21.125000
30
0.0
11
-234.457141
21
-16.125000
31
0.0
0
LINE
8
0
6
CONTINUOUS
10
-340.273443
20
-27.125000
30
0.0
11
-239.917057
21
-21.125000
31
0.0
0
LINE
8
0
6
CONTINUOUS
10
-234.457141
20
-16.125000
30
0.0
11
-332.529664
21
-17.125000
31
0.0
0
LINE
8
0
6
CONTINUOUS
10
-332.529664
20
-17.125000
30
0.0
11
-340.273443
21
-27.125000
31
0.0
0
LINE
8
0
6
CONTINUOUS
10
-249.719238
20
-21.125000
30
0.0
11
-245.007039
21
-16.125000
31
0.0
0
LINE
8
0
6
CONTINUOUS
10
-354.175838
20
-27.125000
30
0.0
11
-249.719238
21
-21.125000
31
0.0
0
LINE
8
0
6
CONTINUOUS
10
-245.007039
20
-16.125000
30
0.0
11
-347.492544
21
-17.125000
31
0.0
0
LINE
8
0
6
CONTINUOUS
10
-347.492544
20
-17.125000
30
0.0
11
-354.175838
21
-27.125000
31
0.0
0
LINE
8
0
6
CONTINUOUS
10
-257.981816
20
-21.125000
30
0.0
11
-254.046388
21
-16.125000
31
0.0
0
LINE
8
0
6
CONTINUOUS
10
-365.894621
20
-27.125000
30
0.0
11
-257.981816
21
-21.125000
31
0.0
0
LINE
8
0
6
CONTINUOUS
10
-254.046388
20
-16.125000
30
0.0
11
-360.313018
21
-17.125000
31
0.0
0
LINE
8
0
6
CONTINUOUS
10
-360.313018
20
-17.125000
30
0.0
11
-365.894621
21
-27.125000
31
0.0
0
LINE
8
0
6
CONTINUOUS
10
-264.653851
20
-21.125000
30
0.0
11
-261.519456
21
-16.125000
31
0.0
0
LINE
8
0
6
CONTINUOUS
10
-375.357542
20
-27.125000
30
0.0
11
-264.653851
21
-21.125000
31
0.0
0
LINE
8
0
6
CONTINUOUS
10
-261.519456
20
-16.125000
30
0.0
11
-370.912041
21
-17.125000
31
0.0
0
LINE
8
0
6
CONTINUOUS
10
-370.912041
20
-17.125000
30
0.0
11
-375.357542
21
-27.125000
31
0.0
0
LINE
8
0
6
CONTINUOUS
10
-269.694207
20
-21.125000
30
0.0
11
-267.380169
21
-16.125000
31
0.0
0
LINE
8
0
6
CONTINUOUS
10
-382.506259
20
-27.125000
30
0.0
11
-269.694207
21
-21.125000
31
0.0
0
LINE
8
0
6
CONTINUOUS
10
-267.380169
20
-16.125000
30
0.0
11
-379.224269
21
-17.125000
31
0.0
0
LINE
8
0
6
CONTINUOUS
10
-379.224269
20
-17.125000
30
0.0
11
-382.506259
21
-27.125000
31
0.0
0
LINE
8
0
6
CONTINUOUS
10
-273.071808
20
-21.125000
30
0.0
11
-271.603568
21
-16.162761
31
0.0
0
LINE
8
0
6
CONTINUOUS
10
-387.296698
20
-27.125000
30
0.0
11
-273.071808
21
-21.125000
31
0.0
0
LINE
8
0
6
CONTINUOUS
10
-271.592395
20
-16.125000
30
0.0
11
-385.198453
21
-17.125000
31
0.0
0
LINE
8
0
6
CONTINUOUS
10
-385.198453
20
-17.125000
30
0.0
11
-387.296698
21
-27.125000
31
0.0
0
LINE
8
0
6
CONTINUOUS
10
-274.765830
20
-21.125000
30
0.0
11
-274.130164
21
-16.125000
31
0.0
0
LINE
8
0
6
CONTINUOUS
10
-389.699324
20
-27.125000
30
0.0
11
-274.765830
21
-21.125000
31
0.0
0
LINE
8
0
6
CONTINUOUS
10
-274.130164
20
-16.125000
30
0.0
11
-388.797760
21
-17.125000
31
0.0
0
LINE
8
0
6
CONTINUOUS
10
-388.797760
20
-17.125000
30
0.0
11
-389.699324
21
-27.125000
31
0.0
0
LINE
8
0
6
CONTINUOUS
10
-10.255800
20
-20.875000
30
0.0
11
-10.795579
21
-21.125000
31
0.0
0
LINE
8
0
6
CONTINUOUS
10
-15.311328
20
-27.125000
30
0.0
11
-5.741748
21
-20.875000
31
0.0
0
LINE
8
0
6
CONTINUOUS
10
-10.795579
20
-21.125000
30
0.0
11
-11.334525
21
-20.875000
31
0.0
0
LINE
8
0
6
CONTINUOUS
10
-15.311328
20
-27.125000
30
0.0
11
-10.795579
21
-21.125000
31
0.0
0
LINE
8
0
6
CONTINUOUS
10
-24.866153
20
-20.875000
30
0.0
11
-15.311328
21
-27.125000
31
0.0
0
LINE
8
0
6
CONTINUOUS
10
-32.320178
20
-21.125000
30
0.0
11
-32.854970
21
-20.875000
31
0.0
0
LINE
8
0
6
CONTINUOUS
10
-45.839585
20
-27.125000
30
0.0
11
-32.320178
21
-21.125000
31
0.0
0
LINE
8
0
6
CONTINUOUS
10
-55.320745
20
-20.875000
30
0.0
11
-45.839585
21
-27.125000
31
0.0
0
LINE
8
0
6
CONTINUOUS
10
-53.645513
20
-21.125000
30
0.0
11
-54.172852
21
-20.875000
31
0.0
0
LINE
8
0
6
CONTINUOUS
10
-76.085226
20
-27.125000
30
0.0
11
-53.645513
21
-21.125000
31
0.0
0
LINE
8
0
6
CONTINUOUS
10
-85.434267
20
-20.875000
30
0.0
11
-76.085226
21
-27.125000
31
0.0
0
LINE
8
0
6
CONTINUOUS
10
-74.640106
20
-21.125000
30
0.0
11
-75.156741
21
-20.875000
31
0.0
0
LINE
8
0
6
CONTINUOUS
10
-105.861776
20
-27.125000
30
0.0
11
-74.640106
21
-21.125000
31
0.0
0
LINE
8
0
6
CONTINUOUS
10
-115.021058
20
-20.875000
30
0.0
11
-105.861776
21
-27.125000
31
0.0
0
LINE
8
0
6
CONTINUOUS
10
-95.174517
20
-21.125000
30
0.0
11
-95.677264
21
-20.875000
31
0.0
0
LINE
8
0
6
CONTINUOUS
10
-134.985652
20
-27.125000
30
0.0
11
-95.174517
21
-21.125000
31
0.0
0
LINE
8
0
6
CONTINUOUS
10
-143.898706
20
-20.875000
30
0.0
11
-134.985652
21
-27.125000
31
0.0
0
LINE
8
0
6
CONTINUOUS
10
-115.122146
20
-21.125000
30
0.0
11
-115.607904
21
-20.875000
31
0.0
0
LINE
8
0
6
CONTINUOUS
10
-163.277298
20
-27.125000
30
0.0
11
-115.122146
21
-21.125000
31
0.0
0
LINE
8
0
6
CONTINUOUS
10
-171.889171
20
-20.875000
30
0.0
11
-163.277298
21
-27.125000
31
0.0
0
LINE
8
0
6
CONTINUOUS
10
-134.360008
20
-21.125000
30
0.0
11
-134.825783
21
-20.875000
31
0.0
0
LINE
8
0
6
CONTINUOUS
10
-190.562284
20
-27.125000
30
0.0
11
-134.360008
21
-21.125000
31
0.0
0
LINE
8
0
6
CONTINUOUS
10
-198.819882
20
-20.875000
30
0.0
11
-190.562284
21
-27.125000
31
0.0
0
LINE
8
0
6
CONTINUOUS
10
-152.769496
20
-21.125000
30
0.0
11
-153.212417
21
-20.875000
31
0.0
0
LINE
8
0
6
CONTINUOUS
10
-216.672391
20
-27.125000
30
0.0
11
-152.769496
21
-21.125000
31
0.0
0
LINE
8
0
6
CONTINUOUS
10
-224.524802
20
-20.875000
30
0.0
11
-216.672391
21
-27.125000
31
0.0
0
LINE
8
0
6
CONTINUOUS
10
-170.237110
20
-21.125000
30
0.0
11
-170.654445
21
-20.875000
31
0.0
0
LINE
8
0
6
CONTINUOUS
10
-241.446640
20
-27.125000
30
0.0
11
-170.237110
21
-21.125000
31
0.0
0
LINE
8
0
6
CONTINUOUS
10
-248.845452
20
-20.875000
30
0.0
11
-241.446640
21
-27.125000
31
0.0
0
LINE
8
0
6
CONTINUOUS
10
-186.655155
20
-21.125000
30
0.0
11
-187.044331
21
-20.875000
31
0.0
0
LINE
8
0
6
CONTINUOUS
10
-270.000000
20
-17.054037
30
0.0
11
-275.771645
21
-17.125000
31
0.0
0
LINE
8
0
6
CONTINUOUS
10
-264.732291
20
-27.125000
30
0.0
11
-186.655155
21
-21.125000
31
0.0
0
LINE
8
0
6
CONTINUOUS
10
-275.771645
20
-17.125000
30
0.0
11
-264.732291
21
-27.125000
31
0.0
0
LINE
8
0
6
CONTINUOUS
10
-201.922409
20
-21.125000
30
0.0
11
-202.281028
21
-20.875000
31
0.0
0
LINE
8
0
6
CONTINUOUS
10
-270.000000
20
-16.821350
30
0.0
11
-296.558327
21
-17.125000
31
0.0
0
LINE
8
0
6
CONTINUOUS
10
-286.385779
20
-27.125000
30
0.0
11
-201.922409
21
-21.125000
31
0.0
0
LINE
8
0
6
CONTINUOUS
10
-296.558327
20
-17.125000
30
0.0
11
-286.385779
21
-27.125000
31
0.0
0
LINE
8
0
6
CONTINUOUS
10
-215.944744
20
-21.125000
30
0.0
11
-216.270594
21
-20.875000
31
0.0
0
LINE
8
0
6
CONTINUOUS
10
-270.000000
20
-16.635863
30
0.0
11
-315.516628
21
-17.125000
31
0.0
0
LINE
8
0
6
CONTINUOUS
10
-306.273603
20
-27.125000
30
0.0
11
-215.944744
21
-21.125000
31
0.0
0
LINE
8
0
6
CONTINUOUS
10
-315.516628
20
-17.125000
30
0.0
11
-306.273603
21
-27.125000
31
0.0
0
LINE
8
0
6
CONTINUOUS
10
-228.635708
20
-21.125000
30
0.0
11
-228.926780
21
-20.875000
31
0.0
0
LINE
8
0
6
CONTINUOUS
10
-270.000000
20
-16.487414
30
0.0
11
-332.529664
21
-17.125000
31
0.0
0
LINE
8
0
6
CONTINUOUS
10
-324.273149
20
-27.125000
30
0.0
11
-228.635708
21
-21.125000
31
0.0
0
LINE
8
0
6
CONTINUOUS
10
-332.529664
20
-17.125000
30
0.0
11
-324.273149
21
-27.125000
31
0.0
0
LINE
8
0
6
CONTINUOUS
10
-239.917057
20
-21.125000
30
0.0
11
-240.171556
21
-20.875000
31
0.0
0
LINE
8
0
6
CONTINUOUS
10
-270.000000
20
-16.368868
30
0.0
11
-347.492544
21
-17.125000
31
0.0
0
LINE
8
0
6
CONTINUOUS
10
-340.273443
20
-27.125000
30
0.0
11
-239.917057
21
-21.125000
31
0.0
0
LINE
8
0
6
CONTINUOUS
10
-347.492544
20
-17.125000
30
0.0
11
-340.273443
21
-27.125000
31
0.0
0
LINE
8
0
6
CONTINUOUS
10
-249.719238
20
-21.125000
30
0.0
11
-249.935595
21
-20.875000
31
0.0
0
LINE
8
0
6
CONTINUOUS
10
-270.000000
20
-16.275128
30
0.0
11
-360.313018
21
-17.125000
31
0.0
0
LINE
8
0
6
CONTINUOUS
10
-354.175838
20
-27.125000
30
0.0
11
-249.719238
21
-21.125000
31
0.0
0
LINE
8
0
6
CONTINUOUS
10
-360.313018
20
-17.125000
30
0.0
11
-354.175838
21
-27.125000
31
0.0
0
LINE
8
0
6
CONTINUOUS
10
-257.981816
20
-21.125000
30
0.0
11
-258.158698
21
-20.875000
31
0.0
0
LINE
8
0
6
CONTINUOUS
10
-270.000000
20
-16.202524
30
0.0
11
-370.912041
21
-17.125000
31
0.0
0
LINE
8
0
6
CONTINUOUS
10
-365.894621
20
-27.125000
30
0.0
11
-257.981816
21
-21.125000
31
0.0
0
LINE
8
0
6
CONTINUOUS
10
-370.912041
20
-17.125000
30
0.0
11
-365.894621
21
-27.125000
31
0.0
0
LINE
8
0
6
CONTINUOUS
10
-264.653851
20
-21.125000
30
0.0
11
-264.790167
21
-20.875000
31
0.0
0
LINE
8
0
6
CONTINUOUS
10
-270.000000
20
-16.148424
30
0.0
11
-379.224269
21
-17.125000
31
0.0
0
LINE
8
0
6
CONTINUOUS
10
-375.357542
20
-27.125000
30
0.0
11
-264.653851
21
-21.125000
31
0.0
0
LINE
8
0
6
CONTINUOUS
10
-379.224269
20
-17.125000
30
0.0
11
-375.357542
21
-27.125000
31
0.0
0
LINE
8
0
6
CONTINUOUS
10
-269.694207
20
-21.125000
30
0.0
11
-271.592395
21
-16.125000
31
0.0
0
LINE
8
0
6
CONTINUOUS
10
-271.592395
20
-16.125000
30
0.0
11
-385.198453
21
-17.125000
31
0.0
0
LINE
8
0
6
CONTINUOUS
10
-382.506259
20
-27.125000
30
0.0
11
-269.694207
21
-21.125000
31
0.0
0
LINE
8
0
6
CONTINUOUS
10
-385.198453
20
-17.125000
30
0.0
11
-382.506259
21
-27.125000
31
0.0
0
LINE
8
0
6
CONTINUOUS
10
-273.071808
20
-21.125000
30
0.0
11
-274.130164
21
-16.125000
31
0.0
0
LINE
8
0
6
CONTINUOUS
10
-274.130164
20
-16.125000
30
0.0
11
-388.797760
21
-17.125000
31
0.0
0
LINE
8
0
6
CONTINUOUS
10
-387.296698
20
-27.125000
30
0.0
11
-273.071808
21
-21.125000
31
0.0
0
LINE
8
0
6
CONTINUOUS
10
-388.797760
20
-17.125000
30
0.0
11
-387.296698
21
-27.125000
31
0.0
0
LINE
8
0
6
CONTINUOUS
10
-274.765830
20
-21.125000
30
0.0
11
-274.977515
21
-16.132390
31
0.0
0
LINE
8
0
6
CONTINUOUS
10
-274.977828
20
-16.125000
30
0.0
11
-390.000000
21
-17.125000
31
0.0
0
LINE
8
0
6
CONTINUOUS
10
-389.699324
20
-27.125000
30
0.0
11
-274.765830
21
-21.125000
31
0.0
0
LINE
8
0
6
CONTINUOUS
10
-390.000000
20
-17.125000
30
0.0
11
-389.699324
21
-27.125000
31
0.0
0
LINE
8
0
6
CONTINUOUS
10
0.000000
20
-13.125000
30
0.0
11
15.311328
21
-23.125000
31
0.0
0
LINE
8
0
6
CONTINUOUS
10
10.795579
20
-18.125000
30
0.0
11
0.000000
21
-13.125000
31
0.0
0
LINE
8
0
6
CONTINUOUS
10
21.574512
20
-13.125000
30
0.0
11
10.795579
21
-18.125000
31
0.0
0
LINE
8
0
6
CONTINUOUS
10
30.599047
20
-13.125000
30
0.0
11
21.574512
21
-13.125000
31
0.0
0
LINE
8
0
6
CONTINUOUS
10
10.795579
20
-18.125000
30
0.0
11
15.311328
21
-23.125000
31
0.0
0
LINE
8
0
6
CONTINUOUS
10
15.311328
20
-23.125000
30
0.0
11
30.599047
21
-13.125000
31
0.0
0
LINE
8
0
6
CONTINUOUS
10
43.016010
20
-13.125000
30
0.0
11
32.320179
21
-18.125000
31
0.0
0
LINE
8
0
6
CONTINUOUS
10
61.009441
20
-13.125000
30
0.0
11
43.016010
21
-13.125000
31
0.0
0
LINE
8
0
6
CONTINUOUS
10
32.320178
20
-18.125000
30
0.0
11
45.839585
21
-23.125000
31
0.0
0
LINE
8
0
6
CONTINUOUS
10
45.839585
20
-23.125000
30
0.0
11
61.009441
21
-13.125000
31
0.0
0
LINE
8
0
6
CONTINUOUS
10
64.192299
20
-13.125000
30
0.0
11
53.645513
21
-18.125000
31
0.0
0
LINE
8
0
6
CONTINUOUS
10
91.043692
20
-13.125000
30
0.0
11
64.192299
21
-13.125000
31
0.0
0
LINE
8
0
6
CONTINUOUS
10
53.645513
20
-18.125000
30
0.0
11
76.085226
21
-23.125000
31
0.0
0
LINE
8
0
6
CONTINUOUS
10
76.085226
20
-23.125000
30
0.0
11
91.043692
21
-13.125000
31
0.0
0
LINE
8
0
6
CONTINUOUS
10
84.972822
20
-13.125000
30
0.0
11
74.640106
21
-18.125000
31
0.0
0
LINE
8
0
6
CONTINUOUS
10
120.516628
20
-13.125000
30
0.0
11
84.972822
21
-13.125000
31
0.0
0
LINE
8
0
6
CONTINUOUS
10
74.640106
20
-18.125000
30
0.0
11
105.861776
21
-23.125000
31
0.0
0
LINE
8
0
6
CONTINUOUS
10
105.861776
20
-23.125000
30
0.0
11
120.516628
21
-13.125000
31
0.0
0
LINE
8
0
6
CONTINUOUS
10
105.229459
20
-13.125000
30
0.0
11
95.174517
21
-18.125000
31
0.0
0
LINE
8
0
6
CONTINUOUS
10
149.246539
20
-13.125000
30
0.0
11
105.229459
21
-13.125000
31
0.0
0
LINE
8
0
6
CONTINUOUS
10
95.174517
20
-18.125000
30
0.0
11
134.985652
21
-23.125000
31
0.0
0
LINE
8
0
6
CONTINUOUS
10
134.985652
20
-23.125000
30
0.0
11
149.246539
21
-13.125000
31
0.0
0
LINE
8
0
6
CONTINUOUS
10
124.837322
20
-13.125000
30
0.0
11
115.122146
21
-18.125000
31
0.0
0
LINE
8
0
6
CONTINUOUS
10
177.056295
20
-13.125000
30
0.0
11
124.837322
21
-13.125000
31
0.0
0
LINE
8
0
6
CONTINUOUS
10
115.122146
20
-18.125000
30
0.0
11
163.277298
21
-23.125000
31
0.0
0
LINE
8
0
6
CONTINUOUS
10
163.277298
20
-23.125000
30
0.0
11
177.056295
21
-13.125000
31
0.0
0
LINE
8
0
6
CONTINUOUS
10
143.675521
20
-13.125000
30
0.0
11
134.360008
21
-18.125000
31
0.0
0
LINE
8
0
6
CONTINUOUS
10
203.774440
20
-13.125000
30
0.0
11
143.675521
21
-13.125000
31
0.0
0
LINE
8
0
6
CONTINUOUS
10
134.360008
20
-18.125000
30
0.0
11
190.562284
21
-23.125000
31
0.0
0
LINE
8
0
6
CONTINUOUS
10
190.562284
20
-23.125000
30
0.0
11
203.774440
21
-13.125000
31
0.0
0
LINE
8
0
6
CONTINUOUS
10
161.627912
20
-13.125000
30
0.0
11
152.769496
21
-18.125000
31
0.0
0
LINE
8
0
6
CONTINUOUS
10
229.236248
20
-13.125000
30
0.0
11
161.627912
21
-13.125000
31
0.0
0
LINE
8
0
6
CONTINUOUS
10
152.769496
20
-18.125000
30
0.0
11
216.672391
21
-23.125000
31
0.0
0
LINE
8
0
6
CONTINUOUS
10
216.672391
20
-23.125000
30
0.0
11
229.236248
21
-13.125000
31
0.0
0
LINE
8
0
6
CONTINUOUS
10
178.583814
20
-13.125000
30
0.0
11
170.237110
21
-18.125000
31
0.0
0
LINE
8
0
6
CONTINUOUS
10
253.284739
20
-13.125000
30
0.0
11
178.583814
21
-13.125000
31
0.0
0
LINE
8
0
6
CONTINUOUS
10
170.237110
20
-18.125000
30
0.0
11
241.446640
21
-23.125000
31
0.0
0
LINE
8
0
6
CONTINUOUS
10
241.446640
20
-23.125000
30
0.0
11
253.284739
21
-13.125000
31
0.0
0
LINE
8
0
6
CONTINUOUS
10
194.438687
20
-13.125000
30
0.0
11
186.655155
21
-18.125000
31
0.0
0
LINE
8
0
6
CONTINUOUS
10
275.771645
20
-13.125000
30
0.0
11
194.438687
21
-13.125000
31
0.0
0
LINE
8
0
6
CONTINUOUS
10
186.655155
20
-18.125000
30
0.0
11
264.732291
21
-23.125000
31
0.0
0
LINE
8
0
6
CONTINUOUS
10
264.732291
20
-23.125000
30
0.0
11
275.771645
21
-13.125000
31
0.0
0
LINE
8
0
6
CONTINUOUS
10
209.094781
20
-13.125000
30
0.0
11
201.922409
21
-18.125000
31
0.0
0
LINE
8
0
6
CONTINUOUS
10
296.558327
20
-13.125000
30
0.0
11
209.094781
21
-13.125000
31
0.0
0
LINE
8
0
6
CONTINUOUS
10
201.922409
20
-18.125000
30
0.0
11
286.385779
21
-23.125000
31
0.0
0
LINE
8
0
6
CONTINUOUS
10
286.385779
20
-23.125000
30
0.0
11
296.558327
21
-13.125000
31
0.0
0
LINE
8
0
6
CONTINUOUS
10
222.461736
20
-13.125000
30
0.0
11
215.944744
21
-18.125000
31
0.0
0
LINE
8
0
6
CONTINUOUS
10
315.516628
20
-13.125000
30
0.0
11
222.461736
21
-13.125000
31
0.0
0
LINE
8
0
6
CONTINUOUS
10
215.944744
20
-18.125000
30
0.0
11
306.273603
21
-23.125000
31
0.0
0
LINE
8
0
6
CONTINUOUS
10
306.273603
20
-23.125000
30
0.0
11
315.516628
21
-13.125000
31
0.0
0
LINE
8
0
6
CONTINUOUS
10
234.457141
20
-13.125000
30
0.0
11
228.635708
21
-18.125000
31
0.0
0
LINE
8
0
6
CONTINUOUS
10
332.529664
20
-13.125000
30
0.0
11
234.457141
21
-13.125000
31
0.0
0
LINE
8
0
6
CONTINUOUS
10
228.635708
20
-18.125000
30
0.0
11
324.273149
21
-23.125000
31
0.0
0
LINE
8
0
6
CONTINUOUS
10
324.273149
20
-23.125000
30
0.0
11
332.529664
21
-13.125000
31
0.0
0
LINE
8
0
6
CONTINUOUS
10
245.007039
20
-13.125000
30
0.0
11
239.917057
21
-18.125000
31
0.0
0
LINE
8
0
6
CONTINUOUS
10
347.492544
20
-13.125000
30
0.0
11
245.007039
21
-13.125000
31
0.0
0
LINE
8
0
6
CONTINUOUS
10
239.917057
20
-18.125000
30
0.0
11
340.273443
21
-23.125000
31
0.0
0
LINE
8
0
6
CONTINUOUS
10
340.273443
20
-23.125000
30
0.0
11
347.492544
21
-13.125000
31
0.0
0
LINE
8
0
6
CONTINUOUS
10
254.046388
20
-13.125000
30
0.0
11
249.719238
21
-18.125000
31
0.0
0
LINE
8
0
6
CONTINUOUS
10
360.313018
20
-13.125000
30
0.0
11
254.046388
21
-13.125000
31
0.0
0
LINE
8
0
6
CONTINUOUS
10
249.719238
20
-18.125000
30
0.0
11
354.175838
21
-23.125000
31
0.0
0
LINE
8
0
6
CONTINUOUS
10
354.175838
20
-23.125000
30
0.0
11
360.313018
21
-13.125000
31
0.0
0
LINE
8
0
6
CONTINUOUS
10
261.519456
20
-13.125000
30
0.0
11
257.981816
21
-18.125000
31
0.0
0
LINE
8
0
6
CONTINUOUS
10
370.912041
20
-13.125000
30
0.0
11
261.519456
21
-13.125000
31
0.0
0
LINE
8
0
6
CONTINUOUS
10
257.981816
20
-18.125000
30
0.0
11
365.894621
21
-23.125000
31
0.0
0
LINE
8
0
6
CONTINUOUS
10
365.894621
20
-23.125000
30
0.0
11
370.912041
21
-13.125000
31
0.0
0
LINE
8
0
6
CONTINUOUS
10
267.380169
20
-13.125000
30
0.0
11
264.653851
21
-18.125000
31
0.0
0
LINE
8
0
6
CONTINUOUS
10
379.224269
20
-13.125000
30
0.0
11
267.380169
21
-13.125000
31
0.0
0
LINE
8
0
6
CONTINUOUS
10
264.653851
20
-18.125000
30
0.0
11
375.357542
21
-23.125000
31
0.0
0
LINE
8
0
6
CONTINUOUS
10
375.357542
20
-23.125000
30
0.0
11
379.224269
21
-13.125000
31
0.0
0
LINE
8
0
6
CONTINUOUS
10
271.592395
20
-13.125000
30
0.0
11
269.694207
21
-18.125000
31
0.0
0
LINE
8
0
6
CONTINUOUS
10
385.198453
20
-13.125000
30
0.0
11
271.592395
21
-13.125000
31
0.0
0
LINE
8
0
6
CONTINUOUS
10
269.694207
20
-18.125000
30
0.0
11
382.506259
21
-23.125000
31
0.0
0
LINE
8
0
6
CONTINUOUS
10
382.506259
20
-23.125000
30
0.0
11
385.198453
21
-13.125000
31
0.0
0
LINE
8
0
6
CONTINUOUS
10
274.130164
20
-13.125000
30
0.0
11
273.071808
21
-18.125000
31
0.0
0
LINE
8
0
6
CONTINUOUS
10
388.797760
20
-13.125000
30
0.0
11
274.130164
21
-13.125000
31
0.0
0
LINE
8
0
6
CONTINUOUS
10
273.071808
20
-18.125000
30
0.0
11
387.296698
21
-23.125000
31
0.0
0
LINE
8
0
6
CONTINUOUS
10
387.296698
20
-23.125000
30
0.0
11
388.797760
21
-13.125000
31
0.0
0
LINE
8
0
6
CONTINUOUS
10
274.977828
20
-13.125000
30
0.0
11
274.765830
21
-18.125000
31
0.0
0
LINE
8
0
6
CONTINUOUS
10
390.000000
20
-13.125000
30
0.0
11
274.977828
21
-13.125000
31
0.0
0
LINE
8
0
6
CONTINUOUS
10
274.765830
20
-18.125000
30
0.0
11
389.699324
21
-23.125000
31
0.0
0
LINE
8
0
6
CONTINUOUS
10
389.699324
20
-23.125000
30
0.0
11
390.000000
21
-13.125000
31
0.0
0
LINE
8
0
6
CONTINUOUS
10
21.574512
20
-13.125000
30
0.0
11
22.111795
21
-13.375000
31
0.0
0
LINE
8
0
6
CONTINUOUS
10
39.755852
20
-20.875000
30
0.0
11
45.839585
21
-23.125000
31
0.0
0
LINE
8
0
6
CONTINUOUS
10
30.599047
20
-13.125000
30
0.0
11
21.574512
21
-13.125000
31
0.0
0
LINE
8
0
6
CONTINUOUS
10
45.839585
20
-23.125000
30
0.0
11
42.410464
21
-20.875000
31
0.0
0
LINE
8
0
6
CONTINUOUS
10
30.980061
20
-13.375000
30
0.0
11
30.599047
21
-13.125000
31
0.0
0
LINE
8
0
6
CONTINUOUS
10
43.016010
20
-13.125000
30
0.0
11
43.547485
21
-13.375000
31
0.0
0
LINE
8
0
6
CONTINUOUS
10
65.987356
20
-20.875000
30
0.0
11
76.085226
21
-23.125000
31
0.0
0
LINE
8
0
6
CONTINUOUS
10
61.009441
20
-13.125000
30
0.0
11
43.016010
21
-13.125000
31
0.0
0
LINE
8
0
6
CONTINUOUS
10
76.085226
20
-23.125000
30
0.0
11
72.693174
21
-20.875000
31
0.0
0
LINE
8
0
6
CONTINUOUS
10
61.386336
20
-13.375000
30
0.0
11
61.009441
21
-13.125000
31
0.0
0
LINE
8
0
6
CONTINUOUS
10
64.192299
20
-13.125000
30
0.0
11
64.714690
21
-13.375000
31
0.0
0
LINE
8
0
6
CONTINUOUS
10
91.812025
20
-20.875000
30
0.0
11
105.861776
21
-23.125000
31
0.0
0
LINE
8
0
6
CONTINUOUS
10
91.043692
20
-13.125000
30
0.0
11
64.192299
21
-13.125000
31
0.0
0
LINE
8
0
6
CONTINUOUS
10
105.861776
20
-23.125000
30
0.0
11
102.527707
21
-20.875000
31
0.0
0
LINE
8
0
6
CONTINUOUS
10
91.414144
20
-13.375000
30
0.0
11
91.043692
21
-13.125000
31
0.0
0
LINE
8
0
6
CONTINUOUS
10
84.972822
20
-13.125000
30
0.0
11
85.482907
21
-13.375000
31
0.0
0
LINE
8
0
6
CONTINUOUS
10
117.070642
20
-20.875000
30
0.0
11
134.985652
21
-23.125000
31
0.0
0
LINE
8
0
6
CONTINUOUS
10
120.516628
20
-13.125000
30
0.0
11
84.972822
21
-13.125000
31
0.0
0
LINE
8
0
6
CONTINUOUS
10
134.985652
20
-23.125000
30
0.0
11
131.730122
21
-20.875000
31
0.0
0
LINE
8
0
6
CONTINUOUS
10
120.878354
20
-13.375000
30
0.0
11
120.516628
21
-13.125000
31
0.0
0
LINE
8
0
6
CONTINUOUS
10
105.229459
20
-13.125000
30
0.0
11
105.724094
21
-13.375000
31
0.0
0
LINE
8
0
6
CONTINUOUS
10
141.607480
20
-20.875000
30
0.0
11
163.277298
21
-23.125000
31
0.0
0
LINE
8
0
6
CONTINUOUS
10
149.246539
20
-13.125000
30
0.0
11
105.229459
21
-13.125000
31
0.0
0
LINE
8
0
6
CONTINUOUS
10
163.277298
20
-23.125000
30
0.0
11
160.120377
21
-20.875000
31
0.0
0
LINE
8
0
6
CONTINUOUS
10
149.597308
20
-13.375000
30
0.0
11
149.246539
21
-13.125000
31
0.0
0
LINE
8
0
6
CONTINUOUS
10
124.837322
20
-13.125000
30
0.0
11
125.313456
21
-13.375000
31
0.0
0
LINE
8
0
6
CONTINUOUS
10
165.271261
20
-20.875000
30
0.0
11
190.562284
21
-23.125000
31
0.0
0
LINE
8
0
6
CONTINUOUS
10
177.056295
20
-13.125000
30
0.0
11
124.837322
21
-13.125000
31
0.0
0
LINE
8
0
6
CONTINUOUS
10
190.562284
20
-23.125000
30
0.0
11
187.523437
21
-20.875000
31
0.0
0
LINE
8
0
6
CONTINUOUS
10
177.393945
20
-13.375000
30
0.0
11
177.056295
21
-13.125000
31
0.0
0
LINE
8
0
6
CONTINUOUS
10
143.675521
20
-13.125000
30
0.0
11
144.130220
21
-13.375000
31
0.0
0
LINE
8
0
6
CONTINUOUS
10
187.916090
20
-20.875000
30
0.0
11
216.672391
21
-23.125000
31
0.0
0
LINE
8
0
6
CONTINUOUS
10
203.774440
20
-13.125000
30
0.0
11
143.675521
21
-13.125000
31
0.0
0
LINE
8
0
6
CONTINUOUS
10
216.672391
20
-23.125000
30
0.0
11
213.770352
21
-20.875000
31
0.0
0
LINE
8
0
6
CONTINUOUS
10
204.096889
20
-13.375000
30
0.0
11
203.774440
21
-13.125000
31
0.0
0
LINE
8
0
6
CONTINUOUS
10
161.627912
20
-13.125000
30
0.0
11
162.058372
21
-13.375000
31
0.0
0
LINE
8
0
6
CONTINUOUS
10
209.402353
20
-20.875000
30
0.0
11
241.446640
21
-23.125000
31
0.0
0
LINE
8
0
6
CONTINUOUS
10
229.236248
20
-13.125000
30
0.0
11
161.627912
21
-13.125000
31
0.0
0
LINE
8
0
6
CONTINUOUS
10
241.446640
20
-23.125000
30
0.0
11
238.699302
21
-20.875000
31
0.0
0
LINE
8
0
6
CONTINUOUS
10
229.541508
20
-13.375000
30
0.0
11
229.236249
21
-13.125000
31
0.0
0
LINE
8
0
6
CONTINUOUS
10
178.583814
20
-13.125000
30
0.0
11
178.987381
21
-13.375000
31
0.0
0
LINE
8
0
6
CONTINUOUS
10
229.597581
20
-20.875000
30
0.0
11
264.732291
21
-23.125000
31
0.0
0
LINE
8
0
6
CONTINUOUS
10
253.284739
20
-13.125000
30
0.0
11
178.583814
21
-13.125000
31
0.0
0
LINE
8
0
6
CONTINUOUS
10
264.732291
20
-23.125000
30
0.0
11
262.156592
21
-20.875000
31
0.0
0
LINE
8
0
6
CONTINUOUS
10
253.570928
20
-13.375000
30
0.0
11
253.284739
21
-13.125000
31
0.0
0
LINE
8
0
6
CONTINUOUS
10
194.438687
20
-13.125000
30
0.0
11
194.812873
21
-13.375000
31
0.0
0
LINE
8
0
6
CONTINUOUS
10
248.377264
20
-20.875000
30
0.0
11
286.385779
21
-23.125000
31
0.0
0
LINE
8
0
6
CONTINUOUS
10
275.771645
20
-13.125000
30
0.0
11
194.438687
21
-13.125000
31
0.0
0
LINE
8
0
6
CONTINUOUS
10
286.385779
20
-23.125000
30
0.0
11
275.771645
21
-13.125000
31
0.0
0
LINE
8
0
6
CONTINUOUS
10
209.094781
20
-13.125000
30
0.0
11
209.437279
21
-13.375000
31
0.0
0
LINE
8
0
6
CONTINUOUS
10
265.625618
20
-20.875000
30
0.0
11
306.273603
21
-23.125000
31
0.0
0
LINE
8
0
6
CONTINUOUS
10
296.558327
20
-13.125000
30
0.0
11
209.094781
21
-13.125000
31
0.0
0
LINE
8
0
6
CONTINUOUS
10
306.273603
20
-23.125000
30
0.0
11
296.558327
21
-13.125000
31
0.0
0
LINE
8
0
6
CONTINUOUS
10
222.461736
20
-13.125000
30
0.0
11
222.770435
21
-13.375000
31
0.0
0
LINE
8
0
6
CONTINUOUS
10
268.179538
20
-20.192382
30
0.0
11
324.273149
21
-23.125000
31
0.0
0
LINE
8
0
6
CONTINUOUS
10
315.516628
20
-13.125000
30
0.0
11
222.461736
21
-13.125000
31
0.0
0
LINE
8
0
6
CONTINUOUS
10
324.273149
20
-23.125000
30
0.0
11
315.516628
21
-13.125000
31
0.0
0
LINE
8
0
6
CONTINUOUS
10
234.457141
20
-13.125000
30
0.0
11
234.730137
21
-13.375000
31
0.0
0
LINE
8
0
6
CONTINUOUS
10
268.808540
20
-19.564444
30
0.0
11
340.273443
21
-23.125000
31
0.0
0
LINE
8
0
6
CONTINUOUS
10
332.529664
20
-13.125000
30
0.0
11
234.457141
21
-13.125000
31
0.0
0
LINE
8
0
6
CONTINUOUS
10
340.273443
20
-23.125000
30
0.0
11
332.529664
21
-13.125000
31
0.0
0
LINE
8
0
6
CONTINUOUS
10
245.007039
20
-13.125000
30
0.0
11
245.242649
21
-13.375000
31
0.0
0
LINE
8
0
6
CONTINUOUS
10
269.311038
20
-19.062796
30
0.0
11
354.175838
21
-23.125000
31
0.0
0
LINE
8
0
6
CONTINUOUS
10
347.492544
20
-13.125000
30
0.0
11
245.007039
21
-13.125000
31
0.0
0
LINE
8
0
6
CONTINUOUS
10
354.175838
20
-23.125000
30
0.0
11
347.492545
21
-13.125000
31
0.0
0
LINE
8
0
6
CONTINUOUS
10
254.046388
20
-13.125000
30
0.0
11
254.243159
21
-13.375000
31
0.0
0
LINE
8
0
6
CONTINUOUS
10
269.706266
20
-18.668237
30
0.0
11
365.894621
21
-23.125000
31
0.0
0
LINE
8
0
6
CONTINUOUS
10
360.313018
20
-13.125000
30
0.0
11
254.046388
21
-13.125000
31
0.0
0
LINE
8
0
6
CONTINUOUS
10
365.894621
20
-23.125000
30
0.0
11
360.313018
21
-13.125000
31
0.0
0
LINE
8
0
6
CONTINUOUS
10
261.519456
20
-13.125000
30
0.0
11
261.676175
21
-13.375000
31
0.0
0
LINE
8
0
6
CONTINUOUS
10
270.000000
20
-18.366462
30
0.0
11
375.357542
21
-23.125000
31
0.0
0
LINE
8
0
6
CONTINUOUS
10
370.912041
20
-13.125000
30
0.0
11
261.519456
21
-13.125000
31
0.0
0
LINE
8
0
6
CONTINUOUS
10
375.357542
20
-23.125000
30
0.0
11
370.912041
21
-13.125000
31
0.0
0
LINE
8
0
6
CONTINUOUS
10
267.380169
20
-13.125000
30
0.0
11
267.495871
21
-13.375000
31
0.0
0
LINE
8
0
6
CONTINUOUS
10
270.000000
20
-18.138553
30
0.0
11
382.506259
21
-23.125000
31
0.0
0
LINE
8
0
6
CONTINUOUS
10
379.224269
20
-13.125000
30
0.0
11
267.380169
21
-13.125000
31
0.0
0
LINE
8
0
6
CONTINUOUS
10
382.506259
20
-23.125000
30
0.0
11
379.224269
21
-13.125000
31
0.0
0
LINE
8
0
6
CONTINUOUS
10
271.592395
20
-13.125000
30
0.0
11
273.071808
21
-18.125000
31
0.0
0
LINE
8
0
6
CONTINUOUS
10
273.071808
20
-18.125000
30
0.0
11
387.296698
21
-23.125000
31
0.0
0
LINE
8
0
6
CONTINUOUS
10
385.198453
20
-13.125000
30
0.0
11
271.592395
21
-13.125000
31
0.0
0
LINE
8
0
6
CONTINUOUS
10
387.296698
20
-23.125000
30
0.0
11
385.198453
21
-13.125000
31
0.0
0
LINE
8
0
6
CONTINUOUS
10
274.130164
20
-13.125000
30
0.0
11
274.765830
21
-18.125000
31
0.0
0
LINE
8
0
6
CONTINUOUS
10
274.765830
20
-18.125000
30
0.0
11
389.699324
21
-23.125000
31
0.0
0
LINE
8
0
6
CONTINUOUS
10
388.797760
20
-13.125000
30
0.0
11
274.130164
21
-13.125000
31
0.0
0
LINE
8
0
6
CONTINUOUS
10
389.699324
20
-23.125000
30
0.0
11
388.797760
21
-13.125000
31
0.0
0
LINE
8
0
6
CONTINUOUS
10
0.000000
20
-13.125000
30
0.0
11
-10.795579
21
-18.125000
31
0.0
0
LINE
8
0
6
CONTINUOUS
10
-15.311328
20
-23.125000
30
0.0
11
0.000000
21
-13.125000
31
0.0
0
LINE
8
0
6
CONTINUOUS
10
-10.795579
20
-18.125000
30
0.0
11
-21.574512
21
-13.125000
31
0.0
0
LINE
8
0
6
CONTINUOUS
10
-21.574512
20
-13.125000
30
0.0
11
-30.599047
21
-13.125000
31
0.0
0
LINE
8
0
6
CONTINUOUS
10
-15.311328
20
-23.125000
30
0.0
11
-10.795579
21
-18.125000
31
0.0
0
LINE
8
0
6
CONTINUOUS
10
-30.599047
20
-13.125000
30
0.0
11
-15.311328
21
-23.125000
31
0.0
0
LINE
8
0
6
CONTINUOUS
10
-32.320178
20
-18.125000
30
0.0
11
-43.016010
21
-13.125000
31
0.0
0
LINE
8
0
6
CONTINUOUS
10
-43.016010
20
-13.125000
30
0.0
11
-61.009441
21
-13.125000
31
0.0
0
LINE
8
0
6
CONTINUOUS
10
-45.839585
20
-23.125000
30
0.0
11
-32.320178
21
-18.125000
31
0.0
0
LINE
8
0
6
CONTINUOUS
10
-61.009441
20
-13.125000
30
0.0
11
-45.839585
21
-23.125000
31
0.0
0
LINE
8
0
6
CONTINUOUS
10
-53.645513
20
-18.125000
30
0.0
11
-64.192299
21
-13.125000
31
0.0
0
LINE
8
0
6
CONTINUOUS
10
-64.192299
20
-13.125000
30
0.0
11
-91.043692
21
-13.125000
31
0.0
0
LINE
8
0
6
CONTINUOUS
10
-76.085226
20
-23.125000
30
0.0
11
-53.645513
21
-18.125000
31
0.0
0
LINE
8
0
6
CONTINUOUS
10
-91.043692
20
-13.125000
30
0.0
11
-76.085226
21
-23.125000
31
0.0
0
LINE
8
0
6
CONTINUOUS
10
-74.640106
20
-18.125000
30
0.0
11
-84.972822
21
-13.125000
31
0.0
0
LINE
8
0
6
CONTINUOUS
10
-84.972822
20
-13.125000
30
0.0
11
-120.516628
21
-13.125000
31
0.0
0
LINE
8
0
6
CONTINUOUS
10
-105.861776
20
-23.125000
30
0.0
11
-74.640106
21
-18.125000
31
0.0
0
LINE
8
0
6
CONTINUOUS
10
-120.516628
20
-13.125000
30
0.0
11
-105.861776
21
-23.125000
31
0.0
0
LINE
8
0
6
CONTINUOUS
10
-95.174517
20
-18.125000
30
0.0
11
-105.229459
21
-13.125000
31
0.0
0
LINE
8
0
6
CONTINUOUS
10
-105.229459
20
-13.125000
30
0.0
11
-149.246539
21
-13.125000
31
0.0
0
LINE
8
0
6
CONTINUOUS
10
-134.985652
20
-23.125000
30
0.0
11
-95.174517
21
-18.125000
31
0.0
0
LINE
8
0
6
CONTINUOUS
10
-149.246539
20
-13.125000
30
0.0
11
-134.985652
21
-23.125000
31
0.0
0
LINE
8
0
6
CONTINUOUS
10
-115.122146
20
-18.125000
30
0.0
11
-124.837322
21
-13.125000
31
0.0
0
LINE
8
0
6
CONTINUOUS
10
-124.837322
20
-13.125000
30
0.0
11
-177.056295
21
-13.125000
31
0.0
0
LINE
8
0
6
CONTINUOUS
10
-163.277298
20
-23.125000
30
0.0
11
-115.122146
21
-18.125000
31
0.0
0
LINE
8
0
6
CONTINUOUS
10
-177.056295
20
-13.125000
30
0.0
11
-163.277298
21
-23.125000
31
0.0
0
LINE
8
0
6
CONTINUOUS
10
-134.360008
20
-18.125000
30
0.0
11
-143.675521
21
-13.125000
31
0.0
0
LINE
8
0
6
CONTINUOUS
10
-143.675521
20
-13.125000
30
0.0
11
-203.774440
21
-13.125000
31
0.0
0
LINE
8
0
6
CONTINUOUS
10
-190.562284
20
-23.125000
30
0.0
11
-134.360008
21
-18.125000
31
0.0
0
LINE
8
0
6
CONTINUOUS
10
-203.774440
20
-13.125000
30
0.0
11
-190.562284
21
-23.125000
31
0.0
0
LINE
8
0
6
CONTINUOUS
10
-152.769496
20
-18.125000
30
0.0
11
-161.627912
21
-13.125000
31
0.0
0
LINE
8
0
6
CONTINUOUS
10
-161.627912
20
-13.125000
30
0.0
11
-229.236248
21
-13.125000
31
0.0
0
LINE
8
0
6
CONTINUOUS
10
-216.672391
20
-23.125000
30
0.0
11
-152.769496
21
-18.125000
31
0.0
0
LINE
8
0
6
CONTINUOUS
10
-229.236248
20
-13.125000
30
0.0
11
-216.672391
21
-23.125000
31
0.0
0
LINE
8
0
6
CONTINUOUS
10
-170.237110
20
-18.125000
30
0.0
11
-178.583814
21
-13.125000
31
0.0
0
LINE
8
0
6
CONTINUOUS
10
-178.583814
20
-13.125000
30
0.0
11
-253.284739
21
-13.125000
31
0.0
0
LINE
8
0
6
CONTINUOUS
10
-241.446640
20
-23.125000
30
0.0
11
-170.237110
21
-18.125000
31
0.0
0
LINE
8
0
6
CONTINUOUS
10
-253.284739
20
-13.125000
30
0.0
11
-241.446640
21
-23.125000
31
0.0
0
LINE
8
0
6
CONTINUOUS
10
-186.655155
20
-18.125000
30
0.0
11
-194.438687
21
-13.125000
31
0.0
0
LINE
8
0
6
CONTINUOUS
10
-194.438687
20
-13.125000
30
0.0
11
-275.771645
21
-13.125000
31
0.0
0
LINE
8
0
6
CONTINUOUS
10
-264.732291
20
-23.125000
30
0.0
11
-186.655155
21
-18.125000
31
0.0
0
LINE
8
0
6
CONTINUOUS
10
-275.771645
20
-13.125000
30
0.0
11
-264.732291
21
-23.125000
31
0.0
0
LINE
8
0
6
CONTINUOUS
10
-201.922409
20
-18.125000
30
0.0
11
-209.094781
21
-13.125000
31
0.0
0
LINE
8
0
6
CONTINUOUS
10
-209.094781
20
-13.125000
30
0.0
11
-296.558327
21
-13.125000
31
0.0
0
LINE
8
0
6
CONTINUOUS
10
-286.385779
20
-23.125000
30
0.0
11
-201.922409
21
-18.125000
31
0.0
0
LINE
8
0
6
CONTINUOUS
10
-296.558327
20
-13.125000
30
0.0
11
-286.385779
21
-23.125000
31
0.0
0
LINE
8
0
6
CONTINUOUS
10
-215.944744
20
-18.125000
30
0.0
11
-222.461736
21
-13.125000
31
0.0
0
LINE
8
0
6
CONTINUOUS
10
-222.461736
20
-13.125000
30
0.0
11
-315.516628
21
-13.125000
31
0.0
0
LINE
8
0
6
CONTINUOUS
10
-306.273603
20
-23.125000
30
0.0
11
-215.944744
21
-18.125000
31
0.0
0
LINE
8
0
6
CONTINUOUS
10
-315.516628
20
-13.125000
30
0.0
11
-306.273603
21
-23.125000
31
0.0
0
LINE
8
0
6
CONTINUOUS
10
-228.635708
20
-18.125000
30
0.0
11
-234.457141
21
-13.125000
31
0.0
0
LINE
8
0
6
CONTINUOUS
10
-234.457141
20
-13.125000
30
0.0
11
-332.529664
21
-13.125000
31
0.0
0
LINE
8
0
6
CONTINUOUS
10
-324.273149
20
-23.125000
30
0.0
11
-228.635708
21
-18.125000
31
0.0
0
LINE
8
0
6
CONTINUOUS
10
-332.529664
20
-13.125000
30
0.0
11
-324.273149
21
-23.125000
31
0.0
0
LINE
8
0
6
CONTINUOUS
10
-239.917057
20
-18.125000
30
0.0
11
-245.007039
21
-13.125000
31
0.0
0
LINE
8
0
6
CONTINUOUS
10
-245.007039
20
-13.125000
30
0.0
11
-347.492544
21
-13.125000
31
0.0
0
LINE
8
0
6
CONTINUOUS
10
-340.273443
20
-23.125000
30
0.0
11
-239.917057
21
-18.125000
31
0.0
0
LINE
8
0
6
CONTINUOUS
10
-347.492544
20
-13.125000
30
0.0
11
-340.273443
21
-23.125000
31
0.0
0
LINE
8
0
6
CONTINUOUS
10
-249.719238
20
-18.125000
30
0.0
11
-254.046388
21
-13.125000
31
0.0
0
LINE
8
0
6
CONTINUOUS
10
-254.046388
20
-13.125000
30
0.0
11
-360.313018
21
-13.125000
31
0.0
0
LINE
8
0
6
CONTINUOUS
10
-354.175838
20
-23.125000
30
0.0
11
-249.719238
21
-18.125000
31
0.0
0
LINE
8
0
6
CONTINUOUS
10
-360.313018
20
-13.125000
30
0.0
11
-354.175838
21
-23.125000
31
0.0
0
LINE
8
0
6
CONTINUOUS
10
-257.981816
20
-18.125000
30
0.0
11
-261.519456
21
-13.125000
31
0.0
0
LINE
8
0
6
CONTINUOUS
10
-261.519456
20
-13.125000
30
0.0
11
-370.912041
21
-13.125000
31
0.0
0
LINE
8
0
6
CONTINUOUS
10
-365.894621
20
-23.125000
30
0.0
11
-257.981816
21
-18.125000
31
0.0
0
LINE
8
0
6
CONTINUOUS
10
-370.912041
20
-13.125000
30
0.0
11
-365.894621
21
-23.125000
31
0.0
0
LINE
8
0
6
CONTINUOUS
10
-264.653851
20
-18.125000
30
0.0
11
-267.380169
21
-13.125000
31
0.0
0
LINE
8
0
6
CONTINUOUS
10
-267.380169
20
-13.125000
30
0.0
11
-379.224269
21
-13.125000
31
0.0
0
LINE
8
0
6
CONTINUOUS
10
-375.357542
20
-23.125000
30
0.0
11
-264.653851
21
-18.125000
31
0.0
0
LINE
8
0
6
CONTINUOUS
10
-379.224269
20
-13.125000
30
0.0
11
-375.357542
21
-23.125000
31
0.0
0
LINE
8
0
6
CONTINUOUS
10
-269.694207
20
-18.125000
30
0.0
11
-271.592395
21
-13.125000
31
0.0
0
LINE
8
0
6
CONTINUOUS
10
-271.592395
20
-13.125000
30
0.0
11
-385.198453
21
-13.125000
31
0.0
0
LINE
8
0
6
CONTINUOUS
10
-382.506259
20
-23.125000
30
0.0
11
-269.694207
21
-18.125000
31
0.0
0
LINE
8
0
6
CONTINUOUS
10
-385.198453
20
-13.125000
30
0.0
11
-382.506259
21
-23.125000
31
0.0
0
LINE
8
0
6
CONTINUOUS
10
-273.071808
20
-18.125000
30
0.0
11
-274.130164
21
-13.125000
31
0.0
0
LINE
8
0
6
CONTINUOUS
10
-274.130164
20
-13.125000
30
0.0
11
-388.797760
21
-13.125000
31
0.0
0
LINE
8
0
6
CONTINUOUS
10
-387.296698
20
-23.125000
30
0.0
11
-273.071808
21
-18.125000
31
0.0
0
LINE
8
0
6
CONTINUOUS
10
-388.797760
20
-13.125000
30
0.0
11
-387.296698
21
-23.125000
31
0.0
0
LINE
8
0
6
CONTINUOUS
10
-274.765830
20
-18.125000
30
0.0
11
-274.977828
21
-13.125000
31
0.0
0
LINE
8
0
6
CONTINUOUS
10
-274.977828
20
-13.125000
30
0.0
11
-390.000000
21
-13.125000
31
0.0
0
LINE
8
0
6
CONTINUOUS
10
-389.699324
20
-23.125000
30
0.0
11
-274.765830
21
-18.125000
31
0.0
0
LINE
8
0
6
CONTINUOUS
10
-390.000000
20
-13.125000
30
0.0
11
-389.699324
21
-23.125000
31
0.0
0
LINE
8
0
6
CONTINUOUS
10
-22.111795
20
-13.375000
30
0.0
11
-21.574512
21
-13.125000
31
0.0
0
LINE
8
0
6
CONTINUOUS
10
-45.839585
20
-23.125000
30
0.0
11
-39.755852
21
-20.875000
31
0.0
0
LINE
8
0
6
CONTINUOUS
10
-21.574512
20
-13.125000
30
0.0
11
-30.599047
21
-13.125000
31
0.0
0
LINE
8
0
6
CONTINUOUS
10
-30.599047
20
-13.125000
30
0.0
11
-30.980061
21
-13.375000
31
0.0
0
LINE
8
0
6
CONTINUOUS
10
-42.410464
20
-20.875000
30
0.0
11
-45.839585
21
-23.125000
31
0.0
0
LINE
8
0
6
CONTINUOUS
10
-43.547485
20
-13.375000
30
0.0
11
-43.016010
21
-13.125000
31
0.0
0
LINE
8
0
6
CONTINUOUS
10
-76.085226
20
-23.125000
30
0.0
11
-65.987356
21
-20.875000
31
0.0
0
LINE
8
0
6
CONTINUOUS
10
-43.016010
20
-13.125000
30
0.0
11
-61.009441
21
-13.125000
31
0.0
0
LINE
8
0
6
CONTINUOUS
10
-61.009441
20
-13.125000
30
0.0
11
-61.386336
21
-13.375000
31
0.0
0
LINE
8
0
6
CONTINUOUS
10
-72.693174
20
-20.875000
30
0.0
11
-76.085226
21
-23.125000
31
0.0
0
LINE
8
0
6
CONTINUOUS
10
-64.714690
20
-13.375000
30
0.0
11
-64.192299
21
-13.125000
31
0.0
0
LINE
8
0
6
CONTINUOUS
10
-105.861776
20
-23.125000
30
0.0
11
-91.812025
21
-20.875000
31
0.0
0
LINE
8
0
6
CONTINUOUS
10
-64.192299
20
-13.125000
30
0.0
11
-91.043692
21
-13.125000
31
0.0
0
LINE
8
0
6
CONTINUOUS
10
-91.043692
20
-13.125000
30
0.0
11
-91.414144
21
-13.375000
31
0.0
0
LINE
8
0
6
CONTINUOUS
10
-102.527707
20
-20.875000
30
0.0
11
-105.861776
21
-23.125000
31
0.0
0
LINE
8
0
6
CONTINUOUS
10
-85.482907
20
-13.375000
30
0.0
11
-84.972822
21
-13.125000
31
0.0
0
LINE
8
0
6
CONTINUOUS
10
-134.985652
20
-23.125000
30
0.0
11
-117.070642
21
-20.875000
31
0.0
0
LINE
8
0
6
CONTINUOUS
10
-84.972822
20
-13.125000
30
0.0
11
-120.516628
21
-13.125000
31
0.0
0
LINE
8
0
6
CONTINUOUS
10
-120.516628
20
-13.125000
30
0.0
11
-120.878354
21
-13.375000
31
0.0
0
LINE
8
0
6
CONTINUOUS
10
-131.730122
20
-20.875000
30
0.0
11
-134.985652
21
-23.125000
31
0.0
0
LINE
8
0
6
CONTINUOUS
10
-105.724094
20
-13.375000
30
0.0
11
-105.229459
21
-13.125000
31
0.0
0
LINE
8
0
6
CONTINUOUS
10
-163.277298
20
-23.125000
30
0.0
11
-141.607480
21
-20.875000
31
0.0
0
LINE
8
0
6
CONTINUOUS
10
-105.229459
20
-13.125000
30
0.0
11
-149.246539
21
-13.125000
31
0.0
0
LINE
8
0
6
CONTINUOUS
10
-149.246539
20
-13.125000
30
0.0
11
-149.597308
21
-13.375000
31
0.0
0
LINE
8
0
6
CONTINUOUS
10
-160.120377
20
-20.875000
30
0.0
11
-163.277298
21
-23.125000
31
0.0
0
LINE
8
0
6
CONTINUOUS
10
-125.313456
20
-13.375000
30
0.0
11
-124.837322
21
-13.125000
31
0.0
0
LINE
8
0
6
CONTINUOUS
10
-190.562284
20
-23.125000
30
0.0
11
-165.271261
21
-20.875000
31
0.0
0
LINE
8
0
6
CONTINUOUS
10
-124.837322
20
-13.125000
30
0.0
11
-177.056295
21
-13.125000
31
0.0
0
LINE
8
0
6
CONTINUOUS
10
-177.056295
20
-13.125000
30
0.0
11
-177.393945
21
-13.375000
31
0.0
0
LINE
8
0
6
CONTINUOUS
10
-187.523437
20
-20.875000
30
0.0
11
-190.562284
21
-23.125000
31
0.0
0
LINE
8
0
6
CONTINUOUS
10
-144.130220
20
-13.375000
30
0.0
11
-143.675521
21
-13.125000
31
0.0
0
LINE
8
0
6
CONTINUOUS
10
-216.672391
20
-23.125000
30
0.0
11
-187.916090
21
-20.875000
31
0.0
0
LINE
8
0
6
CONTINUOUS
10
-143.675521
20
-13.125000
30
0.0
11
-203.774440
21
-13.125000
31
0.0
0
LINE
8
0
6
CONTINUOUS
10
-203.774440
20
-13.125000
30
0.0
11
-204.096889
21
-13.375000
31
0.0
0
LINE
8
0
6
CONTINUOUS
10
-213.770352
20
-20.875000
30
0.0
11
-216.672391
21
-23.125000
31
0.0
0
LINE
8
0
6
CONTINUOUS
10
-162.058372
20
-13.375000
30
0.0
11
-161.627912
21
-13.125000
31
0.0
0
LINE
8
0
6
CONTINUOUS
10
-241.446640
20
-23.125000
30
0.0
11
-209.402353
21
-20.875000
31
0.0
0
LINE
8
0
6
CONTINUOUS
10
-161.627912
20
-13.125000
30
0.0
11
-229.236248
21
-13.125000
31
0.0
0
LINE
8
0
6
CONTINUOUS
10
-229.236248
20
-13.125000
30
0.0
11
-229.541508
21
-13.375000
31
0.0
0
LINE
8
0
6
CONTINUOUS
10
-238.699302
20
-20.875000
30
0.0
11
-241.446640
21
-23.125000
31
0.0
0
LINE
8
0
6
CONTINUOUS
10
-178.987381
20
-13.375000
30
0.0
11
-178.583814
21
-13.125000
31
0.0
0
LINE
8
0
6
CONTINUOUS
10
-264.732291
20
-23.125000
30
0.0
11
-229.597581
21
-20.875000
31
0.0
0
LINE
8
0
6
CONTINUOUS
10
-178.583814
20
-13.125000
30
0.0
11
-253.284739
21
-13.125000
31
0.0
0
LINE
8
0
6
CONTINUOUS
10
-253.284739
20
-13.125000
30
0.0
11
-253.570928
21
-13.375000
31
0.0
0
LINE
8
0
6
CONTINUOUS
10
-262.156592
20
-20.875000
30
0.0
11
-264.732291
21
-23.125000
31
0.0
0
LINE
8
0
6
CONTINUOUS
10
-194.812873
20
-13.375000
30
0.0
11
-194.438687
21
-13.125000
31
0.0
0
LINE
8
0
6
CONTINUOUS
10
-286.385779
20
-23.125000
30
0.0
11
-248.377264
21
-20.875000
31
0.0
0
LINE
8
0
6
CONTINUOUS
10
-194.438687
20
-13.125000
30
0.0
11
-275.771645
21
-13.125000
31
0.0
0
LINE
8
0
6
CONTINUOUS
10
-275.771645
20
-13.125000
30
0.0
11
-286.385779
21
-23.125000
31
0.0
0
LINE
8
0
6
CONTINUOUS
10
-209.437279
20
-13.375000
30
0.0
11
-209.094781
21
-13.125000
31
0.0
0
LINE
8
0
6
CONTINUOUS
10
-306.273603
20
-23.125000
30
0.0
11
-265.625618
21
-20.875000
31
0.0
0
LINE
8
0
6
CONTINUOUS
10
-209.094781
20
-13.125000
30
0.0
11
-296.558327
21
-13.125000
31
0.0
0
LINE
8
0
6
CONTINUOUS
10
-296.558327
20
-13.125000
30
0.0
11
-306.273603
21
-23.125000
31
0.0
0
LINE
8
0
6
CONTINUOUS
10
-222.770435
20
-13.375000
30
0.0
11
-222.461736
21
-13.125000
31
0.0
0
LINE
8
0
6
CONTINUOUS
10
-324.273149
20
-23.125000
30
0.0
11
-268.179538
21
-20.192382
31
0.0
0
LINE
8
0
6
CONTINUOUS
10
-222.461736
20
-13.125000
30
0.0
11
-315.516628
21
-13.125000
31
0.0
0
LINE
8
0
6
CONTINUOUS
10
-315.516628
20
-13.125000
30
0.0
11
-324.273149
21
-23.125000
31
0.0
0
LINE
8
0
6
CONTINUOUS
10
-234.730137
20
-13.375000
30
0.0
11
-234.457141
21
-13.125000
31
0.0
0
LINE
8
0
6
CONTINUOUS
10
-340.273443
20
-23.125000
30
0.0
11
-268.808540
21
-19.564444
31
0.0
0
LINE
8
0
6
CONTINUOUS
10
-234.457141
20
-13.125000
30
0.0
11
-332.529664
21
-13.125000
31
0.0
0
LINE
8
0
6
CONTINUOUS
10
-332.529664
20
-13.125000
30
0.0
11
-340.273443
21
-23.125000
31
0.0
0
LINE
8
0
6
CONTINUOUS
10
-245.242649
20
-13.375000
30
0.0
11
-245.007039
21
-13.125000
31
0.0
0
LINE
8
0
6
CONTINUOUS
10
-354.175838
20
-23.125000
30
0.0
11
-269.311038
21
-19.062796
31
0.0
0
LINE
8
0
6
CONTINUOUS
10
-245.007039
20
-13.125000
30
0.0
11
-347.492544
21
-13.125000
31
0.0
0
LINE
8
0
6
CONTINUOUS
10
-347.492544
20
-13.125000
30
0.0
11
-354.175838
21
-23.125000
31
0.0
0
LINE
8
0
6
CONTINUOUS
10
-254.243159
20
-13.375000
30
0.0
11
-254.046388
21
-13.125000
31
0.0
0
LINE
8
0
6
CONTINUOUS
10
-365.894621
20
-23.125000
30
0.0
11
-269.706266
21
-18.668237
31
0.0
0
LINE
8
0
6
CONTINUOUS
10
-254.046388
20
-13.125000
30
0.0
11
-360.313018
21
-13.125000
31
0.0
0
LINE
8
0
6
CONTINUOUS
10
-360.313018
20
-13.125000
30
0.0
11
-365.894621
21
-23.125000
31
0.0
0
LINE
8
0
6
CONTINUOUS
10
-261.676175
20
-13.375000
30
0.0
11
-261.519456
21
-13.125000
31
0.0
0
LINE
8
0
6
CONTINUOUS
10
-375.357542
20
-23.125000
30
0.0
11
-270.000000
21
-18.366462
31
0.0
0
LINE
8
0
6
CONTINUOUS
10
-261.519456
20
-13.125000
30
0.0
11
-370.912041
21
-13.125000
31
0.0
0
LINE
8
0
6
CONTINUOUS
10
-370.912041
20
-13.125000
30
0.0
11
-375.357542
21
-23.125000
31
0.0
0
LINE
8
0
6
CONTINUOUS
10
-267.495871
20
-13.375000
30
0.0
11
-267.380169
21
-13.125000
31
0.0
0
LINE
8
0
6
CONTINUOUS
10
-382.506259
20
-23.125000
30
0.0
11
-270.000000
21
-18.138553
31
0.0
0
LINE
8
0
6
CONTINUOUS
10
-267.380169
20
-13.125000
30
0.0
11
-379.224269
21
-13.125000
31
0.0
0
LINE
8
0
6
CONTINUOUS
10
-379.224269
20
-13.125000
30
0.0
11
-382.506259
21
-23.125000
31
0.0
0
LINE
8
0
6
CONTINUOUS
10
-273.071808
20
-18.125000
30
0.0
11
-271.592395
21
-13.125000
31
0.0
0
LINE
8
0
6
CONTINUOUS
10
-387.296698
20
-23.125000
30
0.0
11
-273.071808
21
-18.125000
31
0.0
0
LINE
8
0
6
CONTINUOUS
10
-271.592395
20
-13.125000
30
0.0
11
-385.198453
21
-13.125000
31
0.0
0
LINE
8
0
6
CONTINUOUS
10
-385.198453
20
-13.125000
30
0.0
11
-387.296698
21
-23.125000
31
0.0
0
LINE
8
0
6
CONTINUOUS
10
-274.765830
20
-18.125000
30
0.0
11
-274.130164
21
-13.125000
31
0.0
0
LINE
8
0
6
CONTINUOUS
10
-389.699324
20
-23.125000
30
0.0
11
-274.765830
21
-18.125000
31
0.0
0
LINE
8
0
6
CONTINUOUS
10
-274.130164
20
-13.125000
30
0.0
11
-388.797760
21
-13.125000
31
0.0
0
LINE
8
0
6
CONTINUOUS
10
-388.797760
20
-13.125000
30
0.0
11
-389.699324
21
-23.125000
31
0.0
0
LINE
8
0
6
CONTINUOUS
10
0.000000
20
-17.125000
30
0.0
11
15.311328
21
-27.125000
31
0.0
0
LINE
8
0
6
CONTINUOUS
10
15.311328
20
-23.125000
30
0.0
11
0.000000
21
-13.125000
31
0.0
0
LINE
8
0
6
CONTINUOUS
10
15.311328
20
-27.125000
30
0.0
11
30.599047
21
-17.125000
31
0.0
0
LINE
8
0
6
CONTINUOUS
10
30.599047
20
-13.125000
30
0.0
11
15.311328
21
-23.125000
31
0.0
0
LINE
8
0
6
CONTINUOUS
10
30.599047
20
-17.125000
30
0.0
11
45.839584
21
-27.125000
31
0.0
0
LINE
8
0
6
CONTINUOUS
10
45.839585
20
-23.125000
30
0.0
11
30.599047
21
-13.125000
31
0.0
0
LINE
8
0
6
CONTINUOUS
10
45.839585
20
-27.125000
30
0.0
11
61.009441
21
-17.125000
31
0.0
0
LINE
8
0
6
CONTINUOUS
10
61.009441
20
-13.125000
30
0.0
11
45.839585
21
-23.125000
31
0.0
0
LINE
8
0
6
CONTINUOUS
10
61.009441
20
-17.125000
30
0.0
11
76.085225
21
-27.125000
31
0.0
0
LINE
8
0
6
CONTINUOUS
10
76.085226
20
-23.125000
30
0.0
11
61.009441
21
-13.125000
31
0.0
0
LINE
8
0
6
CONTINUOUS
10
76.085226
20
-27.125000
30
0.0
11
91.043692
21
-17.125000
31
0.0
0
LINE
8
0
6
CONTINUOUS
10
91.043692
20
-13.125000
30
0.0
11
76.085226
21
-23.125000
31
0.0
0
LINE
8
0
6
CONTINUOUS
10
91.043692
20
-17.125000
30
0.0
11
105.861775
21
-27.125000
31
0.0
0
LINE
8
0
6
CONTINUOUS
10
105.861776
20
-23.125000
30
0.0
11
91.043692
21
-13.125000
31
0.0
0
LINE
8
0
6
CONTINUOUS
10
105.861776
20
-27.125000
30
0.0
11
120.516628
21
-17.125000
31
0.0
0
LINE
8
0
6
CONTINUOUS
10
120.516628
20
-13.125000
30
0.0
11
105.861776
21
-23.125000
31
0.0
0
LINE
8
0
6
CONTINUOUS
10
120.516628
20
-17.125000
30
0.0
11
134.985652
21
-27.125000
31
0.0
0
LINE
8
0
6
CONTINUOUS
10
134.985652
20
-23.125000
30
0.0
11
120.516628
21
-13.125000
31
0.0
0
LINE
8
0
6
CONTINUOUS
10
134.985652
20
-27.125000
30
0.0
11
149.246539
21
-17.125000
31
0.0
0
LINE
8
0
6
CONTINUOUS
10
149.246539
20
-13.125000
30
0.0
11
134.985652
21
-23.125000
31
0.0
0
LINE
8
0
6
CONTINUOUS
10
149.246539
20
-17.125000
30
0.0
11
163.277297
21
-27.125000
31
0.0
0
LINE
8
0
6
CONTINUOUS
10
163.277298
20
-23.125000
30
0.0
11
149.246539
21
-13.125000
31
0.0
0
LINE
8
0
6
CONTINUOUS
10
163.277298
20
-27.125000
30
0.0
11
177.056295
21
-17.125000
31
0.0
0
LINE
8
0
6
CONTINUOUS
10
177.056295
20
-13.125000
30
0.0
11
163.277298
21
-23.125000
31
0.0
0
LINE
8
0
6
CONTINUOUS
10
177.056295
20
-17.125000
30
0.0
11
190.562284
21
-27.125000
31
0.0
0
LINE
8
0
6
CONTINUOUS
10
190.562284
20
-23.125000
30
0.0
11
177.056295
21
-13.125000
31
0.0
0
LINE
8
0
6
CONTINUOUS
10
190.562284
20
-27.125000
30
0.0
11
203.774440
21
-17.125000
31
0.0
0
LINE
8
0
6
CONTINUOUS
10
203.774440
20
-13.125000
30
0.0
11
190.562284
21
-23.125000
31
0.0
0
LINE
8
0
6
CONTINUOUS
10
203.774440
20
-17.125000
30
0.0
11
216.672391
21
-27.125000
31
0.0
0
LINE
8
0
6
CONTINUOUS
10
216.672391
20
-23.125000
30
0.0
11
203.774440
21
-13.125000
31
0.0
0
LINE
8
0
6
CONTINUOUS
10
216.672391
20
-27.125000
30
0.0
11
229.236248
21
-17.125000
31
0.0
0
LINE
8
0
6
CONTINUOUS
10
229.236248
20
-13.125000
30
0.0
11
216.672391
21
-23.125000
31
0.0
0
LINE
8
0
6
CONTINUOUS
10
229.236248
20
-17.125000
30
0.0
11
241.446640
21
-27.125000
31
0.0
0
LINE
8
0
6
CONTINUOUS
10
241.446640
20
-23.125000
30
0.0
11
229.236248
21
-13.125000
31
0.0
0
LINE
8
0
6
CONTINUOUS
10
241.446640
20
-27.125000
30
0.0
11
253.284739
21
-17.125000
31
0.0
0
LINE
8
0
6
CONTINUOUS
10
253.284739
20
-13.125000
30
0.0
11
241.446640
21
-23.125000
31
0.0
0
LINE
8
0
6
CONTINUOUS
10
253.284739
20
-17.125000
30
0.0
11
264.732291
21
-27.125000
31
0.0
0
LINE
8
0
6
CONTINUOUS
10
264.732291
20
-23.125000
30
0.0
11
253.284739
21
-13.125000
31
0.0
0
LINE
8
0
6
CONTINUOUS
10
264.732291
20
-27.125000
30
0.0
11
275.771645
21
-17.125000
31
0.0
0
LINE
8
0
6
CONTINUOUS
10
275.771645
20
-13.125000
30
0.0
11
264.732291
21
-23.125000
31
0.0
0
LINE
8
0
6
CONTINUOUS
10
275.771645
20
-17.125000
30
0.0
11
286.385779
21
-27.125000
31
0.0
0
LINE
8
0
6
CONTINUOUS
10
286.385779
20
-23.125000
30
0.0
11
275.771645
21
-13.125000
31
0.0
0
LINE
8
0
6
CONTINUOUS
10
286.385779
20
-27.125000
30
0.0
11
296.558327
21
-17.125000
31
0.0
0
LINE
8
0
6
CONTINUOUS
10
296.558327
20
-13.125000
30
0.0
11
286.385779
21
-23.125000
31
0.0
0
LINE
8
0
6
CONTINUOUS
10
296.558327
20
-17.125000
30
0.0
11
306.273603
21
-27.125000
31
0.0
0
LINE
8
0
6
CONTINUOUS
10
306.273603
20
-23.125000
30
0.0
11
296.558327
21
-13.125000
31
0.0
0
LINE
8
0
6
CONTINUOUS
10
306.273603
20
-27.125000
30
0.0
11
315.516628
21
-17.125000
31
0.0
0
LINE
8
0
6
CONTINUOUS
10
315.516628
20
-13.125000
30
0.0
11
306.273603
21
-23.125000
31
0.0
0
LINE
8
0
6
CONTINUOUS
10
315.516628
20
-17.125000
30
0.0
11
324.273149
21
-27.125000
31
0.0
0
LINE
8
0
6
CONTINUOUS
10
324.273149
20
-23.125000
30
0.0
11
315.516628
21
-13.125000
31
0.0
0
LINE
8
0
6
CONTINUOUS
10
324.273149
20
-27.125000
30
0.0
11
332.529664
21
-17.125000
31
0.0
0
LINE
8
0
6
CONTINUOUS
10
332.529664
20
-13.125000
30
0.0
11
324.273149
21
-23.125000
31
0.0
0
LINE
8
0
6
CONTINUOUS
10
332.529664
20
-17.125000
30
0.0
11
340.273443
21
-27.125000
31
0.0
0
LINE
8
0
6
CONTINUOUS
10
340.273443
20
-23.125000
30
0.0
11
332.529664
21
-13.125000
31
0.0
0
LINE
8
0
6
CONTINUOUS
10
340.273443
20
-27.125000
30
0.0
11
347.492544
21
-17.125000
31
0.0
0
LINE
8
0
6
CONTINUOUS
10
347.492544
20
-13.125000
30
0.0
11
340.273443
21
-23.125000
31
0.0
0
LINE
8
0
6
CONTINUOUS
10
347.492544
20
-17.125000
30
0.0
11
354.175838
21
-27.125000
31
0.0
0
LINE
8
0
6
CONTINUOUS
10
354.175838
20
-23.125000
30
0.0
11
347.492544
21
-13.125000
31
0.0
0
LINE
8
0
6
CONTINUOUS
10
354.175838
20
-27.125000
30
0.0
11
360.313018
21
-17.125000
31
0.0
0
LINE
8
0
6
CONTINUOUS
10
360.313018
20
-13.125000
30
0.0
11
354.175838
21
-23.125000
31
0.0
0
LINE
8
0
6
CONTINUOUS
10
360.313018
20
-17.125000
30
0.0
11
365.894621
21
-27.125000
31
0.0
0
LINE
8
0
6
CONTINUOUS
10
365.894621
20
-23.125000
30
0.0
11
360.313018
21
-13.125000
31
0.0
0
LINE
8
0
6
CONTINUOUS
10
365.894621
20
-27.125000
30
0.0
11
370.912041
21
-17.125000
31
0.0
0
LINE
8
0
6
CONTINUOUS
10
370.912041
20
-13.125000
30
0.0
11
365.894621
21
-23.125000
31
0.0
0
LINE
8
0
6
CONTINUOUS
10
370.912041
20
-17.125000
30
0.0
11
375.357542
21
-27.125000
31
0.0
0
LINE
8
0
6
CONTINUOUS
10
375.357542
20
-23.125000
30
0.0
11
370.912041
21
-13.125000
31
0.0
0
LINE
8
0
6
CONTINUOUS
10
375.357542
20
-27.125000
30
0.0
11
379.224269
21
-17.125000
31
0.0
0
LINE
8
0
6
CONTINUOUS
10
379.224269
20
-13.125000
30
0.0
11
375.357542
21
-23.125000
31
0.0
0
LINE
8
0
6
CONTINUOUS
10
379.224269
20
-17.125000
30
0.0
11
382.506259
21
-27.125000
31
0.0
0
LINE
8
0
6
CONTINUOUS
10
382.506259
20
-23.125000
30
0.0
11
379.224269
21
-13.125000
31
0.0
0
LINE
8
0
6
CONTINUOUS
10
382.506259
20
-27.125000
30
0.0
11
385.198453
21
-17.125000
31
0.0
0
LINE
8
0
6
CONTINUOUS
10
385.198453
20
-13.125000
30
0.0
11
382.506259
21
-23.125000
31
0.0
0
LINE
8
0
6
CONTINUOUS
10
385.198453
20
-17.125000
30
0.0
11
387.296698
21
-27.125000
31
0.0
0
LINE
8
0
6
CONTINUOUS
10
387.296698
20
-23.125000
30
0.0
11
385.198453
21
-13.125000
31
0.0
0
LINE
8
0
6
CONTINUOUS
10
387.296698
20
-27.125000
30
0.0
11
388.797760
21
-17.125000
31
0.0
0
LINE
8
0
6
CONTINUOUS
10
388.797760
20
-13.125000
30
0.0
11
387.296698
21
-23.125000
31
0.0
0
LINE
8
0
6
CONTINUOUS
10
388.797760
20
-17.125000
30
0.0
11
389.699324
21
-27.125000
31
0.0
0
LINE
8
0
6
CONTINUOUS
10
389.699324
20
-23.125000
30
0.0
11
388.797760
21
-13.125000
31
0.0
0
LINE
8
0
6
CONTINUOUS
10
389.699324
20
-27.125000
30
0.0
11
390.000000
21
-17.125000
31
0.0
0
LINE
8
0
6
CONTINUOUS
10
390.000000
20
-13.125000
30
0.0
11
389.699324
21
-23.125000
31
0.0
0
LINE
8
0
6
CONTINUOUS
10
390.000000
20
-17.125000
30
0.0
11
390.000000
21
-13.125000
31
0.0
0
LINE
8
0
6
CONTINUOUS
10
0.000000
20
-13.125000
30
0.0
11
-15.311328
21
-23.125000
31
0.0
0
LINE
8
0
6
CONTINUOUS
10
-15.311328
20
-27.125000
30
0.0
11
0.000000
21
-17.125000
31
0.0
0
LINE
8
0
6
CONTINUOUS
10
-15.311328
20
-23.125000
30
0.0
11
-30.599047
21
-13.125000
31
0.0
0
LINE
8
0
6
CONTINUOUS
10
-30.599047
20
-17.125000
30
0.0
11
-15.311328
21
-27.125000
31
0.0
0
LINE
8
0
6
CONTINUOUS
10
-30.599047
20
-13.125000
30
0.0
11
-45.839585
21
-23.125000
31
0.0
0
LINE
8
0
6
CONTINUOUS
10
-45.839585
20
-27.125000
30
0.0
11
-30.599047
21
-17.125000
31
0.0
0
LINE
8
0
6
CONTINUOUS
10
-45.839585
20
-23.125000
30
0.0
11
-61.009441
21
-13.125000
31
0.0
0
LINE
8
0
6
CONTINUOUS
10
-61.009441
20
-17.125000
30
0.0
11
-45.839585
21
-27.125000
31
0.0
0
LINE
8
0
6
CONTINUOUS
10
-61.009441
20
-13.125000
30
0.0
11
-76.085225
21
-23.125000
31
0.0
0
LINE
8
0
6
CONTINUOUS
10
-76.085226
20
-27.125000
30
0.0
11
-61.009441
21
-17.125000
31
0.0
0
LINE
8
0
6
CONTINUOUS
10
-76.085226
20
-23.125000
30
0.0
11
-91.043692
21
-13.125000
31
0.0
0
LINE
8
0
6
CONTINUOUS
10
-91.043692
20
-17.125000
30
0.0
11
-76.085226
21
-27.125000
31
0.0
0
LINE
8
0
6
CONTINUOUS
10
-91.043692
20
-13.125000
30
0.0
11
-105.861775
21
-23.125000
31
0.0
0
LINE
8
0
6
CONTINUOUS
10
-105.861776
20
-27.125000
30
0.0
11
-91.043692
21
-17.125000
31
0.0
0
LINE
8
0
6
CONTINUOUS
10
-105.861776
20
-23.125000
30
0.0
11
-120.516628
21
-13.125000
31
0.0
0
LINE
8
0
6
CONTINUOUS
10
-120.516628
20
-17.125000
30
0.0
11
-105.861776
21
-27.125000
31
0.0
0
LINE
8
0
6
CONTINUOUS
10
-120.516628
20
-13.125000
30
0.0
11
-134.985652
21
-23.125000
31
0.0
0
LINE
8
0
6
CONTINUOUS
10
-134.985652
20
-27.125000
30
0.0
11
-120.516628
21
-17.125000
31
0.0
0
LINE
8
0
6
CONTINUOUS
10
-134.985652
20
-23.125000
30
0.0
11
-149.246539
21
-13.125000
31
0.0
0
LINE
8
0
6
CONTINUOUS
10
-149.246539
20
-17.125000
30
0.0
11
-134.985652
21
-27.125000
31
0.0
0
LINE
8
0
6
CONTINUOUS
10
-149.246539
20
-13.125000
30
0.0
11
-163.277297
21
-23.125000
31
0.0
0
LINE
8
0
6
CONTINUOUS
10
-163.277298
20
-27.125000
30
0.0
11
-149.246539
21
-17.125000
31
0.0
0
LINE
8
0
6
CONTINUOUS
10
-163.277298
20
-23.125000
30
0.0
11
-177.056295
21
-13.125000
31
0.0
0
LINE
8
0
6
CONTINUOUS
10
-177.056295
20
-17.125000
30
0.0
11
-163.277298
21
-27.125000
31
0.0
0
LINE
8
0
6
CONTINUOUS
10
-177.056295
20
-13.125000
30
0.0
11
-190.562284
21
-23.125000
31
0.0
0
LINE
8
0
6
CONTINUOUS
10
-190.562284
20
-27.125000
30
0.0
11
-177.056295
21
-17.125000
31
0.0
0
LINE
8
0
6
CONTINUOUS
10
-190.562284
20
-23.125000
30
0.0
11
-203.774440
21
-13.125000
31
0.0
0
LINE
8
0
6
CONTINUOUS
10
-203.774440
20
-17.125000
30
0.0
11
-190.562284
21
-27.125000
31
0.0
0
LINE
8
0
6
CONTINUOUS
10
-203.774440
20
-13.125000
30
0.0
11
-216.672391
21
-23.125000
31
0.0
0
LINE
8
0
6
CONTINUOUS
10
-216.672391
20
-27.125000
30
0.0
11
-203.774440
21
-17.125000
31
0.0
0
LINE
8
0
6
CONTINUOUS
10
-216.672391
20
-23.125000
30
0.0
11
-229.236248
21
-13.125000
31
0.0
0
LINE
8
0
6
CONTINUOUS
10
-229.236248
20
-17.125000
30
0.0
11
-216.672391
21
-27.125000
31
0.0
0
LINE
8
0
6
CONTINUOUS
10
-229.236248
20
-13.125000
30
0.0
11
-241.446640
21
-23.125000
31
0.0
0
LINE
8
0
6
CONTINUOUS
10
-241.446640
20
-27.125000
30
0.0
11
-229.236248
21
-17.125000
31
0.0
0
LINE
8
0
6
CONTINUOUS
10
-241.446640
20
-23.125000
30
0.0
11
-253.284739
21
-13.125000
31
0.0
0
LINE
8
0
6
CONTINUOUS
10
-253.284739
20
-17.125000
30
0.0
11
-241.446640
21
-27.125000
31
0.0
0
LINE
8
0
6
CONTINUOUS
10
-253.284739
20
-13.125000
30
0.0
11
-264.732291
21
-23.125000
31
0.0
0
LINE
8
0
6
CONTINUOUS
10
-264.732291
20
-27.125000
30
0.0
11
-253.284739
21
-17.125000
31
0.0
0
LINE
8
0
6
CONTINUOUS
10
-264.732291
20
-23.125000
30
0.0
11
-275.771645
21
-13.125000
31
0.0
0
LINE
8
0
6
CONTINUOUS
10
-275.771645
20
-17.125000
30
0.0
11
-264.732291
21
-27.125000
31
0.0
0
LINE
8
0
6
CONTINUOUS
10
-275.771645
20
-13.125000
30
0.0
11
-286.385779
21
-23.125000
31
0.0
0
LINE
8
0
6
CONTINUOUS
10
-286.385779
20
-27.125000
30
0.0
11
-275.771645
21
-17.125000
31
0.0
0
LINE
8
0
6
CONTINUOUS
10
-286.385779
20
-23.125000
30
0.0
11
-296.558327
21
-13.125000
31
0.0
0
LINE
8
0
6
CONTINUOUS
10
-296.558327
20
-17.125000
30
0.0
11
-286.385779
21
-27.125000
31
0.0
0
LINE
8
0
6
CONTINUOUS
10
-296.558327
20
-13.125000
30
0.0
11
-306.273603
21
-23.125000
31
0.0
0
LINE
8
0
6
CONTINUOUS
10
-306.273603
20
-27.125000
30
0.0
11
-296.558327
21
-17.125000
31
0.0
0
LINE
8
0
6
CONTINUOUS
10
-306.273603
20
-23.125000
30
0.0
11
-315.516628
21
-13.125000
31
0.0
0
LINE
8
0
6
CONTINUOUS
10
-315.516628
20
-17.125000
30
0.0
11
-306.273603
21
-27.125000
31
0.0
0
LINE
8
0
6
CONTINUOUS
10
-315.516628
20
-13.125000
30
0.0
11
-324.273149
21
-23.125000
31
0.0
0
LINE
8
0
6
CONTINUOUS
10
-324.273149
20
-27.125000
30
0.0
11
-315.516628
21
-17.125000
31
0.0
0
LINE
8
0
6
CONTINUOUS
10
-324.273149
20
-23.125000
30
0.0
11
-332.529664
21
-13.125000
31
0.0
0
LINE
8
0
6
CONTINUOUS
10
-332.529664
20
-17.125000
30
0.0
11
-324.273149
21
-27.125000
31
0.0
0
LINE
8
0
6
CONTINUOUS
10
-332.529664
20
-13.125000
30
0.0
11
-340.273443
21
-23.125000
31
0.0
0
LINE
8
0
6
CONTINUOUS
10
-340.273443
20
-27.125000
30
0.0
11
-332.529664
21
-17.125000
31
0.0
0
LINE
8
0
6
CONTINUOUS
10
-340.273443
20
-23.125000
30
0.0
11
-347.492544
21
-13.125000
31
0.0
0
LINE
8
0
6
CONTINUOUS
10
-347.492544
20
-17.125000
30
0.0
11
-340.273443
21
-27.125000
31
0.0
0
LINE
8
0
6
CONTINUOUS
10
-347.492544
20
-13.125000
30
0.0
11
-354.175838
21
-23.125000
31
0.0
0
LINE
8
0
6
CONTINUOUS
10
-354.175838
20
-27.125000
30
0.0
11
-347.492544
21
-17.125000
31
0.0
0
LINE
8
0
6
CONTINUOUS
10
-354.175838
20
-23.125000
30
0.0
11
-360.313018
21
-13.125000
31
0.0
0
LINE
8
0
6
CONTINUOUS
10
-360.313018
20
-17.125000
30
0.0
11
-354.175838
21
-27.125000
31
0.0
0
LINE
8
0
6
CONTINUOUS
10
-360.313018
20
-13.125000
30
0.0
11
-365.894621
21
-23.125000
31
0.0
0
LINE
8
0
6
CONTINUOUS
10
-365.894621
20
-27.125000
30
0.0
11
-360.313018
21
-17.125000
31
0.0
0
LINE
8
0
6
CONTINUOUS
10
-365.894621
20
-23.125000
30
0.0
11
-370.912041
21
-13.125000
31
0.0
0
LINE
8
0
6
CONTINUOUS
10
-370.912041
20
-17.125000
30
0.0
11
-365.894621
21
-27.125000
31
0.0
0
LINE
8
0
6
CONTINUOUS
10
-370.912041
20
-13.125000
30
0.0
11
-375.357542
21
-23.125000
31
0.0
0
LINE
8
0
6
CONTINUOUS
10
-375.357542
20
-27.125000
30
0.0
11
-370.912041
21
-17.125000
31
0.0
0
LINE
8
0
6
CONTINUOUS
10
-375.357542
20
-23.125000
30
0.0
11
-379.224269
21
-13.125000
31
0.0
0
LINE
8
0
6
CONTINUOUS
10
-379.224269
20
-17.125000
30
0.0
11
-375.357542
21
-27.125000
31
0.0
0
LINE
8
0
6
CONTINUOUS
10
-379.224269
20
-13.125000
30
0.0
11
-382.506259
21
-23.125000
31
0.0
0
LINE
8
0
6
CONTINUOUS
10
-382.506259
20
-27.125000
30
0.0
11
-379.224269
21
-17.125000
31
0.0
0
LINE
8
0
6
CONTINUOUS
10
-382.506259
20
-23.125000
30
0.0
11
-385.198453
21
-13.125000
31
0.0
0
LINE
8
0
6
CONTINUOUS
10
-385.198453
20
-17.125000
30
0.0
11
-382.506259
21
-27.125000
31
0.0
0
LINE
8
0
6
CONTINUOUS
10
-385.198453
20
-13.125000
30
0.0
11
-387.296698
21
-23.125000
31
0.0
0
LINE
8
0
6
CONTINUOUS
10
-387.296698
20
-27.125000
30
0.0
11
-385.198453
21
-17.125000
31
0.0
0
LINE
8
0
6
CONTINUOUS
10
-387.296698
20
-23.125000
30
0.0
11
-388.797760
21
-13.125000
31
0.0
0
LINE
8
0
6
CONTINUOUS
10
-388.797760
20
-17.125000
30
0.0
11
-387.296698
21
-27.125000
31
0.0
0
LINE
8
0
6
CONTINUOUS
10
-388.797760
20
-13.125000
30
0.0
11
-389.699324
21
-23.125000
31
0.0
0
LINE
8
0
6
CONTINUOUS
10
-389.699324
20
-27.125000
30
0.0
11
-388.797760
21
-17.125000
31
0.0
0
LINE
8
0
6
CONTINUOUS
10
-389.699324
20
-23.125000
30
0.0
11
-390.000000
21
-13.125000
31
0.0
0
LINE
8
0
6
CONTINUOUS
10
-390.000000
20
-17.125000
30
0.0
11
-389.699324
21
-27.125000
31
0.0
0
LINE
8
0
6
CONTINUOUS
10
-390.000000
20
-13.125000
30
0.0
11
-390.000000
21
-17.125000
31
0.0
0
LINE
8
0
6
CONTINUOUS
10
-271.906553
20
-7.875000
30
0.0
11
-274.977828
21
-7.875000
31
0.0
0
LINE
8
0
6
CONTINUOUS
10
-262.761335
20
-7.875000
30
0.0
11
-271.906553
21
-7.875000
31
0.0
0
LINE
8
0
6
CONTINUOUS
10
-247.746463
20
-7.875000
30
0.0
11
-262.761335
21
-7.875000
31
0.0
0
LINE
8
0
6
CONTINUOUS
10
-227.197344
20
-7.875000
30
0.0
11
-247.746463
21
-7.875000
31
0.0
0
LINE
8
0
6
CONTINUOUS
10
-201.573012
20
-7.875000
30
0.0
11
-227.197344
21
-7.875000
31
0.0
0
LINE
8
0
6
CONTINUOUS
10
-171.445872
20
-7.875000
30
0.0
11
-201.573012
21
-7.875000
31
0.0
0
LINE
8
0
6
CONTINUOUS
10
-137.488914
20
-7.875000
30
0.0
11
-171.445872
21
-7.875000
31
0.0
0
LINE
8
0
6
CONTINUOUS
10
-100.460681
20
-7.875000
30
0.0
11
-137.488914
21
-7.875000
31
0.0
0
LINE
8
0
6
CONTINUOUS
10
-61.188323
20
-7.875000
30
0.0
11
-100.460681
21
-7.875000
31
0.0
0
LINE
8
0
6
CONTINUOUS
10
-20.549119
20
-7.875000
30
0.0
11
-61.188323
21
-7.875000
31
0.0
0
LINE
8
0
6
CONTINUOUS
10
20.549119
20
-7.875000
30
0.0
11
-20.549119
21
-7.875000
31
0.0
0
LINE
8
0
6
CONTINUOUS
10
61.188323
20
-7.875000
30
0.0
11
20.549119
21
-7.875000
31
0.0
0
LINE
8
0
6
CONTINUOUS
10
100.460682
20
-7.875000
30
0.0
11
61.188323
21
-7.875000
31
0.0
0
LINE
8
0
6
CONTINUOUS
10
137.488914
20
-7.875000
30
0.0
11
100.460682
21
-7.875000
31
0.0
0
LINE
8
0
6
CONTINUOUS
10
171.445872
20
-7.875000
30
0.0
11
137.488914
21
-7.875000
31
0.0
0
LINE
8
0
6
CONTINUOUS
10
201.573012
20
-7.875000
30
0.0
11
171.445872
21
-7.875000
31
0.0
0
LINE
8
0
6
CONTINUOUS
10
227.197344
20
-7.875000
30
0.0
11
201.573012
21
-7.875000
31
0.0
0
LINE
8
0
6
CONTINUOUS
10
247.746463
20
-7.875000
30
0.0
11
227.197344
21
-7.875000
31
0.0
0
LINE
8
0
6
CONTINUOUS
10
262.761335
20
-7.875000
30
0.0
11
247.746463
21
-7.875000
31
0.0
0
LINE
8
0
6
CONTINUOUS
10
271.906553
20
-7.875000
30
0.0
11
262.761335
21
-7.875000
31
0.0
0
LINE
8
0
6
CONTINUOUS
10
274.977828
20
-7.875000
30
0.0
11
271.906553
21
-7.875000
31
0.0
0
LINE
8
0
6
CONTINUOUS
10
274.977828
20
26.125000
30
0.0
11
271.906553
21
26.125000
31
0.0
0
LINE
8
0
6
CONTINUOUS
10
274.977828
20
-7.875000
30
0.0
11
274.977828
21
26.125000
31
0.0
0
LINE
8
0
6
CONTINUOUS
10
271.906553
20
-7.875000
30
0.0
11
274.977828
21
-7.875000
31
0.0
0
LINE
8
0
6
CONTINUOUS
10
271.906553
20
26.125000
30
0.0
11
262.761335
21
26.125000
31
0.0
0
LINE
8
0
6
CONTINUOUS
10
262.761335
20
-7.875000
30
0.0
11
271.906553
21
-7.875000
31
0.0
0
LINE
8
0
6
CONTINUOUS
10
262.761335
20
26.125000
30
0.0
11
247.746463
21
26.125000
31
0.0
0
LINE
8
0
6
CONTINUOUS
10
247.746463
20
-7.875000
30
0.0
11
262.761335
21
-7.875000
31
0.0
0
LINE
8
0
6
CONTINUOUS
10
247.746463
20
26.125000
30
0.0
11
227.197344
21
26.125000
31
0.0
0
LINE
8
0
6
CONTINUOUS
10
227.197344
20
-7.875000
30
0.0
11
247.746463
21
-7.875000
31
0.0
0
LINE
8
0
6
CONTINUOUS
10
227.197344
20
26.125000
30
0.0
11
201.573012
21
26.125000
31
0.0
0
LINE
8
0
6
CONTINUOUS
10
201.573012
20
-7.875000
30
0.0
11
227.197344
21
-7.875000
31
0.0
0
LINE
8
0
6
CONTINUOUS
10
201.573012
20
26.125000
30
0.0
11
171.445872
21
26.125000
31
0.0
0
LINE
8
0
6
CONTINUOUS
10
171.445872
20
-7.875000
30
0.0
11
201.573012
21
-7.875000
31
0.0
0
LINE
8
0
6
CONTINUOUS
10
171.445872
20
26.125000
30
0.0
11
137.488914
21
26.125000
31
0.0
0
LINE
8
0
6
CONTINUOUS
10
137.488914
20
-7.875000
30
0.0
11
171.445872
21
-7.875000
31
0.0
0
LINE
8
0
6
CONTINUOUS
10
137.488914
20
26.125000
30
0.0
11
100.460682
21
26.125000
31
0.0
0
LINE
8
0
6
CONTINUOUS
10
100.460682
20
-7.875000
30
0.0
11
137.488914
21
-7.875000
31
0.0
0
LINE
8
0
6
CONTINUOUS
10
100.460682
20
26.125000
30
0.0
11
61.188323
21
26.125000
31
0.0
0
LINE
8
0
6
CONTINUOUS
10
61.188323
20
-7.875000
30
0.0
11
100.460682
21
-7.875000
31
0.0
0
LINE
8
0
6
CONTINUOUS
10
61.188323
20
26.125000
30
0.0
11
20.549119
21
26.125000
31
0.0
0
LINE
8
0
6
CONTINUOUS
10
20.549119
20
-7.875000
30
0.0
11
61.188323
21
-7.875000
31
0.0
0
LINE
8
0
6
CONTINUOUS
10
20.549119
20
26.125000
30
0.0
11
-20.549119
21
26.125000
31
0.0
0
LINE
8
0
6
CONTINUOUS
10
-20.549119
20
-7.875000
30
0.0
11
20.549119
21
-7.875000
31
0.0
0
LINE
8
0
6
CONTINUOUS
10
-20.549119
20
26.125000
30
0.0
11
-61.188323
21
26.125000
31
0.0
0
LINE
8
0
6
CONTINUOUS
10
-61.188323
20
-7.875000
30
0.0
11
-20.549119
21
-7.875000
31
0.0
0
LINE
8
0
6
CONTINUOUS
10
-61.188323
20
26.125000
30
0.0
11
-100.460681
21
26.125000
31
0.0
0
LINE
8
0
6
CONTINUOUS
10
-100.460681
20
-7.875000
30
0.0
11
-61.188323
21
-7.875000
31
0.0
0
LINE
8
0
6
CONTINUOUS
10
-100.460681
20
26.125000
30
0.0
11
-137.488914
21
26.125000
31
0.0
0
LINE
8
0
6
CONTINUOUS
10
-137.488914
20
-7.875000
30
0.0
11
-100.460681
21
-7.875000
31
0.0
0
LINE
8
0
6
CONTINUOUS
10
-137.488914
20
26.125000
30
0.0
11
-171.445872
21
26.125000
31
0.0
0
LINE
8
0
6
CONTINUOUS
10
-171.445872
20
-7.875000
30
0.0
11
-137.488914
21
-7.875000
31
0.0
0
LINE
8
0
6
CONTINUOUS
10
-171.445872
20
26.125000
30
0.0
11
-201.573012
21
26.125000
31
0.0
0
LINE
8
0
6
CONTINUOUS
10
-201.573012
20
-7.875000
30
0.0
11
-171.445872
21
-7.875000
31
0.0
0
LINE
8
0
6
CONTINUOUS
10
-201.573012
20
26.125000
30
0.0
11
-227.197344
21
26.125000
31
0.0
0
LINE
8
0
6
CONTINUOUS
10
-227.197344
20
-7.875000
30
0.0
11
-201.573012
21
-7.875000
31
0.0
0
LINE
8
0
6
CONTINUOUS
10
-227.197344
20
26.125000
30
0.0
11
-247.746463
21
26.125000
31
0.0
0
LINE
8
0
6
CONTINUOUS
10
-247.746463
20
-7.875000
30
0.0
11
-227.197344
21
-7.875000
31
0.0
0
LINE
8
0
6
CONTINUOUS
10
-247.746463
20
26.125000
30
0.0
11
-262.761335
21
26.125000
31
0.0
0
LINE
8
0
6
CONTINUOUS
10
-262.761335
20
-7.875000
30
0.0
11
-247.746463
21
-7.875000
31
0.0
0
LINE
8
0
6
CONTINUOUS
10
-262.761335
20
26.125000
30
0.0
11
-271.906553
21
26.125000
31
0.0
0
LINE
8
0
6
CONTINUOUS
10
-271.906553
20
-7.875000
30
0.0
11
-262.761335
21
-7.875000
31
0.0
0
LINE
8
0
6
CONTINUOUS
10
-274.977828
20
26.125000
30
0.0
11
-274.977828
21
-7.875000
31
0.0
0
LINE
8
0
6
CONTINUOUS
10
-271.906553
20
26.125000
30
0.0
11
-274.977828
21
26.125000
31
0.0
0
LINE
8
0
6
CONTINUOUS
10
-274.977828
20
-7.875000
30
0.0
11
-271.906553
21
-7.875000
31
0.0
0
LINE
8
0
6
CONTINUOUS
10
-273.975024
20
27.125000
30
0.0
11
-274.977828
21
26.125000
31
0.0
0
LINE
8
0
6
CONTINUOUS
10
-270.914950
20
27.125000
30
0.0
11
-273.975024
21
27.125000
31
0.0
0
LINE
8
0
6
CONTINUOUS
10
-274.977828
20
26.125000
30
0.0
11
-271.906553
21
26.125000
31
0.0
0
LINE
8
0
6
CONTINUOUS
10
-261.803083
20
27.125000
30
0.0
11
-270.914950
21
27.125000
31
0.0
0
LINE
8
0
6
CONTINUOUS
10
-271.906553
20
26.125000
30
0.0
11
-262.761335
21
26.125000
31
0.0
0
LINE
8
0
6
CONTINUOUS
10
-246.842967
20
27.125000
30
0.0
11
-261.803083
21
27.125000
31
0.0
0
LINE
8
0
6
CONTINUOUS
10
-262.761335
20
26.125000
30
0.0
11
-247.746463
21
26.125000
31
0.0
0
LINE
8
0
6
CONTINUOUS
10
-226.368788
20
27.125000
30
0.0
11
-246.842967
21
27.125000
31
0.0
0
LINE
8
0
6
CONTINUOUS
10
-247.746463
20
26.125000
30
0.0
11
-227.197344
21
26.125000
31
0.0
0
LINE
8
0
6
CONTINUOUS
10
-200.837904
20
27.125000
30
0.0
11
-226.368788
21
27.125000
31
0.0
0
LINE
8
0
6
CONTINUOUS
10
-227.197344
20
26.125000
30
0.0
11
-201.573012
21
26.125000
31
0.0
0
LINE
8
0
6
CONTINUOUS
10
-170.820634
20
27.125000
30
0.0
11
-200.837904
21
27.125000
31
0.0
0
LINE
8
0
6
CONTINUOUS
10
-201.573012
20
26.125000
30
0.0
11
-171.445872
21
26.125000
31
0.0
0
LINE
8
0
6
CONTINUOUS
10
-136.987512
20
27.125000
30
0.0
11
-170.820634
21
27.125000
31
0.0
0
LINE
8
0
6
CONTINUOUS
10
-171.445872
20
26.125000
30
0.0
11
-137.488914
21
26.125000
31
0.0
0
LINE
8
0
6
CONTINUOUS
10
-100.094316
20
27.125000
30
0.0
11
-136.987512
21
27.125000
31
0.0
0
LINE
8
0
6
CONTINUOUS
10
-137.488914
20
26.125000
30
0.0
11
-100.460681
21
26.125000
31
0.0
0
LINE
8
0
6
CONTINUOUS
10
-60.965178
20
27.125000
30
0.0
11
-100.094316
21
27.125000
31
0.0
0
LINE
8
0
6
CONTINUOUS
10
-100.460681
20
26.125000
30
0.0
11
-61.188323
21
26.125000
31
0.0
0
LINE
8
0
6
CONTINUOUS
10
-20.474179
20
27.125000
30
0.0
11
-60.965178
21
27.125000
31
0.0
0
LINE
8
0
6
CONTINUOUS
10
-61.188323
20
26.125000
30
0.0
11
-20.549119
21
26.125000
31
0.0
0
LINE
8
0
6
CONTINUOUS
10
20.474179
20
27.125000
30
0.0
11
-20.474179
21
27.125000
31
0.0
0
LINE
8
0
6
CONTINUOUS
10
-20.549119
20
26.125000
30
0.0
11
20.549119
21
26.125000
31
0.0
0
LINE
8
0
6
CONTINUOUS
10
60.965178
20
27.125000
30
0.0
11
20.474179
21
27.125000
31
0.0
0
LINE
8
0
6
CONTINUOUS
10
20.549119
20
26.125000
30
0.0
11
61.188323
21
26.125000
31
0.0
0
LINE
8
0
6
CONTINUOUS
10
100.094316
20
27.125000
30
0.0
11
60.965178
21
27.125000
31
0.0
0
LINE
8
0
6
CONTINUOUS
10
61.188323
20
26.125000
30
0.0
11
100.460682
21
26.125000
31
0.0
0
LINE
8
0
6
CONTINUOUS
10
136.987512
20
27.125000
30
0.0
11
100.094316
21
27.125000
31
0.0
0
LINE
8
0
6
CONTINUOUS
10
100.460682
20
26.125000
30
0.0
11
137.488914
21
26.125000
31
0.0
0
LINE
8
0
6
CONTINUOUS
10
170.820634
20
27.125000
30
0.0
11
136.987512
21
27.125000
31
0.0
0
LINE
8
0
6
CONTINUOUS
10
137.488914
20
26.125000
30
0.0
11
171.445872
21
26.125000
31
0.0
0
LINE
8
0
6
CONTINUOUS
10
200.837905
20
27.125000
30
0.0
11
170.820634
21
27.125000
31
0.0
0
LINE
8
0
6
CONTINUOUS
10
171.445872
20
26.125000
30
0.0
11
201.573012
21
26.125000
31
0.0
0
LINE
8
0
6
CONTINUOUS
10
226.368788
20
27.125000
30
0.0
11
200.837905
21
27.125000
31
0.0
0
LINE
8
0
6
CONTINUOUS
10
201.573012
20
26.125000
30
0.0
11
227.197344
21
26.125000
31
0.0
0
LINE
8
0
6
CONTINUOUS
10
246.842968
20
27.125000
30
0.0
11
226.368788
21
27.125000
31
0.0
0
LINE
8
0
6
CONTINUOUS
10
227.197344
20
26.125000
30
0.0
11
247.746463
21
26.125000
31
0.0
0
LINE
8
0
6
CONTINUOUS
10
261.803083
20
27.125000
30
0.0
11
246.842968
21
27.125000
31
0.0
0
LINE
8
0
6
CONTINUOUS
10
247.746463
20
26.125000
30
0.0
11
262.761335
21
26.125000
31
0.0
0
LINE
8
0
6
CONTINUOUS
10
270.914950
20
27.125000
30
0.0
11
261.803083
21
27.125000
31
0.0
0
LINE
8
0
6
CONTINUOUS
10
262.761335
20
26.125000
30
0.0
11
271.906553
21
26.125000
31
0.0
0
LINE
8
0
6
CONTINUOUS
10
273.975024
20
27.125000
30
0.0
11
270.914950
21
27.125000
31
0.0
0
LINE
8
0
6
CONTINUOUS
10
274.977828
20
26.125000
30
0.0
11
273.975024
21
27.125000
31
0.0
0
LINE
8
0
6
CONTINUOUS
10
271.906553
20
26.125000
30
0.0
11
274.977828
21
26.125000
31
0.0
0
LINE
8
0
6
CONTINUOUS
10
270.914950
20
27.125000
30
0.0
11
261.803083
21
27.125000
31
0.0
0
LINE
8
0
6
CONTINUOUS
10
273.975024
20
27.125000
30
0.0
11
270.914950
21
27.125000
31
0.0
0
LINE
8
0
6
CONTINUOUS
10
270.914950
20
27.125000
30
0.0
11
273.975024
21
27.125000
31
0.0
0
LINE
8
0
6
CONTINUOUS
10
261.803083
20
27.125000
30
0.0
11
270.914950
21
27.125000
31
0.0
0
LINE
8
0
6
CONTINUOUS
10
246.842968
20
27.125000
30
0.0
11
261.803083
21
27.125000
31
0.0
0
LINE
8
0
6
CONTINUOUS
10
226.368788
20
27.125000
30
0.0
11
246.842968
21
27.125000
31
0.0
0
LINE
8
0
6
CONTINUOUS
10
200.837905
20
27.125000
30
0.0
11
226.368788
21
27.125000
31
0.0
0
LINE
8
0
6
CONTINUOUS
10
170.820634
20
27.125000
30
0.0
11
200.837905
21
27.125000
31
0.0
0
LINE
8
0
6
CONTINUOUS
10
136.987512
20
27.125000
30
0.0
11
170.820634
21
27.125000
31
0.0
0
LINE
8
0
6
CONTINUOUS
10
100.094316
20
27.125000
30
0.0
11
136.987512
21
27.125000
31
0.0
0
LINE
8
0
6
CONTINUOUS
10
60.965178
20
27.125000
30
0.0
11
100.094316
21
27.125000
31
0.0
0
LINE
8
0
6
CONTINUOUS
10
20.474179
20
27.125000
30
0.0
11
60.965178
21
27.125000
31
0.0
0
LINE
8
0
6
CONTINUOUS
10
-20.474179
20
27.125000
30
0.0
11
20.474179
21
27.125000
31
0.0
0
LINE
8
0
6
CONTINUOUS
10
-60.965178
20
27.125000
30
0.0
11
-20.474179
21
27.125000
31
0.0
0
LINE
8
0
6
CONTINUOUS
10
-100.094316
20
27.125000
30
0.0
11
-60.965178
21
27.125000
31
0.0
0
LINE
8
0
6
CONTINUOUS
10
-136.987512
20
27.125000
30
0.0
11
-100.094316
21
27.125000
31
0.0
0
LINE
8
0
6
CONTINUOUS
10
-170.820634
20
27.125000
30
0.0
11
-136.987512
21
27.125000
31
0.0
0
LINE
8
0
6
CONTINUOUS
10
-200.837904
20
27.125000
30
0.0
11
-170.820634
21
27.125000
31
0.0
0
LINE
8
0
6
CONTINUOUS
10
-226.368788
20
27.125000
30
0.0
11
-200.837904
21
27.125000
31
0.0
0
LINE
8
0
6
CONTINUOUS
10
-246.842967
20
27.125000
30
0.0
11
-226.368788
21
27.125000
31
0.0
0
LINE
8
0
6
CONTINUOUS
10
-261.803083
20
27.125000
30
0.0
11
-246.842967
21
27.125000
31
0.0
0
LINE
8
0
6
CONTINUOUS
10
-270.914950
20
27.125000
30
0.0
11
-261.803083
21
27.125000
31
0.0
0
LINE
8
0
6
CONTINUOUS
10
-273.975024
20
27.125000
30
0.0
11
-270.914950
21
27.125000
31
0.0
0
LINE
8
0
6
CONTINUOUS
10
-270.914950
20
27.125000
30
0.0
11
-273.975024
21
27.125000
31
0.0
0
LINE
8
0
6
CONTINUOUS
10
-261.803083
20
27.125000
30
0.0
11
-270.914950
21
27.125000
31
0.0
0
LINE
8
0
6
CONTINUOUS
10
-246.842968
20
27.125000
30
0.0
11
-261.803083
21
27.125000
31
0.0
0
LINE
8
0
6
CONTINUOUS
10
-226.368788
20
27.125000
30
0.0
11
-246.842968
21
27.125000
31
0.0
0
LINE
8
0
6
CONTINUOUS
10
-200.837904
20
27.125000
30
0.0
11
-226.368788
21
27.125000
31
0.0
0
LINE
8
0
6
CONTINUOUS
10
-170.820634
20
27.125000
30
0.0
11
-200.837904
21
27.125000
31
0.0
0
LINE
8
0
6
CONTINUOUS
10
-136.987512
20
27.125000
30
0.0
11
-170.820634
21
27.125000
31
0.0
0
LINE
8
0
6
CONTINUOUS
10
-100.094316
20
27.125000
30
0.0
11
-136.987512
21
27.125000
31
0.0
0
LINE
8
0
6
CONTINUOUS
10
-60.965178
20
27.125000
30
0.0
11
-100.094316
21
27.125000
31
0.0
0
LINE
8
0
6
CONTINUOUS
10
-20.474179
20
27.125000
30
0.0
11
-60.965178
21
27.125000
31
0.0
0
LINE
8
0
6
CONTINUOUS
10
20.474179
20
27.125000
30
0.0
11
-20.474179
21
27.125000
31
0.0
0
LINE
8
0
6
CONTINUOUS
10
60.965178
20
27.125000
30
0.0
11
20.474179
21
27.125000
31
0.0
0
LINE
8
0
6
CONTINUOUS
10
100.094316
20
27.125000
30
0.0
11
60.965178
21
27.125000
31
0.0
0
LINE
8
0
6
CONTINUOUS
10
136.987512
20
27.125000
30
0.0
11
100.094316
21
27.125000
31
0.0
0
LINE
8
0
6
CONTINUOUS
10
170.820634
20
27.125000
30
0.0
11
136.987512
21
27.125000
31
0.0
0
LINE
8
0
6
CONTINUOUS
10
200.837904
20
27.125000
30
0.0
11
170.820634
21
27.125000
31
0.0
0
LINE
8
0
6
CONTINUOUS
10
226.368788
20
27.125000
30
0.0
11
200.837904
21
27.125000
31
0.0
0
LINE
8
0
6
CONTINUOUS
10
246.842968
20
27.125000
30
0.0
11
226.368788
21
27.125000
31
0.0
0
LINE
8
0
6
CONTINUOUS
10
261.803083
20
27.125000
30
0.0
11
246.842968
21
27.125000
31
0.0
0
LINE
8
0
6
CONTINUOUS
10
-270.000000
20
-18.375000
30
0.0
11
-268.174357
21
-18.375000
31
0.0
0
LINE
8
0
6
CONTINUOUS
10
-270.000000
20
-13.375000
30
0.0
11
-270.000000
21
-18.366462
31
0.0
0
LINE
8
0
6
CONTINUOUS
10
-268.174357
20
-13.375000
30
0.0
11
-270.000000
21
-13.375000
31
0.0
0
LINE
8
0
6
CONTINUOUS
10
-268.174357
20
-18.375000
30
0.0
11
-262.722115
21
-18.375000
31
0.0
0
LINE
8
0
6
CONTINUOUS
10
-262.722115
20
-13.375000
30
0.0
11
-268.174357
21
-13.375000
31
0.0
0
LINE
8
0
6
CONTINUOUS
10
-262.722115
20
-18.375000
30
0.0
11
-253.717008
21
-18.375000
31
0.0
0
LINE
8
0
6
CONTINUOUS
10
-253.717008
20
-13.375000
30
0.0
11
-262.722115
21
-13.375000
31
0.0
0
LINE
8
0
6
CONTINUOUS
10
-253.717008
20
-18.375000
30
0.0
11
-241.280813
21
-18.375000
31
0.0
0
LINE
8
0
6
CONTINUOUS
10
-241.280813
20
-13.375000
30
0.0
11
-253.717008
21
-13.375000
31
0.0
0
LINE
8
0
6
CONTINUOUS
10
-241.280813
20
-18.375000
30
0.0
11
-225.581709
21
-18.375000
31
0.0
0
LINE
8
0
6
CONTINUOUS
10
-225.581709
20
-13.375000
30
0.0
11
-241.280813
21
-13.375000
31
0.0
0
LINE
8
0
6
CONTINUOUS
10
-225.581709
20
-18.375000
30
0.0
11
-206.832000
21
-18.375000
31
0.0
0
LINE
8
0
6
CONTINUOUS
10
-206.832000
20
-13.375000
30
0.0
11
-225.581709
21
-13.375000
31
0.0
0
LINE
8
0
6
CONTINUOUS
10
-206.832000
20
-18.375000
30
0.0
11
-185.285242
21
-18.375000
31
0.0
0
LINE
8
0
6
CONTINUOUS
10
-185.285242
20
-13.375000
30
0.0
11
-206.832000
21
-13.375000
31
0.0
0
LINE
8
0
6
CONTINUOUS
10
-185.285242
20
-18.375000
30
0.0
11
-161.232820
21
-18.375000
31
0.0
0
LINE
8
0
6
CONTINUOUS
10
-161.232820
20
-13.375000
30
0.0
11
-185.285242
21
-13.375000
31
0.0
0
LINE
8
0
6
CONTINUOUS
10
-161.232820
20
-18.375000
30
0.0
11
-135.000000
21
-18.375000
31
0.0
0
LINE
8
0
6
CONTINUOUS
10
-135.000000
20
-13.375000
30
0.0
11
-161.232820
21
-13.375000
31
0.0
0
LINE
8
0
6
CONTINUOUS
10
-135.000000
20
-18.375000
30
0.0
11
-106.941537
21
-18.375000
31
0.0
0
LINE
8
0
6
CONTINUOUS
10
-106.941537
20
-13.375000
30
0.0
11
-135.000000
21
-13.375000
31
0.0
0
LINE
8
0
6
CONTINUOUS
10
-106.941537
20
-18.375000
30
0.0
11
-77.436873
21
-18.375000
31
0.0
0
LINE
8
0
6
CONTINUOUS
10
-77.436873
20
-13.375000
30
0.0
11
-106.941537
21
-13.375000
31
0.0
0
LINE
8
0
6
CONTINUOUS
10
-77.436873
20
-18.375000
30
0.0
11
-46.885008
21
-18.375000
31
0.0
0
LINE
8
0
6
CONTINUOUS
10
-46.885008
20
-13.375000
30
0.0
11
-77.436873
21
-13.375000
31
0.0
0
LINE
8
0
6
CONTINUOUS
10
-46.885008
20
-18.375000
30
0.0
11
-15.699104
21
-18.375000
31
0.0
0
LINE
8
0
6
CONTINUOUS
10
-15.699104
20
-13.375000
30
0.0
11
-46.885008
21
-13.375000
31
0.0
0
LINE
8
0
6
CONTINUOUS
10
-15.699104
20
-18.375000
30
0.0
11
15.699104
21
-18.375000
31
0.0
0
LINE
8
0
6
CONTINUOUS
10
15.699104
20
-13.375000
30
0.0
11
-15.699104
21
-13.375000
31
0.0
0
LINE
8
0
6
CONTINUOUS
10
15.699104
20
-18.375000
30
0.0
11
46.885008
21
-18.375000
31
0.0
0
LINE
8
0
6
CONTINUOUS
10
46.885008
20
-13.375000
30
0.0
11
15.699104
21
-13.375000
31
0.0
0
LINE
8
0
6
CONTINUOUS
10
46.885008
20
-18.375000
30
0.0
11
77.436873
21
-18.375000
31
0.0
0
LINE
8
0
6
CONTINUOUS
10
77.436873
20
-13.375000
30
0.0
11
46.885008
21
-13.375000
31
0.0
0
LINE
8
0
6
CONTINUOUS
10
77.436873
20
-18.375000
30
0.0
11
106.941537
21
-18.375000
31
0.0
0
LINE
8
0
6
CONTINUOUS
10
106.941537
20
-13.375000
30
0.0
11
77.436873
21
-13.375000
31
0.0
0
LINE
8
0
6
CONTINUOUS
10
106.941537
20
-18.375000
30
0.0
11
135.000000
21
-18.375000
31
0.0
0
LINE
8
0
6
CONTINUOUS
10
135.000000
20
-13.375000
30
0.0
11
106.941537
21
-13.375000
31
0.0
0
LINE
8
0
6
CONTINUOUS
10
135.000000
20
-18.375000
30
0.0
11
161.232820
21
-18.375000
31
0.0
0
LINE
8
0
6
CONTINUOUS
10
161.232820
20
-13.375000
30
0.0
11
135.000000
21
-13.375000
31
0.0
0
LINE
8
0
6
CONTINUOUS
10
161.232820
20
-18.375000
30
0.0
11
185.285242
21
-18.375000
31
0.0
0
LINE
8
0
6
CONTINUOUS
10
185.285242
20
-13.375000
30
0.0
11
161.232820
21
-13.375000
31
0.0
0
LINE
8
0
6
CONTINUOUS
10
185.285242
20
-18.375000
30
0.0
11
206.832000
21
-18.375000
31
0.0
0
LINE
8
0
6
CONTINUOUS
10
206.832000
20
-13.375000
30
0.0
11
185.285242
21
-13.375000
31
0.0
0
LINE
8
0
6
CONTINUOUS
10
206.832000
20
-18.375000
30
0.0
11
225.581709
21
-18.375000
31
0.0
0
LINE
8
0
6
CONTINUOUS
10
225.581709
20
-13.375000
30
0.0
11
206.832000
21
-13.375000
31
0.0
0
LINE
8
0
6
CONTINUOUS
10
225.581709
20
-18.375000
30
0.0
11
241.280813
21
-18.375000
31
0.0
0
LINE
8
0
6
CONTINUOUS
10
241.280813
20
-13.375000
30
0.0
11
225.581709
21
-13.375000
31
0.0
0
LINE
8
0
6
CONTINUOUS
10
241.280813
20
-18.375000
30
0.0
11
253.717008
21
-18.375000
31
0.0
0
LINE
8
0
6
CONTINUOUS
10
253.717008
20
-13.375000
30
0.0
11
241.280813
21
-13.375000
31
0.0
0
LINE
8
0
6
CONTINUOUS
10
253.717008
20
-18.375000
30
0.0
11
262.722115
21
-18.375000
31
0.0
0
LINE
8
0
6
CONTINUOUS
10
262.722115
20
-13.375000
30
0.0
11
253.717008
21
-13.375000
31
0.0
0
LINE
8
0
6
CONTINUOUS
10
262.722115
20
-18.375000
30
0.0
11
268.174357
21
-18.375000
31
0.0
0
LINE
8
0
6
CONTINUOUS
10
268.174357
20
-13.375000
30
0.0
11
262.722115
21
-13.375000
31
0.0
0
LINE
8
0
6
CONTINUOUS
10
270.000000
20
-18.375000
30
0.0
11
270.000000
21
-13.375000
31
0.0
0
LINE
8
0
6
CONTINUOUS
10
268.174357
20
-18.375000
30
0.0
11
270.000000
21
-18.375000
31
0.0
0
LINE
8
0
6
CONTINUOUS
10
270.000000
20
-13.375000
30
0.0
11
268.174357
21
-13.375000
31
0.0
0
LINE
8
0
6
CONTINUOUS
10
-267.495763
20
-20.875000
30
0.0
11
-265.687053
21
-20.875000
31
0.0
0
LINE
8
0
6
CONTINUOUS
10
-270.000000
20
-18.375000
30
0.0
11
-267.495763
21
-20.875000
31
0.0
0
LINE
8
0
6
CONTINUOUS
10
-268.174357
20
-18.375000
30
0.0
11
-270.000000
21
-18.375000
31
0.0
0
LINE
8
0
6
CONTINUOUS
10
-265.687053
20
-20.875000
30
0.0
11
-260.285380
21
-20.875000
31
0.0
0
LINE
8
0
6
CONTINUOUS
10
-262.722115
20
-18.375000
30
0.0
11
-268.174357
21
-18.375000
31
0.0
0
LINE
8
0
6
CONTINUOUS
10
-260.285380
20
-20.875000
30
0.0
11
-251.363795
21
-20.875000
31
0.0
0
LINE
8
0
6
CONTINUOUS
10
-253.717008
20
-18.375000
30
0.0
11
-262.722115
21
-18.375000
31
0.0
0
LINE
8
0
6
CONTINUOUS
10
-251.363795
20
-20.875000
30
0.0
11
-239.042945
21
-20.875000
31
0.0
0
LINE
8
0
6
CONTINUOUS
10
-241.280813
20
-18.375000
30
0.0
11
-253.717008
21
-18.375000
31
0.0
0
LINE
8
0
6
CONTINUOUS
10
-239.042945
20
-20.875000
30
0.0
11
-223.489450
21
-20.875000
31
0.0
0
LINE
8
0
6
CONTINUOUS
10
-225.581709
20
-18.375000
30
0.0
11
-241.280813
21
-18.375000
31
0.0
0
LINE
8
0
6
CONTINUOUS
10
-223.489450
20
-20.875000
30
0.0
11
-204.913643
21
-20.875000
31
0.0
0
LINE
8
0
6
CONTINUOUS
10
-206.832000
20
-18.375000
30
0.0
11
-225.581709
21
-18.375000
31
0.0
0
LINE
8
0
6
CONTINUOUS
10
-204.913643
20
-20.875000
30
0.0
11
-183.566731
21
-20.875000
31
0.0
0
LINE
8
0
6
CONTINUOUS
10
-185.285242
20
-18.375000
30
0.0
11
-206.832000
21
-18.375000
31
0.0
0
LINE
8
0
6
CONTINUOUS
10
-183.566731
20
-20.875000
30
0.0
11
-159.737393
21
-20.875000
31
0.0
0
LINE
8
0
6
CONTINUOUS
10
-161.232820
20
-18.375000
30
0.0
11
-185.285242
21
-18.375000
31
0.0
0
LINE
8
0
6
CONTINUOUS
10
-159.737393
20
-20.875000
30
0.0
11
-133.747882
21
-20.875000
31
0.0
0
LINE
8
0
6
CONTINUOUS
10
-135.000000
20
-18.375000
30
0.0
11
-161.232820
21
-18.375000
31
0.0
0
LINE
8
0
6
CONTINUOUS
10
-133.747882
20
-20.875000
30
0.0
11
-105.949659
21
-20.875000
31
0.0
0
LINE
8
0
6
CONTINUOUS
10
-106.941537
20
-18.375000
30
0.0
11
-135.000000
21
-18.375000
31
0.0
0
LINE
8
0
6
CONTINUOUS
10
-105.949659
20
-20.875000
30
0.0
11
-76.718650
21
-20.875000
31
0.0
0
LINE
8
0
6
CONTINUOUS
10
-77.436873
20
-18.375000
30
0.0
11
-106.941537
21
-18.375000
31
0.0
0
LINE
8
0
6
CONTINUOUS
10
-76.718650
20
-20.875000
30
0.0
11
-46.450152
21
-20.875000
31
0.0
0
LINE
8
0
6
CONTINUOUS
10
-46.885008
20
-18.375000
30
0.0
11
-77.436873
21
-18.375000
31
0.0
0
LINE
8
0
6
CONTINUOUS
10
-46.450152
20
-20.875000
30
0.0
11
-15.553495
21
-20.875000
31
0.0
0
LINE
8
0
6
CONTINUOUS
10
-15.699104
20
-18.375000
30
0.0
11
-46.885008
21
-18.375000
31
0.0
0
LINE
8
0
6
CONTINUOUS
10
-15.553495
20
-20.875000
30
0.0
11
15.553495
21
-20.875000
31
0.0
0
LINE
8
0
6
CONTINUOUS
10
15.699104
20
-18.375000
30
0.0
11
-15.699104
21
-18.375000
31
0.0
0
LINE
8
0
6
CONTINUOUS
10
15.553495
20
-20.875000
30
0.0
11
46.450152
21
-20.875000
31
0.0
0
LINE
8
0
6
CONTINUOUS
10
46.885008
20
-18.375000
30
0.0
11
15.699104
21
-18.375000
31
0.0
0
LINE
8
0
6
CONTINUOUS
10
46.450152
20
-20.875000
30
0.0
11
76.718650
21
-20.875000
31
0.0
0
LINE
8
0
6
CONTINUOUS
10
77.436873
20
-18.375000
30
0.0
11
46.885008
21
-18.375000
31
0.0
0
LINE
8
0
6
CONTINUOUS
10
76.718650
20
-20.875000
30
0.0
11
105.949659
21
-20.875000
31
0.0
0
LINE
8
0
6
CONTINUOUS
10
106.941537
20
-18.375000
30
0.0
11
77.436873
21
-18.375000
31
0.0
0
LINE
8
0
6
CONTINUOUS
10
105.949659
20
-20.875000
30
0.0
11
133.747882
21
-20.875000
31
0.0
0
LINE
8
0
6
CONTINUOUS
10
135.000000
20
-18.375000
30
0.0
11
106.941537
21
-18.375000
31
0.0
0
LINE
8
0
6
CONTINUOUS
10
133.747882
20
-20.875000
30
0.0
11
159.737393
21
-20.875000
31
0.0
0
LINE
8
0
6
CONTINUOUS
10
161.232820
20
-18.375000
30
0.0
11
135.000000
21
-18.375000
31
0.0
0
LINE
8
0
6
CONTINUOUS
10
159.737393
20
-20.875000
30
0.0
11
183.566731
21
-20.875000
31
0.0
0
LINE
8
0
6
CONTINUOUS
10
185.285242
20
-18.375000
30
0.0
11
161.232820
21
-18.375000
31
0.0
0
LINE
8
0
6
CONTINUOUS
10
183.566731
20
-20.875000
30
0.0
11
204.913643
21
-20.875000
31
0.0
0
LINE
8
0
6
CONTINUOUS
10
206.832000
20
-18.375000
30
0.0
11
185.285242
21
-18.375000
31
0.0
0
LINE
8
0
6
CONTINUOUS
10
204.913643
20
-20.875000
30
0.0
11
223.489450
21
-20.875000
31
0.0
0
LINE
8
0
6
CONTINUOUS
10
225.581709
20
-18.375000
30
0.0
11
206.832000
21
-18.375000
31
0.0
0
LINE
8
0
6
CONTINUOUS
10
223.489450
20
-20.875000
30
0.0
11
239.042945
21
-20.875000
31
0.0
0
LINE
8
0
6
CONTINUOUS
10
241.280813
20
-18.375000
30
0.0
11
225.581709
21
-18.375000
31
0.0
0
LINE
8
0
6
CONTINUOUS
10
239.042945
20
-20.875000
30
0.0
11
251.363795
21
-20.875000
31
0.0
0
LINE
8
0
6
CONTINUOUS
10
253.717008
20
-18.375000
30
0.0
11
241.280813
21
-18.375000
31
0.0
0
LINE
8
0
6
CONTINUOUS
10
251.363795
20
-20.875000
30
0.0
11
260.285380
21
-20.875000
31
0.0
0
LINE
8
0
6
CONTINUOUS
10
262.722115
20
-18.375000
30
0.0
11
253.717008
21
-18.375000
31
0.0
0
LINE
8
0
6
CONTINUOUS
10
260.285380
20
-20.875000
30
0.0
11
265.687053
21
-20.875000
31
0.0
0
LINE
8
0
6
CONTINUOUS
10
268.174357
20
-18.375000
30
0.0
11
262.722115
21
-18.375000
31
0.0
0
LINE
8
0
6
CONTINUOUS
10
267.495763
20
-20.875000
30
0.0
11
270.000000
21
-18.375000
31
0.0
0
LINE
8
0
6
CONTINUOUS
10
265.687053
20
-20.875000
30
0.0
11
267.495763
21
-20.875000
31
0.0
0
LINE
8
0
6
CONTINUOUS
10
270.000000
20
-18.375000
30
0.0
11
268.174357
21
-18.375000
31
0.0
0
ENDSEC
0
EOF
