999
Erzeugt mit innoplus bad 
0
SECTION
2
HEADER
9
$ACADVER
1
AC1009
9
$DWGCODEPAGE
3
ISO8859-1
0
ENDSEC
0
SECTION
2
TABLES
0
TABLE
2
LAYER
70
1
0
LAYER
2
0
70
0
62
7
6
CONTINUOUS
0
ENDTAB
0
ENDSEC
0
SECTION
2
ENTITIES
0
LINE
8
0
6
CONTINUOUS
10
284.500000
20
23.500000
30
0.0
11
285.207107
21
23.500000
31
0.0
0
LINE
8
0
6
CONTINUOUS
10
284.000000
20
24.000000
30
0.0
11
284.500000
21
23.500000
31
0.0
0
LINE
8
0
6
CONTINUOUS
10
285.207107
20
23.500000
30
0.0
11
298.792893
21
23.500000
31
0.0
0
LINE
8
0
6
CONTINUOUS
10
299.500000
20
23.500000
30
0.0
11
300.000000
21
24.000000
31
0.0
0
LINE
8
0
6
CONTINUOUS
10
298.792893
20
23.500000
30
0.0
11
299.500000
21
23.500000
31
0.0
0
LINE
8
0
6
CONTINUOUS
10
284.000000
20
24.000000
30
0.0
11
285.000000
21
24.000000
31
0.0
0
LINE
8
0
6
CONTINUOUS
10
284.000000
20
37.500000
30
0.0
11
284.000000
21
24.000000
31
0.0
0
LINE
8
0
6
CONTINUOUS
10
285.000000
20
37.500000
30
0.0
11
284.000000
21
37.500000
31
0.0
0
LINE
8
0
6
CONTINUOUS
10
285.000000
20
24.000000
30
0.0
11
299.000000
21
24.000000
31
0.0
0
LINE
8
0
6
CONTINUOUS
10
285.000000
20
37.500000
30
0.0
11
285.000000
21
24.000000
31
0.0
0
LINE
8
0
6
CONTINUOUS
10
299.000000
20
37.500000
30
0.0
11
285.000000
21
37.500000
31
0.0
0
LINE
8
0
6
CONTINUOUS
10
300.000000
20
24.000000
30
0.0
11
300.000000
21
37.500000
31
0.0
0
LINE
8
0
6
CONTINUOUS
10
299.000000
20
24.000000
30
0.0
11
300.000000
21
24.000000
31
0.0
0
LINE
8
0
6
CONTINUOUS
10
299.000000
20
37.500000
30
0.0
11
299.000000
21
24.000000
31
0.0
0
LINE
8
0
6
CONTINUOUS
10
300.000000
20
37.500000
30
0.0
11
299.000000
21
37.500000
31
0.0
0
LINE
8
0
6
CONTINUOUS
10
-299.500000
20
23.500000
30
0.0
11
-298.792893
21
23.500000
31
0.0
0
LINE
8
0
6
CONTINUOUS
10
-300.000000
20
24.000000
30
0.0
11
-299.500000
21
23.500000
31
0.0
0
LINE
8
0
6
CONTINUOUS
10
-298.792893
20
23.500000
30
0.0
11
-285.207107
21
23.500000
31
0.0
0
LINE
8
0
6
CONTINUOUS
10
-284.500000
20
23.500000
30
0.0
11
-284.000000
21
24.000000
31
0.0
0
LINE
8
0
6
CONTINUOUS
10
-285.207107
20
23.500000
30
0.0
11
-284.500000
21
23.500000
31
0.0
0
LINE
8
0
6
CONTINUOUS
10
-300.000000
20
24.000000
30
0.0
11
-299.000000
21
24.000000
31
0.0
0
LINE
8
0
6
CONTINUOUS
10
-300.000000
20
37.500000
30
0.0
11
-300.000000
21
24.000000
31
0.0
0
LINE
8
0
6
CONTINUOUS
10
-299.000000
20
37.500000
30
0.0
11
-300.000000
21
37.500000
31
0.0
0
LINE
8
0
6
CONTINUOUS
10
-299.000000
20
24.000000
30
0.0
11
-285.000000
21
24.000000
31
0.0
0
LINE
8
0
6
CONTINUOUS
10
-299.000000
20
37.500000
30
0.0
11
-299.000000
21
24.000000
31
0.0
0
LINE
8
0
6
CONTINUOUS
10
-285.000000
20
37.500000
30
0.0
11
-299.000000
21
37.500000
31
0.0
0
LINE
8
0
6
CONTINUOUS
10
-284.000000
20
24.000000
30
0.0
11
-284.000000
21
37.500000
31
0.0
0
LINE
8
0
6
CONTINUOUS
10
-285.000000
20
24.000000
30
0.0
11
-284.000000
21
24.000000
31
0.0
0
LINE
8
0
6
CONTINUOUS
10
-285.000000
20
37.500000
30
0.0
11
-285.000000
21
24.000000
31
0.0
0
LINE
8
0
6
CONTINUOUS
10
-284.000000
20
37.500000
30
0.0
11
-285.000000
21
37.500000
31
0.0
0
LINE
8
0
6
CONTINUOUS
10
299.500000
20
23.500000
30
0.0
11
298.792893
21
23.500000
31
0.0
0
LINE
8
0
6
CONTINUOUS
10
300.000000
20
23.000000
30
0.0
11
299.500000
21
23.500000
31
0.0
0
LINE
8
0
6
CONTINUOUS
10
298.792893
20
23.500000
30
0.0
11
285.207107
21
23.500000
31
0.0
0
LINE
8
0
6
CONTINUOUS
10
284.500000
20
23.500000
30
0.0
11
284.000000
21
23.000000
31
0.0
0
LINE
8
0
6
CONTINUOUS
10
285.207107
20
23.500000
30
0.0
11
284.500000
21
23.500000
31
0.0
0
LINE
8
0
6
CONTINUOUS
10
-284.500000
20
23.500000
30
0.0
11
-285.207107
21
23.500000
31
0.0
0
LINE
8
0
6
CONTINUOUS
10
-284.000000
20
23.000000
30
0.0
11
-284.500000
21
23.500000
31
0.0
0
LINE
8
0
6
CONTINUOUS
10
-285.207107
20
23.500000
30
0.0
11
-298.792893
21
23.500000
31
0.0
0
LINE
8
0
6
CONTINUOUS
10
-299.500000
20
23.500000
30
0.0
11
-300.000000
21
23.000000
31
0.0
0
LINE
8
0
6
CONTINUOUS
10
-298.792893
20
23.500000
30
0.0
11
-299.500000
21
23.500000
31
0.0
0
LINE
8
0
6
CONTINUOUS
10
284.000000
20
23.000000
30
0.0
11
284.000000
21
-18.500000
31
0.0
0
LINE
8
0
6
CONTINUOUS
10
285.000000
20
23.000000
30
0.0
11
284.000000
21
23.000000
31
0.0
0
LINE
8
0
6
CONTINUOUS
10
284.000000
20
-18.500000
30
0.0
11
282.535534
21
-22.035534
31
0.0
0
LINE
8
0
6
CONTINUOUS
10
282.535534
20
-22.035534
30
0.0
11
279.000000
21
-23.500000
31
0.0
0
LINE
8
0
6
CONTINUOUS
10
279.000000
20
-23.500000
30
0.0
11
-279.000000
21
-23.500000
31
0.0
0
LINE
8
0
6
CONTINUOUS
10
-279.000000
20
-23.500000
30
0.0
11
-282.535534
21
-22.035534
31
0.0
0
LINE
8
0
6
CONTINUOUS
10
-282.535534
20
-22.035534
30
0.0
11
-284.000000
21
-18.500000
31
0.0
0
LINE
8
0
6
CONTINUOUS
10
-284.000000
20
23.000000
30
0.0
11
-285.000000
21
23.000000
31
0.0
0
LINE
8
0
6
CONTINUOUS
10
-284.000000
20
-18.500000
30
0.0
11
-284.000000
21
23.000000
31
0.0
0
LINE
8
0
6
CONTINUOUS
10
300.000000
20
-34.500000
30
0.0
11
300.000000
21
23.000000
31
0.0
0
LINE
8
0
6
CONTINUOUS
10
300.000000
20
23.000000
30
0.0
11
299.000000
21
23.000000
31
0.0
0
LINE
8
0
6
CONTINUOUS
10
299.121320
20
-36.621320
30
0.0
11
300.000000
21
-34.500000
31
0.0
0
LINE
8
0
6
CONTINUOUS
10
297.000000
20
-37.500000
30
0.0
11
299.121320
21
-36.621320
31
0.0
0
LINE
8
0
6
CONTINUOUS
10
-297.000000
20
-37.500000
30
0.0
11
297.000000
21
-37.500000
31
0.0
0
LINE
8
0
6
CONTINUOUS
10
-299.121320
20
-36.621320
30
0.0
11
-297.000000
21
-37.500000
31
0.0
0
LINE
8
0
6
CONTINUOUS
10
-300.000000
20
-34.500000
30
0.0
11
-299.121320
21
-36.621320
31
0.0
0
LINE
8
0
6
CONTINUOUS
10
-300.000000
20
23.000000
30
0.0
11
-300.000000
21
-34.500000
31
0.0
0
LINE
8
0
6
CONTINUOUS
10
-299.000000
20
23.000000
30
0.0
11
-300.000000
21
23.000000
31
0.0
0
LINE
8
0
6
CONTINUOUS
10
280.267068
20
-24.676521
30
0.0
11
-280.267068
21
-24.676521
31
0.0
0
LINE
8
0
6
CONTINUOUS
10
285.000000
20
23.000000
30
0.0
11
285.088096
21
-19.844595
31
0.0
0
LINE
8
0
6
CONTINUOUS
10
299.000000
20
23.000000
30
0.0
11
285.000000
21
23.000000
31
0.0
0
LINE
8
0
6
CONTINUOUS
10
298.911904
20
-33.155405
30
0.0
11
299.000000
21
23.000000
31
0.0
0
LINE
8
0
6
CONTINUOUS
10
-295.732932
20
-36.323479
30
0.0
11
295.732932
21
-36.323479
31
0.0
0
LINE
8
0
6
CONTINUOUS
10
-299.000000
20
23.000000
30
0.0
11
-298.911904
21
-33.155405
31
0.0
0
LINE
8
0
6
CONTINUOUS
10
-285.000000
20
23.000000
30
0.0
11
-299.000000
21
23.000000
31
0.0
0
LINE
8
0
6
CONTINUOUS
10
-285.088096
20
-19.844595
30
0.0
11
-285.000000
21
23.000000
31
0.0
0
ENDSEC
0
EOF
