  0
SECTION
  2
HEADER
  9
$ACADVER
  1
AC1015
  9
$ACADMAINTVER
 70
     6
  9
$DWGCODEPAGE
  3
ANSI_1252
  9
$INSBASE
 10
0.0
 20
0.0
 30
0.0
  9
$EXTMIN
 10
0.0
 20
0.0
 30
0.0
  9
$EXTMAX
 10
297.0
 20
210.0
 30
0.0
  9
$LIMMIN
 10
0.0
 20
0.0
  9
$LIMMAX
 10
297.0
 20
210.0
  9
$ORTHOMODE
 70
     0
  9
$REGENMODE
 70
     1
  9
$FILLMODE
 70
     1
  9
$QTEXTMODE
 70
     0
  9
$MIRRTEXT
 70
     1
  9
$LTSCALE
 40
1.0
  9
$ATTMODE
 70
     1
  9
$TEXTSIZE
 40
3.5
  9
$TRACEWID
 40
1.0
  9
$TEXTSTYLE
  7
Standard
  9
$CLAYER
  8
0
  9
$CELTYPE
  6
ByLayer
  9
$CECOLOR
 62
   256
  9
$CELTSCALE
 40
1.0
  9
$DISPSILH
 70
     0
  9
$DIMSCALE
 40
1.0
  9
$DIMASZ
 40
1.5
  9
$DIMEXO
 40
1.0
  9
$DIMDLI
 40
3.75
  9
$DIMRND
 40
0.0
  9
$DIMDLE
 40
0.0
  9
$DIMEXE
 40
1.0
  9
$DIMTP
 40
0.0
  9
$DIMTM
 40
0.0
  9
$DIMTXT
 40
2.0
  9
$DIMCEN
 40
2.5
  9
$DIMTSZ
 40
0.0
  9
$DIMTOL
 70
     0
  9
$DIMLIM
 70
     0
  9
$DIMTIH
 70
     1
  9
$DIMTOH
 70
     1
  9
$DIMSE1
 70
     0
  9
$DIMSE2
 70
     0
  9
$DIMTAD
 70
     1
  9
$DIMZIN
 70
     1
  9
$DIMBLK
  1

  9
$DIMASO
 70
     1
  9
$DIMSHO
 70
     1
  9
$DIMPOST
  1

  9
$DIMAPOST
  1

  9
$DIMALT
 70
     0
  9
$DIMALTD
 70
     3
  9
$DIMALTF
 40
0.0393700787
  9
$DIMLFAC
 40
5.0
  9
$DIMTOFL
 70
     1
  9
$DIMTVP
 40
0.0
  9
$DIMTIX
 70
     0
  9
$DIMSOXD
 70
     0
  9
$DIMSAH
 70
     0
  9
$DIMBLK1
  1

  9
$DIMBLK2
  1

  9
$DIMSTYLE
  2
ISO-25
  9
$DIMCLRD
 70
     0
  9
$DIMCLRE
 70
     0
  9
$DIMCLRT
 70
     0
  9
$DIMTFAC
 40
1.0
  9
$DIMGAP
 40
1.524
  9
$DIMJUST
 70
     0
  9
$DIMSD1
 70
     0
  9
$DIMSD2
 70
     0
  9
$DIMTOLJ
 70
     0
  9
$DIMTZIN
 70
     1
  9
$DIMALTZ
 70
     0
  9
$DIMALTTZ
 70
     0
  9
$DIMUPT
 70
     0
  9
$DIMDEC
 70
     1
  9
$DIMTDEC
 70
     1
  9
$DIMALTU
 70
     2
  9
$DIMALTTD
 70
     3
  9
$DIMTXSTY
  7
Standard
  9
$DIMAUNIT
 70
     0
  9
$DIMADEC
 70
     2
  9
$DIMALTRND
 40
0.0
  9
$DIMAZIN
 70
     0
  9
$DIMDSEP
 70
    44
  9
$DIMATFIT
 70
     3
  9
$DIMFRAC
 70
     0
  9
$DIMLDRBLK
  1

  9
$DIMLUNIT
 70
     2
  9
$DIMLWD
 70
    -2
  9
$DIMLWE
 70
    -2
  9
$DIMTMOVE
 70
     0
  9
$LUNITS
 70
     2
  9
$LUPREC
 70
     2
  9
$SKETCHINC
 40
1.0
  9
$FILLETRAD
 40
10.0
  9
$AUNITS
 70
     0
  9
$AUPREC
 70
     2
  9
$MENU
  1
.
  9
$ELEVATION
 40
0.0
  9
$PELEVATION
 40
0.0
  9
$THICKNESS
 40
0.0
  9
$LIMCHECK
 70
     0
  9
$CHAMFERA
 40
0.0
  9
$CHAMFERB
 40
0.0
  9
$CHAMFERC
 40
0.0
  9
$CHAMFERD
 40
0.0
  9
$SKPOLY
 70
     0
  9
$TDCREATE
 40
2457472.562365799
  9
$TDUCREATE
 40
2457472.104032465
  9
$TDUPDATE
 40
2457472.562365903
  9
$TDUUPDATE
 40
2457472.10403257
  9
$TDINDWG
 40
0.0000000116
  9
$TDUSRTIMER
 40
0.0000000116
  9
$USRTIMER
 70
     1
  9
$ANGBASE
 50
0.0
  9
$ANGDIR
 70
     0
  9
$PDMODE
 70
     0
  9
$PDSIZE
 40
-1.0
  9
$PLINEWID
 40
0.0
  9
$SPLFRAME
 70
     0
  9
$SPLINETYPE
 70
     6
  9
$SPLINESEGS
 70
     8
  9
$HANDSEED
  5
CB
  9
$SURFTAB1
 70
     6
  9
$SURFTAB2
 70
     6
  9
$SURFTYPE
 70
     6
  9
$SURFU
 70
     6
  9
$SURFV
 70
     6
  9
$UCSBASE
  2

  9
$UCSNAME
  2

  9
$UCSORG
 10
0.0
 20
0.0
 30
0.0
  9
$UCSXDIR
 10
1.0
 20
0.0
 30
0.0
  9
$UCSYDIR
 10
0.0
 20
1.0
 30
0.0
  9
$UCSORTHOREF
  2

  9
$UCSORTHOVIEW
 70
     0
  9
$UCSORGTOP
 10
0.0
 20
0.0
 30
0.0
  9
$UCSORGBOTTOM
 10
0.0
 20
0.0
 30
0.0
  9
$UCSORGLEFT
 10
0.0
 20
0.0
 30
0.0
  9
$UCSORGRIGHT
 10
0.0
 20
0.0
 30
0.0
  9
$UCSORGFRONT
 10
0.0
 20
0.0
 30
0.0
  9
$UCSORGBACK
 10
0.0
 20
0.0
 30
0.0
  9
$PUCSBASE
  2

  9
$PUCSNAME
  2

  9
$PUCSORG
 10
0.0
 20
0.0
 30
0.0
  9
$PUCSXDIR
 10
1.0
 20
0.0
 30
0.0
  9
$PUCSYDIR
 10
0.0
 20
1.0
 30
0.0
  9
$PUCSORTHOREF
  2

  9
$PUCSORTHOVIEW
 70
     0
  9
$PUCSORGTOP
 10
0.0
 20
0.0
 30
0.0
  9
$PUCSORGBOTTOM
 10
0.0
 20
0.0
 30
0.0
  9
$PUCSORGLEFT
 10
0.0
 20
0.0
 30
0.0
  9
$PUCSORGRIGHT
 10
0.0
 20
0.0
 30
0.0
  9
$PUCSORGFRONT
 10
0.0
 20
0.0
 30
0.0
  9
$PUCSORGBACK
 10
0.0
 20
0.0
 30
0.0
  9
$USERI1
 70
     0
  9
$USERI2
 70
     0
  9
$USERI3
 70
     0
  9
$USERI4
 70
     0
  9
$USERI5
 70
     0
  9
$USERR1
 40
0.0
  9
$USERR2
 40
0.0
  9
$USERR3
 40
0.0
  9
$USERR4
 40
0.0
  9
$USERR5
 40
0.0
  9
$WORLDVIEW
 70
     1
  9
$SHADEDGE
 70
     3
  9
$SHADEDIF
 70
    70
  9
$TILEMODE
 70
     1
  9
$MAXACTVP
 70
    64
  9
$PINSBASE
 10
0.0
 20
0.0
 30
0.0
  9
$PLIMCHECK
 70
     0
  9
$PEXTMIN
 10
1.0000000000E+20
 20
1.0000000000E+20
 30
1.0000000000E+20
  9
$PEXTMAX
 10
-1.0000000000E+20
 20
-1.0000000000E+20
 30
-1.0000000000E+20
  9
$PLIMMIN
 10
0.0
 20
0.0
  9
$PLIMMAX
 10
420.0
 20
297.0
  9
$UNITMODE
 70
     0
  9
$VISRETAIN
 70
     1
  9
$PLINEGEN
 70
     0
  9
$PSLTSCALE
 70
     1
  9
$TREEDEPTH
 70
  3020
  9
$CMLSTYLE
  2
Standard
  9
$CMLJUST
 70
     0
  9
$CMLSCALE
 40
20.0
  9
$PROXYGRAPHICS
 70
     1
  9
$MEASUREMENT
 70
     1
  9
$CELWEIGHT
370
    -1
  9
$ENDCAPS
280
     0
  9
$JOINSTYLE
280
     0
  9
$LWDISPLAY
290
     1
  9
$INSUNITS
 70
     4
  9
$HYPERLINKBASE
  1

  9
$STYLESHEET
  1

  9
$XEDIT
290
     1
  9
$CEPSNTYPE
380
     0
  9
$PSTYLEMODE
290
     1
  9
$FINGERPRINTGUID
  2
{077038E9-3F44-482C-BC9F-F7AFB4E6FF6C}
  9
$VERSIONGUID
  2
{FAEB1C32-E019-11D5-929B-00C0DF256EC4}
  9
$EXTNAMES
290
     1
  9
$PSVPSCALE
 40
0.0
  9
$OLESTARTUP
290
     0
  0
ENDSEC
  0
SECTION
  2
CLASSES
  0
CLASS
  1
ACDBDICTIONARYWDFLT
  2
AcDbDictionaryWithDefault
  3
ObjectDBX Classes
 90
        0
280
     0
281
     0
  0
CLASS
  1
VISUALSTYLE
  2
AcDbVisualStyle
  3
ObjectDBX Classes
 90
     4095
280
     0
281
     0
  0
CLASS
  1
MATERIAL
  2
AcDbMaterial
  3
ObjectDBX Classes
 90
     1153
280
     0
281
     0
  0
CLASS
  1
SCALE
  2
AcDbScale
  3
ObjectDBX Classes
 90
     1153
280
     0
281
     0
  0
CLASS
  1
TABLESTYLE
  2
AcDbTableStyle
  3
ObjectDBX Classes
 90
     4095
280
     0
281
     0
  0
CLASS
  1
MLEADERSTYLE
  2
AcDbMLeaderStyle
  3
ACDB_MLEADERSTYLE_CLASS
 90
     4095
280
     0
281
     0
  0
CLASS
  1
SUN
  2
AcDbSun
  3
SCENEOE
 90
     1153
280
     0
281
     0
  0
CLASS
  1
ACDBPLACEHOLDER
  2
AcDbPlaceHolder
  3
ObjectDBX Classes
 90
        0
280
     0
281
     0
  0
CLASS
  1
LAYOUT
  2
AcDbLayout
  3
ObjectDBX Classes
 90
        0
280
     0
281
     0
  0
ENDSEC
  0
SECTION
  2
TABLES
  0
TABLE
  2
VPORT
  5
8
330
0
100
AcDbSymbolTable
 70
     1
  0
VPORT
  5
29
330
8
100
AcDbSymbolTableRecord
100
AcDbViewportTableRecord
  2
*Active
 70
     0
 10
0.0
 20
0.0
 11
1.0
 21
1.0
 12
148.5
 22
105.0
 13
0.0
 23
0.0
 14
10.0
 24
10.0
 15
10.0
 25
10.0
 16
0.0
 26
0.0
 36
1.0
 17
0.0
 27
0.0
 37
0.0
 40
210.0
 41
1.4142857143
 42
50.0
 43
0.0
 44
0.0
 50
0.0
 51
0.0
 71
     0
 72
  2000
 73
     1
 74
     3
 75
     0
 76
     0
 77
     0
 78
     0
281
     0
 65
     1
110
0.0
120
0.0
130
0.0
111
1.0
121
0.0
131
0.0
112
0.0
122
1.0
132
0.0
 79
     0
146
0.0
  0
ENDTAB
  0
TABLE
  2
LTYPE
  5
5
330
0
100
AcDbSymbolTable
 70
     6
  0
LTYPE
  5
14
330
5
100
AcDbSymbolTableRecord
100
AcDbLinetypeTableRecord
  2
ByBlock
 70
     0
  3

 72
    65
 73
     0
 40
0.0
  0
LTYPE
  5
15
330
5
100
AcDbSymbolTableRecord
100
AcDbLinetypeTableRecord
  2
ByLayer
 70
     0
  3

 72
    65
 73
     0
 40
0.0
  0
LTYPE
  5
16
330
5
100
AcDbSymbolTableRecord
100
AcDbLinetypeTableRecord
  2
Continuous
 70
     0
  3
Solid line
 72
    65
 73
     0
 40
0.0
  0
LTYPE
  5
6E
330
5
100
AcDbSymbolTableRecord
100
AcDbLinetypeTableRecord
  2
HIDDEN
 70
     0
  3
Hidden __ __ __ __ __ __ __ __ __ __ __ __ __ __
 72
    65
 73
     2
 40
1.905
 49
1.27
 74
     0
 49
-0.635
 74
     0
  0
LTYPE
  5
6F
330
5
100
AcDbSymbolTableRecord
100
AcDbLinetypeTableRecord
  2
PHANTOM
 70
     0
  3
Phantom ______  __  __  ______  __  __  ______
 72
    65
 73
     6
 40
12.7
 49
6.35
 74
     0
 49
-1.27
 74
     0
 49
1.27
 74
     0
 49
-1.27
 74
     0
 49
1.27
 74
     0
 49
-1.27
 74
     0
  0
LTYPE
  5
70
330
5
100
AcDbSymbolTableRecord
100
AcDbLinetypeTableRecord
  2
CENTER
 70
     0
  3
Center ____ _ ____ _ ____ _ ____ _ ____ _ ____
 72
    65
 73
     4
 40
10.16
 49
6.35
 74
     0
 49
-1.27
 74
     0
 49
1.27
 74
     0
 49
-1.27
 74
     0
  0
LTYPE
  5
71
330
5
100
AcDbSymbolTableRecord
100
AcDbLinetypeTableRecord
  2
CENTERX2
 70
     0
  3
Center (2x) ________  __  ________  __  _____
 72
    65
 73
     4
 40
20.32
 49
12.7
 74
     0
 49
-2.54
 74
     0
 49
2.54
 74
     0
 49
-2.54
 74
     0
  0
LTYPE
  5
72
330
5
100
AcDbSymbolTableRecord
100
AcDbLinetypeTableRecord
  2
DOT2
 70
     0
  3
Dot (.5x) ........................................
 72
    65
 73
     2
 40
0.635
 49
0.0
 74
     0
 49
-0.635
 74
     0
  0
ENDTAB
  0
TABLE
  2
LAYER
  5
2
330
0
100
AcDbSymbolTable
 70
     4
  0
LAYER
  5
10
330
2
100
AcDbSymbolTableRecord
100
AcDbLayerTableRecord
  2
0
 70
     0
 62
     7
  6
Continuous
370
    -3
390
F
  0
LAYER
  5
73
330
2
100
AcDbSymbolTableRecord
100
AcDbLayerTableRecord
  2
FORMAT
 70
     0
 62
     7
  6
Continuous
370
    -3
390
F
  0
LAYER
  5
74
330
2
100
AcDbSymbolTableRecord
100
AcDbLayerTableRecord
  2
BORDER
 70
     0
 62
     7
  6
Continuous
370
    40
390
F
  0
LAYER
  5
75
330
2
100
AcDbSymbolTableRecord
100
AcDbLayerTableRecord
  2
REVISION_TABLE
 70
     0
 62
    -7
  6
Continuous
290
     0
370
    -3
390
F
  0
ENDTAB
  0
TABLE
  2
STYLE
  5
3
330
0
100
AcDbSymbolTable
 70
     1
  0
STYLE
  5
11
330
3
100
AcDbSymbolTableRecord
100
AcDbTextStyleTableRecord
  2
Standard
 70
     0
 40
0.0
 41
1.0
 50
0.0
 71
     0
 42
3.5
  3
txt
  4

  0
ENDTAB
  0
TABLE
  2
VIEW
  5
6
330
0
100
AcDbSymbolTable
 70
     0
  0
ENDTAB
  0
TABLE
  2
UCS
  5
7
330
0
100
AcDbSymbolTable
 70
     0
  0
ENDTAB
  0
TABLE
  2
APPID
  5
9
330
0
100
AcDbSymbolTable
 70
     1
  0
APPID
  5
12
330
9
100
AcDbSymbolTableRecord
100
AcDbRegAppTableRecord
  2
ACAD
 70
     0
  0
ENDTAB
  0
TABLE
  2
DIMSTYLE
  5
A
330
0
100
AcDbSymbolTable
 70
     1
100
AcDbDimStyleTable
  0
DIMSTYLE
105
27
330
A
100
AcDbSymbolTableRecord
100
AcDbDimStyleTableRecord
  2
ISO-25
 70
     0
 41
2.5
 42
0.625
 43
3.75
 44
1.25
 73
     0
 74
     0
 77
     1
 78
     8
140
2.5
141
2.5
143
0.0393700787
147
0.625
171
     3
172
     1
178
     0
271
     2
272
     2
274
     3
278
    44
283
     0
284
     8
340
11
  0
ENDTAB
  0
TABLE
  2
BLOCK_RECORD
  5
1
330
0
100
AcDbSymbolTable
 70
     1
  0
BLOCK_RECORD
  5
1F
330
1
100
AcDbSymbolTableRecord
100
AcDbBlockTableRecord
  2
*Model_Space
340
22
  0
BLOCK_RECORD
  5
1B
330
1
100
AcDbSymbolTableRecord
100
AcDbBlockTableRecord
  2
*Paper_Space
340
1E
  0
BLOCK_RECORD
  5
23
330
1
100
AcDbSymbolTableRecord
100
AcDbBlockTableRecord
  2
*Paper_Space0
340
26
  0
ENDTAB
  0
ENDSEC
  0
SECTION
  2
BLOCKS
  0
BLOCK
  5
20
330
1F
100
AcDbEntity
  8
0
100
AcDbBlockBegin
  2
*Model_Space
 70
     0
 10
0.0
 20
0.0
 30
0.0
  3
*Model_Space
  1

  0
ENDBLK
  5
21
330
1F
100
AcDbEntity
  8
0
100
AcDbBlockEnd
  0
BLOCK
  5
1C
330
1B
100
AcDbEntity
 67
     1
  8
0
100
AcDbBlockBegin
  2
*Paper_Space
 70
     0
 10
0.0
 20
0.0
 30
0.0
  3
*Paper_Space
  1

  0
ENDBLK
  5
1D
330
1B
100
AcDbEntity
 67
     1
  8
0
100
AcDbBlockEnd
  0
BLOCK
  5
24
330
23
100
AcDbEntity
  8
0
100
AcDbBlockBegin
  2
*Paper_Space0
 70
     0
 10
0.0
 20
0.0
 30
0.0
  3
*Paper_Space0
  1

  0
ENDBLK
  5
25
330
23
100
AcDbEntity
  8
0
100
AcDbBlockEnd
  0
ENDSEC
  0
SECTION
  2
ENTITIES
  0
LINE
  5
76
330
1F
100
AcDbEntity
  8
0
  6
Continuous
 62
     7
370
    15
100
AcDbLine
 10
423.5972087748
 20
138.2766815198
 30
0.0
 11
423.7400780136
 21
116.9706850894
 31
0.0
  0
LINE
  5
77
330
1F
100
AcDbEntity
  8
0
  6
Continuous
 62
     7
370
    15
100
AcDbLine
 10
433.1053992715
 20
137.0870892682
 30
0.0
 11
433.0969951986
 21
138.3403831758
 31
0.0
  0
LINE
  5
78
330
1F
100
AcDbEntity
  8
0
  6
Continuous
 62
     7
370
    15
100
AcDbLine
 10
433.2398644375
 20
117.0343867455
 30
0.0
 11
433.2314603646
 21
118.2876806531
 31
0.0
  0
LINE
  5
79
330
1F
100
AcDbEntity
  8
0
  6
Continuous
 62
     7
370
    15
100
AcDbLine
 10
526.2312643356
 20
118.308514069
 30
0.0
 11
526.2396684085
 21
117.0552201613
 31
0.0
  0
LINE
  5
7A
330
1F
100
AcDbEntity
  8
0
  6
Continuous
 62
     7
370
    15
100
AcDbLine
 10
526.0967991696
 20
138.3612165916
 30
0.0
 11
526.1052032425
 21
137.107922684
 31
0.0
  0
LINE
  5
7B
330
1F
100
AcDbEntity
  8
0
  6
Continuous
 62
     7
370
    15
100
AcDbLine
 10
535.7394548324
 20
117.1189218173
 30
0.0
 11
535.5965855935
 21
138.4249182477
 31
0.0
  0
LINE
  5
7C
330
1F
100
AcDbEntity
  8
0
  6
Continuous
 62
     7
370
    15
100
AcDbLine
 10
419.0861045119
 20
139.9175655947
 30
0.0
 11
419.0973099424
 21
138.2465070512
 31
0.0
  0
LINE
  5
7D
330
1F
100
AcDbEntity
  8
0
  6
Continuous
 62
     7
370
    15
100
AcDbLine
 10
437.5965243245
 20
138.4256917359
 30
0.0
 11
437.5856886005
 21
140.041616188
 31
0.0
  0
LINE
  5
7E
330
1F
100
AcDbEntity
  8
0
  6
Continuous
 62
     7
370
    15
100
AcDbLine
 10
521.5856949068
 20
140.0021006666
 30
0.0
 11
521.5958011115
 21
138.4949689386
 31
0.0
  0
LINE
  5
7F
330
1F
100
AcDbEntity
  8
0
  6
Continuous
 62
     7
370
    15
100
AcDbLine
 10
540.0964844258
 20
138.4550927163
 30
0.0
 11
540.0852789953
 21
140.1261512599
 31
0.0
  0
LWPOLYLINE
  5
80
330
1F
100
AcDbEntity
  8
0
  6
Continuous
 62
     7
370
    15
100
AcDbPolyline
 90
       46
 70
   128
 43
0.0
 10
433.2399522439
 20
117.0064533964
 10
433.1939772013
 20
117.6070356934
 10
433.0564440332
 20
118.1958520898
 10
432.8300296662
 20
118.7614419443
 10
432.5191409984
 20
119.2927966938
 10
432.129829124
 20
119.7795741223
 10
431.6696715559
 20
120.2122996611
 10
431.1476247378
 20
120.5825507996
 10
430.5738497171
 20
120.8831210206
 10
429.9595143719
 20
121.1081600667
 10
429.316576041
 20
121.2532878089
 10
428.6575487875
 20
121.3156795006
 10
427.9952598275
 20
121.2941207586
 10
427.3425998621
 20
121.1890311993
 10
426.7122721751
 20
121.0024562713
 10
426.1165453781
 20
120.7380274436
 10
425.5670146155
 20
120.4008915223
 10
425.0743758784
 20
119.9976104748
 10
424.6482178196
 20
119.5360337078
 10
424.296835121
 20
119.0251452882
 10
424.0270670469
 20
118.4748890778
 10
423.8441643263
 20
117.895975188
 10
423.7516869524
 20
117.299671519
 10
423.7514348922
 20
116.6975844436
 10
423.8434130517
 20
116.1014329017
 10
424.0258311806
 20
115.522820305
 10
424.2951387177
 20
114.9730086895
 10
424.646093898
 20
114.462699513
 10
425.0718657781
 20
114.0018253631
 10
425.5641671927
 20
113.5993566309
 10
426.1134160547
 20
113.2631269124
 10
426.7089218599
 20
112.9996805367
 10
427.339093765
 20
112.8141451878
 10
427.9916661908
 20
112.7101321002
 10
428.6539375573
 20
112.6896657704
 10
429.3130175057
 20
112.7531445522
 10
429.9560777944
 20
112.8993329033
 10
430.5706019865
 20
113.1253854338
 10
431.1446290674
 20
113.4269022882
 10
431.6669862531
 20
113.798014784
 10
432.1275064551
 20
114.2314996385
 10
432.5172261715
 20
114.7189195623
 10
432.8285599512
 20
115.2507874808
 10
433.0554480365
 20
115.81675119
 10
433.1934743089
 20
116.4057948502
 10
433.2399522439
 20
117.0064533964
  0
ARC
  5
81
330
1F
100
AcDbEntity
  8
0
  6
Continuous
 62
     7
370
    15
100
AcDbCircle
 10
429.1605908305
 20
137.0606370071
 30
0.0
 40
3.944686055193055
100
AcDbArc
 50
340.5829733206
 51
20.185418972
  0
LINE
  5
82
330
1F
100
AcDbEntity
  8
0
  6
Continuous
 62
     7
370
    15
100
AcDbLine
 10
432.8629976853
 20
138.4217878275
 30
0.0
 11
432.8836791412
 21
135.3375757934
 31
0.0
  0
LINE
  5
83
330
1F
100
AcDbEntity
  8
0
  6
Continuous
 62
     7
370
    15
100
AcDbLine
 10
432.8836791412
 20
135.3375757934
 30
0.0
 11
432.9890587784
 21
119.6223792124
 31
0.0
  0
ARC
  5
84
330
1F
100
AcDbEntity
  8
0
  6
Continuous
 62
     7
370
    15
100
AcDbCircle
 10
429.2747486663
 20
118.2584427365
 30
0.0
 40
3.956819722912219
100
AcDbArc
 50
0.4233764962
 51
20.1638033131
  0
LWPOLYLINE
  5
85
330
1F
100
AcDbEntity
  8
0
  6
Continuous
 62
     7
370
    15
100
AcDbPolyline
 90
       24
 70
   128
 43
0.0
 10
433.097083005
 20
138.3124498268
 10
433.0511079625
 20
138.9130321237
 10
432.9135747943
 20
139.5018485202
 10
432.6871604273
 20
140.0674383747
 10
432.3762717595
 20
140.5987931241
 10
431.9869598851
 20
141.0855705527
 10
431.5268023171
 20
141.5182960914
 10
431.0047554989
 20
141.8885472299
 10
430.4309804782
 20
142.189117451
 10
429.816645133
 20
142.4141564971
 10
429.1737068021
 20
142.5592842392
 10
428.5146795487
 20
142.6216759309
 10
427.8523905886
 20
142.6001171889
 10
427.1997306232
 20
142.4950276296
 10
426.5694029362
 20
142.3084527017
 10
425.9736761392
 20
142.0440238739
 10
425.4241453766
 20
141.7068879527
 10
424.9315066395
 20
141.3036069051
 10
424.5053485808
 20
140.8420301382
 10
424.1539658821
 20
140.3311417185
 10
423.8841978081
 20
139.7808855082
 10
423.7012950874
 20
139.2019716184
 10
423.6088177135
 20
138.6056679494
 10
423.5972087748
 20
138.2766815198
  0
LWPOLYLINE
  5
86
330
1F
100
AcDbEntity
  8
0
  6
Continuous
 62
     7
370
    15
100
AcDbPolyline
 90
       46
 70
   128
 43
0.0
 10
535.7395426387
 20
117.0909884682
 10
535.6935675962
 20
117.6915707652
 10
535.5560344281
 20
118.2803871616
 10
535.3296200611
 20
118.8459770162
 10
535.0187313932
 20
119.3773317656
 10
534.6294195189
 20
119.8641091942
 10
534.1692619508
 20
120.2968347329
 10
533.6472151327
 20
120.6670858714
 10
533.073440112
 20
120.9676560925
 10
532.4591047668
 20
121.1926951386
 10
531.8161664358
 20
121.3378228807
 10
531.1571391824
 20
121.4002145724
 10
530.4948502224
 20
121.3786558304
 10
529.8421902569
 20
121.2735662711
 10
529.21186257
 20
121.0869913432
 10
528.616135773
 20
120.8225625154
 10
528.0666050103
 20
120.4854265941
 10
527.5739662733
 20
120.0821455466
 10
527.1478082145
 20
119.6205687796
 10
526.7964255158
 20
119.10968036
 10
526.5266574418
 20
118.5594241497
 10
526.3437547212
 20
117.9805102598
 10
526.2512773473
 20
117.3842065909
 10
526.251025287
 20
116.7821195154
 10
526.3430034465
 20
116.1859679735
 10
526.5254215755
 20
115.6073553768
 10
526.7947291126
 20
115.0575437614
 10
527.1456842928
 20
114.5472345849
 10
527.5714561729
 20
114.086360435
 10
528.0637575875
 20
113.6838917027
 10
528.6130064496
 20
113.3476619843
 10
529.2085122548
 20
113.0842156085
 10
529.8386841599
 20
112.8986802596
 10
530.4912565857
 20
112.7946671721
 10
531.1535279522
 20
112.7742008423
 10
531.8126079006
 20
112.837679624
 10
532.4556681893
 20
112.9838679752
 10
533.0701923813
 20
113.2099205056
 10
533.6442194623
 20
113.51143736
 10
534.166576648
 20
113.8825498558
 10
534.62709685
 20
114.3160347104
 10
535.0168165663
 20
114.8034546341
 10
535.3281503461
 20
115.3353225526
 10
535.5550384314
 20
115.9012862618
 10
535.6930647038
 20
116.490329922
 10
535.7395426387
 20
117.0909884682
  0
LINE
  5
87
330
1F
100
AcDbEntity
  8
0
  6
Continuous
 62
     7
370
    15
100
AcDbLine
 10
526.3694273682
 20
135.4146768278
 30
0.0
 11
526.4748070054
 21
119.6994802468
 31
0.0
  0
LINE
  5
88
330
1F
100
AcDbEntity
  8
0
  6
Continuous
 62
     7
370
    15
100
AcDbLine
 10
526.3487459123
 20
138.4988888618
 30
0.0
 11
526.3694273682
 21
135.4146768278
 31
0.0
  0
ARC
  5
89
330
1F
100
AcDbEntity
  8
0
  6
Continuous
 62
     7
370
    15
100
AcDbCircle
 10
530.0508925291
 20
137.1345063724
 30
0.0
 40
3.945558154428966
100
AcDbArc
 50
159.769230382
 51
200.182796535
  0
LINE
  5
8A
330
1F
100
AcDbEntity
  8
0
  6
Continuous
 62
     7
370
    15
100
AcDbLine
 10
526.3499916806
 20
135.4172744609
 30
0.0
 11
526.3476048287
 21
135.7732241247
 31
0.0
  0
ARC
  5
8B
330
1F
100
AcDbEntity
  8
0
  6
Continuous
 62
     7
370
    15
100
AcDbCircle
 10
530.1863397697
 20
118.3328283478
 30
0.0
 40
3.95515017075848
100
AcDbArc
 50
159.7854021874
 51
180.3522279243
  0
LWPOLYLINE
  5
8C
330
1F
100
AcDbEntity
  8
0
  6
Continuous
 62
     7
370
    15
100
AcDbPolyline
 90
       24
 70
   128
 43
0.0
 10
535.5965855935
 20
138.4249182477
 10
535.5852287149
 20
138.6980188935
 10
535.4932505555
 20
139.2941704354
 10
535.3108324265
 20
139.8727830321
 10
535.0415248894
 20
140.4225946476
 10
534.6905697092
 20
140.9329038241
 10
534.2647978291
 20
141.393777974
 10
533.7724964144
 20
141.7962467062
 10
533.2232475524
 20
142.1324764247
 10
532.6277417472
 20
142.3959228004
 10
531.9975698421
 20
142.5814581493
 10
531.3449974163
 20
142.6854712369
 10
530.6827260498
 20
142.7059375667
 10
530.0236461014
 20
142.6424587849
 10
529.3805858127
 20
142.4962704338
 10
528.7660616206
 20
142.2702179034
 10
528.1920345397
 20
141.9687010489
 10
527.669677354
 20
141.5975885531
 10
527.209157152
 20
141.1641036986
 10
526.8194374357
 20
140.6766837749
 10
526.5081036559
 20
140.1448158563
 10
526.2812155706
 20
139.5788521471
 10
526.1431892982
 20
138.989808487
 10
526.0967113633
 20
138.3891499407
  0
LWPOLYLINE
  5
8D
330
1F
100
AcDbEntity
  8
0
  6
Continuous
 62
     7
370
    15
100
AcDbPolyline
 90
        9
 70
   128
 43
0.0
 10
434.6200584136
 20
136.3344022068
 10
434.5900593241
 20
136.1701493356
 10
434.4986059638
 20
136.0099318364
 10
434.3479737254
 20
135.8577359787
 10
434.1419103936
 20
135.7173484507
 10
433.8855428991
 20
135.5922621451
 10
433.5852497581
 20
135.4855892546
 10
433.2485023731
 20
135.3999838394
 10
432.8836791412
 20
135.3375757934
  0
LINE
  5
8E
330
1F
100
AcDbEntity
  8
0
  6
Continuous
 62
     7
370
    15
100
AcDbLine
 10
434.6060516254
 20
138.4232253863
 30
0.0
 11
434.6200584136
 21
136.3344022068
 31
0.0
  0
LINE
  5
8F
330
1F
100
AcDbEntity
  8
0
  6
Continuous
 62
     7
370
    15
100
AcDbLine
 10
439.6060316447
 20
138.4273490483
 30
0.0
 11
434.6060516254
 21
138.4232253863
 31
0.0
  0
LINE
  5
90
330
1F
100
AcDbEntity
  8
0
  6
Continuous
 62
     7
370
    15
100
AcDbLine
 10
439.6060316447
 20
138.4273490483
 30
0.0
 11
439.7320927378
 21
119.6279404333
 31
0.0
  0
LINE
  5
91
330
1F
100
AcDbEntity
  8
0
  6
Continuous
 62
     7
370
    15
100
AcDbLine
 10
439.7320927378
 20
119.6279404333
 30
0.0
 11
432.9890587784
 21
119.6223792124
 31
0.0
  0
ARC
  5
92
330
1F
100
AcDbEntity
  8
0
  6
Continuous
 62
     7
370
    15
100
AcDbCircle
 10
473.8808703307
 20
103.9718194781
 30
0.0
 40
13.10574807699381
100
AcDbArc
 50
81.4538177286
 51
98.6406900001
  0
LINE
  5
93
330
1F
100
AcDbEntity
  8
0
  6
Continuous
 62
     7
370
    15
100
AcDbLine
 10
471.9118955666
 20
116.9288164696
 30
0.0
 11
467.8285022038
 21
116.9254487493
 31
0.0
  0
ARC
  5
94
330
1F
100
AcDbEntity
  8
0
  6
Continuous
 62
     7
370
    15
100
AcDbCircle
 10
465.8809022999
 20
103.9652216189
 30
0.0
 40
13.10574807699278
100
AcDbArc
 50
81.4538177286
 51
98.6406900001
  0
LINE
  5
95
330
1F
100
AcDbEntity
  8
0
  6
Continuous
 62
     7
370
    15
100
AcDbLine
 10
463.9119275358
 20
116.9222186103
 30
0.0
 11
459.828534173
 21
116.91885089
 31
0.0
  0
ARC
  5
96
330
1F
100
AcDbEntity
  8
0
  6
Continuous
 62
     7
370
    15
100
AcDbCircle
 10
457.880934269
 20
103.9586237596
 30
0.0
 40
13.10574807699268
100
AcDbArc
 50
81.4538177286
 51
98.6406900001
  0
LINE
  5
97
330
1F
100
AcDbEntity
  8
0
  6
Continuous
 62
     7
370
    15
100
AcDbLine
 10
455.911959505
 20
116.915620751
 30
0.0
 11
451.8285661422
 21
116.9122530307
 31
0.0
  0
ARC
  5
98
330
1F
100
AcDbEntity
  8
0
  6
Continuous
 62
     7
370
    15
100
AcDbCircle
 10
449.8809662382
 20
103.9520259003
 30
0.0
 40
13.10574807699227
100
AcDbArc
 50
81.4538177286
 51
98.6406900001
  0
LINE
  5
99
330
1F
100
AcDbEntity
  8
0
  6
Continuous
 62
     7
370
    15
100
AcDbLine
 10
447.9119914742
 20
116.9090228918
 30
0.0
 11
443.8285981114
 21
116.9056551715
 31
0.0
  0
ARC
  5
9A
330
1F
100
AcDbEntity
  8
0
  6
Continuous
 62
     7
370
    15
100
AcDbCircle
 10
441.8809982074
 20
103.9454280411
 30
0.0
 40
13.10574807699341
100
AcDbArc
 50
81.4538177286
 51
98.6406900001
  0
LINE
  5
9B
330
1F
100
AcDbEntity
  8
0
  6
Continuous
 62
     7
370
    15
100
AcDbLine
 10
439.9120234433
 20
116.9024250325
 30
0.0
 11
433.2383762988
 21
116.8969210374
 31
0.0
  0
ARC
  5
9C
330
1F
100
AcDbEntity
  8
0
  6
Continuous
 62
     7
370
    15
100
AcDbCircle
 10
441.723198985
 20
130.4036602957
 30
0.0
 40
10.95813134803778
100
AcDbArc
 50
259.5311310464
 51
280.5633766823
  0
LINE
  5
9D
330
1F
100
AcDbEntity
  8
0
  6
Continuous
 62
     7
370
    15
100
AcDbLine
 10
447.7320607686
 20
119.6345382926
 30
0.0
 11
443.7320767532
 21
119.6312393629
 31
0.0
  0
ARC
  5
9E
330
1F
100
AcDbEntity
  8
0
  6
Continuous
 62
     7
370
    15
100
AcDbCircle
 10
449.7231670158
 20
130.410258155
 30
0.0
 40
10.95813134803749
100
AcDbArc
 50
259.5311310464
 51
280.5633766823
  0
LINE
  5
9F
330
1F
100
AcDbEntity
  8
0
  6
Continuous
 62
     7
370
    15
100
AcDbLine
 10
455.7320287995
 20
119.6411361518
 30
0.0
 11
451.732044784
 21
119.6378372222
 31
0.0
  0
ARC
  5
A0
330
1F
100
AcDbEntity
  8
0
  6
Continuous
 62
     7
370
    15
100
AcDbCircle
 10
457.7231350466
 20
130.4168560142
 30
0.0
 40
10.95813134803771
100
AcDbArc
 50
259.5311310464
 51
280.5633766823
  0
LINE
  5
A1
330
1F
100
AcDbEntity
  8
0
  6
Continuous
 62
     7
370
    15
100
AcDbLine
 10
463.7319968303
 20
119.6477340111
 30
0.0
 11
459.7320128149
 21
119.6444350815
 31
0.0
  0
ARC
  5
A2
330
1F
100
AcDbEntity
  8
0
  6
Continuous
 62
     7
370
    15
100
AcDbCircle
 10
465.7231030774
 20
130.4234538735
 30
0.0
 40
10.95813134803718
100
AcDbArc
 50
259.5311310464
 51
280.5633766823
  0
LINE
  5
A3
330
1F
100
AcDbEntity
  8
0
  6
Continuous
 62
     7
370
    15
100
AcDbLine
 10
471.7319648611
 20
119.6543318704
 30
0.0
 11
467.7319808457
 21
119.6510329407
 31
0.0
  0
ARC
  5
A4
330
1F
100
AcDbEntity
  8
0
  6
Continuous
 62
     7
370
    15
100
AcDbCircle
 10
473.7230711083
 20
130.4300517328
 30
0.0
 40
10.95813134803708
100
AcDbArc
 50
259.5311310464
 51
280.5633766823
  0
LINE
  5
A5
330
1F
100
AcDbEntity
  8
0
  6
Continuous
 62
     7
370
    15
100
AcDbLine
 10
479.7319328919
 20
119.6609297296
 30
0.0
 11
475.7319488765
 21
119.6576308
 31
0.0
  0
ARC
  5
A6
330
1F
100
AcDbEntity
  8
0
  6
Continuous
 62
     7
370
    15
100
AcDbCircle
 10
481.7230391391
 20
130.436649592
 30
0.0
 40
10.95813134803743
100
AcDbArc
 50
259.5311310464
 51
280.5633766823
  0
LINE
  5
A7
330
1F
100
AcDbEntity
  8
0
  6
Continuous
 62
     7
370
    15
100
AcDbLine
 10
526.4748070054
 20
119.6994802468
 30
0.0
 11
483.7319169073
 21
119.6642286593
 31
0.0
  0
LINE
  5
A8
330
1F
100
AcDbEntity
  8
0
  6
Continuous
 62
     7
370
    15
100
AcDbLine
 10
526.2410648381
 20
116.9736236752
 30
0.0
 11
483.8284382655
 21
116.9386444678
 31
0.0
  0
ARC
  5
A9
330
1F
100
AcDbEntity
  8
0
  6
Continuous
 62
     7
370
    15
100
AcDbCircle
 10
481.8808383615
 20
103.9784173374
 30
0.0
 40
13.10574807699324
100
AcDbArc
 50
81.4538177286
 51
98.6406900001
  0
LINE
  5
AA
330
1F
100
AcDbEntity
  8
0
  6
Continuous
 62
     7
370
    15
100
AcDbLine
 10
479.9118635974
 20
116.9354143288
 30
0.0
 11
475.8284702347
 21
116.9320466085
 31
0.0
  0
ARC
  5
AB
330
1F
100
AcDbEntity
  8
0
  6
Continuous
 62
     7
370
    15
100
AcDbCircle
 10
441.5971378919
 20
149.2030689107
 30
0.0
 40
10.95813134803727
100
AcDbArc
 50
259.5311310464
 51
280.5633766823
  0
LINE
  5
AC
330
1F
100
AcDbEntity
  8
0
  6
Continuous
 62
     7
370
    15
100
AcDbLine
 10
443.6060156601
 20
138.4306479779
 30
0.0
 11
443.7320767532
 21
119.6312393629
 31
0.0
  0
LINE
  5
AD
330
1F
100
AcDbEntity
  8
0
  6
Continuous
 62
     7
370
    15
100
AcDbLine
 10
447.6059996755
 20
138.4339469076
 30
0.0
 11
443.6060156601
 21
138.4306479779
 31
0.0
  0
LINE
  5
AE
330
1F
100
AcDbEntity
  8
0
  6
Continuous
 62
     7
370
    15
100
AcDbLine
 10
447.6059996755
 20
138.4339469076
 30
0.0
 11
447.7320607686
 21
119.6345382926
 31
0.0
  0
ARC
  5
AF
330
1F
100
AcDbEntity
  8
0
  6
Continuous
 62
     7
370
    15
100
AcDbCircle
 10
449.5971059227
 20
149.20966677
 30
0.0
 40
10.95813134803727
100
AcDbArc
 50
259.5311310464
 51
280.5633766823
  0
LINE
  5
B0
330
1F
100
AcDbEntity
  8
0
  6
Continuous
 62
     7
370
    15
100
AcDbLine
 10
451.6059836909
 20
138.4372458372
 30
0.0
 11
451.732044784
 21
119.6378372222
 31
0.0
  0
LINE
  5
B1
330
1F
100
AcDbEntity
  8
0
  6
Continuous
 62
     7
370
    15
100
AcDbLine
 10
455.6059677063
 20
138.4405447668
 30
0.0
 11
451.6059836909
 21
138.4372458372
 31
0.0
  0
LINE
  5
B2
330
1F
100
AcDbEntity
  8
0
  6
Continuous
 62
     7
370
    15
100
AcDbLine
 10
455.6059677063
 20
138.4405447668
 30
0.0
 11
455.7320287995
 21
119.6411361518
 31
0.0
  0
ARC
  5
B3
330
1F
100
AcDbEntity
  8
0
  6
Continuous
 62
     7
370
    15
100
AcDbCircle
 10
457.5970739535
 20
149.2162646293
 30
0.0
 40
10.95813134803839
100
AcDbArc
 50
259.5311310464
 51
280.5633766823
  0
LINE
  5
B4
330
1F
100
AcDbEntity
  8
0
  6
Continuous
 62
     7
370
    15
100
AcDbLine
 10
459.6059517217
 20
138.4438436965
 30
0.0
 11
459.7320128149
 21
119.6444350815
 31
0.0
  0
LINE
  5
B5
330
1F
100
AcDbEntity
  8
0
  6
Continuous
 62
     7
370
    15
100
AcDbLine
 10
463.6059357372
 20
138.4471426261
 30
0.0
 11
459.6059517217
 21
138.4438436965
 31
0.0
  0
LINE
  5
B6
330
1F
100
AcDbEntity
  8
0
  6
Continuous
 62
     7
370
    15
100
AcDbLine
 10
463.6059357372
 20
138.4471426261
 30
0.0
 11
463.7319968303
 21
119.6477340111
 31
0.0
  0
ARC
  5
B7
330
1F
100
AcDbEntity
  8
0
  6
Continuous
 62
     7
370
    15
100
AcDbCircle
 10
465.5970419843
 20
149.2228624885
 30
0.0
 40
10.95813134803764
100
AcDbArc
 50
259.5311310464
 51
280.5633766823
  0
LINE
  5
B8
330
1F
100
AcDbEntity
  8
0
  6
Continuous
 62
     7
370
    15
100
AcDbLine
 10
467.6059197526
 20
138.4504415557
 30
0.0
 11
467.7319808457
 21
119.6510329407
 31
0.0
  0
LINE
  5
B9
330
1F
100
AcDbEntity
  8
0
  6
Continuous
 62
     7
370
    15
100
AcDbLine
 10
471.605903768
 20
138.4537404854
 30
0.0
 11
467.6059197526
 21
138.4504415557
 31
0.0
  0
LINE
  5
BA
330
1F
100
AcDbEntity
  8
0
  6
Continuous
 62
     7
370
    15
100
AcDbLine
 10
471.605903768
 20
138.4537404854
 30
0.0
 11
471.7319648611
 21
119.6543318704
 31
0.0
  0
ARC
  5
BB
330
1F
100
AcDbEntity
  8
0
  6
Continuous
 62
     7
370
    15
100
AcDbCircle
 10
473.5970100151
 20
149.2294603478
 30
0.0
 40
10.95813134803687
100
AcDbArc
 50
259.5311310464
 51
280.5633766823
  0
LINE
  5
BC
330
1F
100
AcDbEntity
  8
0
  6
Continuous
 62
     7
370
    15
100
AcDbLine
 10
475.6058877834
 20
138.457039415
 30
0.0
 11
475.7319488765
 21
119.6576308
 31
0.0
  0
LINE
  5
BD
330
1F
100
AcDbEntity
  8
0
  6
Continuous
 62
     7
370
    15
100
AcDbLine
 10
479.6058717988
 20
138.4603383446
 30
0.0
 11
475.6058877834
 21
138.457039415
 31
0.0
  0
LINE
  5
BE
330
1F
100
AcDbEntity
  8
0
  6
Continuous
 62
     7
370
    15
100
AcDbLine
 10
479.6058717988
 20
138.4603383446
 30
0.0
 11
479.7319328919
 21
119.6609297296
 31
0.0
  0
ARC
  5
BF
330
1F
100
AcDbEntity
  8
0
  6
Continuous
 62
     7
370
    15
100
AcDbCircle
 10
481.596978046
 20
149.2360582071
 30
0.0
 40
10.95813134803722
100
AcDbArc
 50
259.5311310464
 51
280.5633766823
  0
LINE
  5
C0
330
1F
100
AcDbEntity
  8
0
  6
Continuous
 62
     7
370
    15
100
AcDbLine
 10
483.6058558142
 20
138.4636372743
 30
0.0
 11
483.7319169073
 21
119.6642286593
 31
0.0
  0
LINE
  5
C1
330
1F
100
AcDbEntity
  8
0
  6
Continuous
 62
     7
370
    15
100
AcDbLine
 10
524.6056919722
 20
138.497451303
 30
0.0
 11
524.6196987603
 21
136.4086281236
 31
0.0
  0
LWPOLYLINE
  5
C2
330
1F
100
AcDbEntity
  8
0
  6
Continuous
 62
     7
370
    15
100
AcDbPolyline
 90
        9
 70
   128
 43
0.0
 10
526.3694273682
 20
135.4146768278
 10
526.0037712108
 20
135.4764824214
 10
525.6658794874
 20
135.5615314376
 10
525.3641590668
 20
135.667707826
 10
525.1061168626
 20
135.7923698796
 10
524.8981730586
 20
135.9324159611
 10
524.745501372
 20
136.0843616732
 10
524.65190033
 20
136.2444265515
 10
524.6196987603
 20
136.4086281236
  0
LINE
  5
C3
330
1F
100
AcDbEntity
  8
0
  6
Continuous
 62
     7
370
    15
100
AcDbLine
 10
524.6056919722
 20
138.497451303
 30
0.0
 11
483.6058558142
 21
138.4636372743
 31
0.0
  0
LINE
  5
C4
330
1F
100
AcDbEntity
  8
0
  6
Continuous
 62
     7
370
    15
100
AcDbLine
 10
526.3670229903
 20
135.7732401395
 30
0.0
 11
526.3476048287
 21
135.7732241247
 31
0.0
  0
LINE
  5
C5
330
1F
100
AcDbEntity
  8
0
  6
Continuous
 62
     7
370
    15
100
AcDbLine
 10
434.6060516254
 20
138.4232253863
 30
0.0
 11
434.6051281995
 21
136.2174715183
 31
0.0
  0
LWPOLYLINE
  5
C6
330
1F
100
AcDbEntity
  8
0
  6
Continuous
 62
     7
370
    15
100
AcDbPolyline
 90
       33
 70
   128
 43
0.0
 10
437.5856886005
 20
140.041616188
 10
437.5402447613
 20
140.8239631763
 10
437.403152983
 20
141.6523149354
 10
437.1759467368
 20
142.4640424115
 10
436.8608841003
 20
143.2510782921
 10
436.4610963076
 20
144.0056006612
 10
435.9805566293
 20
144.7201107364
 10
435.4240408847
 20
145.3875073956
 10
434.7970799773
 20
146.001157751
 10
434.1059049263
 20
146.5549630696
 10
433.3573849398
 20
147.0434193855
 10
432.5589591457
 20
147.4616722001
 10
431.7185626583
 20
147.8055647293
 10
430.8445477155
 20
148.0716792145
 10
429.9456006704
 20
148.2573708904
 10
429.0306556626
 20
148.3607942698
 10
428.1088058267
 20
148.3809214845
 10
427.1892129205
 20
148.3175525014
 10
426.2810162714
 20
148.1713171097
 10
425.3932419457
 20
147.9436686627
 10
424.5347130437
 20
147.6368696327
 10
423.7139620111
 20
147.2539691264
 10
422.9391458406
 20
146.7987725811
 10
422.2179650032
 20
146.2758039445
 10
421.5575869182
 20
145.6902607138
 10
420.9645747197
 20
145.0479622809
 10
420.4448220293
 20
144.355292096
 10
420.0034943828
 20
143.6191342267
 10
419.6449778926
 20
142.8468049405
 10
419.3728356566
 20
142.045979993
 10
419.1897723466
 20
141.2246183423
 10
419.0976073282
 20
140.3908830493
 10
419.0861045119
 20
139.9175655947
  0
LWPOLYLINE
  5
C7
330
1F
100
AcDbEntity
  8
0
  6
Continuous
 62
     7
370
    15
100
AcDbPolyline
 90
       43
 70
   128
 43
0.0
 10
437.5963252479
 20
138.4256915717
 10
437.5514501918
 20
139.1529046328
 10
437.4143584135
 20
139.9812563919
 10
437.1871521673
 20
140.7929838679
 10
436.8720895308
 20
141.5800197485
 10
436.4723017381
 20
142.3345421176
 10
435.9917620598
 20
143.0490521928
 10
435.4352463152
 20
143.716448852
 10
434.8082854078
 20
144.3300992074
 10
434.1171103568
 20
144.8839045261
 10
433.3685903703
 20
145.3723608419
 10
432.5701645762
 20
145.7906136566
 10
431.7297680888
 20
146.1345061857
 10
430.855753146
 20
146.4006206709
 10
429.9568061009
 20
146.5863123469
 10
429.0418610931
 20
146.6897357262
 10
428.1200112572
 20
146.7098629409
 10
427.200418351
 20
146.6464939578
 10
426.2922217019
 20
146.5002585662
 10
425.4044473762
 20
146.2726101191
 10
424.5459184742
 20
145.9658110891
 10
423.7251674416
 20
145.5829105829
 10
422.9503512711
 20
145.1277140375
 10
422.2291704337
 20
144.6047454009
 10
421.5687923487
 20
144.0192021703
 10
420.9757801502
 20
143.3769037373
 10
420.4560274598
 20
142.6842335524
 10
420.0146998133
 20
141.9480756831
 10
419.6561833231
 20
141.175746397
 10
419.3840410871
 20
140.3749214495
 10
419.2009777771
 20
139.5535597987
 10
419.1088127587
 20
138.7198245058
 10
419.108462009
 20
137.8820016066
 10
419.1999290141
 20
137.0484177616
 10
419.3823047337
 20
136.2273575015
 10
419.653776636
 20
135.4269808919
 10
420.0116467113
 20
134.6552424354
 10
420.452358286
 20
133.9198120153
 10
420.9715313705
 20
133.2279986696
 10
421.5640061894
 20
132.5866779501
 10
422.2238944617
 20
132.0022235903
 10
422.9446379214
 20
131.4804441601
 10
423.6455643648
 20
131.0654439003
  0
LWPOLYLINE
  5
C8
330
1F
100
AcDbEntity
  8
0
  6
Continuous
 62
     7
370
    15
100
AcDbPolyline
 90
       43
 70
   128
 43
0.0
 10
535.6449411836
 20
131.2136806282
 10
536.2434430972
 20
131.5738857299
 10
536.9646239345
 20
132.0968543666
 10
537.6250020195
 20
132.6823975972
 10
538.218014218
 20
133.3246960302
 10
538.7377669084
 20
134.017366215
 10
539.1790945549
 20
134.7535240844
 10
539.5376110452
 20
135.5258533705
 10
539.8097532812
 20
136.326678318
 10
539.9928165911
 20
137.1480399688
 10
540.0849816096
 20
137.9817752617
 10
540.0853323592
 20
138.8195981608
 10
539.9938653542
 20
139.6531820059
 10
539.8114896345
 20
140.474242266
 10
539.5400177322
 20
141.2746188755
 10
539.1821476569
 20
142.0463573321
 10
538.7414360822
 20
142.7817877522
 10
538.2222629977
 20
143.4736010979
 10
537.6297881789
 20
144.1149218174
 10
536.9698999065
 20
144.6993761772
 10
536.2491564469
 20
145.2211556074
 10
535.4747208721
 20
145.6750744295
 10
534.654289871
 20
146.0566213943
 10
533.7960172555
 20
146.3620045168
 10
532.9084329242
 20
146.5881887622
 10
532.0003580892
 20
146.7329262099
 10
531.0808176061
 20
146.794778394
 10
530.1589502813
 20
146.7731305999
 10
529.2439180465
 20
146.668197973
 10
528.3448149031
 20
146.4810233809
 10
527.4705765421
 20
146.2134670488
 10
526.6298915371
 20
145.8681880717
 10
525.8311149934
 20
145.4486179872
 10
525.0821855111
 20
144.9589266714
 10
524.3905462879
 20
144.4039808964
 10
523.7630711451
 20
143.7892959628
 10
523.2059962126
 20
143.1209808856
 10
522.7248579514
 20
142.4056776803
 10
522.3244381296
 20
141.6504953514
 10
522.0087162994
 20
140.8629392403
 10
521.7808302461
 20
140.0508364334
 10
521.6430448038
 20
139.2222579733
 10
521.5975608294
 20
138.4949703899
  0
LINE
  5
C9
330
1F
100
AcDbEntity
  8
0
  6
Continuous
 62
     7
370
    15
100
AcDbLine
 10
521.5855239154
 20
140.0564971884
 30
0.0
 11
521.5856949068
 21
140.0021006666
 31
0.0
  0
LWPOLYLINE
  5
CA
330
1F
100
AcDbEntity
  8
0
  6
Continuous
 62
     7
370
    15
100
AcDbPolyline
 90
       33
 70
   128
 43
0.0
 10
540.0852789953
 20
140.1261512599
 10
540.0741269287
 20
140.4906567044
 10
539.9826599237
 20
141.3242405494
 10
539.800284204
 20
142.1453008096
 10
539.5288123017
 20
142.9456774191
 10
539.1709422264
 20
143.7174158756
 10
538.7302306517
 20
144.4528462957
 10
538.2110575672
 20
145.1446596414
 10
537.6185827484
 20
145.7859803609
 10
536.958694476
 20
146.3704347208
 10
536.2379510164
 20
146.8922141509
 10
535.4635154416
 20
147.346132973
 10
534.6430844405
 20
147.7276799379
 10
533.784811825
 20
148.0330630604
 10
532.8972274937
 20
148.2592473058
 10
531.9891526587
 20
148.4039847534
 10
531.0696121756
 20
148.4658369376
 10
530.1477448508
 20
148.4441891435
 10
529.232712616
 20
148.3392565166
 10
528.3336094726
 20
148.1520819245
 10
527.4593711116
 20
147.8845255924
 10
526.6186861066
 20
147.5392466153
 10
525.8199095629
 20
147.1196765308
 10
525.0709800806
 20
146.6299852149
 10
524.3793408574
 20
146.07503944
 10
523.7518657146
 20
145.4603545064
 10
523.1947907821
 20
144.7920394292
 10
522.7136525209
 20
144.0767362238
 10
522.3132326991
 20
143.321553895
 10
521.9975108689
 20
142.5339977839
 10
521.7696248156
 20
141.721894977
 10
521.6318393733
 20
140.8933165168
 10
521.5855239154
 20
140.0564971884
  0
ENDSEC
  0
SECTION
  2
OBJECTS
  0
DICTIONARY
  5
C
330
0
100
AcDbDictionary
281
     1
  3
ACAD_GROUP
350
D
  3
ACAD_LAYOUT
350
1A
  3
ACAD_MLINESTYLE
350
17
  3
ACAD_PLOTSETTINGS
350
19
  3
ACAD_PLOTSTYLENAME
350
E
  3
ACAD_SCALELIST
350
47
  0
DICTIONARY
  5
D
102
{ACAD_REACTORS
330
C
102
}
330
C
100
AcDbDictionary
281
     1
  0
DICTIONARY
  5
1A
102
{ACAD_REACTORS
330
C
102
}
330
C
100
AcDbDictionary
281
     1
  3
Layout1
350
1E
  3
Layout2
350
26
  3
Model
350
22
  0
DICTIONARY
  5
17
102
{ACAD_REACTORS
330
C
102
}
330
C
100
AcDbDictionary
281
     1
  3
Standard
350
18
  0
DICTIONARY
  5
19
102
{ACAD_REACTORS
330
C
102
}
330
C
100
AcDbDictionary
281
     1
  0
ACDBDICTIONARYWDFLT
  5
E
102
{ACAD_REACTORS
330
C
102
}
330
C
100
AcDbDictionary
281
     1
  3
Normal
350
F
100
AcDbDictionaryWithDefault
340
F
  0
DICTIONARY
  5
47
102
{ACAD_REACTORS
330
C
102
}
330
C
100
AcDbDictionary
281
     1
  3
A0
350
48
  3
A1
350
49
  3
A2
350
4A
  3
A3
350
4B
  3
A4
350
4C
  3
A5
350
4D
  3
A6
350
4E
  3
A7
350
4F
  3
A8
350
50
  3
A9
350
51
  3
B0
350
52
  3
B1
350
53
  3
B2
350
54
  3
B3
350
55
  3
B4
350
56
  3
B5
350
57
  3
B6
350
58
  3
B7
350
59
  3
B8
350
5A
  3
B9
350
5B
  3
C0
350
5C
  3
C1
350
5D
  3
C2
350
5E
  3
C3
350
5F
  3
C4
350
60
  3
C5
350
61
  3
C6
350
62
  3
C7
350
63
  3
C8
350
64
  3
C9
350
65
  3
D0
350
66
  3
D1
350
67
  3
D2
350
68
  0
LAYOUT
  5
1E
102
{ACAD_REACTORS
330
1A
102
}
330
1A
100
AcDbPlotSettings
  1

  2
none_device
  4

  6

 40
0.0
 41
0.0
 42
0.0
 43
0.0
 44
0.0
 45
0.0
 46
0.0
 47
0.0
 48
0.0
 49
0.0
140
0.0
141
0.0
142
1.0
143
1.0
 70
   688
 72
     1
 73
     0
 74
     5
  7

 75
    16
147
1.0
148
0.0
149
0.0
100
AcDbLayout
  1
Layout1
 70
     1
 71
     1
 10
0.0
 20
0.0
 11
420.0
 21
297.0
 12
0.0
 22
0.0
 32
0.0
 14
1.0000000000E+20
 24
1.0000000000E+20
 34
1.0000000000E+20
 15
-1.0000000000E+20
 25
-1.0000000000E+20
 35
-1.0000000000E+20
146
0.0
 13
0.0
 23
0.0
 33
0.0
 16
1.0
 26
0.0
 36
0.0
 17
0.0
 27
1.0
 37
0.0
 76
     0
330
1B
  0
LAYOUT
  5
26
102
{ACAD_REACTORS
330
1A
102
}
330
1A
100
AcDbPlotSettings
  1

  2
none_device
  4

  6

 40
0.0
 41
0.0
 42
0.0
 43
0.0
 44
0.0
 45
0.0
 46
0.0
 47
0.0
 48
0.0
 49
0.0
140
0.0
141
0.0
142
1.0
143
1.0
 70
   688
 72
     1
 73
     0
 74
     5
  7

 75
    16
147
1.0
148
0.0
149
0.0
100
AcDbLayout
  1
Layout2
 70
     1
 71
     2
 10
0.0
 20
0.0
 11
0.0
 21
0.0
 12
0.0
 22
0.0
 32
0.0
 14
0.0
 24
0.0
 34
0.0
 15
0.0
 25
0.0
 35
0.0
146
0.0
 13
0.0
 23
0.0
 33
0.0
 16
1.0
 26
0.0
 36
0.0
 17
0.0
 27
1.0
 37
0.0
 76
     0
330
23
  0
LAYOUT
  5
22
102
{ACAD_REACTORS
330
1A
102
}
330
1A
100
AcDbPlotSettings
  1

  2
none_device
  4
Letter_(8.50_x_11.00_Inches)
  6

 40
6.35
 41
6.35
 42
6.35000508
 43
6.35000508
 44
215.9
 45
279.4
 46
0.0
 47
0.0
 48
0.0
 49
0.0
140
0.0
141
0.0
142
1.0
143
1.0
 70
  1712
 72
     1
 73
     0
 74
     0
  7

 75
     0
147
1.0
148
0.0
149
0.0
100
AcDbLayout
  1
Model
 70
     1
 71
     0
 10
0.0
 20
0.0
 11
297.0
 21
210.0
 12
0.0
 22
0.0
 32
0.0
 14
0.0
 24
0.0
 34
0.0
 15
297.0
 25
210.0
 35
0.0
146
0.0
 13
0.0
 23
0.0
 33
0.0
 16
1.0
 26
0.0
 36
0.0
 17
0.0
 27
1.0
 37
0.0
 76
     0
330
1F
331
29
  0
MLINESTYLE
  5
18
102
{ACAD_REACTORS
330
17
102
}
330
17
100
AcDbMlineStyle
  2
Standard
 70
     0
  3

 62
   256
 51
90.0
 52
90.0
 71
     2
 49
0.5
 62
   256
  6
BYLAYER
 49
-0.5
 62
   256
  6
BYLAYER
  0
ACDBPLACEHOLDER
  5
F
102
{ACAD_REACTORS
330
E
102
}
330
E
  0
SCALE
  5
48
102
{ACAD_REACTORS
330
47
102
}
330
47
100
AcDbScale
 70
     0
300
1:1
140
1.0
141
1.0
290
     1
  0
SCALE
  5
49
102
{ACAD_REACTORS
330
47
102
}
330
47
100
AcDbScale
 70
     0
300
1:2
140
1.0
141
2.0
290
     0
  0
SCALE
  5
4A
102
{ACAD_REACTORS
330
47
102
}
330
47
100
AcDbScale
 70
     0
300
1:4
140
1.0
141
4.0
290
     0
  0
SCALE
  5
4B
102
{ACAD_REACTORS
330
47
102
}
330
47
100
AcDbScale
 70
     0
300
1:5
140
1.0
141
5.0
290
     0
  0
SCALE
  5
4C
102
{ACAD_REACTORS
330
47
102
}
330
47
100
AcDbScale
 70
     0
300
1:8
140
1.0
141
8.0
290
     0
  0
SCALE
  5
4D
102
{ACAD_REACTORS
330
47
102
}
330
47
100
AcDbScale
 70
     0
300
1:10
140
1.0
141
10.0
290
     0
  0
SCALE
  5
4E
102
{ACAD_REACTORS
330
47
102
}
330
47
100
AcDbScale
 70
     0
300
1:16
140
1.0
141
16.0
290
     0
  0
SCALE
  5
4F
102
{ACAD_REACTORS
330
47
102
}
330
47
100
AcDbScale
 70
     0
300
1:20
140
1.0
141
20.0
290
     0
  0
SCALE
  5
50
102
{ACAD_REACTORS
330
47
102
}
330
47
100
AcDbScale
 70
     0
300
1:30
140
1.0
141
30.0
290
     0
  0
SCALE
  5
51
102
{ACAD_REACTORS
330
47
102
}
330
47
100
AcDbScale
 70
     0
300
1:40
140
1.0
141
40.0
290
     0
  0
SCALE
  5
52
102
{ACAD_REACTORS
330
47
102
}
330
47
100
AcDbScale
 70
     0
300
1:50
140
1.0
141
50.0
290
     0
  0
SCALE
  5
53
102
{ACAD_REACTORS
330
47
102
}
330
47
100
AcDbScale
 70
     0
300
1:100
140
1.0
141
100.0
290
     0
  0
SCALE
  5
54
102
{ACAD_REACTORS
330
47
102
}
330
47
100
AcDbScale
 70
     0
300
2:1
140
2.0
141
1.0
290
     0
  0
SCALE
  5
55
102
{ACAD_REACTORS
330
47
102
}
330
47
100
AcDbScale
 70
     0
300
4:1
140
4.0
141
1.0
290
     0
  0
SCALE
  5
56
102
{ACAD_REACTORS
330
47
102
}
330
47
100
AcDbScale
 70
     0
300
8:1
140
8.0
141
1.0
290
     0
  0
SCALE
  5
57
102
{ACAD_REACTORS
330
47
102
}
330
47
100
AcDbScale
 70
     0
300
10:1
140
10.0
141
1.0
290
     0
  0
SCALE
  5
58
102
{ACAD_REACTORS
330
47
102
}
330
47
100
AcDbScale
 70
     0
300
100:1
140
100.0
141
1.0
290
     0
  0
SCALE
  5
59
102
{ACAD_REACTORS
330
47
102
}
330
47
100
AcDbScale
 70
     0
300
1/128" = 1'-0"
140
0.0078125
141
12.0
290
     0
  0
SCALE
  5
5A
102
{ACAD_REACTORS
330
47
102
}
330
47
100
AcDbScale
 70
     0
300
1/64" = 1'-0"
140
0.015625
141
12.0
290
     0
  0
SCALE
  5
5B
102
{ACAD_REACTORS
330
47
102
}
330
47
100
AcDbScale
 70
     0
300
1/32" = 1'-0"
140
0.03125
141
12.0
290
     0
  0
SCALE
  5
5C
102
{ACAD_REACTORS
330
47
102
}
330
47
100
AcDbScale
 70
     0
300
1/16" = 1'-0"
140
0.0625
141
12.0
290
     0
  0
SCALE
  5
5D
102
{ACAD_REACTORS
330
47
102
}
330
47
100
AcDbScale
 70
     0
300
3/32" = 1'-0"
140
0.09375
141
12.0
290
     0
  0
SCALE
  5
5E
102
{ACAD_REACTORS
330
47
102
}
330
47
100
AcDbScale
 70
     0
300
1/8" = 1'-0"
140
0.125
141
12.0
290
     0
  0
SCALE
  5
5F
102
{ACAD_REACTORS
330
47
102
}
330
47
100
AcDbScale
 70
     0
300
3/16" = 1'-0"
140
0.1875
141
12.0
290
     0
  0
SCALE
  5
60
102
{ACAD_REACTORS
330
47
102
}
330
47
100
AcDbScale
 70
     0
300
1/4" = 1'-0"
140
0.25
141
12.0
290
     0
  0
SCALE
  5
61
102
{ACAD_REACTORS
330
47
102
}
330
47
100
AcDbScale
 70
     0
300
3/8" = 1'-0"
140
0.375
141
12.0
290
     0
  0
SCALE
  5
62
102
{ACAD_REACTORS
330
47
102
}
330
47
100
AcDbScale
 70
     0
300
1/2" = 1'-0"
140
0.5
141
12.0
290
     0
  0
SCALE
  5
63
102
{ACAD_REACTORS
330
47
102
}
330
47
100
AcDbScale
 70
     0
300
3/4" = 1'-0"
140
0.75
141
12.0
290
     0
  0
SCALE
  5
64
102
{ACAD_REACTORS
330
47
102
}
330
47
100
AcDbScale
 70
     0
300
1" = 1'-0"
140
1.0
141
12.0
290
     0
  0
SCALE
  5
65
102
{ACAD_REACTORS
330
47
102
}
330
47
100
AcDbScale
 70
     0
300
1-1/2" = 1'-0"
140
1.5
141
12.0
290
     0
  0
SCALE
  5
66
102
{ACAD_REACTORS
330
47
102
}
330
47
100
AcDbScale
 70
     0
300
3" = 1'-0"
140
3.0
141
12.0
290
     0
  0
SCALE
  5
67
102
{ACAD_REACTORS
330
47
102
}
330
47
100
AcDbScale
 70
     0
300
6" = 1'-0"
140
6.0
141
12.0
290
     0
  0
SCALE
  5
68
102
{ACAD_REACTORS
330
47
102
}
330
47
100
AcDbScale
 70
     0
300
1'-0" = 1'-0"
140
12.0
141
12.0
290
     0
  0
ENDSEC
  0
EOF
