  0
SECTION
  2
HEADER
  9
$ACADVER
  1
AC1027
  9
$ACADMAINTVER
 70
   125
  9
$DWGCODEPAGE
  3
ANSI_1252
  9
$LASTSAVEDBY
  1
fleminab
  9
$REQUIREDVERSIONS
160
                 0
  9
$INSBASE
 10
0.0
 20
0.0
 30
0.0
  9
$EXTMIN
 10
2.070143967040934
 20
0.3029895285095776
 30
-0.0000000349181948
  9
$EXTMAX
 10
14.62849859140989
 20
12.23065992223891
 30
0.0000000814935746
  9
$LIMMIN
 10
0.0
 20
0.0
  9
$LIMMAX
 10
12.0
 20
9.0
  9
$ORTHOMODE
 70
     0
  9
$REGENMODE
 70
     1
  9
$FILLMODE
 70
     1
  9
$QTEXTMODE
 70
     0
  9
$MIRRTEXT
 70
     0
  9
$LTSCALE
 40
1.0
  9
$ATTMODE
 70
     1
  9
$TEXTSIZE
 40
0.2
  9
$TRACEWID
 40
0.05
  9
$TEXTSTYLE
  7
Standard
  9
$CLAYER
  8
0
  9
$CELTYPE
  6
ByLayer
  9
$CECOLOR
 62
   256
  9
$CELTSCALE
 40
1.0
  9
$DISPSILH
 70
     0
  9
$DIMSCALE
 40
1.0
  9
$DIMASZ
 40
0.18
  9
$DIMEXO
 40
0.0625
  9
$DIMDLI
 40
0.38
  9
$DIMRND
 40
0.0
  9
$DIMDLE
 40
0.0
  9
$DIMEXE
 40
0.18
  9
$DIMTP
 40
0.0
  9
$DIMTM
 40
0.0
  9
$DIMTXT
 40
0.18
  9
$DIMCEN
 40
0.09
  9
$DIMTSZ
 40
0.0
  9
$DIMTOL
 70
     0
  9
$DIMLIM
 70
     0
  9
$DIMTIH
 70
     1
  9
$DIMTOH
 70
     1
  9
$DIMSE1
 70
     0
  9
$DIMSE2
 70
     0
  9
$DIMTAD
 70
     0
  9
$DIMZIN
 70
     0
  9
$DIMBLK
  1

  9
$DIMASO
 70
     1
  9
$DIMSHO
 70
     1
  9
$DIMPOST
  1

  9
$DIMAPOST
  1

  9
$DIMALT
 70
     0
  9
$DIMALTD
 70
     2
  9
$DIMALTF
 40
25.4
  9
$DIMLFAC
 40
1.0
  9
$DIMTOFL
 70
     0
  9
$DIMTVP
 40
0.0
  9
$DIMTIX
 70
     0
  9
$DIMSOXD
 70
     0
  9
$DIMSAH
 70
     0
  9
$DIMBLK1
  1

  9
$DIMBLK2
  1

  9
$DIMSTYLE
  2
Standard
  9
$DIMCLRD
 70
     0
  9
$DIMCLRE
 70
     0
  9
$DIMCLRT
 70
     0
  9
$DIMTFAC
 40
1.0
  9
$DIMGAP
 40
0.09
  9
$DIMJUST
 70
     0
  9
$DIMSD1
 70
     0
  9
$DIMSD2
 70
     0
  9
$DIMTOLJ
 70
     1
  9
$DIMTZIN
 70
     0
  9
$DIMALTZ
 70
     0
  9
$DIMALTTZ
 70
     0
  9
$DIMUPT
 70
     0
  9
$DIMDEC
 70
     4
  9
$DIMTDEC
 70
     4
  9
$DIMALTU
 70
     2
  9
$DIMALTTD
 70
     2
  9
$DIMTXSTY
  7
Standard
  9
$DIMAUNIT
 70
     0
  9
$DIMADEC
 70
     0
  9
$DIMALTRND
 40
0.0
  9
$DIMAZIN
 70
     0
  9
$DIMDSEP
 70
    46
  9
$DIMATFIT
 70
     3
  9
$DIMFRAC
 70
     0
  9
$DIMLDRBLK
  1

  9
$DIMLUNIT
 70
     2
  9
$DIMLWD
 70
    -2
  9
$DIMLWE
 70
    -2
  9
$DIMTMOVE
 70
     0
  9
$DIMFXL
 40
1.0
  9
$DIMFXLON
 70
     0
  9
$DIMJOGANG
 40
0.7853981633974483
  9
$DIMTFILL
 70
     0
  9
$DIMTFILLCLR
 70
     0
  9
$DIMARCSYM
 70
     0
  9
$DIMLTYPE
  6

  9
$DIMLTEX1
  6

  9
$DIMLTEX2
  6

  9
$DIMTXTDIRECTION
 70
     0
  9
$LUNITS
 70
     2
  9
$LUPREC
 70
     4
  9
$SKETCHINC
 40
0.1
  9
$FILLETRAD
 40
0.0
  9
$AUNITS
 70
     0
  9
$AUPREC
 70
     0
  9
$MENU
  1
.
  9
$ELEVATION
 40
0.0
  9
$PELEVATION
 40
0.0
  9
$THICKNESS
 40
0.0
  9
$LIMCHECK
 70
     0
  9
$CHAMFERA
 40
0.0
  9
$CHAMFERB
 40
0.0
  9
$CHAMFERC
 40
0.0
  9
$CHAMFERD
 40
0.0
  9
$SKPOLY
 70
     0
  9
$TDCREATE
 40
2458248.481087963
  9
$TDUCREATE
 40
2458248.064421296
  9
$TDUPDATE
 40
2458248.481493055
  9
$TDUUPDATE
 40
2458248.064826389
  9
$TDINDWG
 40
0.0004050926
  9
$TDUSRTIMER
 40
0.0004050926
  9
$USRTIMER
 70
     1
  9
$ANGBASE
 50
0.0
  9
$ANGDIR
 70
     0
  9
$PDMODE
 70
     0
  9
$PDSIZE
 40
0.0
  9
$PLINEWID
 40
0.0
  9
$SPLFRAME
 70
     0
  9
$SPLINETYPE
 70
     6
  9
$SPLINESEGS
 70
     8
  9
$HANDSEED
  5
333
  9
$SURFTAB1
 70
     6
  9
$SURFTAB2
 70
     6
  9
$SURFTYPE
 70
     6
  9
$SURFU
 70
     6
  9
$SURFV
 70
     6
  9
$UCSBASE
  2

  9
$UCSNAME
  2

  9
$UCSORG
 10
0.0
 20
0.0
 30
0.0
  9
$UCSXDIR
 10
1.0
 20
0.0
 30
0.0
  9
$UCSYDIR
 10
0.0
 20
1.0
 30
0.0
  9
$UCSORTHOREF
  2

  9
$UCSORTHOVIEW
 70
     0
  9
$UCSORGTOP
 10
0.0
 20
0.0
 30
0.0
  9
$UCSORGBOTTOM
 10
0.0
 20
0.0
 30
0.0
  9
$UCSORGLEFT
 10
0.0
 20
0.0
 30
0.0
  9
$UCSORGRIGHT
 10
0.0
 20
0.0
 30
0.0
  9
$UCSORGFRONT
 10
0.0
 20
0.0
 30
0.0
  9
$UCSORGBACK
 10
0.0
 20
0.0
 30
0.0
  9
$PUCSBASE
  2

  9
$PUCSNAME
  2

  9
$PUCSORG
 10
0.0
 20
0.0
 30
0.0
  9
$PUCSXDIR
 10
1.0
 20
0.0
 30
0.0
  9
$PUCSYDIR
 10
0.0
 20
1.0
 30
0.0
  9
$PUCSORTHOREF
  2

  9
$PUCSORTHOVIEW
 70
     0
  9
$PUCSORGTOP
 10
0.0
 20
0.0
 30
0.0
  9
$PUCSORGBOTTOM
 10
0.0
 20
0.0
 30
0.0
  9
$PUCSORGLEFT
 10
0.0
 20
0.0
 30
0.0
  9
$PUCSORGRIGHT
 10
0.0
 20
0.0
 30
0.0
  9
$PUCSORGFRONT
 10
0.0
 20
0.0
 30
0.0
  9
$PUCSORGBACK
 10
0.0
 20
0.0
 30
0.0
  9
$USERI1
 70
     0
  9
$USERI2
 70
     0
  9
$USERI3
 70
     0
  9
$USERI4
 70
     0
  9
$USERI5
 70
     0
  9
$USERR1
 40
0.0
  9
$USERR2
 40
0.0
  9
$USERR3
 40
0.0
  9
$USERR4
 40
0.0
  9
$USERR5
 40
0.0
  9
$WORLDVIEW
 70
     1
  9
$SHADEDGE
 70
     3
  9
$SHADEDIF
 70
    70
  9
$TILEMODE
 70
     1
  9
$MAXACTVP
 70
    64
  9
$PINSBASE
 10
0.0
 20
0.0
 30
0.0
  9
$PLIMCHECK
 70
     0
  9
$PEXTMIN
 10
1.000000000000000E+20
 20
1.000000000000000E+20
 30
1.000000000000000E+20
  9
$PEXTMAX
 10
-1.000000000000000E+20
 20
-1.000000000000000E+20
 30
-1.000000000000000E+20
  9
$PLIMMIN
 10
-0.7524054877282309
 20
-0.5025428238148726
  9
$PLIMMAX
 10
35.24759547345533
 20
23.49745621500156
  9
$UNITMODE
 70
     0
  9
$VISRETAIN
 70
     1
  9
$PLINEGEN
 70
     0
  9
$PSLTSCALE
 70
     1
  9
$TREEDEPTH
 70
  3020
  9
$CMLSTYLE
  2
Standard
  9
$CMLJUST
 70
     0
  9
$CMLSCALE
 40
1.0
  9
$PROXYGRAPHICS
 70
     1
  9
$MEASUREMENT
 70
     0
  9
$CELWEIGHT
370
    -1
  9
$ENDCAPS
280
     0
  9
$JOINSTYLE
280
     0
  9
$LWDISPLAY
290
     0
  9
$INSUNITS
 70
     1
  9
$HYPERLINKBASE
  1

  9
$STYLESHEET
  1

  9
$XEDIT
290
     1
  9
$CEPSNTYPE
380
     0
  9
$PSTYLEMODE
290
     1
  9
$FINGERPRINTGUID
  2
{C9295036-716D-BE42-9DB7-70FB0CA4CCDB}
  9
$VERSIONGUID
  2
{30FEA8E5-D1C8-174C-A647-C4EC57F964B5}
  9
$EXTNAMES
290
     1
  9
$PSVPSCALE
 40
0.0
  9
$OLESTARTUP
290
     0
  9
$SORTENTS
280
   127
  9
$INDEXCTL
280
     0
  9
$HIDETEXT
280
     0
  9
$XCLIPFRAME
280
     0
  9
$HALOGAP
280
     0
  9
$OBSCOLOR
 70
   257
  9
$OBSLTYPE
280
     0
  9
$INTERSECTIONDISPLAY
280
     0
  9
$INTERSECTIONCOLOR
 70
   257
  9
$DIMASSOC
280
     1
  9
$PROJECTNAME
  1

  9
$CAMERADISPLAY
290
     0
  9
$LENSLENGTH
 40
50.0
  9
$CAMERAHEIGHT
 40
0.0
  9
$STEPSPERSEC
 40
2.0
  9
$STEPSIZE
 40
6.0
  9
$3DDWFPREC
 40
2.0
  9
$PSOLWIDTH
 40
0.25
  9
$PSOLHEIGHT
 40
4.0
  9
$LOFTANG1
 40
1.570796326794896
  9
$LOFTANG2
 40
1.570796326794896
  9
$LOFTMAG1
 40
0.0
  9
$LOFTMAG2
 40
0.0
  9
$LOFTPARAM
 70
     7
  9
$LOFTNORMALS
280
     1
  9
$LATITUDE
 40
37.795
  9
$LONGITUDE
 40
-122.394
  9
$NORTHDIRECTION
 40
0.0
  9
$TIMEZONE
 70
 -8000
  9
$LIGHTGLYPHDISPLAY
280
     1
  9
$TILEMODELIGHTSYNCH
280
     1
  9
$CMATERIAL
347
7F
  9
$SOLIDHIST
280
     1
  9
$SHOWHIST
280
     1
  9
$DWFFRAME
280
     2
  9
$DGNFRAME
280
     0
  9
$REALWORLDSCALE
290
     1
  9
$INTERFERECOLOR
 62
     1
  9
$INTERFEREOBJVS
345
8C
  9
$INTERFEREVPVS
346
A5
  9
$CSHADOW
280
     0
  9
$SHADOWPLANELOCATION
 40
0.0
  0
ENDSEC
  0
SECTION
  2
CLASSES
  0
CLASS
  1
ACDBDICTIONARYWDFLT
  2
AcDbDictionaryWithDefault
  3
ObjectDBX Classes
 90
        0
 91
        1
280
     0
281
     0
  0
CLASS
  1
PLOTSETTINGS
  2
AcDbPlotSettings
  3
ObjectDBX Classes
 90
        0
 91
        0
280
     0
281
     0
  0
CLASS
  1
MATERIAL
  2
AcDbMaterial
  3
ObjectDBX Classes
 90
     1153
 91
        3
280
     0
281
     0
  0
CLASS
  1
VISUALSTYLE
  2
AcDbVisualStyle
  3
ObjectDBX Classes
 90
     4095
 91
       26
280
     0
281
     0
  0
CLASS
  1
TABLESTYLE
  2
AcDbTableStyle
  3
ObjectDBX Classes
 90
     4095
 91
        1
280
     0
281
     0
  0
CLASS
  1
DICTIONARYVAR
  2
AcDbDictionaryVar
  3
ObjectDBX Classes
 90
        0
 91
       17
280
     0
281
     0
  0
CLASS
  1
SCALE
  2
AcDbScale
  3
ObjectDBX Classes
 90
     1153
 91
       17
280
     0
281
     0
  0
CLASS
  1
MLEADERSTYLE
  2
AcDbMLeaderStyle
  3
ACDB_MLEADERSTYLE_CLASS
 90
     4095
 91
        1
280
     0
281
     0
  0
CLASS
  1
ACDBSECTIONVIEWSTYLE
  2
AcDbSectionViewStyle
  3
ObjectDBX Classes
 90
     1025
 91
        1
280
     0
281
     0
  0
CLASS
  1
ACDBDETAILVIEWSTYLE
  2
AcDbDetailViewStyle
  3
ObjectDBX Classes
 90
     1025
 91
        1
280
     0
281
     0
  0
CLASS
  1
CELLSTYLEMAP
  2
AcDbCellStyleMap
  3
ObjectDBX Classes
 90
     1152
 91
        1
280
     0
281
     0
  0
ENDSEC
  0
SECTION
  2
TABLES
  0
TABLE
  2
VPORT
  5
19
330
0
100
AcDbSymbolTable
 70
     1
1001
ACAD
1000
DbSaveVer
1071
        5
  0
VPORT
  5
7D
330
19
100
AcDbSymbolTableRecord
100
AcDbViewportTableRecord
  2
*Active
 70
     0
 10
0.0
 20
0.0
 11
1.0
 21
1.0
 12
8.349321279225414
 22
6.266824725374245
 13
0.0
 23
0.0
 14
0.5
 24
0.5
 15
0.5
 25
0.5
 16
0.0
 26
0.0
 36
1.0
 17
0.0
 27
0.0
 37
0.0
 40
12.01307137506869
 41
2.292712066905615
 42
50.0
 43
0.0
 44
0.0
 50
0.0
 51
0.0
 71
     0
 72
  1000
 73
     1
 74
     3
 75
     0
 76
     0
 77
     0
 78
     0
281
     0
 65
     1
110
0.0
120
0.0
130
0.0
111
1.0
121
0.0
131
0.0
112
0.0
122
1.0
132
0.0
 79
     0
146
0.0
348
88
 60
     3
 61
     5
292
     1
282
     1
141
0.0
142
0.0
 63
   250
421
  3355443
1001
ACAD_NAV_VCDISPLAY
1070
     3
  0
ENDTAB
  0
TABLE
  2
LTYPE
  5
14
330
0
100
AcDbSymbolTable
 70
     1
  0
LTYPE
  5
15
330
14
100
AcDbSymbolTableRecord
100
AcDbLinetypeTableRecord
  2
ByBlock
 70
     0
  3

 72
    65
 73
     0
 40
0.0
  0
LTYPE
  5
16
330
14
100
AcDbSymbolTableRecord
100
AcDbLinetypeTableRecord
  2
ByLayer
 70
     0
  3

 72
    65
 73
     0
 40
0.0
  0
LTYPE
  5
8
330
14
100
AcDbSymbolTableRecord
100
AcDbLinetypeTableRecord
  2
Continuous
 70
     0
  3
Solid line
 72
    65
 73
     0
 40
0.0
  0
ENDTAB
  0
TABLE
  2
LAYER
  5
10
330
0
100
AcDbSymbolTable
 70
     4
  0
LAYER
  5
4
102
{ACAD_XDICTIONARY
360
30E
102
}
330
10
100
AcDbSymbolTableRecord
100
AcDbLayerTableRecord
  2
0
 70
     0
 62
     7
  6
Continuous
370
    -3
390
5
347
81
348
0
  0
LAYER
  5
25
102
{ACAD_XDICTIONARY
360
310
102
}
330
10
100
AcDbSymbolTableRecord
100
AcDbLayerTableRecord
  2
Title Block
 70
     0
 62
     7
  6
Continuous
370
    -3
390
5
347
81
348
0
  0
LAYER
  5
CE
102
{ACAD_XDICTIONARY
360
312
102
}
330
10
100
AcDbSymbolTableRecord
100
AcDbLayerTableRecord
  2
PDF_Layer 1
 70
     0
 62
    28
420
  1052429
  6
Continuous
370
    -3
390
5
347
81
348
0
  0
LAYER
  5
E1
102
{ACAD_XDICTIONARY
360
314
102
}
330
10
100
AcDbSymbolTableRecord
100
AcDbLayerTableRecord
  2
PDF_Text
 70
     0
 62
   250
420
  2301728
  6
Continuous
370
    -3
390
5
347
81
348
0
  0
ENDTAB
  0
TABLE
  2
STYLE
  5
11
330
0
100
AcDbSymbolTable
 70
     3
  0
STYLE
  5
12
330
11
100
AcDbSymbolTableRecord
100
AcDbTextStyleTableRecord
  2
Standard
 70
     0
 40
0.0
 41
1.0
 50
0.0
 71
     0
 42
0.2
  3
txt
  4

  0
STYLE
  5
27
330
11
100
AcDbSymbolTableRecord
100
AcDbTextStyleTableRecord
  2
Roman
 70
     0
 40
0.0
 41
1.0
 50
0.0
 71
     0
 42
0.2
  3
ROMANS.SHX
  4

  0
STYLE
  5
E0
330
11
100
AcDbSymbolTableRecord
100
AcDbTextStyleTableRecord
  2
PDF Arial
 70
     0
 40
0.0
 41
1.0
 50
0.0
 71
     0
 42
0.2
  3
arial.ttf
  4

1001
ACAD
1000
Arial
1071
       34
  0
ENDTAB
  0
TABLE
  2
VIEW
  5
17
330
0
100
AcDbSymbolTable
 70
     0
  0
ENDTAB
  0
TABLE
  2
UCS
  5
18
330
0
100
AcDbSymbolTable
 70
     0
  0
ENDTAB
  0
TABLE
  2
APPID
  5
1B
330
0
100
AcDbSymbolTable
 70
     2
  0
APPID
  5
1C
330
1B
100
AcDbSymbolTableRecord
100
AcDbRegAppTableRecord
  2
ACAD
 70
     0
  0
APPID
  5
316
330
1B
100
AcDbSymbolTableRecord
100
AcDbRegAppTableRecord
  2
ACAD_NAV_VCDISPLAY
 70
     0
  0
ENDTAB
  0
TABLE
  2
DIMSTYLE
  5
1D
330
0
100
AcDbSymbolTable
 70
     1
100
AcDbDimStyleTable
 71
     0
  0
DIMSTYLE
105
23
330
1D
100
AcDbSymbolTableRecord
100
AcDbDimStyleTableRecord
  2
Standard
 70
     0
340
12
  0
ENDTAB
  0
TABLE
  2
BLOCK_RECORD
  5
1
330
0
100
AcDbSymbolTable
 70
     0
  0
BLOCK_RECORD
  5
2
330
1
100
AcDbSymbolTableRecord
100
AcDbBlockTableRecord
  2
*Model_Space
340
A
 70
     0
280
     1
281
     0
  0
BLOCK_RECORD
  5
C
330
1
100
AcDbSymbolTableRecord
100
AcDbBlockTableRecord
  2
*Paper_Space
340
F
 70
     0
280
     1
281
     0
  0
ENDTAB
  0
ENDSEC
  0
SECTION
  2
BLOCKS
  0
BLOCK
  5
3
330
2
100
AcDbEntity
  8
0
100
AcDbBlockBegin
  2
*Model_Space
 70
     2
 10
0.0
 20
0.0
 30
0.0
  3
*Model_Space
  1

  0
ENDBLK
  5
9
330
2
100
AcDbEntity
  8
0
100
AcDbBlockEnd
  0
BLOCK
  5
D
330
C
100
AcDbEntity
 67
     1
  8
0
100
AcDbBlockBegin
  2
*Paper_Space
 70
     0
 10
0.0
 20
0.0
 30
0.0
  3
*Paper_Space
  1

  0
ENDBLK
  5
E
330
C
100
AcDbEntity
 67
     1
  8
0
100
AcDbBlockEnd
  0
ENDSEC
  0
SECTION
  2
ENTITIES
  0
SOLID
  5
CF
330
2
100
AcDbEntity
  8
PDF_Layer 1
 62
     7
420
 16777215
440
 33554559
370
    25
100
AcDbTrace
 10
14.11539722222222
 20
1.008056944444444
 30
0.0
 11
14.07685555555555
 21
1.024515277777777
 31
0.0
 12
14.07696666666666
 22
1.099570833333333
 32
0.0
 13
14.03824444444444
 23
1.008181944444444
 33
0.0
  0
SOLID
  5
D0
330
2
100
AcDbEntity
  8
PDF_Layer 1
 62
     7
420
 16777215
440
 33554559
370
    25
100
AcDbTrace
 10
14.49248611111111
 20
11.15215416666666
 30
0.0
 11
14.53105555555555
 21
11.16854305555555
 31
0.0
 12
14.53105555555555
 22
11.24359861111111
 32
0.0
 13
14.56963888888889
 23
11.15215416666666
 33
0.0
  0
SOLID
  5
D1
330
2
100
AcDbEntity
  8
PDF_Layer 1
 62
     7
420
 16777215
440
 33554559
370
    25
100
AcDbTrace
 10
14.49248611111111
 20
8.667805555555554
 30
0.0
 11
14.53105555555555
 21
8.651416666666666
 31
0.0
 12
14.53105555555555
 22
8.576374999999998
 32
0.0
 13
14.56963888888889
 23
8.667805555555554
 33
0.0
  0
SOLID
  5
D2
330
2
100
AcDbEntity
  8
PDF_Layer 1
 62
     7
420
 16777215
440
 33554559
370
    25
100
AcDbTrace
 10
3.214727777777778
 20
0.321275
 30
0.0
 11
3.198338888888889
 21
0.3598444444444445
 31
0.0
 12
3.123283333333333
 22
0.3598444444444445
 32
0.0
 13
3.214727777777778
 23
0.3984277777777778
 33
0.0
  0
SOLID
  5
D3
330
2
100
AcDbEntity
  8
PDF_Layer 1
 62
     7
420
 16777215
440
 33554559
370
    25
100
AcDbTrace
 10
11.69685833333333
 20
0.321275
 30
0.0
 11
11.71324722222222
 21
0.3598444444444445
 31
0.0
 12
11.78830277777778
 22
0.3598444444444445
 32
0.0
 13
11.69685833333333
 23
0.3984277777777778
 33
0.0
  0
SOLID
  5
D4
330
2
100
AcDbEntity
  8
PDF_Layer 1
 62
     7
420
 16777215
440
 33554559
370
    25
100
AcDbTrace
 10
13.29866527777778
 20
1.008124999999999
 30
0.0
 11
13.33723472222222
 21
1.024513888888888
 31
0.0
 12
13.33723472222222
 22
1.099569444444444
 32
0.0
 13
13.37581805555555
 23
1.008124999999999
 33
0.0
  0
SOLID
  5
D5
330
2
100
AcDbEntity
  8
PDF_Layer 1
 62
     7
420
 16777215
440
 33554559
370
    25
100
AcDbTrace
 10
7.240213888888889
 20
11.73010277777777
 30
0.0
 11
7.256602777777778
 21
11.69153333333333
 31
0.0
 12
7.331658333333333
 22
11.69153333333333
 32
0.0
 13
7.240213888888889
 23
11.65294999999999
 33
0.0
  0
SOLID
  5
D6
330
2
100
AcDbEntity
  8
PDF_Layer 1
 62
     7
420
 16777215
440
 33554559
370
    25
100
AcDbTrace
 10
4.47081111111111
 20
6.366583333333332
 30
0.0
 11
4.454699999999999
 21
6.405277777777777
 31
0.0
 12
4.379658333333333
 22
6.405805555555555
 32
0.0
 13
4.471366666666666
 23
6.44373611111111
 33
0.0
  0
SOLID
  5
D7
330
2
100
AcDbEntity
  8
PDF_Layer 1
 62
     7
420
 16777215
440
 33554559
370
    25
100
AcDbTrace
 10
12.16459166666666
 20
6.312283333333333
 30
0.0
 11
12.18124444444444
 21
6.350741666666666
 31
0.0
 12
12.25631388888889
 22
6.3502
 32
0.0
 13
12.16513333333333
 23
6.389422222222222
 33
0.0
  0
SOLID
  5
D8
330
2
100
AcDbEntity
  8
PDF_Layer 1
 62
     7
420
 16777215
440
 33554559
370
    25
100
AcDbTrace
 10
5.554654166666665
 20
11.67036944444444
 30
0.0
 11
5.538265277777776
 21
11.70893888888889
 31
0.0
 12
5.46320972222222
 22
11.70893888888889
 32
0.0
 13
5.554654166666665
 23
11.74752222222222
 33
0.0
  0
SOLID
  5
D9
330
2
100
AcDbEntity
  8
PDF_Layer 1
 62
     7
420
 16777215
440
 33554559
370
    25
100
AcDbTrace
 10
3.204644444444443
 20
11.74751805555555
 30
0.0
 11
3.221033333333332
 21
11.70894861111111
 31
0.0
 12
3.296088888888888
 22
11.70894861111111
 32
0.0
 13
3.204644444444443
 23
11.67036527777777
 33
0.0
  0
SOLID
  5
DA
330
2
100
AcDbEntity
  8
PDF_Layer 1
 62
     7
420
 16777215
440
 33554559
370
    25
100
AcDbTrace
 10
9.395738888888887
 20
11.65295416666666
 30
0.0
 11
9.379336111111109
 21
11.69152361111111
 31
0.0
 12
9.304294444444442
 22
11.69152361111111
 32
0.0
 13
9.395738888888887
 23
11.73010694444444
 33
0.0
  0
SOLID
  5
DB
330
2
100
AcDbEntity
  8
PDF_Layer 1
 62
     7
420
 16777215
440
 33554559
370
    25
100
AcDbTrace
 10
8.321919444444445
 20
2.789740277777778
 30
0.0
 11
8.360502777777778
 21
2.806143055555556
 31
0.0
 12
8.360502777777778
 22
2.881184722222222
 32
0.0
 13
8.399072222222223
 23
2.789740277777778
 33
0.0
  0
SOLID
  5
DC
330
2
100
AcDbEntity
  8
PDF_Layer 1
 62
     7
420
 16777215
440
 33554559
370
    25
100
AcDbTrace
 10
8.399074999999999
 20
3.757513888888888
 30
0.0
 11
8.360505555555555
 21
3.741124999999999
 31
0.0
 12
8.360505555555555
 22
3.666069444444444
 32
0.0
 13
8.321922222222221
 23
3.757513888888888
 33
0.0
  0
SOLID
  5
DD
330
2
100
AcDbEntity
  8
PDF_Layer 1
 62
     7
420
 16777215
440
 33554559
370
    25
100
AcDbTrace
 10
13.37581388888889
 20
3.365072222222222
 30
0.0
 11
13.33724444444444
 21
3.348683333333333
 31
0.0
 12
13.33724444444444
 22
3.273627777777777
 32
0.0
 13
13.29866111111111
 23
3.365072222222222
 33
0.0
  0
SOLID
  5
DE
330
2
100
AcDbEntity
  8
PDF_Layer 1
 62
     7
420
 16777215
440
 33554559
370
    25
100
AcDbTrace
 10
13.94251805555555
 20
1.980116666666667
 30
0.0
 11
13.91201805555555
 21
1.951366666666666
 31
0.0
 12
13.93805972222222
 22
1.880977777777778
 32
0.0
 13
13.87015694444444
 23
1.953352777777778
 33
0.0
  0
LWPOLYLINE
  5
E3
330
2
100
AcDbEntity
  8
PDF_Layer 1
 62
     7
420
 16777215
370
    25
100
AcDbPolyline
 90
       10
 70
     0
 43
0.0
 10
13.993625
 20
0.48485
 10
14.01098611111111
 20
0.5508361111111111
 10
14.024875
 20
0.6202944444444444
 10
14.03876388888888
 20
0.6862805555555556
 10
14.04918055555555
 20
0.7557388888888889
 10
14.05961111111111
 20
0.8217249999999999
 10
14.06655555555555
 20
0.8911833333333332
 10
14.0735
 20
0.9606416666666666
 10
14.07697222222222
 20
1.030113888888888
 10
14.07697222222222
 20
1.037377777777777
  0
LWPOLYLINE
  5
E4
330
2
100
AcDbEntity
  8
PDF_Layer 1
 62
     7
420
 16777215
370
    25
100
AcDbPolyline
 90
        4
 70
     0
 43
0.0
 10
4.424676388888888
 20
3.275404166666666
 10
10.02995416666666
 20
3.275404166666666
 42
-0.3153104887594103
 10
11.32508611111111
 20
2.368556944444444
 10
11.46365555555555
 20
1.987806944444444
  0
LWPOLYLINE
  5
E6
330
2
100
AcDbEntity
  8
PDF_Layer 1
 62
     7
420
 16777215
370
    25
100
AcDbPolyline
 90
        2
 70
     0
 43
0.0
 10
14.53105972222222
 20
11.18140972222222
 10
14.53105972222222
 20
8.638562499999999
  0
LWPOLYLINE
  5
E7
330
2
100
AcDbEntity
  8
PDF_Layer 1
 62
     7
420
 16777215
370
    25
100
AcDbPolyline
 90
        3
 70
     0
 43
0.0
 10
11.78830277777777
 20
0.3042486111111109
 10
11.78830277777777
 20
1.099568055555555
 10
14.27492777777777
 20
1.099568055555555
  0
LWPOLYLINE
  5
E8
330
2
100
AcDbEntity
  8
PDF_Layer 1
 62
     7
420
 16777215
370
    25
100
AcDbPolyline
 90
        2
 70
     0
 43
0.0
 10
3.185472222222222
 20
0.35985
 10
11.72611111111111
 20
0.35985
  0
LWPOLYLINE
  5
E9
330
2
100
AcDbEntity
  8
PDF_Layer 1
 62
     7
420
 16777215
370
    25
100
AcDbPolyline
 90
        2
 70
     0
 43
0.0
 10
13.33723888888889
 20
1.037380555555555
 10
13.33723888888889
 20
0.4744361111111111
  0
LWPOLYLINE
  5
EA
330
2
100
AcDbEntity
  8
PDF_Layer 1
 62
     7
420
 16777215
370
    25
100
AcDbPolyline
 90
        2
 70
     0
 43
0.0
 10
7.269470833333332
 20
11.69152777777778
 10
6.706526388888887
 20
11.69152777777778
  0
LWPOLYLINE
  5
EB
330
2
100
AcDbEntity
  8
PDF_Layer 1
 62
     7
420
 16777215
370
    25
100
AcDbPolyline
 90
        2
 70
     0
 43
0.0
 10
4.441833333333333
 20
6.40536111111111
 10
12.194125
 20
6.350652777777777
  0
LWPOLYLINE
  5
EC
330
2
100
AcDbEntity
  8
PDF_Layer 1
 62
     7
420
 16777215
370
    25
100
AcDbPolyline
 90
        2
 70
     0
 43
0.0
 10
8.360501388888886
 20
3.666069444444444
 10
8.360501388888886
 20
2.881180555555555
  0
LWPOLYLINE
  5
ED
330
2
100
AcDbEntity
  8
PDF_Layer 1
 62
     7
420
 16777215
370
    70
100
AcDbPolyline
 90
       42
 70
     0
 43
0.0
 10
7.863016666666664
 20
7.958184722222222
 10
7.859544444444442
 20
7.9547125
 10
7.817877777777775
 20
7.933879166666667
 10
7.779669444444443
 20
7.9060875
 10
7.751891666666664
 20
7.881781944444444
 10
7.734516666666665
 20
7.854004166666666
 10
7.720627777777775
 20
7.8262125
 10
7.717155555555553
 20
7.7949625
 10
7.720627777777775
 20
7.763698611111111
 10
7.731044444444442
 20
7.735920833333334
 10
7.748419444444443
 20
7.708129166666666
 10
7.769252777777776
 20
7.680351388888889
 10
7.803974999999998
 20
7.656045833333333
 10
7.842183333333331
 20
7.635198611111111
 10
7.890794444444442
 20
7.614365277777777
 10
7.942891666666665
 20
7.593531944444444
 10
8.001933333333331
 20
7.579629166666666
 10
8.060974999999999
 20
7.5692125
 10
8.126961111111109
 20
7.558795833333333
 10
8.192947222222221
 20
7.551851388888889
 10
8.258933333333331
 20
7.548379166666666
 10
8.328391666666664
 20
7.548379166666666
 10
8.397849999999998
 20
7.548379166666666
 10
8.46383611111111
 20
7.551851388888889
 10
8.52982222222222
 20
7.562268055555556
 10
8.592336111111109
 20
7.572684722222222
 10
8.651377777777776
 20
7.583101388888889
 10
8.70694722222222
 20
7.600476388888889
 10
8.759030555555554
 20
7.6178375
 10
8.80418333333333
 20
7.638670833333334
 10
8.842391666666664
 20
7.662990277777778
 10
8.877113888888887
 20
7.694240277777778
 10
8.89796111111111
 20
7.722031944444444
 10
8.911849999999997
 20
7.749809722222222
 10
8.918794444444442
 20
7.7775875
 10
8.91532222222222
 20
7.812323611111111
 10
8.908377777777776
 20
7.840101388888888
 10
8.891016666666665
 20
7.867893055555556
 10
8.870169444444442
 20
7.895670833333333
 10
8.838919444444442
 20
7.919990277777777
 10
8.800711111111109
 20
7.944295833333333
 10
8.762516666666664
 20
7.961656944444444
  0
LWPOLYLINE
  5
EE
330
2
100
AcDbEntity
  8
PDF_Layer 1
 62
     7
420
 16777215
370
    70
100
AcDbPolyline
 90
       45
 70
     0
 43
0.0
 10
8.831974999999998
 20
7.9234625
 10
8.80418333333333
 20
8.045004166666666
 10
8.765988888888887
 20
8.239490277777777
 10
8.741669444444442
 20
8.433976388888888
 10
8.720836111111109
 20
8.628462500000001
 10
8.710419444444442
 20
8.809059722222222
 10
8.710419444444442
 20
9.003545833333333
 10
8.710419444444442
 20
9.107726388888888
 10
8.710419444444442
 20
9.20844861111111
 10
8.710419444444442
 20
9.302212499999999
 10
8.710419444444442
 20
9.392504166666666
 10
8.710419444444442
 20
9.475865277777778
 10
8.710419444444442
 20
9.555740277777777
 10
8.710419444444442
 20
9.628670833333334
 10
8.710419444444442
 20
9.691184722222223
 10
8.710419444444442
 20
9.750226388888888
 10
8.710419444444442
 20
9.798851388888889
 10
8.710419444444442
 20
9.837045833333332
 10
8.710419444444442
 20
9.868309722222221
 10
8.710419444444442
 20
9.892615277777776
 10
8.710419444444442
 20
9.906504166666666
 10
8.710419444444442
 20
9.909976388888889
 42
0.9964168164981563
 10
7.922058333333331
 20
9.909976388888889
 10
7.922058333333331
 20
9.906504166666666
 10
7.922058333333331
 20
9.892615277777776
 10
7.922058333333331
 20
9.868309722222221
 10
7.922058333333331
 20
9.837045833333332
 10
7.922058333333331
 20
9.798851388888889
 10
7.922058333333331
 20
9.750226388888888
 10
7.922058333333331
 20
9.691184722222223
 10
7.922058333333331
 20
9.628670833333334
 10
7.922058333333331
 20
9.555740277777777
 10
7.922058333333331
 20
9.475865277777778
 10
7.922058333333331
 20
9.392504166666666
 10
7.922058333333331
 20
9.302212499999999
 10
7.922058333333331
 20
9.20844861111111
 10
7.922058333333331
 20
9.107726388888888
 10
7.922058333333331
 20
9.003545833333333
 10
7.922058333333331
 20
8.809059722222222
 10
7.918586111111109
 20
8.687504166666666
 10
7.901224999999998
 20
8.493018055555555
 10
7.876905555555554
 20
8.302004166666666
 10
7.845655555555554
 20
8.110990277777778
 10
7.803974999999998
 20
7.926934722222222
 10
7.803974999999998
 20
7.9234625
  0
ARC
  5
F4
330
2
100
AcDbEntity
  8
PDF_Layer 1
 62
     7
420
 16777215
370
    70
100
AcDbCircle
 10
8.316238888888898
 20
9.910823753999128
 30
0.0
 40
0.5305304755275757
100
AcDbArc
 50
317.987021570578
 51
222.0129784294203
  0
LWPOLYLINE
  5
F6
330
2
100
AcDbEntity
  8
PDF_Layer 1
 62
     7
420
 16777215
370
    70
100
AcDbPolyline
 90
       80
 70
     1
 43
0.0
 10
3.278724999999998
 20
10.16003194444444
 10
3.278724999999998
 20
10.15655972222222
 10
3.275252777777776
 20
10.1530875
 10
3.275252777777776
 20
10.14961527777778
 10
3.271780555555554
 20
10.14961527777778
 10
3.268308333333331
 20
10.14614305555555
 10
3.264836111111109
 20
10.14614305555555
 10
3.261363888888887
 20
10.14614305555555
 10
3.261363888888887
 20
10.14267083333333
 10
3.261363888888887
 20
10.12878194444444
 10
3.261363888888887
 20
10.1044625
 10
3.261363888888887
 20
10.07668472222222
 10
3.261363888888887
 20
10.04194861111111
 10
3.261363888888887
 20
10.00028194444444
 10
3.261363888888887
 20
9.955129166666667
 10
3.261363888888887
 20
9.909976388888889
 10
3.261363888888887
 20
9.8648375
 10
3.261363888888887
 20
9.819684722222222
 10
3.261363888888887
 20
9.778004166666667
 10
3.261363888888887
 20
9.743281944444444
 10
3.261363888888887
 20
9.715490277777778
 10
3.261363888888887
 20
9.691184722222223
 10
3.261363888888887
 20
9.677295833333333
 10
3.261363888888887
 20
9.67382361111111
 10
3.264836111111109
 20
9.67382361111111
 10
3.268308333333331
 20
9.67382361111111
 10
3.271780555555554
 20
9.670351388888889
 10
3.275252777777776
 20
9.670351388888889
 10
3.275252777777776
 20
9.666879166666667
 10
3.278724999999998
 20
9.663406944444444
 10
3.278724999999998
 20
9.659934722222223
 10
3.28219722222222
 20
9.656462499999999
 10
3.28219722222222
 20
9.652976388888889
 10
3.285669444444442
 20
9.649504166666666
 10
3.285669444444442
 20
9.646031944444445
 10
3.289141666666664
 20
9.646031944444445
 10
3.292613888888887
 20
9.642559722222221
 10
3.296086111111109
 20
9.642559722222221
 10
3.299558333333331
 20
9.642559722222221
 10
3.323877777777776
 20
9.642559722222221
 10
3.327349999999999
 20
9.642559722222221
 10
3.330822222222221
 20
9.642559722222221
 10
3.334294444444442
 20
9.646031944444445
 10
3.337766666666665
 20
9.649504166666666
 10
3.341238888888887
 20
9.649504166666666
 10
3.341238888888887
 20
9.652976388888889
 10
3.344711111111109
 20
9.656462499999999
 10
3.344711111111109
 20
9.663406944444444
 10
3.344711111111109
 20
9.666879166666667
 10
3.344711111111109
 20
9.680768055555555
 10
3.344711111111109
 20
9.70507361111111
 10
3.344711111111109
 20
9.736337500000001
 10
3.344711111111109
 20
9.771059722222222
 10
3.344711111111109
 20
9.8162125
 10
3.344711111111109
 20
9.861365277777778
 10
3.344711111111109
 20
9.909976388888889
 10
3.344711111111109
 20
9.958601388888888
 10
3.344711111111109
 20
10.00375416666666
 10
3.344711111111109
 20
10.04890694444444
 10
3.344711111111109
 20
10.08710138888889
 10
3.344711111111109
 20
10.11489305555555
 10
3.344711111111109
 20
10.13919861111111
 10
3.344711111111109
 20
10.1530875
 10
3.344711111111109
 20
10.15655972222222
 10
3.344711111111109
 20
10.16350416666666
 10
3.341238888888887
 20
10.16697638888889
 10
3.341238888888887
 20
10.17044861111111
 10
3.337766666666665
 20
10.17044861111111
 10
3.334294444444442
 20
10.17392083333333
 10
3.330822222222221
 20
10.17740694444444
 10
3.327349999999999
 20
10.17740694444444
 10
3.323877777777776
 20
10.17740694444444
 10
3.299558333333331
 20
10.17740694444444
 10
3.296086111111109
 20
10.17740694444444
 10
3.292613888888887
 20
10.17740694444444
 10
3.289141666666664
 20
10.17392083333333
 10
3.285669444444442
 20
10.17392083333333
 10
3.285669444444442
 20
10.17044861111111
 10
3.28219722222222
 20
10.16697638888889
 10
3.28219722222222
 20
10.16350416666666
  0
LWPOLYLINE
  5
FE
330
2
100
AcDbEntity
  8
PDF_Layer 1
 62
     7
420
 16777215
370
    70
100
AcDbPolyline
 90
       15
 70
     0
 43
0.0
 10
4.00457222222222
 20
10.05932361111111
 10
3.959419444444442
 20
10.06279583333333
 10
3.872599999999998
 20
10.06626805555555
 10
3.785766666666664
 20
10.0732125
 10
3.69894722222222
 20
10.08362916666666
 10
3.615599999999997
 20
10.09404583333333
 10
3.528780555555553
 20
10.1044625
 10
3.445433333333332
 20
10.11836527777778
 10
3.358599999999999
 20
10.13572638888889
 10
3.355127777777776
 20
10.13572638888889
 10
3.351655555555554
 20
10.13919861111111
 10
3.348183333333332
 20
10.14267083333333
 10
3.344711111111109
 20
10.14614305555555
 10
3.344711111111109
 20
10.14961527777778
 10
3.344711111111109
 20
10.1530875
  0
LWPOLYLINE
  5
FF
330
2
100
AcDbEntity
  8
PDF_Layer 1
 62
     7
420
 16777215
370
    70
100
AcDbPolyline
 90
       15
 70
     0
 43
0.0
 10
3.344711111111109
 20
9.666879166666667
 10
3.344711111111109
 20
9.670351388888889
 10
3.344711111111109
 20
9.67382361111111
 10
3.348183333333332
 20
9.677295833333333
 10
3.351655555555554
 20
9.680768055555555
 10
3.355127777777776
 20
9.684240277777778
 10
3.358599999999999
 20
9.684240277777778
 10
3.445433333333332
 20
9.701601388888889
 10
3.528780555555553
 20
9.715490277777778
 10
3.615599999999997
 20
9.725920833333333
 10
3.69894722222222
 20
9.736337500000001
 10
3.785766666666664
 20
9.746754166666667
 10
3.872599999999998
 20
9.753698611111111
 10
3.959419444444442
 20
9.760643055555554
 10
4.00457222222222
 20
9.760643055555554
  0
ARC
  5
100
330
2
100
AcDbEntity
  8
PDF_Layer 1
 62
     7
420
 16777215
370
    70
100
AcDbCircle
 10
3.281824892680014
 20
9.909983333333345
 30
0.0
 40
0.2370444411417653
100
AcDbArc
 50
94.95177118858952
 51
265.048228811411
  0
LWPOLYLINE
  5
103
330
2
100
AcDbEntity
  8
PDF_Layer 1
 62
     7
420
 16777215
370
    70
100
AcDbPolyline
 90
       81
 70
     1
 43
0.0
 10
12.02014166666666
 20
8.791698611111112
 10
12.02708611111111
 20
8.750018055555555
 10
12.040975
 20
8.7083375
 10
12.06529444444444
 20
8.670143055555556
 10
12.09307222222222
 20
8.638879166666667
 10
12.12780833333333
 20
8.611101388888888
 10
12.169475
 20
8.590254166666667
 10
12.21115555555555
 20
8.5798375
 10
12.25630833333333
 20
8.576365277777778
 10
12.297975
 20
8.5798375
 10
12.33965555555555
 20
8.590254166666667
 10
12.38133611111111
 20
8.611101388888888
 10
12.41605833333333
 20
8.638879166666667
 10
12.44385
 20
8.670143055555556
 10
12.46815555555555
 20
8.7083375
 10
12.48204444444444
 20
8.750018055555555
 10
12.48898888888889
 20
8.791698611111112
 10
12.49246111111111
 20
8.795170833333333
 10
12.49246111111111
 20
8.798643055555555
 10
12.49246111111111
 20
8.802115277777778
 10
12.49593333333333
 20
8.805587499999999
 10
12.49940555555555
 20
8.805587499999999
 10
12.49940555555555
 20
8.809059722222222
 10
12.50289166666666
 20
8.809059722222222
 10
12.50636388888888
 20
8.812531944444444
 10
12.50983611111111
 20
8.812531944444444
 10
12.51330833333333
 20
8.812531944444444
 10
12.51678055555555
 20
8.816004166666667
 10
12.51678055555555
 20
8.819476388888888
 10
12.52025277777777
 20
8.819476388888888
 10
12.52025277777777
 20
8.822948611111112
 10
12.523725
 20
8.826420833333333
 10
12.523725
 20
8.829893055555555
 10
12.523725
 20
8.8542125
 10
12.523725
 20
8.857684722222222
 10
12.52025277777777
 20
8.861156944444445
 10
12.52025277777777
 20
8.864629166666667
 10
12.51678055555555
 20
8.868101388888888
 10
12.51330833333333
 20
8.871573611111111
 10
12.50983611111111
 20
8.871573611111111
 10
12.50636388888888
 20
8.875045833333333
 10
12.50289166666666
 20
8.875045833333333
 10
12.49940555555555
 20
8.875045833333333
 10
12.48551666666666
 20
8.875045833333333
 10
12.46121111111111
 20
8.875045833333333
 10
12.42994722222222
 20
8.875045833333333
 10
12.39175277777777
 20
8.875045833333333
 10
12.35007222222222
 20
8.875045833333333
 10
12.30491944444444
 20
8.875045833333333
 10
12.25630833333333
 20
8.875045833333333
 10
12.20768333333333
 20
8.875045833333333
 10
12.15905833333333
 20
8.875045833333333
 10
12.11739166666666
 20
8.875045833333333
 10
12.07918333333333
 20
8.875045833333333
 10
12.04791944444444
 20
8.875045833333333
 10
12.02708611111111
 20
8.875045833333333
 10
12.01319722222222
 20
8.875045833333333
 10
12.00625277777777
 20
8.875045833333333
 10
12.00278055555555
 20
8.875045833333333
 10
11.99930833333333
 20
8.871573611111111
 10
11.99583611111111
 20
8.871573611111111
 10
11.99236388888889
 20
8.868101388888888
 10
11.98889166666666
 20
8.864629166666667
 10
11.98889166666666
 20
8.861156944444445
 10
11.98889166666666
 20
8.857684722222222
 10
11.98889166666666
 20
8.8542125
 10
11.98889166666666
 20
8.829893055555555
 10
11.98889166666666
 20
8.826420833333333
 10
11.98889166666666
 20
8.822948611111112
 10
11.98889166666666
 20
8.819476388888888
 10
11.99236388888889
 20
8.819476388888888
 10
11.99583611111111
 20
8.816004166666667
 10
11.99583611111111
 20
8.812531944444444
 10
11.99930833333333
 20
8.812531944444444
 10
12.00278055555555
 20
8.812531944444444
 10
12.00625277777777
 20
8.809059722222222
 10
12.00972499999999
 20
8.809059722222222
 10
12.01319722222222
 20
8.805587499999999
 10
12.01666944444444
 20
8.802115277777778
 10
12.01666944444444
 20
8.798643055555555
 10
12.02014166666666
 20
8.795170833333333
  0
LWPOLYLINE
  5
10B
330
2
100
AcDbEntity
  8
PDF_Layer 1
 62
     7
420
 16777215
370
    70
100
AcDbPolyline
 90
       17
 70
     0
 43
0.0
 10
12.10696111111111
 20
9.534906944444443
 10
12.10348888888888
 20
9.489754166666667
 10
12.10001666666666
 20
9.402934722222221
 10
12.09307222222222
 20
9.316115277777777
 10
12.08265555555555
 20
9.232754166666666
 10
12.07223888888888
 20
9.145934722222222
 10
12.05834999999999
 20
9.059115277777777
 10
12.04444722222222
 20
8.975754166666666
 10
12.03055833333333
 20
8.888934722222222
 10
12.03055833333333
 20
8.8854625
 10
12.02708611111111
 20
8.8854625
 10
12.02708611111111
 20
8.881990277777777
 10
12.02361388888889
 20
8.878518055555556
 10
12.02014166666666
 20
8.878518055555556
 10
12.01666944444444
 20
8.875045833333333
 10
12.01319722222222
 20
8.875045833333333
 10
12.00972499999999
 20
8.875045833333333
  0
LWPOLYLINE
  5
10C
330
2
100
AcDbEntity
  8
PDF_Layer 1
 62
     7
420
 16777215
370
    70
100
AcDbPolyline
 90
       16
 70
     0
 43
0.0
 10
12.49940555555555
 20
8.875045833333333
 10
12.49593333333333
 20
8.875045833333333
 10
12.49246111111111
 20
8.875045833333333
 10
12.48898888888889
 20
8.878518055555556
 10
12.48551666666666
 20
8.878518055555556
 10
12.48551666666666
 20
8.881990277777777
 10
12.48204444444444
 20
8.8854625
 10
12.47857222222222
 20
8.888934722222222
 10
12.46468333333333
 20
8.975754166666666
 10
12.45079444444444
 20
9.059115277777777
 10
12.43690555555555
 20
9.145934722222222
 10
12.426475
 20
9.232754166666666
 10
12.41953055555555
 20
9.316115277777777
 10
12.41258611111111
 20
9.402934722222221
 10
12.40564166666666
 20
9.489754166666667
 10
12.40564166666666
 20
9.534906944444443
  0
LWPOLYLINE
  5
111
330
2
100
AcDbEntity
  8
PDF_Layer 1
 62
     7
420
 16777215
370
    70
100
AcDbPolyline
 90
       76
 70
     1
 43
0.0
 10
11.20051666666666
 20
9.642559722222221
 10
11.20398888888888
 20
9.642559722222221
 10
11.20746111111111
 20
9.642559722222221
 10
11.21093333333333
 20
9.646031944444445
 10
11.21441944444444
 20
9.649504166666666
 10
11.21789166666666
 20
9.652976388888889
 10
11.21789166666666
 20
9.656462499999999
 10
11.21789166666666
 20
9.663406944444444
 10
11.21789166666666
 20
9.666879166666667
 10
11.21789166666666
 20
9.680768055555555
 10
11.21789166666666
 20
9.70507361111111
 10
11.21789166666666
 20
9.736337500000001
 10
11.21789166666666
 20
9.771059722222222
 10
11.21789166666666
 20
9.8162125
 10
11.21789166666666
 20
9.861365277777778
 10
11.21789166666666
 20
9.909976388888889
 10
11.21789166666666
 20
9.958601388888888
 10
11.21789166666666
 20
10.00375416666666
 10
11.21789166666666
 20
10.04890694444444
 10
11.21789166666666
 20
10.08710138888889
 10
11.21789166666666
 20
10.11489305555555
 10
11.21789166666666
 20
10.13919861111111
 10
11.21789166666666
 20
10.1530875
 10
11.21789166666666
 20
10.15655972222222
 10
11.21789166666666
 20
10.16350416666666
 10
11.21789166666666
 20
10.16697638888889
 10
11.21441944444444
 20
10.17044861111111
 10
11.21093333333333
 20
10.17392083333333
 10
11.20746111111111
 20
10.17740694444444
 10
11.20398888888888
 20
10.17740694444444
 10
11.20051666666666
 20
10.17740694444444
 10
11.17621111111111
 20
10.17740694444444
 10
11.17273888888888
 20
10.17740694444444
 10
11.16926666666666
 20
10.17740694444444
 10
11.16579444444444
 20
10.17392083333333
 10
11.16232222222222
 20
10.17392083333333
 10
11.15885
 20
10.17044861111111
 10
11.15885
 20
10.16697638888889
 10
11.15537777777777
 20
10.16350416666666
 10
11.15537777777777
 20
10.16003194444444
 10
11.15537777777777
 20
10.15655972222222
 10
11.15190555555555
 20
10.1530875
 10
11.14843333333333
 20
10.14961527777778
 10
11.14494722222222
 20
10.14614305555555
 10
11.141475
 20
10.14614305555555
 10
11.13800277777777
 20
10.14614305555555
 10
11.13800277777777
 20
10.14267083333333
 10
11.13800277777777
 20
10.12878194444444
 10
11.13800277777777
 20
10.1044625
 10
11.13800277777777
 20
10.07668472222222
 10
11.13800277777777
 20
10.04194861111111
 10
11.13800277777777
 20
10.00028194444444
 10
11.13800277777777
 20
9.955129166666667
 10
11.13800277777777
 20
9.909976388888889
 10
11.13800277777777
 20
9.8648375
 10
11.13800277777777
 20
9.819684722222222
 10
11.13800277777777
 20
9.778004166666667
 10
11.13800277777777
 20
9.743281944444444
 10
11.13800277777777
 20
9.715490277777778
 10
11.13800277777777
 20
9.691184722222223
 10
11.13800277777777
 20
9.677295833333333
 10
11.13800277777777
 20
9.67382361111111
 10
11.141475
 20
9.67382361111111
 10
11.14494722222222
 20
9.67382361111111
 10
11.14843333333333
 20
9.670351388888889
 10
11.15190555555555
 20
9.666879166666667
 10
11.15537777777777
 20
9.663406944444444
 10
11.15537777777777
 20
9.659934722222223
 10
11.15537777777777
 20
9.656462499999999
 10
11.15885
 20
9.652976388888889
 10
11.15885
 20
9.649504166666666
 10
11.16232222222222
 20
9.646031944444445
 10
11.16579444444444
 20
9.646031944444445
 10
11.16926666666666
 20
9.642559722222221
 10
11.17273888888888
 20
9.642559722222221
 10
11.17621111111111
 20
9.642559722222221
  0
LWPOLYLINE
  5
119
330
2
100
AcDbEntity
  8
PDF_Layer 1
 62
     7
420
 16777215
370
    70
100
AcDbPolyline
 90
       16
 70
     0
 43
0.0
 10
11.88122499999999
 20
10.05932361111111
 10
11.83259999999999
 20
10.06279583333333
 10
11.74925277777777
 20
10.06626805555555
 10
11.66241944444444
 20
10.0732125
 10
11.5756
 20
10.08362916666666
 10
11.49225277777777
 20
10.09404583333333
 10
11.40541944444444
 20
10.1044625
 10
11.3186
 20
10.11836527777778
 10
11.23525277777777
 20
10.13572638888889
 10
11.23178055555555
 20
10.13572638888889
 10
11.22830833333333
 20
10.13919861111111
 10
11.22483611111111
 20
10.13919861111111
 10
11.22483611111111
 20
10.14267083333333
 10
11.22136388888889
 20
10.14614305555555
 10
11.22136388888889
 20
10.14961527777778
 10
11.21789166666666
 20
10.1530875
  0
LWPOLYLINE
  5
11A
330
2
100
AcDbEntity
  8
PDF_Layer 1
 62
     7
420
 16777215
370
    70
100
AcDbPolyline
 90
       16
 70
     0
 43
0.0
 10
11.21789166666666
 20
9.666879166666667
 10
11.22136388888889
 20
9.670351388888889
 10
11.22136388888889
 20
9.67382361111111
 10
11.22483611111111
 20
9.677295833333333
 10
11.22483611111111
 20
9.680768055555555
 10
11.22830833333333
 20
9.680768055555555
 10
11.23178055555555
 20
9.684240277777778
 10
11.23525277777777
 20
9.684240277777778
 10
11.3186
 20
9.701601388888889
 10
11.40541944444444
 20
9.715490277777778
 10
11.49225277777777
 20
9.725920833333333
 10
11.5756
 20
9.736337500000001
 10
11.66241944444444
 20
9.746754166666667
 10
11.74925277777777
 20
9.753698611111111
 10
11.83259999999999
 20
9.760643055555554
 10
11.88122499999999
 20
9.760643055555554
  0
ARC
  5
11B
330
2
100
AcDbEntity
  8
PDF_Layer 1
 62
     7
420
 16777215
370
    70
100
AcDbCircle
 10
11.15847899071506
 20
9.909983333333331
 30
0.0
 40
0.2370457544364191
100
AcDbArc
 50
94.95543363550646
 51
265.0445663644934
  0
LWPOLYLINE
  5
11E
330
2
100
AcDbEntity
  8
PDF_Layer 1
 62
     7
420
 16777215
370
    70
100
AcDbPolyline
 90
       78
 70
     1
 43
0.0
 10
13.31208611111111
 20
10.17740694444444
 10
13.30514166666666
 20
10.17740694444444
 10
13.30166944444444
 20
10.17740694444444
 10
13.29819722222222
 20
10.17392083333333
 10
13.29819722222222
 20
10.17044861111111
 10
13.294725
 20
10.17044861111111
 10
13.29125277777777
 20
10.16697638888889
 10
13.29125277777777
 20
10.16350416666666
 10
13.29125277777777
 20
10.15655972222222
 10
13.29125277777777
 20
10.1530875
 10
13.29125277777777
 20
10.13919861111111
 10
13.29125277777777
 20
10.11489305555555
 10
13.29125277777777
 20
10.08710138888889
 10
13.29125277777777
 20
10.04890694444444
 10
13.29125277777777
 20
10.00375416666666
 10
13.29125277777777
 20
9.958601388888888
 10
13.29125277777777
 20
9.909976388888889
 10
13.29125277777777
 20
9.861365277777778
 10
13.29125277777777
 20
9.8162125
 10
13.29125277777777
 20
9.771059722222222
 10
13.29125277777777
 20
9.736337500000001
 10
13.29125277777777
 20
9.70507361111111
 10
13.29125277777777
 20
9.680768055555555
 10
13.29125277777777
 20
9.666879166666667
 10
13.29125277777777
 20
9.663406944444444
 10
13.29125277777777
 20
9.656462499999999
 10
13.29125277777777
 20
9.652976388888889
 10
13.294725
 20
9.649504166666666
 10
13.29819722222222
 20
9.649504166666666
 10
13.29819722222222
 20
9.646031944444445
 10
13.30166944444444
 20
9.642559722222221
 10
13.30514166666666
 20
9.642559722222221
 10
13.31208611111111
 20
9.642559722222221
 10
13.33639166666666
 20
9.642559722222221
 10
13.33986388888888
 20
9.642559722222221
 10
13.34333611111111
 20
9.646031944444445
 10
13.34680833333333
 20
9.646031944444445
 10
13.35028055555555
 20
9.649504166666666
 10
13.35028055555555
 20
9.652976388888889
 10
13.35375277777777
 20
9.656462499999999
 10
13.35375277777777
 20
9.659934722222223
 10
13.357225
 20
9.663406944444444
 10
13.357225
 20
9.666879166666667
 10
13.36069722222222
 20
9.670351388888889
 10
13.36416944444444
 20
9.670351388888889
 10
13.36416944444444
 20
9.67382361111111
 10
13.36764166666666
 20
9.67382361111111
 10
13.37111388888888
 20
9.67382361111111
 10
13.37111388888888
 20
9.677295833333333
 10
13.37111388888888
 20
9.691184722222223
 10
13.37111388888888
 20
9.715490277777778
 10
13.37111388888888
 20
9.743281944444444
 10
13.37111388888888
 20
9.778004166666667
 10
13.37111388888888
 20
9.819684722222222
 10
13.37111388888888
 20
9.8648375
 10
13.37111388888888
 20
9.909976388888889
 10
13.37111388888888
 20
9.955129166666667
 10
13.37111388888888
 20
10.00028194444444
 10
13.37111388888888
 20
10.04194861111111
 10
13.37111388888888
 20
10.07668472222222
 10
13.37111388888888
 20
10.1044625
 10
13.37111388888888
 20
10.12878194444444
 10
13.37111388888888
 20
10.14267083333333
 10
13.37111388888888
 20
10.14614305555555
 10
13.36764166666666
 20
10.14614305555555
 10
13.36416944444444
 20
10.14614305555555
 10
13.36416944444444
 20
10.14961527777778
 10
13.36069722222222
 20
10.14961527777778
 10
13.357225
 20
10.1530875
 10
13.357225
 20
10.15655972222222
 10
13.35375277777777
 20
10.16003194444444
 10
13.35375277777777
 20
10.16350416666666
 10
13.35028055555555
 20
10.16697638888889
 10
13.35028055555555
 20
10.17044861111111
 10
13.34680833333333
 20
10.17392083333333
 10
13.34333611111111
 20
10.17392083333333
 10
13.33986388888888
 20
10.17740694444444
 10
13.33639166666666
 20
10.17740694444444
  0
LWPOLYLINE
  5
126
330
2
100
AcDbEntity
  8
PDF_Layer 1
 62
     7
420
 16777215
370
    70
100
AcDbPolyline
 90
       17
 70
     0
 43
0.0
 10
12.62790555555555
 20
9.760643055555554
 10
12.67653055555555
 20
9.760643055555554
 10
12.76336388888889
 20
9.753698611111111
 10
12.84671111111111
 20
9.746754166666667
 10
12.93353055555555
 20
9.736337500000001
 10
13.02036388888889
 20
9.725920833333333
 10
13.10371111111111
 20
9.715490277777778
 10
13.19053055555555
 20
9.701601388888889
 10
13.27387777777778
 20
9.684240277777778
 10
13.27735
 20
9.684240277777778
 10
13.28083611111111
 20
9.680768055555555
 10
13.28430833333333
 20
9.680768055555555
 10
13.28778055555555
 20
9.677295833333333
 10
13.28778055555555
 20
9.67382361111111
 10
13.29125277777777
 20
9.67382361111111
 10
13.29125277777777
 20
9.670351388888889
 10
13.29125277777777
 20
9.666879166666667
  0
LWPOLYLINE
  5
127
330
2
100
AcDbEntity
  8
PDF_Layer 1
 62
     7
420
 16777215
370
    70
100
AcDbPolyline
 90
       16
 70
     0
 43
0.0
 10
13.29125277777777
 20
10.1530875
 10
13.29125277777777
 20
10.14961527777778
 10
13.28778055555555
 20
10.14614305555555
 10
13.28778055555555
 20
10.14267083333333
 10
13.28430833333333
 20
10.13919861111111
 10
13.28083611111111
 20
10.13919861111111
 10
13.27735
 20
10.13572638888889
 10
13.27387777777778
 20
10.13572638888889
 10
13.19053055555555
 20
10.11836527777778
 10
13.10371111111111
 20
10.1044625
 10
13.02036388888889
 20
10.09404583333333
 10
12.93353055555555
 20
10.08362916666666
 10
12.84671111111111
 20
10.0732125
 10
12.76336388888889
 20
10.06626805555555
 10
12.67653055555555
 20
10.06279583333333
 10
12.63139166666666
 20
10.05932361111111
  0
ARC
  5
128
330
2
100
AcDbEntity
  8
PDF_Layer 1
 62
     7
420
 16777215
370
    70
100
AcDbCircle
 10
13.354407303459
 20
9.909983333333331
 30
0.0
 40
0.2367499195286078
100
AcDbArc
 50
274.0465190063698
 51
85.95348099363024
  0
LWPOLYLINE
  5
12B
330
2
100
AcDbEntity
  8
PDF_Layer 1
 62
     7
420
 16777215
370
    70
100
AcDbPolyline
 90
       80
 70
     1
 43
0.0
 10
5.497933333333332
 20
9.67382361111111
 10
5.497933333333332
 20
9.677295833333333
 10
5.497933333333332
 20
9.691184722222223
 10
5.497933333333332
 20
9.715490277777778
 10
5.497933333333332
 20
9.743281944444444
 10
5.497933333333332
 20
9.778004166666667
 10
5.497933333333332
 20
9.819684722222222
 10
5.497933333333332
 20
9.8648375
 10
5.497933333333332
 20
9.909976388888889
 10
5.497933333333332
 20
9.955129166666667
 10
5.497933333333332
 20
10.00028194444444
 10
5.497933333333332
 20
10.04194861111111
 10
5.497933333333332
 20
10.07668472222222
 10
5.497933333333332
 20
10.1044625
 10
5.497933333333332
 20
10.12878194444444
 10
5.497933333333332
 20
10.14267083333333
 10
5.497933333333332
 20
10.14614305555555
 10
5.494461111111109
 20
10.14614305555555
 10
5.490988888888887
 20
10.14614305555555
 10
5.487516666666665
 20
10.14961527777778
 10
5.484044444444442
 20
10.14961527777778
 10
5.484044444444442
 20
10.1530875
 10
5.48057222222222
 20
10.15655972222222
 10
5.48057222222222
 20
10.16003194444444
 10
5.477099999999998
 20
10.16003194444444
 10
5.477099999999998
 20
10.16350416666666
 10
5.477099999999998
 20
10.16697638888889
 10
5.473627777777776
 20
10.17044861111111
 10
5.470155555555553
 20
10.17392083333333
 10
5.466683333333332
 20
10.17740694444444
 10
5.463211111111109
 20
10.17740694444444
 10
5.459738888888887
 20
10.17740694444444
 10
5.435419444444443
 20
10.17740694444444
 10
5.43194722222222
 20
10.17740694444444
 10
5.428474999999998
 20
10.17740694444444
 10
5.425002777777775
 20
10.17392083333333
 10
5.421530555555554
 20
10.17044861111111
 10
5.418058333333331
 20
10.17044861111111
 10
5.418058333333331
 20
10.16697638888889
 10
5.414586111111109
 20
10.16350416666666
 10
5.414586111111109
 20
10.15655972222222
 10
5.414586111111109
 20
10.1530875
 10
5.414586111111109
 20
10.13919861111111
 10
5.414586111111109
 20
10.11489305555555
 10
5.414586111111109
 20
10.08710138888889
 10
5.414586111111109
 20
10.04890694444444
 10
5.414586111111109
 20
10.00375416666666
 10
5.414586111111109
 20
9.958601388888888
 10
5.414586111111109
 20
9.909976388888889
 10
5.414586111111109
 20
9.861365277777778
 10
5.414586111111109
 20
9.8162125
 10
5.414586111111109
 20
9.771059722222222
 10
5.414586111111109
 20
9.736337500000001
 10
5.414586111111109
 20
9.70507361111111
 10
5.414586111111109
 20
9.680768055555555
 10
5.414586111111109
 20
9.666879166666667
 10
5.414586111111109
 20
9.663406944444444
 10
5.414586111111109
 20
9.656462499999999
 10
5.418058333333331
 20
9.652976388888889
 10
5.418058333333331
 20
9.649504166666666
 10
5.421530555555554
 20
9.649504166666666
 10
5.425002777777775
 20
9.646031944444445
 10
5.428474999999998
 20
9.642559722222221
 10
5.43194722222222
 20
9.642559722222221
 10
5.435419444444443
 20
9.642559722222221
 10
5.459738888888887
 20
9.642559722222221
 10
5.463211111111109
 20
9.642559722222221
 10
5.466683333333332
 20
9.642559722222221
 10
5.470155555555553
 20
9.646031944444445
 10
5.473627777777776
 20
9.649504166666666
 10
5.477099999999998
 20
9.652976388888889
 10
5.477099999999998
 20
9.656462499999999
 10
5.477099999999998
 20
9.659934722222223
 10
5.48057222222222
 20
9.659934722222223
 10
5.48057222222222
 20
9.663406944444444
 10
5.484044444444442
 20
9.666879166666667
 10
5.484044444444442
 20
9.670351388888889
 10
5.487516666666665
 20
9.670351388888889
 10
5.490988888888887
 20
9.67382361111111
 10
5.494461111111109
 20
9.67382361111111
  0
LWPOLYLINE
  5
133
330
2
100
AcDbEntity
  8
PDF_Layer 1
 62
     7
420
 16777215
370
    70
100
AcDbPolyline
 90
       17
 70
     0
 43
0.0
 10
4.754724999999998
 20
9.760643055555554
 10
4.799877777777776
 20
9.760643055555554
 10
4.88669722222222
 20
9.753698611111111
 10
4.973530555555553
 20
9.746754166666667
 10
5.056877777777776
 20
9.736337500000001
 10
5.14369722222222
 20
9.725920833333333
 10
5.230516666666664
 20
9.715490277777778
 10
5.313863888888887
 20
9.701601388888889
 10
5.40069722222222
 20
9.684240277777778
 10
5.404169444444443
 20
9.684240277777778
 10
5.404169444444443
 20
9.680768055555555
 10
5.407641666666664
 20
9.680768055555555
 10
5.411113888888887
 20
9.677295833333333
 10
5.411113888888887
 20
9.67382361111111
 10
5.414586111111109
 20
9.67382361111111
 10
5.414586111111109
 20
9.670351388888889
 10
5.414586111111109
 20
9.666879166666667
  0
LWPOLYLINE
  5
134
330
2
100
AcDbEntity
  8
PDF_Layer 1
 62
     7
420
 16777215
370
    70
100
AcDbPolyline
 90
       16
 70
     0
 43
0.0
 10
5.414586111111109
 20
10.1530875
 10
5.414586111111109
 20
10.14961527777778
 10
5.411113888888887
 20
10.14614305555555
 10
5.411113888888887
 20
10.14267083333333
 10
5.407641666666664
 20
10.13919861111111
 10
5.404169444444443
 20
10.13919861111111
 10
5.404169444444443
 20
10.13572638888889
 10
5.40069722222222
 20
10.13572638888889
 10
5.313863888888887
 20
10.11836527777778
 10
5.230516666666664
 20
10.1044625
 10
5.14369722222222
 20
10.09404583333333
 10
5.056877777777776
 20
10.08362916666666
 10
4.973530555555553
 20
10.0732125
 10
4.88669722222222
 20
10.06626805555555
 10
4.799877777777776
 20
10.06279583333333
 10
4.754724999999998
 20
10.05932361111111
  0
ARC
  5
135
330
2
100
AcDbEntity
  8
PDF_Layer 1
 62
     7
420
 16777215
370
    70
100
AcDbCircle
 10
5.477472329542191
 20
9.909983333333345
 30
0.0
 40
0.2370444411417912
100
AcDbArc
 50
274.9517711885923
 51
85.04822881140711
  0
LWPOLYLINE
  5
138
330
2
100
AcDbEntity
  8
PDF_Layer 1
 62
     7
420
 16777215
370
    70
100
AcDbPolyline
 90
       80
 70
     1
 43
0.0
 10
4.615808333333331
 20
11.02826805555555
 10
4.608863888888887
 20
11.06994861111111
 10
4.591502777777776
 20
11.11162916666666
 10
4.570655555555553
 20
11.14982361111111
 10
4.539405555555553
 20
11.1810875
 10
4.504669444444442
 20
11.20886527777777
 10
4.466474999999998
 20
11.22969861111111
 10
4.424794444444442
 20
11.24012916666667
 10
4.379655555555553
 20
11.24360138888889
 10
4.334502777777776
 20
11.24012916666667
 10
4.29282222222222
 20
11.22969861111111
 10
4.254627777777775
 20
11.20886527777777
 10
4.219891666666665
 20
11.1810875
 10
4.188641666666665
 20
11.14982361111111
 10
4.167794444444442
 20
11.11162916666666
 10
4.150433333333332
 20
11.06994861111111
 10
4.143488888888887
 20
11.02826805555555
 10
4.143488888888887
 20
11.02479583333333
 10
4.143488888888887
 20
11.02132361111111
 10
4.140016666666666
 20
11.01785138888889
 10
4.140016666666666
 20
11.01437916666666
 10
4.136544444444442
 20
11.01437916666666
 10
4.133072222222221
 20
11.01090694444444
 10
4.129599999999998
 20
11.01090694444444
 10
4.126127777777776
 20
11.00743472222222
 10
4.122655555555554
 20
11.00743472222222
 10
4.119169444444443
 20
11.0039625
 10
4.11569722222222
 20
11.0039625
 10
4.11569722222222
 20
11.00049027777778
 10
4.112224999999998
 20
10.99701805555555
 10
4.112224999999998
 20
10.99354583333333
 10
4.112224999999998
 20
10.99007361111111
 10
4.112224999999998
 20
10.96575416666667
 10
4.112224999999998
 20
10.96228194444444
 10
4.112224999999998
 20
10.95880972222222
 10
4.11569722222222
 20
10.9553375
 10
4.11569722222222
 20
10.95186527777777
 10
4.119169444444443
 20
10.94839305555555
 10
4.122655555555554
 20
10.94839305555555
 10
4.126127777777776
 20
10.94492083333333
 10
4.129599999999998
 20
10.94492083333333
 10
4.136544444444442
 20
10.94492083333333
 10
4.150433333333332
 20
10.94492083333333
 10
4.174738888888887
 20
10.94492083333333
 10
4.202530555555553
 20
10.94492083333333
 10
4.240724999999998
 20
10.94492083333333
 10
4.285877777777775
 20
10.94492083333333
 10
4.331030555555553
 20
10.94492083333333
 10
4.379655555555553
 20
10.94492083333333
 10
4.428266666666664
 20
10.94492083333333
 10
4.473419444444442
 20
10.94492083333333
 10
4.518572222222219
 20
10.94492083333333
 10
4.553294444444443
 20
10.94492083333333
 10
4.584558333333331
 20
10.94492083333333
 10
4.608863888888887
 20
10.94492083333333
 10
4.622752777777776
 20
10.94492083333333
 10
4.626224999999998
 20
10.94492083333333
 10
4.629697222222221
 20
10.94492083333333
 10
4.636641666666665
 20
10.94839305555555
 10
4.640127777777776
 20
10.94839305555555
 10
4.640127777777776
 20
10.95186527777777
 10
4.643599999999998
 20
10.9553375
 10
4.64707222222222
 20
10.95880972222222
 10
4.64707222222222
 20
10.96228194444444
 10
4.64707222222222
 20
10.96575416666667
 10
4.64707222222222
 20
10.99007361111111
 10
4.64707222222222
 20
10.99354583333333
 10
4.64707222222222
 20
10.99701805555555
 10
4.643599999999998
 20
11.00049027777778
 10
4.643599999999998
 20
11.0039625
 10
4.640127777777776
 20
11.0039625
 10
4.636641666666665
 20
11.00743472222222
 10
4.633169444444442
 20
11.00743472222222
 10
4.629697222222221
 20
11.00743472222222
 10
4.626224999999998
 20
11.01090694444444
 10
4.622752777777776
 20
11.01437916666666
 10
4.619280555555554
 20
11.01437916666666
 10
4.619280555555554
 20
11.01785138888889
 10
4.615808333333331
 20
11.02132361111111
 10
4.615808333333331
 20
11.02479583333333
  0
LWPOLYLINE
  5
140
330
2
100
AcDbEntity
  8
PDF_Layer 1
 62
     7
420
 16777215
370
    70
100
AcDbPolyline
 90
       16
 70
     0
 43
0.0
 10
4.528988888888887
 20
10.28505972222222
 10
4.528988888888887
 20
10.3302125
 10
4.535933333333331
 20
10.41703194444444
 10
4.542877777777776
 20
10.50386527777777
 10
4.549822222222219
 20
10.5872125
 10
4.563711111111109
 20
10.67403194444444
 10
4.574141666666665
 20
10.76085138888889
 10
4.588030555555554
 20
10.84419861111111
 10
4.605391666666665
 20
10.93103194444444
 10
4.605391666666665
 20
10.93450416666666
 10
4.608863888888887
 20
10.93797638888889
 10
4.61233611111111
 20
10.94144861111111
 10
4.615808333333331
 20
10.94144861111111
 10
4.615808333333331
 20
10.94492083333333
 10
4.619280555555554
 20
10.94492083333333
 10
4.622752777777776
 20
10.94492083333333
  0
LWPOLYLINE
  5
141
330
2
100
AcDbEntity
  8
PDF_Layer 1
 62
     7
420
 16777215
370
    70
100
AcDbPolyline
 90
       16
 70
     0
 43
0.0
 10
4.136544444444442
 20
10.94492083333333
 10
4.140016666666666
 20
10.94492083333333
 10
4.143488888888887
 20
10.94144861111111
 10
4.146961111111109
 20
10.94144861111111
 10
4.150433333333332
 20
10.93797638888889
 10
4.150433333333332
 20
10.93450416666666
 10
4.153905555555554
 20
10.93450416666666
 10
4.153905555555554
 20
10.93103194444444
 10
4.171266666666666
 20
10.84419861111111
 10
4.185155555555554
 20
10.76085138888889
 10
4.19558611111111
 20
10.67403194444444
 10
4.206002777777776
 20
10.5872125
 10
4.216419444444442
 20
10.50386527777777
 10
4.223363888888886
 20
10.41703194444444
 10
4.22683611111111
 20
10.3302125
 10
4.230308333333331
 20
10.28505972222222
  0
LWPOLYLINE
  5
146
330
2
100
AcDbEntity
  8
PDF_Layer 1
 62
     7
420
 16777215
370
    70
100
AcDbPolyline
 90
       95
 70
     0
 43
0.0
 10
4.615808333333331
 20
8.791698611111112
 10
4.615808333333331
 20
8.795170833333333
 10
4.615808333333331
 20
8.798643055555555
 10
4.619280555555554
 20
8.802115277777778
 10
4.619280555555554
 20
8.805587499999999
 10
4.622752777777776
 20
8.805587499999999
 10
4.626224999999998
 20
8.809059722222222
 10
4.629697222222221
 20
8.812531944444444
 10
4.633169444444442
 20
8.812531944444444
 10
4.636641666666665
 20
8.812531944444444
 10
4.640127777777776
 20
8.816004166666667
 10
4.643599999999998
 20
8.819476388888888
 10
4.64707222222222
 20
8.822948611111112
 10
4.64707222222222
 20
8.826420833333333
 10
4.64707222222222
 20
8.829893055555555
 10
4.64707222222222
 20
8.8542125
 10
4.64707222222222
 20
8.857684722222222
 10
4.64707222222222
 20
8.861156944444445
 10
4.643599999999998
 20
8.864629166666667
 10
4.640127777777776
 20
8.868101388888888
 10
4.640127777777776
 20
8.871573611111111
 10
4.636641666666665
 20
8.871573611111111
 10
4.629697222222221
 20
8.875045833333333
 10
4.626224999999998
 20
8.875045833333333
 10
4.622752777777776
 20
8.875045833333333
 10
4.608863888888887
 20
8.875045833333333
 10
4.584558333333331
 20
8.875045833333333
 10
4.553294444444443
 20
8.875045833333333
 10
4.518572222222219
 20
8.875045833333333
 10
4.473419444444442
 20
8.875045833333333
 10
4.428266666666664
 20
8.875045833333333
 10
4.379655555555553
 20
8.875045833333333
 10
4.331030555555553
 20
8.875045833333333
 10
4.285877777777775
 20
8.875045833333333
 10
4.240724999999998
 20
8.875045833333333
 10
4.202530555555553
 20
8.875045833333333
 10
4.174738888888887
 20
8.875045833333333
 10
4.150433333333332
 20
8.875045833333333
 10
4.136544444444442
 20
8.875045833333333
 10
4.129599999999998
 20
8.875045833333333
 10
4.126127777777776
 20
8.875045833333333
 10
4.122655555555554
 20
8.871573611111111
 10
4.119169444444443
 20
8.871573611111111
 10
4.11569722222222
 20
8.868101388888888
 10
4.11569722222222
 20
8.864629166666667
 10
4.112224999999998
 20
8.861156944444445
 10
4.112224999999998
 20
8.857684722222222
 10
4.112224999999998
 20
8.8542125
 10
4.112224999999998
 20
8.829893055555555
 10
4.112224999999998
 20
8.826420833333333
 10
4.112224999999998
 20
8.822948611111112
 10
4.11569722222222
 20
8.819476388888888
 10
4.119169444444443
 20
8.816004166666667
 10
4.122655555555554
 20
8.812531944444444
 10
4.126127777777776
 20
8.812531944444444
 10
4.129599999999998
 20
8.809059722222222
 10
4.133072222222221
 20
8.809059722222222
 10
4.136544444444442
 20
8.805587499999999
 10
4.140016666666666
 20
8.805587499999999
 10
4.140016666666666
 20
8.802115277777778
 10
4.143488888888887
 20
8.798643055555555
 10
4.143488888888887
 20
8.795170833333333
 10
4.143488888888887
 20
8.791698611111112
 10
4.150433333333332
 20
8.750018055555555
 10
4.167794444444442
 20
8.7083375
 10
4.188641666666665
 20
8.670143055555556
 10
4.219891666666665
 20
8.638879166666667
 10
4.254627777777775
 20
8.611101388888888
 10
4.29282222222222
 20
8.590254166666667
 10
4.334502777777776
 20
8.5798375
 10
4.379655555555553
 20
8.576365277777778
 10
4.424794444444442
 20
8.5798375
 10
4.466474999999998
 20
8.590254166666667
 10
4.504669444444442
 20
8.611101388888888
 10
4.539405555555553
 20
8.638879166666667
 10
4.570655555555553
 20
8.670143055555556
 10
4.591502777777776
 20
8.7083375
 10
4.608863888888887
 20
8.750018055555555
 10
4.615808333333331
 20
8.791698611111112
 10
4.608863888888887
 20
8.791698611111112
 10
4.598447222222221
 20
8.791698611111112
 10
4.574141666666665
 20
8.791698611111112
 10
4.546349999999998
 20
8.791698611111112
 10
4.511627777777776
 20
8.791698611111112
 10
4.46994722222222
 20
8.791698611111112
 10
4.424794444444442
 20
8.791698611111112
 10
4.379655555555553
 20
8.791698611111112
 10
4.334502777777776
 20
8.791698611111112
 10
4.289349999999997
 20
8.791698611111112
 10
4.247669444444442
 20
8.791698611111112
 10
4.21294722222222
 20
8.791698611111112
 10
4.185155555555554
 20
8.791698611111112
 10
4.160849999999998
 20
8.791698611111112
 10
4.146961111111109
 20
8.791698611111112
 10
4.143488888888887
 20
8.791698611111112
  0
LWPOLYLINE
  5
14E
330
2
100
AcDbEntity
  8
PDF_Layer 1
 62
     7
420
 16777215
370
    70
100
AcDbPolyline
 90
       16
 70
     0
 43
0.0
 10
4.230308333333331
 20
9.534906944444443
 10
4.22683611111111
 20
9.489754166666667
 10
4.223363888888886
 20
9.402934722222221
 10
4.216419444444442
 20
9.316115277777777
 10
4.206002777777776
 20
9.232754166666666
 10
4.19558611111111
 20
9.145934722222222
 10
4.185155555555554
 20
9.059115277777777
 10
4.171266666666666
 20
8.975754166666666
 10
4.153905555555554
 20
8.888934722222222
 10
4.153905555555554
 20
8.8854625
 10
4.150433333333332
 20
8.8854625
 10
4.150433333333332
 20
8.881990277777777
 10
4.146961111111109
 20
8.878518055555556
 10
4.143488888888887
 20
8.878518055555556
 10
4.140016666666666
 20
8.875045833333333
 10
4.136544444444442
 20
8.875045833333333
  0
LWPOLYLINE
  5
14F
330
2
100
AcDbEntity
  8
PDF_Layer 1
 62
     7
420
 16777215
370
    70
100
AcDbPolyline
 90
       16
 70
     0
 43
0.0
 10
4.622752777777776
 20
8.875045833333333
 10
4.619280555555554
 20
8.875045833333333
 10
4.615808333333331
 20
8.875045833333333
 10
4.615808333333331
 20
8.878518055555556
 10
4.61233611111111
 20
8.878518055555556
 10
4.608863888888887
 20
8.881990277777777
 10
4.605391666666665
 20
8.8854625
 10
4.605391666666665
 20
8.888934722222222
 10
4.588030555555554
 20
8.975754166666666
 10
4.574141666666665
 20
9.059115277777777
 10
4.563711111111109
 20
9.145934722222222
 10
4.549822222222219
 20
9.232754166666666
 10
4.542877777777776
 20
9.316115277777777
 10
4.535933333333331
 20
9.402934722222221
 10
4.528988888888887
 20
9.489754166666667
 10
4.528988888888887
 20
9.534906944444443
  0
LWPOLYLINE
  5
154
330
2
100
AcDbEntity
  8
PDF_Layer 1
 62
     7
420
 16777215
370
    70
100
AcDbPolyline
 90
       80
 70
     1
 43
0.0
 10
12.48898888888889
 20
11.02826805555555
 10
12.48204444444444
 20
11.06994861111111
 10
12.46815555555555
 20
11.11162916666666
 10
12.44385
 20
11.14982361111111
 10
12.41605833333333
 20
11.1810875
 10
12.38133611111111
 20
11.20886527777777
 10
12.33965555555555
 20
11.22969861111111
 10
12.297975
 20
11.24012916666667
 10
12.25630833333333
 20
11.24360138888889
 10
12.21115555555555
 20
11.24012916666667
 10
12.169475
 20
11.22969861111111
 10
12.12780833333333
 20
11.20886527777777
 10
12.09307222222222
 20
11.1810875
 10
12.06529444444444
 20
11.14982361111111
 10
12.040975
 20
11.11162916666666
 10
12.02708611111111
 20
11.06994861111111
 10
12.02014166666666
 20
11.02826805555555
 10
12.02014166666666
 20
11.02479583333333
 10
12.01666944444444
 20
11.02132361111111
 10
12.01666944444444
 20
11.01785138888889
 10
12.01319722222222
 20
11.01437916666666
 10
12.00972499999999
 20
11.01090694444444
 10
12.00625277777777
 20
11.01090694444444
 10
12.00278055555555
 20
11.00743472222222
 10
11.99930833333333
 20
11.00743472222222
 10
11.99583611111111
 20
11.00743472222222
 10
11.99583611111111
 20
11.0039625
 10
11.99236388888889
 20
11.0039625
 10
11.98889166666666
 20
11.00049027777778
 10
11.98889166666666
 20
10.99701805555555
 10
11.98889166666666
 20
10.99354583333333
 10
11.98889166666666
 20
10.99007361111111
 10
11.98889166666666
 20
10.96575416666667
 10
11.98889166666666
 20
10.96228194444444
 10
11.98889166666666
 20
10.95880972222222
 10
11.98889166666666
 20
10.9553375
 10
11.99236388888889
 20
10.95186527777777
 10
11.99583611111111
 20
10.94839305555555
 10
11.99930833333333
 20
10.94839305555555
 10
12.00278055555555
 20
10.94492083333333
 10
12.00625277777777
 20
10.94492083333333
 10
12.01319722222222
 20
10.94492083333333
 10
12.02708611111111
 20
10.94492083333333
 10
12.04791944444444
 20
10.94492083333333
 10
12.07918333333333
 20
10.94492083333333
 10
12.11739166666666
 20
10.94492083333333
 10
12.15905833333333
 20
10.94492083333333
 10
12.20768333333333
 20
10.94492083333333
 10
12.25630833333333
 20
10.94492083333333
 10
12.30491944444444
 20
10.94492083333333
 10
12.35007222222222
 20
10.94492083333333
 10
12.39175277777777
 20
10.94492083333333
 10
12.42994722222222
 20
10.94492083333333
 10
12.46121111111111
 20
10.94492083333333
 10
12.48551666666666
 20
10.94492083333333
 10
12.49940555555555
 20
10.94492083333333
 10
12.50289166666666
 20
10.94492083333333
 10
12.50636388888888
 20
10.94492083333333
 10
12.50983611111111
 20
10.94839305555555
 10
12.51330833333333
 20
10.94839305555555
 10
12.51678055555555
 20
10.95186527777777
 10
12.52025277777777
 20
10.9553375
 10
12.52025277777777
 20
10.95880972222222
 10
12.523725
 20
10.96228194444444
 10
12.523725
 20
10.96575416666667
 10
12.523725
 20
10.99007361111111
 10
12.523725
 20
10.99354583333333
 10
12.52025277777777
 20
10.99701805555555
 10
12.52025277777777
 20
11.00049027777778
 10
12.51678055555555
 20
11.0039625
 10
12.51330833333333
 20
11.00743472222222
 10
12.50983611111111
 20
11.00743472222222
 10
12.50636388888888
 20
11.00743472222222
 10
12.50289166666666
 20
11.01090694444444
 10
12.49940555555555
 20
11.01090694444444
 10
12.49940555555555
 20
11.01437916666666
 10
12.49593333333333
 20
11.01437916666666
 10
12.49246111111111
 20
11.01785138888889
 10
12.49246111111111
 20
11.02132361111111
 10
12.49246111111111
 20
11.02479583333333
  0
LWPOLYLINE
  5
15C
330
2
100
AcDbEntity
  8
PDF_Layer 1
 62
     7
420
 16777215
370
    70
100
AcDbPolyline
 90
       16
 70
     0
 43
0.0
 10
12.40564166666666
 20
10.28505972222222
 10
12.40564166666666
 20
10.3302125
 10
12.41258611111111
 20
10.41703194444444
 10
12.41953055555555
 20
10.50386527777777
 10
12.426475
 20
10.5872125
 10
12.43690555555555
 20
10.67403194444444
 10
12.45079444444444
 20
10.76085138888889
 10
12.46468333333333
 20
10.84419861111111
 10
12.47857222222222
 20
10.93103194444444
 10
12.48204444444444
 20
10.93450416666666
 10
12.48551666666666
 20
10.93797638888889
 10
12.48551666666666
 20
10.94144861111111
 10
12.48898888888889
 20
10.94144861111111
 10
12.49246111111111
 20
10.94492083333333
 10
12.49593333333333
 20
10.94492083333333
 10
12.49940555555555
 20
10.94492083333333
  0
LWPOLYLINE
  5
15D
330
2
100
AcDbEntity
  8
PDF_Layer 1
 62
     7
420
 16777215
370
    70
100
AcDbPolyline
 90
       17
 70
     0
 43
0.0
 10
12.00972499999999
 20
10.94492083333333
 10
12.01319722222222
 20
10.94492083333333
 10
12.01666944444444
 20
10.94492083333333
 10
12.02014166666666
 20
10.94144861111111
 10
12.02361388888889
 20
10.94144861111111
 10
12.02708611111111
 20
10.93797638888889
 10
12.02708611111111
 20
10.93450416666666
 10
12.03055833333333
 20
10.93450416666666
 10
12.03055833333333
 20
10.93103194444444
 10
12.04444722222222
 20
10.84419861111111
 10
12.05834999999999
 20
10.76085138888889
 10
12.07223888888888
 20
10.67403194444444
 10
12.08265555555555
 20
10.5872125
 10
12.09307222222222
 20
10.50386527777777
 10
12.10001666666666
 20
10.41703194444444
 10
12.10348888888888
 20
10.3302125
 10
12.10696111111111
 20
10.28505972222222
  0
CIRCLE
  5
162
330
2
100
AcDbEntity
  8
PDF_Layer 1
 62
     7
420
 16777215
370
    70
100
AcDbCircle
 10
4.37881641065935
 20
9.910395660904566
 30
0.0
 40
0.4032812561712304
  0
CIRCLE
  5
163
330
2
100
AcDbEntity
  8
PDF_Layer 1
 62
     7
420
 16777215
370
    70
100
AcDbCircle
 10
12.25546918843712
 20
9.910395660904558
 30
0.0
 40
0.4032812561712233
  0
LWPOLYLINE
  5
164
330
2
100
AcDbEntity
  8
PDF_Layer 1
 62
     7
420
 16777215
370
    70
100
AcDbPolyline
 90
       14
 70
     0
 43
0.0
 10
12.523725
 20
8.857684722222222
 10
12.55150277777777
 20
8.868101388888888
 10
12.64875277777777
 20
8.899351388888888
 10
12.73904444444444
 20
8.937559722222221
 10
12.82586388888888
 20
8.986184722222223
 10
12.909225
 20
9.045226388888888
 10
12.98562777777777
 20
9.107726388888888
 10
13.05855833333333
 20
9.180670833333334
 10
13.12107222222222
 20
9.257073611111112
 10
13.17664166666666
 20
9.340420833333332
 10
13.22526666666666
 20
9.427240277777777
 10
13.26693333333333
 20
9.517531944444444
 10
13.29819722222222
 20
9.614781944444445
 10
13.30514166666666
 20
9.642559722222221
  0
LWPOLYLINE
  5
165
330
2
100
AcDbEntity
  8
PDF_Layer 1
 62
     7
420
 16777215
370
    70
100
AcDbPolyline
 90
       14
 70
     0
 43
0.0
 10
13.30514166666666
 20
10.17740694444444
 10
13.29819722222222
 20
10.20865694444444
 10
13.26693333333333
 20
10.30243472222222
 10
13.22526666666666
 20
10.39272638888889
 10
13.17664166666666
 20
10.47954583333333
 10
13.12107222222222
 20
10.56290694444444
 10
13.05855833333333
 20
10.63930972222222
 10
12.98562777777777
 20
10.71224027777778
 10
12.909225
 20
10.77474027777777
 10
12.82586388888888
 20
10.83378194444444
 10
12.73904444444444
 20
10.88240694444444
 10
12.64875277777777
 20
10.92061527777778
 10
12.55150277777777
 20
10.9553375
 10
12.523725
 20
10.96228194444444
  0
LWPOLYLINE
  5
166
330
2
100
AcDbEntity
  8
PDF_Layer 1
 62
     7
420
 16777215
370
    70
100
AcDbPolyline
 90
       14
 70
     0
 43
0.0
 10
11.98889166666666
 20
10.96228194444444
 10
11.95762777777777
 20
10.9553375
 10
11.86386388888888
 20
10.92061527777778
 10
11.77008611111111
 20
10.88240694444444
 10
11.68326666666666
 20
10.83378194444444
 10
11.59991944444444
 20
10.77474027777777
 10
11.52350277777777
 20
10.71224027777778
 10
11.45404444444444
 20
10.63930972222222
 10
11.38805833333333
 20
10.56290694444444
 10
11.33248888888888
 20
10.47954583333333
 10
11.28387777777777
 20
10.39272638888889
 10
11.24219722222222
 20
10.30243472222222
 10
11.21093333333333
 20
10.20865694444444
 10
11.20398888888888
 20
10.17740694444444
  0
LWPOLYLINE
  5
167
330
2
100
AcDbEntity
  8
PDF_Layer 1
 62
     7
420
 16777215
370
    70
100
AcDbPolyline
 90
       14
 70
     0
 43
0.0
 10
11.20398888888888
 20
9.642559722222221
 10
11.21093333333333
 20
9.614781944444445
 10
11.24219722222222
 20
9.517531944444444
 10
11.28387777777777
 20
9.427240277777777
 10
11.33248888888888
 20
9.340420833333332
 10
11.38805833333333
 20
9.257073611111112
 10
11.45404444444444
 20
9.180670833333334
 10
11.52350277777777
 20
9.107726388888888
 10
11.59991944444444
 20
9.045226388888888
 10
11.68326666666666
 20
8.986184722222223
 10
11.77008611111111
 20
8.937559722222221
 10
11.86386388888888
 20
8.899351388888888
 10
11.95762777777777
 20
8.868101388888888
 10
11.98889166666666
 20
8.857684722222222
  0
LWPOLYLINE
  5
168
330
2
100
AcDbEntity
  8
PDF_Layer 1
 62
     7
420
 16777215
370
    70
100
AcDbPolyline
 90
       14
 70
     0
 43
0.0
 10
4.64707222222222
 20
8.857684722222222
 10
4.674849999999998
 20
8.868101388888888
 10
4.772099999999998
 20
8.899351388888888
 10
4.862391666666665
 20
8.937559722222221
 10
4.949211111111109
 20
8.986184722222223
 10
5.032572222222221
 20
9.045226388888888
 10
5.108961111111109
 20
9.107726388888888
 10
5.181891666666665
 20
9.180670833333334
 10
5.244405555555553
 20
9.257073611111112
 10
5.303447222222221
 20
9.340420833333332
 10
5.35207222222222
 20
9.427240277777777
 10
5.390280555555554
 20
9.517531944444444
 10
5.421530555555554
 20
9.614781944444445
 10
5.43194722222222
 20
9.642559722222221
  0
LWPOLYLINE
  5
169
330
2
100
AcDbEntity
  8
PDF_Layer 1
 62
     7
420
 16777215
370
    70
100
AcDbPolyline
 90
       14
 70
     0
 43
0.0
 10
5.43194722222222
 20
10.17740694444444
 10
5.421530555555554
 20
10.20865694444444
 10
5.390280555555554
 20
10.30243472222222
 10
5.35207222222222
 20
10.39272638888889
 10
5.303447222222221
 20
10.47954583333333
 10
5.244405555555553
 20
10.56290694444444
 10
5.181891666666665
 20
10.63930972222222
 10
5.108961111111109
 20
10.71224027777778
 10
5.032572222222221
 20
10.77474027777777
 10
4.949211111111109
 20
10.83378194444444
 10
4.862391666666665
 20
10.88240694444444
 10
4.772099999999998
 20
10.92061527777778
 10
4.674849999999998
 20
10.9553375
 10
4.64707222222222
 20
10.96228194444444
  0
LWPOLYLINE
  5
16A
330
2
100
AcDbEntity
  8
PDF_Layer 1
 62
     7
420
 16777215
370
    70
100
AcDbPolyline
 90
       14
 70
     0
 43
0.0
 10
4.112224999999998
 20
10.96228194444444
 10
4.080974999999998
 20
10.9553375
 10
3.98719722222222
 20
10.92061527777778
 10
3.896905555555553
 20
10.88240694444444
 10
3.806613888888887
 20
10.83378194444444
 10
3.726738888888887
 20
10.77474027777777
 10
3.646863888888887
 20
10.71224027777778
 10
3.577405555555554
 20
10.63930972222222
 10
3.514891666666665
 20
10.56290694444444
 10
3.455849999999998
 20
10.47954583333333
 10
3.407224999999998
 20
10.39272638888889
 10
3.369016666666665
 20
10.30243472222222
 10
3.334294444444442
 20
10.20865694444444
 10
3.327349999999999
 20
10.17740694444444
  0
LWPOLYLINE
  5
16B
330
2
100
AcDbEntity
  8
PDF_Layer 1
 62
     7
420
 16777215
370
    70
100
AcDbPolyline
 90
       14
 70
     0
 43
0.0
 10
3.327349999999999
 20
9.642559722222221
 10
3.334294444444442
 20
9.614781944444445
 10
3.369016666666665
 20
9.517531944444444
 10
3.407224999999998
 20
9.427240277777777
 10
3.455849999999998
 20
9.340420833333332
 10
3.514891666666665
 20
9.257073611111112
 10
3.577405555555554
 20
9.180670833333334
 10
3.646863888888887
 20
9.107726388888888
 10
3.726738888888887
 20
9.045226388888888
 10
3.806613888888887
 20
8.986184722222223
 10
3.896905555555553
 20
8.937559722222221
 10
3.98719722222222
 20
8.899351388888888
 10
4.080974999999998
 20
8.868101388888888
 10
4.112224999999998
 20
8.857684722222222
  0
ELLIPSE
  5
16C
330
2
100
AcDbEntity
  8
PDF_Layer 1
 62
     7
420
 16777215
370
    70
100
AcDbEllipse
 10
8.317953396330446
 20
7.735547119140372
 30
0.0
 11
-0.5417608217455192
 21
0.001325650774668
 31
0.0
210
0.0
220
0.0
230
1.0
 40
0.3404492699355989
 41
4.713182158970388
 42
10.99636746614997
  0
LWPOLYLINE
  5
16D
330
2
100
AcDbEntity
  8
PDF_Layer 1
 62
     7
420
 16777215
370
    70
100
AcDbPolyline
 90
       16
 70
     0
 43
0.0
 10
8.75557222222222
 20
7.961656944444444
 10
8.734724999999997
 20
7.972073611111111
 10
8.682627777777776
 20
7.989434722222222
 10
8.623586111111109
 20
8.003323611111111
 10
8.56107222222222
 20
8.017226388888889
 10
8.49508611111111
 20
8.024170833333334
 10
8.425627777777776
 20
8.031115277777777
 10
8.35269722222222
 20
8.0345875
 10
8.279766666666665
 20
8.0345875
 10
8.210308333333331
 20
8.031115277777777
 10
8.140849999999998
 20
8.024170833333334
 10
8.071391666666665
 20
8.017226388888889
 10
8.008877777777776
 20
8.003323611111111
 10
7.949836111111109
 20
7.989434722222222
 10
7.897738888888887
 20
7.972073611111111
 10
7.869961111111109
 20
7.958184722222222
  0
ELLIPSE
  5
16E
330
2
100
AcDbEntity
  8
PDF_Layer 1
 62
     7
420
 16777215
370
    70
100
AcDbEllipse
 10
8.318530696097061
 20
7.735382626733572
 30
0.0
 11
-0.4313390234467539
 21
0.0004909256810382
 31
0.0
210
0.0
220
0.0
230
1.0
 40
0.3369122813228751
 41
1.569891476249621
 42
7.853076783429207
  0
LWPOLYLINE
  5
16F
330
2
100
AcDbEntity
  8
PDF_Layer 1
 62
     7
420
 16777215
370
    70
100
AcDbPolyline
 90
       43
 70
     1
 43
0.0
 10
7.922058333333331
 20
8.809059722222222
 10
7.922058333333331
 20
8.812531944444444
 10
7.929002777777776
 20
8.833365277777778
 10
7.946363888888886
 20
8.8542125
 10
7.970683333333331
 20
8.871573611111111
 10
8.005405555555553
 20
8.888934722222222
 10
8.043613888888886
 20
8.906295833333333
 10
8.092224999999999
 20
8.920198611111111
 10
8.140849999999998
 20
8.930615277777778
 10
8.199891666666664
 20
8.937559722222221
 10
8.25546111111111
 20
8.941031944444445
 10
8.317974999999998
 20
8.944504166666666
 10
8.377016666666664
 20
8.941031944444445
 10
8.436058333333331
 20
8.937559722222221
 10
8.491613888888887
 20
8.930615277777778
 10
8.543711111111109
 20
8.920198611111111
 10
8.588863888888887
 20
8.906295833333333
 10
8.630544444444442
 20
8.888934722222222
 10
8.661794444444442
 20
8.871573611111111
 10
8.686099999999997
 20
8.8542125
 10
8.703474999999997
 20
8.833365277777778
 10
8.710419444444442
 20
8.812531944444444
 10
8.710419444444442
 20
8.809059722222222
 10
8.70694722222222
 20
8.826420833333333
 10
8.693044444444442
 20
8.847254166666667
 10
8.668738888888887
 20
8.868101388888888
 10
8.640961111111108
 20
8.8854625
 10
8.599280555555553
 20
8.899351388888888
 10
8.557599999999998
 20
8.913254166666666
 10
8.505516666666665
 20
8.927143055555555
 10
8.44994722222222
 20
8.9340875
 10
8.390905555555553
 20
8.941031944444445
 10
8.331863888888886
 20
8.941031944444445
 10
8.27282222222222
 20
8.941031944444445
 10
8.213780555555553
 20
8.937559722222221
 10
8.154738888888887
 20
8.930615277777778
 10
8.102655555555553
 20
8.920198611111111
 10
8.054030555555554
 20
8.906295833333333
 10
8.012349999999997
 20
8.892406944444445
 10
7.977627777777776
 20
8.875045833333333
 10
7.953308333333331
 20
8.857684722222222
 10
7.932474999999998
 20
8.836837499999999
 10
7.925530555555553
 20
8.816004166666667
  0
LWPOLYLINE
  5
171
330
2
100
AcDbEntity
  8
PDF_Layer 1
 62
     7
420
 16777215
370
    70
100
AcDbPolyline
 90
       17
 70
     0
 43
0.0
 10
7.946363888888886
 20
7.808851388888888
 10
7.949836111111109
 20
7.805379166666667
 10
7.988044444444442
 20
7.788018055555555
 10
8.029711111111108
 20
7.774115277777777
 10
8.081808333333331
 20
7.760226388888889
 10
8.133905555555553
 20
7.749809722222222
 10
8.192947222222221
 20
7.742865277777777
 10
8.25546111111111
 20
7.739393055555556
 10
8.317974999999998
 20
7.735920833333334
 10
8.380488888888887
 20
7.739393055555556
 10
8.439530555555553
 20
7.742865277777777
 10
8.498558333333331
 20
7.749809722222222
 10
8.554127777777775
 20
7.760226388888889
 10
8.602752777777777
 20
7.774115277777777
 10
8.647905555555553
 20
7.788018055555555
 10
8.682627777777776
 20
7.805379166666667
 10
8.689572222222221
 20
7.808851388888888
  0
LWPOLYLINE
  5
173
330
2
100
AcDbEntity
  8
PDF_Layer 1
 62
     7
420
 16777215
370
    70
100
AcDbPolyline
 90
       17
 70
     0
 43
0.0
 10
7.963724999999998
 20
7.819268055555555
 10
7.967211111111109
 20
7.815795833333333
 10
8.001933333333331
 20
7.798434722222222
 10
8.043613888888886
 20
7.781059722222222
 10
8.088752777777775
 20
7.770643055555556
 10
8.140849999999998
 20
7.760226388888889
 10
8.199891666666664
 20
7.753281944444444
 10
8.25546111111111
 20
7.7463375
 10
8.317974999999998
 20
7.7463375
 10
8.377016666666664
 20
7.7463375
 10
8.436058333333331
 20
7.753281944444444
 10
8.491613888888887
 20
7.760226388888889
 10
8.543711111111109
 20
7.770643055555556
 10
8.592336111111109
 20
7.781059722222222
 10
8.634016666666665
 20
7.798434722222222
 10
8.665266666666665
 20
7.815795833333333
 10
8.67221111111111
 20
7.819268055555555
  0
LWPOLYLINE
  5
177
330
2
100
AcDbEntity
  8
PDF_Layer 1
 62
     7
420
 16777215
370
    70
100
AcDbPolyline
 90
       53
 70
     0
 43
0.0
 10
8.710419444444442
 20
9.17719861111111
 10
8.734724999999997
 20
9.1910875
 10
8.807655555555554
 20
9.236226388888889
 10
8.873641666666664
 20
9.291795833333333
 10
8.936155555555554
 20
9.354309722222222
 10
8.991724999999998
 20
9.420295833333334
 10
9.036877777777775
 20
9.493226388888889
 10
9.078544444444442
 20
9.573101388888888
 10
9.109808333333331
 20
9.652976388888889
 10
9.130641666666665
 20
9.736337500000001
 10
9.144530555555553
 20
9.823156944444445
 10
9.148016666666665
 20
9.909976388888889
 10
9.144530555555553
 20
9.996809722222222
 10
9.130641666666665
 20
10.08362916666666
 10
9.109808333333331
 20
10.16697638888889
 10
9.078544444444442
 20
10.24686527777777
 10
9.036877777777775
 20
10.32674027777778
 10
8.991724999999998
 20
10.39967083333333
 10
8.936155555555554
 20
10.46565694444444
 10
8.873641666666664
 20
10.52817083333333
 10
8.807655555555554
 20
10.58374027777778
 10
8.734724999999997
 20
10.62889305555555
 10
8.654849999999997
 20
10.67055972222222
 10
8.574974999999998
 20
10.70182361111111
 10
8.491613888888887
 20
10.72265694444444
 10
8.404794444444442
 20
10.73654583333333
 10
8.317974999999998
 20
10.74001805555555
 10
8.231155555555554
 20
10.73654583333333
 10
8.14432222222222
 20
10.72265694444444
 10
8.060974999999999
 20
10.70182361111111
 10
7.977627777777776
 20
10.67055972222222
 10
7.901224999999998
 20
10.62889305555555
 10
7.828294444444442
 20
10.58374027777778
 10
7.762308333333331
 20
10.52817083333333
 10
7.699794444444442
 20
10.46565694444444
 10
7.644224999999998
 20
10.39967083333333
 10
7.595599999999998
 20
10.32674027777778
 10
7.557405555555553
 20
10.24686527777777
 10
7.526141666666664
 20
10.16697638888889
 10
7.505308333333331
 20
10.08362916666666
 10
7.491419444444442
 20
9.996809722222222
 10
7.484474999999997
 20
9.909976388888889
 10
7.491419444444442
 20
9.823156944444445
 10
7.505308333333331
 20
9.736337500000001
 10
7.526141666666664
 20
9.652976388888889
 10
7.557405555555553
 20
9.573101388888888
 10
7.595599999999998
 20
9.493226388888889
 10
7.644224999999998
 20
9.420295833333334
 10
7.699794444444442
 20
9.354309722222222
 10
7.762308333333331
 20
9.291795833333333
 10
7.828294444444442
 20
9.236226388888889
 10
7.901224999999998
 20
9.1910875
 10
7.922058333333331
 20
9.17719861111111
  0
LWPOLYLINE
  5
178
330
2
100
AcDbEntity
  8
PDF_Layer 1
 62
     7
420
 16777215
370
    70
100
AcDbPolyline
 90
       53
 70
     0
 43
0.0
 10
8.710419444444442
 20
9.159823611111111
 10
8.741669444444442
 20
9.173726388888889
 10
8.814599999999998
 20
9.2223375
 10
8.884058333333332
 20
9.281379166666667
 10
8.94657222222222
 20
9.343893055555556
 10
9.002141666666664
 20
9.409879166666666
 10
9.050766666666664
 20
9.486281944444444
 10
9.092447222222221
 20
9.566156944444443
 10
9.123697222222221
 20
9.649504166666666
 10
9.148016666666665
 20
9.732865277777777
 10
9.161905555555554
 20
9.819684722222222
 10
9.165377777777775
 20
9.909976388888889
 10
9.161905555555554
 20
10.00028194444444
 10
9.148016666666665
 20
10.08710138888889
 10
9.123697222222221
 20
10.17044861111111
 10
9.092447222222221
 20
10.25380972222222
 10
9.050766666666664
 20
10.33368472222222
 10
9.002141666666664
 20
10.4100875
 10
8.94657222222222
 20
10.47607361111111
 10
8.884058333333332
 20
10.54205972222222
 10
8.814599999999998
 20
10.59762916666667
 10
8.741669444444442
 20
10.64625416666666
 10
8.661794444444442
 20
10.68444861111111
 10
8.578447222222219
 20
10.7157125
 10
8.49508611111111
 20
10.74001805555555
 10
8.404794444444442
 20
10.75390694444444
 10
8.317974999999998
 20
10.75737916666666
 10
8.227683333333331
 20
10.75390694444444
 10
8.140849999999998
 20
10.74001805555555
 10
8.054030555555554
 20
10.7157125
 10
7.970683333333331
 20
10.68444861111111
 10
7.894266666666664
 20
10.64625416666666
 10
7.817877777777775
 20
10.59762916666667
 10
7.748419444444443
 20
10.54205972222222
 10
7.685905555555553
 20
10.47607361111111
 10
7.630336111111109
 20
10.4100875
 10
7.581711111111109
 20
10.33368472222222
 10
7.543502777777776
 20
10.25380972222222
 10
7.512252777777776
 20
10.17044861111111
 10
7.48794722222222
 20
10.08710138888889
 10
7.474044444444443
 20
10.00028194444444
 10
7.47057222222222
 20
9.909976388888889
 10
7.474044444444443
 20
9.819684722222222
 10
7.48794722222222
 20
9.732865277777777
 10
7.512252777777776
 20
9.649504166666666
 10
7.543502777777776
 20
9.566156944444443
 10
7.581711111111109
 20
9.486281944444444
 10
7.630336111111109
 20
9.409879166666666
 10
7.685905555555553
 20
9.343893055555556
 10
7.748419444444443
 20
9.281379166666667
 10
7.817877777777775
 20
9.2223375
 10
7.894266666666664
 20
9.173726388888889
 10
7.922058333333331
 20
9.159823611111111
  0
LWPOLYLINE
  5
179
330
2
100
AcDbEntity
  8
PDF_Layer 1
 62
     7
420
 16777215
370
    70
100
AcDbPolyline
 90
       54
 70
     0
 43
0.0
 10
8.710419444444442
 20
9.145934722222222
 10
8.73819722222222
 20
9.163295833333332
 10
8.814599999999998
 20
9.211920833333334
 10
8.884058333333332
 20
9.264018055555556
 10
8.94657222222222
 20
9.326531944444445
 10
9.002141666666664
 20
9.39597638888889
 10
9.054238888888887
 20
9.468920833333333
 10
9.095919444444442
 20
9.545323611111111
 10
9.127169444444442
 20
9.628670833333334
 10
9.151488888888886
 20
9.712018055555555
 10
9.168849999999999
 20
9.798851388888889
 10
9.175794444444441
 20
9.889143055555555
 10
9.17232222222222
 20
9.975962500000001
 10
9.161905555555554
 20
10.06279583333333
 10
9.141058333333331
 20
10.14961527777778
 10
9.113280555555553
 20
10.2329625
 10
9.075072222222219
 20
10.31285138888889
 10
9.029933333333332
 20
10.38925416666667
 10
8.977836111111109
 20
10.4587125
 10
8.91532222222222
 20
10.52469861111111
 10
8.849336111111108
 20
10.58374027777778
 10
8.776405555555554
 20
10.63236527777777
 10
8.700002777777775
 20
10.67750416666666
 10
8.620113888888887
 20
10.71224027777778
 10
8.536766666666665
 20
10.74001805555555
 10
8.44994722222222
 20
10.75737916666666
 10
8.363113888888886
 20
10.76779583333333
 10
8.27282222222222
 20
10.76779583333333
 10
8.186002777777776
 20
10.75737916666666
 10
8.099183333333332
 20
10.74001805555555
 10
8.015822222222221
 20
10.71224027777778
 10
7.932474999999998
 20
10.67750416666666
 10
7.85607222222222
 20
10.63236527777777
 10
7.783141666666664
 20
10.58374027777778
 10
7.717155555555553
 20
10.52469861111111
 10
7.658113888888887
 20
10.4587125
 10
7.606016666666665
 20
10.38925416666667
 10
7.560877777777776
 20
10.31285138888889
 10
7.522669444444442
 20
10.2329625
 10
7.494891666666664
 20
10.14961527777778
 10
7.474044444444443
 20
10.06279583333333
 10
7.460155555555553
 20
9.975962500000001
 10
7.460155555555553
 20
9.889143055555555
 10
7.467099999999998
 20
9.798851388888889
 10
7.481002777777776
 20
9.712018055555555
 10
7.505308333333331
 20
9.628670833333334
 10
7.540030555555554
 20
9.545323611111111
 10
7.581711111111109
 20
9.468920833333333
 10
7.630336111111109
 20
9.39597638888889
 10
7.685905555555553
 20
9.326531944444445
 10
7.751891666666664
 20
9.264018055555556
 10
7.821349999999998
 20
9.211920833333334
 10
7.894266666666664
 20
9.163295833333332
 10
7.922058333333331
 20
9.145934722222222
  0
ARC
  5
17A
330
2
100
AcDbEntity
  8
PDF_Layer 1
 62
     7
420
 16777215
370
    70
100
AcDbCircle
 10
8.31623888888888
 20
9.910784921163909
 30
0.0
 40
0.9542624914436373
100
AcDbArc
 50
294.3980546080714
 51
245.6019453919291
  0
CIRCLE
  5
183
330
2
100
AcDbEntity
  8
PDF_Layer 1
 62
     7
420
 16777215
370
    70
100
AcDbCircle
 10
4.378521996402805
 20
9.909227028480763
 30
0.0
 40
0.3743218004195194
  0
CIRCLE
  5
184
330
2
100
AcDbEntity
  8
PDF_Layer 1
 62
     7
420
 16777215
370
    70
100
AcDbCircle
 10
12.25517477418058
 20
9.909227028480781
 30
0.0
 40
0.3743218004195372
  0
LWPOLYLINE
  5
185
330
2
100
AcDbEntity
  8
PDF_Layer 1
 62
     7
420
 16777215
370
    70
100
AcDbPolyline
 90
       23
 70
     0
 43
0.0
 10
7.810933333333331
 20
7.933879166666667
 10
7.814405555555554
 20
7.933879166666667
 10
7.835238888888887
 20
7.958184722222222
 10
7.863016666666664
 20
7.979018055555555
 10
7.901224999999998
 20
7.999851388888889
 10
7.946363888888886
 20
8.017226388888889
 10
7.994988888888887
 20
8.0345875
 10
8.054030555555554
 20
8.048476388888889
 10
8.116544444444443
 20
8.058893055555556
 10
8.179058333333331
 20
8.0658375
 10
8.248516666666665
 20
8.069309722222222
 10
8.317974999999998
 20
8.072781944444445
 10
8.387433333333332
 20
8.069309722222222
 10
8.453419444444442
 20
8.0658375
 10
8.519405555555554
 20
8.058893055555556
 10
8.581919444444443
 20
8.048476388888889
 10
8.637488888888887
 20
8.0345875
 10
8.689572222222221
 20
8.017226388888889
 10
8.734724999999997
 20
7.999851388888889
 10
8.77293333333333
 20
7.979018055555555
 10
8.800711111111109
 20
7.958184722222222
 10
8.821558333333332
 20
7.933879166666667
 10
8.825030555555553
 20
7.930406944444444
  0
LWPOLYLINE
  5
187
330
2
100
AcDbEntity
  8
PDF_Layer 1
 62
     7
420
 16777215
370
    70
100
AcDbPolyline
 90
       22
 70
     1
 43
0.0
 10
8.710419444444442
 20
9.003545833333333
 10
8.70694722222222
 20
9.024379166666667
 10
8.693044444444442
 20
9.045226388888888
 10
8.668738888888887
 20
9.062587500000001
 10
8.640961111111108
 20
9.079948611111111
 10
8.599280555555553
 20
9.097309722222222
 10
8.557599999999998
 20
9.1112125
 10
8.505516666666665
 20
9.121629166666666
 10
8.44994722222222
 20
9.128573611111111
 10
8.390905555555553
 20
9.135518055555555
 10
8.331863888888886
 20
9.138990277777777
 10
8.27282222222222
 20
9.135518055555555
 10
8.213780555555553
 20
9.132045833333332
 10
8.154738888888887
 20
9.125101388888889
 10
8.102655555555553
 20
9.114684722222222
 10
8.054030555555554
 20
9.104254166666667
 10
8.012349999999997
 20
9.090365277777777
 10
7.977627777777776
 20
9.073004166666667
 10
7.953308333333331
 20
9.052170833333333
 10
7.932474999999998
 20
9.034795833333333
 10
7.925530555555553
 20
9.013962499999999
 10
7.922058333333331
 20
9.003545833333333
 42
-4.804989940035367
  0
LWPOLYLINE
  5
18A
330
2
100
AcDbEntity
  8
PDF_Layer 1
 62
     7
420
 16777215
370
    70
100
AcDbPolyline
 90
       54
 70
     0
 43
0.0
 10
8.710419444444442
 20
9.128573611111111
 10
8.748613888888886
 20
9.149406944444445
 10
8.825030555555553
 20
9.198031944444444
 10
8.894488888888886
 20
9.253601388888888
 10
8.960474999999998
 20
9.316115277777777
 10
9.016044444444442
 20
9.385559722222222
 10
9.068127777777775
 20
9.458490277777777
 10
9.109808333333331
 20
9.538379166666667
 10
9.144530555555553
 20
9.621726388888889
 10
9.168849999999999
 20
9.708545833333333
 10
9.186211111111109
 20
9.798851388888889
 10
9.193155555555554
 20
9.889143055555555
 10
9.189683333333331
 20
9.975962500000001
 10
9.179266666666665
 20
10.06626805555555
 10
9.158433333333331
 20
10.1530875
 10
9.127169444444442
 20
10.23992083333333
 10
9.088974999999997
 20
10.31979583333333
 10
9.043822222222219
 20
10.39967083333333
 10
8.988252777777775
 20
10.46912916666666
 10
8.92921111111111
 20
10.53511527777778
 10
8.859752777777776
 20
10.59762916666667
 10
8.78682222222222
 20
10.64972638888889
 10
8.70694722222222
 20
10.69139305555555
 10
8.627058333333332
 20
10.72960138888889
 10
8.540238888888886
 20
10.75737916666666
 10
8.453419444444442
 20
10.77474027777777
 10
8.363113888888886
 20
10.78515694444444
 10
8.27282222222222
 20
10.78515694444444
 10
8.182530555555553
 20
10.77474027777777
 10
8.095711111111109
 20
10.75737916666666
 10
8.008877777777776
 20
10.72960138888889
 10
7.925530555555553
 20
10.69139305555555
 10
7.849127777777775
 20
10.64972638888889
 10
7.772724999999998
 20
10.59762916666667
 10
7.706738888888887
 20
10.53511527777778
 10
7.644224999999998
 20
10.46912916666666
 10
7.592127777777776
 20
10.39967083333333
 10
7.543502777777776
 20
10.31979583333333
 10
7.505308333333331
 20
10.23992083333333
 10
7.477516666666664
 20
10.1530875
 10
7.456683333333331
 20
10.06626805555555
 10
7.446266666666664
 20
9.975962500000001
 10
7.442794444444443
 20
9.889143055555555
 10
7.449738888888886
 20
9.798851388888889
 10
7.467099999999998
 20
9.708545833333333
 10
7.491419444444442
 20
9.621726388888889
 10
7.526141666666664
 20
9.538379166666667
 10
7.56782222222222
 20
9.458490277777777
 10
7.61644722222222
 20
9.385559722222222
 10
7.675488888888887
 20
9.316115277777777
 10
7.737988888888887
 20
9.253601388888888
 10
7.810933333333331
 20
9.198031944444444
 10
7.88732222222222
 20
9.149406944444445
 10
7.922058333333331
 20
9.128573611111111
  0
ARC
  5
18B
330
2
100
AcDbEntity
  8
PDF_Layer 1
 62
     7
420
 16777215
370
    70
100
AcDbCircle
 10
8.316238888888896
 20
9.90928437613083
 30
0.0
 40
0.915111414910836
100
AcDbArc
 50
295.5149106915791
 51
244.4850893084197
  0
LWPOLYLINE
  5
18E
330
2
100
AcDbEntity
  8
PDF_Layer 1
 62
     7
420
 16777215
370
    70
100
AcDbPolyline
 90
       18
 70
     0
 43
0.0
 10
3.323877777777776
 20
9.642559722222221
 10
3.323877777777776
 20
9.646031944444445
 10
3.323877777777776
 20
9.659934722222223
 10
3.323877777777776
 20
9.680768055555555
 10
3.323877777777776
 20
9.712018055555555
 10
3.323877777777776
 20
9.750226388888888
 10
3.323877777777776
 20
9.791906944444445
 10
3.323877777777776
 20
9.837045833333332
 10
3.323877777777776
 20
9.885670833333332
 10
3.323877777777776
 20
9.934295833333333
 10
3.323877777777776
 20
9.982920833333334
 10
3.323877777777776
 20
10.02805972222222
 10
3.323877777777776
 20
10.06974027777778
 10
3.323877777777776
 20
10.10793472222222
 10
3.323877777777776
 20
10.13919861111111
 10
3.323877777777776
 20
10.16003194444444
 10
3.323877777777776
 20
10.17392083333333
 10
3.323877777777776
 20
10.17740694444444
  0
LWPOLYLINE
  5
18F
330
2
100
AcDbEntity
  8
PDF_Layer 1
 62
     7
420
 16777215
370
    70
100
AcDbPolyline
 90
       18
 70
     0
 43
0.0
 10
3.299558333333331
 20
10.17740694444444
 10
3.299558333333331
 20
10.17392083333333
 10
3.299558333333331
 20
10.16003194444444
 10
3.299558333333331
 20
10.13919861111111
 10
3.299558333333331
 20
10.10793472222222
 10
3.299558333333331
 20
10.06974027777778
 10
3.299558333333331
 20
10.02805972222222
 10
3.299558333333331
 20
9.982920833333334
 10
3.299558333333331
 20
9.934295833333333
 10
3.299558333333331
 20
9.885670833333332
 10
3.299558333333331
 20
9.837045833333332
 10
3.299558333333331
 20
9.791906944444445
 10
3.299558333333331
 20
9.750226388888888
 10
3.299558333333331
 20
9.712018055555555
 10
3.299558333333331
 20
9.680768055555555
 10
3.299558333333331
 20
9.659934722222223
 10
3.299558333333331
 20
9.646031944444445
 10
3.299558333333331
 20
9.642559722222221
  0
LWPOLYLINE
  5
190
330
2
100
AcDbEntity
  8
PDF_Layer 1
 62
     7
420
 16777215
370
    70
100
AcDbPolyline
 90
       17
 70
     0
 43
0.0
 10
3.278724999999998
 20
9.659934722222223
 10
3.278724999999998
 20
9.663406944444444
 10
3.278724999999998
 20
9.677295833333333
 10
3.278724999999998
 20
9.698129166666667
 10
3.278724999999998
 20
9.729393055555556
 10
3.278724999999998
 20
9.764115277777777
 10
3.278724999999998
 20
9.805795833333334
 10
3.278724999999998
 20
9.85094861111111
 10
3.278724999999998
 20
9.899559722222221
 10
3.278724999999998
 20
9.944712499999999
 10
3.278724999999998
 20
9.9933375
 10
3.278724999999998
 20
10.03500416666667
 10
3.278724999999998
 20
10.0732125
 10
3.278724999999998
 20
10.10793472222222
 10
3.278724999999998
 20
10.13225416666666
 10
3.278724999999998
 20
10.1530875
 10
3.278724999999998
 20
10.16003194444444
  0
LWPOLYLINE
  5
192
330
2
100
AcDbEntity
  8
PDF_Layer 1
 62
     7
420
 16777215
370
    70
100
AcDbPolyline
 90
       16
 70
     0
 43
0.0
 10
3.358599999999999
 20
10.13572638888889
 10
3.358599999999999
 20
10.13225416666666
 10
3.358599999999999
 20
10.11836527777778
 10
3.358599999999999
 20
10.09404583333333
 10
3.358599999999999
 20
10.06626805555555
 10
3.358599999999999
 20
10.02805972222222
 10
3.358599999999999
 20
9.989865277777777
 10
3.358599999999999
 20
9.944712499999999
 10
3.358599999999999
 20
9.899559722222221
 10
3.358599999999999
 20
9.854420833333334
 10
3.358599999999999
 20
9.809268055555556
 10
3.358599999999999
 20
9.771059722222222
 10
3.358599999999999
 20
9.739809722222222
 10
3.358599999999999
 20
9.712018055555555
 10
3.358599999999999
 20
9.694656944444444
 10
3.358599999999999
 20
9.684240277777778
  0
LWPOLYLINE
  5
193
330
2
100
AcDbEntity
  8
PDF_Layer 1
 62
     7
420
 16777215
370
    70
100
AcDbPolyline
 90
       18
 70
     0
 43
0.0
 10
12.523725
 20
8.8542125
 10
12.51678055555555
 20
8.8542125
 10
12.50636388888888
 20
8.8542125
 10
12.48204444444444
 20
8.8542125
 10
12.45426666666666
 20
8.8542125
 10
12.41605833333333
 20
8.8542125
 10
12.37437777777777
 20
8.8542125
 10
12.32923888888889
 20
8.8542125
 10
12.28061388888888
 20
8.8542125
 10
12.23198888888888
 20
8.8542125
 10
12.18337777777777
 20
8.8542125
 10
12.13475277777777
 20
8.8542125
 10
12.09307222222222
 20
8.8542125
 10
12.05834999999999
 20
8.8542125
 10
12.02708611111111
 20
8.8542125
 10
12.00625277777777
 20
8.8542125
 10
11.99236388888889
 20
8.8542125
 10
11.98889166666666
 20
8.8542125
  0
LWPOLYLINE
  5
194
330
2
100
AcDbEntity
  8
PDF_Layer 1
 62
     7
420
 16777215
370
    70
100
AcDbPolyline
 90
       18
 70
     0
 43
0.0
 10
11.98889166666666
 20
8.829893055555555
 10
11.99236388888889
 20
8.829893055555555
 10
12.00625277777777
 20
8.829893055555555
 10
12.02708611111111
 20
8.829893055555555
 10
12.05834999999999
 20
8.829893055555555
 10
12.09307222222222
 20
8.829893055555555
 10
12.13475277777777
 20
8.829893055555555
 10
12.18337777777777
 20
8.829893055555555
 10
12.23198888888888
 20
8.829893055555555
 10
12.28061388888888
 20
8.829893055555555
 10
12.32923888888889
 20
8.829893055555555
 10
12.37437777777777
 20
8.829893055555555
 10
12.41605833333333
 20
8.829893055555555
 10
12.45426666666666
 20
8.829893055555555
 10
12.48204444444444
 20
8.829893055555555
 10
12.50636388888888
 20
8.829893055555555
 10
12.51678055555555
 20
8.829893055555555
 10
12.523725
 20
8.829893055555555
  0
LWPOLYLINE
  5
195
330
2
100
AcDbEntity
  8
PDF_Layer 1
 62
     7
420
 16777215
370
    70
100
AcDbPolyline
 90
       18
 70
     0
 43
0.0
 10
12.50636388888888
 20
8.812531944444444
 10
12.50289166666666
 20
8.812531944444444
 10
12.48898888888889
 20
8.812531944444444
 10
12.46815555555555
 20
8.812531944444444
 10
12.43690555555555
 20
8.812531944444444
 10
12.40216944444444
 20
8.812531944444444
 10
12.36048888888889
 20
8.812531944444444
 10
12.31535
 20
8.812531944444444
 10
12.266725
 20
8.812531944444444
 10
12.2181
 20
8.812531944444444
 10
12.17294722222222
 20
8.812531944444444
 10
12.12780833333333
 20
8.812531944444444
 10
12.0896
 20
8.812531944444444
 10
12.05834999999999
 20
8.812531944444444
 10
12.03055833333333
 20
8.812531944444444
 10
12.01319722222222
 20
8.812531944444444
 10
12.00625277777777
 20
8.812531944444444
 10
12.00278055555555
 20
8.812531944444444
  0
LWPOLYLINE
  5
196
330
2
100
AcDbEntity
  8
PDF_Layer 1
 62
     7
420
 16777215
370
    70
100
AcDbPolyline
 90
       17
 70
     0
 43
0.0
 10
12.48898888888889
 20
8.791698611111112
 10
12.48551666666666
 20
8.791698611111112
 10
12.47162777777777
 20
8.791698611111112
 10
12.45079444444444
 20
8.791698611111112
 10
12.42300277777777
 20
8.791698611111112
 10
12.38480833333333
 20
8.791698611111112
 10
12.3466
 20
8.791698611111112
 10
12.30144722222222
 20
8.791698611111112
 10
12.25630833333333
 20
8.791698611111112
 10
12.20768333333333
 20
8.791698611111112
 10
12.16600277777778
 20
8.791698611111112
 10
12.12433611111111
 20
8.791698611111112
 10
12.0896
 20
8.791698611111112
 10
12.05834999999999
 20
8.791698611111112
 10
12.03750277777777
 20
8.791698611111112
 10
12.02361388888889
 20
8.791698611111112
 10
12.02014166666666
 20
8.791698611111112
  0
LWPOLYLINE
  5
197
330
2
100
AcDbEntity
  8
PDF_Layer 1
 62
     7
420
 16777215
370
    70
100
AcDbPolyline
 90
       16
 70
     0
 43
0.0
 10
12.03055833333333
 20
8.888934722222222
 10
12.03403055555555
 20
8.888934722222222
 10
12.04791944444444
 20
8.888934722222222
 10
12.06876666666666
 20
8.888934722222222
 10
12.10001666666666
 20
8.888934722222222
 10
12.13475277777777
 20
8.888934722222222
 10
12.17641944444444
 20
8.888934722222222
 10
12.22157222222222
 20
8.888934722222222
 10
12.266725
 20
8.888934722222222
 10
12.31187777777777
 20
8.888934722222222
 10
12.35354444444444
 20
8.888934722222222
 10
12.39175277777777
 20
8.888934722222222
 10
12.426475
 20
8.888934722222222
 10
12.45079444444444
 20
8.888934722222222
 10
12.47162777777777
 20
8.888934722222222
 10
12.47857222222222
 20
8.888934722222222
  0
LWPOLYLINE
  5
198
330
2
100
AcDbEntity
  8
PDF_Layer 1
 62
     7
420
 16777215
370
    70
100
AcDbPolyline
 90
       17
 70
     0
 43
0.0
 10
11.15537777777777
 20
9.659934722222223
 10
11.15537777777777
 20
9.663406944444444
 10
11.15537777777777
 20
9.677295833333333
 10
11.15537777777777
 20
9.698129166666667
 10
11.15537777777777
 20
9.729393055555556
 10
11.15537777777777
 20
9.764115277777777
 10
11.15537777777777
 20
9.805795833333334
 10
11.15537777777777
 20
9.85094861111111
 10
11.15537777777777
 20
9.899559722222221
 10
11.15537777777777
 20
9.944712499999999
 10
11.15537777777777
 20
9.9933375
 10
11.15537777777777
 20
10.03500416666667
 10
11.15537777777777
 20
10.0732125
 10
11.15537777777777
 20
10.10793472222222
 10
11.15537777777777
 20
10.13225416666666
 10
11.15537777777777
 20
10.1530875
 10
11.15537777777777
 20
10.16003194444444
  0
LWPOLYLINE
  5
199
330
2
100
AcDbEntity
  8
PDF_Layer 1
 62
     7
420
 16777215
370
    70
100
AcDbPolyline
 90
       18
 70
     0
 43
0.0
 10
11.17621111111111
 20
10.17740694444444
 10
11.17621111111111
 20
10.17392083333333
 10
11.17621111111111
 20
10.16003194444444
 10
11.17621111111111
 20
10.13919861111111
 10
11.17621111111111
 20
10.10793472222222
 10
11.17621111111111
 20
10.06974027777778
 10
11.17621111111111
 20
10.02805972222222
 10
11.17621111111111
 20
9.982920833333334
 10
11.17621111111111
 20
9.934295833333333
 10
11.17621111111111
 20
9.885670833333332
 10
11.17621111111111
 20
9.837045833333332
 10
11.17621111111111
 20
9.791906944444445
 10
11.17621111111111
 20
9.750226388888888
 10
11.17621111111111
 20
9.712018055555555
 10
11.17621111111111
 20
9.680768055555555
 10
11.17621111111111
 20
9.659934722222223
 10
11.17621111111111
 20
9.646031944444445
 10
11.17621111111111
 20
9.642559722222221
  0
LWPOLYLINE
  5
19A
330
2
100
AcDbEntity
  8
PDF_Layer 1
 62
     7
420
 16777215
370
    70
100
AcDbPolyline
 90
       18
 70
     0
 43
0.0
 10
11.20051666666666
 20
9.642559722222221
 10
11.20051666666666
 20
9.646031944444445
 10
11.20051666666666
 20
9.659934722222223
 10
11.20051666666666
 20
9.680768055555555
 10
11.20051666666666
 20
9.712018055555555
 10
11.20051666666666
 20
9.750226388888888
 10
11.20051666666666
 20
9.791906944444445
 10
11.20051666666666
 20
9.837045833333332
 10
11.20051666666666
 20
9.885670833333332
 10
11.20051666666666
 20
9.934295833333333
 10
11.20051666666666
 20
9.982920833333334
 10
11.20051666666666
 20
10.02805972222222
 10
11.20051666666666
 20
10.06974027777778
 10
11.20051666666666
 20
10.10793472222222
 10
11.20051666666666
 20
10.13919861111111
 10
11.20051666666666
 20
10.16003194444444
 10
11.20051666666666
 20
10.17392083333333
 10
11.20051666666666
 20
10.17740694444444
  0
LWPOLYLINE
  5
19C
330
2
100
AcDbEntity
  8
PDF_Layer 1
 62
     7
420
 16777215
370
    70
100
AcDbPolyline
 90
       16
 70
     0
 43
0.0
 10
11.23525277777777
 20
10.13572638888889
 10
11.23525277777777
 20
10.13225416666666
 10
11.23525277777777
 20
10.11836527777778
 10
11.23525277777777
 20
10.09404583333333
 10
11.23525277777777
 20
10.06626805555555
 10
11.23525277777777
 20
10.02805972222222
 10
11.23525277777777
 20
9.989865277777777
 10
11.23525277777777
 20
9.944712499999999
 10
11.23525277777777
 20
9.899559722222221
 10
11.23525277777777
 20
9.854420833333334
 10
11.23525277777777
 20
9.809268055555556
 10
11.23525277777777
 20
9.771059722222222
 10
11.23525277777777
 20
9.739809722222222
 10
11.23525277777777
 20
9.712018055555555
 10
11.23525277777777
 20
9.694656944444444
 10
11.23525277777777
 20
9.684240277777778
  0
LWPOLYLINE
  5
19D
330
2
100
AcDbEntity
  8
PDF_Layer 1
 62
     7
420
 16777215
370
    70
100
AcDbPolyline
 90
       17
 70
     0
 43
0.0
 10
13.35375277777777
 20
10.16003194444444
 10
13.35375277777777
 20
10.15655972222222
 10
13.35375277777777
 20
10.14267083333333
 10
13.35375277777777
 20
10.1218375
 10
13.35375277777777
 20
10.09057361111111
 10
13.35375277777777
 20
10.05585138888889
 10
13.35375277777777
 20
10.01417083333333
 10
13.35375277777777
 20
9.969018055555554
 10
13.35375277777777
 20
9.920406944444444
 10
13.35375277777777
 20
9.875254166666666
 10
13.35375277777777
 20
9.826629166666666
 10
13.35375277777777
 20
9.784948611111111
 10
13.35375277777777
 20
9.746754166666667
 10
13.35375277777777
 20
9.712018055555555
 10
13.35375277777777
 20
9.687712499999999
 10
13.35375277777777
 20
9.666879166666667
 10
13.35375277777777
 20
9.659934722222223
  0
LWPOLYLINE
  5
19E
330
2
100
AcDbEntity
  8
PDF_Layer 1
 62
     7
420
 16777215
370
    70
100
AcDbPolyline
 90
       18
 70
     0
 43
0.0
 10
13.33639166666666
 20
9.642559722222221
 10
13.33639166666666
 20
9.646031944444445
 10
13.33639166666666
 20
9.659934722222223
 10
13.33639166666666
 20
9.680768055555555
 10
13.33639166666666
 20
9.712018055555555
 10
13.33639166666666
 20
9.750226388888888
 10
13.33639166666666
 20
9.791906944444445
 10
13.33639166666666
 20
9.837045833333332
 10
13.33639166666666
 20
9.885670833333332
 10
13.33639166666666
 20
9.934295833333333
 10
13.33639166666666
 20
9.982920833333334
 10
13.33639166666666
 20
10.02805972222222
 10
13.33639166666666
 20
10.06974027777778
 10
13.33639166666666
 20
10.10793472222222
 10
13.33639166666666
 20
10.13919861111111
 10
13.33639166666666
 20
10.16003194444444
 10
13.33639166666666
 20
10.17392083333333
 10
13.33639166666666
 20
10.17740694444444
  0
LWPOLYLINE
  5
19F
330
2
100
AcDbEntity
  8
PDF_Layer 1
 62
     7
420
 16777215
370
    70
100
AcDbPolyline
 90
       18
 70
     0
 43
0.0
 10
13.31208611111111
 20
10.17740694444444
 10
13.31208611111111
 20
10.17392083333333
 10
13.31208611111111
 20
10.16003194444444
 10
13.31208611111111
 20
10.13919861111111
 10
13.31208611111111
 20
10.10793472222222
 10
13.31208611111111
 20
10.06974027777778
 10
13.31208611111111
 20
10.02805972222222
 10
13.31208611111111
 20
9.982920833333334
 10
13.31208611111111
 20
9.934295833333333
 10
13.31208611111111
 20
9.885670833333332
 10
13.31208611111111
 20
9.837045833333332
 10
13.31208611111111
 20
9.791906944444445
 10
13.31208611111111
 20
9.750226388888888
 10
13.31208611111111
 20
9.712018055555555
 10
13.31208611111111
 20
9.680768055555555
 10
13.31208611111111
 20
9.659934722222223
 10
13.31208611111111
 20
9.646031944444445
 10
13.31208611111111
 20
9.642559722222221
  0
LWPOLYLINE
  5
1A1
330
2
100
AcDbEntity
  8
PDF_Layer 1
 62
     7
420
 16777215
370
    70
100
AcDbPolyline
 90
       16
 70
     0
 43
0.0
 10
13.27387777777778
 20
9.684240277777778
 10
13.27387777777778
 20
9.687712499999999
 10
13.27387777777778
 20
9.701601388888889
 10
13.27387777777778
 20
9.725920833333333
 10
13.27387777777778
 20
9.753698611111111
 10
13.27387777777778
 20
9.791906944444445
 10
13.27387777777778
 20
9.830101388888888
 10
13.27387777777778
 20
9.875254166666666
 10
13.27387777777778
 20
9.920406944444444
 10
13.27387777777778
 20
9.965545833333333
 10
13.27387777777778
 20
10.01069861111111
 10
13.27387777777778
 20
10.04890694444444
 10
13.27387777777778
 20
10.08015694444444
 10
13.27387777777778
 20
10.10793472222222
 10
13.27387777777778
 20
10.12530972222222
 10
13.27387777777778
 20
10.13572638888889
  0
LWPOLYLINE
  5
1A2
330
2
100
AcDbEntity
  8
PDF_Layer 1
 62
     7
420
 16777215
370
    70
100
AcDbPolyline
 90
       18
 70
     0
 43
0.0
 10
5.435419444444443
 20
10.17740694444444
 10
5.435419444444443
 20
10.17392083333333
 10
5.435419444444443
 20
10.16003194444444
 10
5.435419444444443
 20
10.13919861111111
 10
5.435419444444443
 20
10.10793472222222
 10
5.435419444444443
 20
10.06974027777778
 10
5.435419444444443
 20
10.02805972222222
 10
5.435419444444443
 20
9.982920833333334
 10
5.435419444444443
 20
9.934295833333333
 10
5.435419444444443
 20
9.885670833333332
 10
5.435419444444443
 20
9.837045833333332
 10
5.435419444444443
 20
9.791906944444445
 10
5.435419444444443
 20
9.750226388888888
 10
5.435419444444443
 20
9.712018055555555
 10
5.435419444444443
 20
9.680768055555555
 10
5.435419444444443
 20
9.659934722222223
 10
5.435419444444443
 20
9.646031944444445
 10
5.435419444444443
 20
9.642559722222221
  0
LWPOLYLINE
  5
1A3
330
2
100
AcDbEntity
  8
PDF_Layer 1
 62
     7
420
 16777215
370
    70
100
AcDbPolyline
 90
       17
 70
     0
 43
0.0
 10
5.477099999999998
 20
10.16003194444444
 10
5.477099999999998
 20
10.15655972222222
 10
5.477099999999998
 20
10.14267083333333
 10
5.477099999999998
 20
10.1218375
 10
5.477099999999998
 20
10.09057361111111
 10
5.477099999999998
 20
10.05585138888889
 10
5.477099999999998
 20
10.01417083333333
 10
5.477099999999998
 20
9.969018055555554
 10
5.477099999999998
 20
9.920406944444444
 10
5.477099999999998
 20
9.875254166666666
 10
5.477099999999998
 20
9.826629166666666
 10
5.477099999999998
 20
9.784948611111111
 10
5.477099999999998
 20
9.746754166666667
 10
5.477099999999998
 20
9.712018055555555
 10
5.477099999999998
 20
9.687712499999999
 10
5.477099999999998
 20
9.666879166666667
 10
5.477099999999998
 20
9.659934722222223
  0
LWPOLYLINE
  5
1A4
330
2
100
AcDbEntity
  8
PDF_Layer 1
 62
     7
420
 16777215
370
    70
100
AcDbPolyline
 90
       18
 70
     0
 43
0.0
 10
5.459738888888887
 20
9.642559722222221
 10
5.459738888888887
 20
9.646031944444445
 10
5.459738888888887
 20
9.659934722222223
 10
5.459738888888887
 20
9.680768055555555
 10
5.459738888888887
 20
9.712018055555555
 10
5.459738888888887
 20
9.750226388888888
 10
5.459738888888887
 20
9.791906944444445
 10
5.459738888888887
 20
9.837045833333332
 10
5.459738888888887
 20
9.885670833333332
 10
5.459738888888887
 20
9.934295833333333
 10
5.459738888888887
 20
9.982920833333334
 10
5.459738888888887
 20
10.02805972222222
 10
5.459738888888887
 20
10.06974027777778
 10
5.459738888888887
 20
10.10793472222222
 10
5.459738888888887
 20
10.13919861111111
 10
5.459738888888887
 20
10.16003194444444
 10
5.459738888888887
 20
10.17392083333333
 10
5.459738888888887
 20
10.17740694444444
  0
LWPOLYLINE
  5
1A6
330
2
100
AcDbEntity
  8
PDF_Layer 1
 62
     7
420
 16777215
370
    70
100
AcDbPolyline
 90
       16
 70
     0
 43
0.0
 10
5.40069722222222
 20
9.684240277777778
 10
5.40069722222222
 20
9.687712499999999
 10
5.40069722222222
 20
9.701601388888889
 10
5.40069722222222
 20
9.725920833333333
 10
5.40069722222222
 20
9.753698611111111
 10
5.40069722222222
 20
9.791906944444445
 10
5.40069722222222
 20
9.830101388888888
 10
5.40069722222222
 20
9.875254166666666
 10
5.40069722222222
 20
9.920406944444444
 10
5.40069722222222
 20
9.965545833333333
 10
5.40069722222222
 20
10.01069861111111
 10
5.40069722222222
 20
10.04890694444444
 10
5.40069722222222
 20
10.08015694444444
 10
5.40069722222222
 20
10.10793472222222
 10
5.40069722222222
 20
10.12530972222222
 10
5.40069722222222
 20
10.13572638888889
  0
LWPOLYLINE
  5
1A7
330
2
100
AcDbEntity
  8
PDF_Layer 1
 62
     7
420
 16777215
370
    70
100
AcDbPolyline
 90
       18
 70
     0
 43
0.0
 10
4.112224999999998
 20
10.96575416666667
 10
4.11569722222222
 20
10.96575416666667
 10
4.129599999999998
 20
10.96575416666667
 10
4.150433333333332
 20
10.96575416666667
 10
4.181683333333332
 20
10.96575416666667
 10
4.216419444444442
 20
10.96575416666667
 10
4.26157222222222
 20
10.96575416666667
 10
4.306711111111109
 20
10.96575416666667
 10
4.355336111111109
 20
10.96575416666667
 10
4.403961111111109
 20
10.96575416666667
 10
4.452586111111109
 20
10.96575416666667
 10
4.497724999999998
 20
10.96575416666667
 10
4.539405555555553
 20
10.96575416666667
 10
4.577613888888887
 20
10.96575416666667
 10
4.605391666666665
 20
10.96575416666667
 10
4.629697222222221
 20
10.96575416666667
 10
4.643599999999998
 20
10.96575416666667
 10
4.64707222222222
 20
10.96575416666667
  0
LWPOLYLINE
  5
1A8
330
2
100
AcDbEntity
  8
PDF_Layer 1
 62
     7
420
 16777215
370
    70
100
AcDbPolyline
 90
       18
 70
     0
 43
0.0
 10
4.64707222222222
 20
10.99007361111111
 10
4.643599999999998
 20
10.99007361111111
 10
4.629697222222221
 20
10.99007361111111
 10
4.605391666666665
 20
10.99007361111111
 10
4.577613888888887
 20
10.99007361111111
 10
4.539405555555553
 20
10.99007361111111
 10
4.497724999999998
 20
10.99007361111111
 10
4.452586111111109
 20
10.99007361111111
 10
4.403961111111109
 20
10.99007361111111
 10
4.355336111111109
 20
10.99007361111111
 10
4.306711111111109
 20
10.99007361111111
 10
4.26157222222222
 20
10.99007361111111
 10
4.216419444444442
 20
10.99007361111111
 10
4.181683333333332
 20
10.99007361111111
 10
4.150433333333332
 20
10.99007361111111
 10
4.129599999999998
 20
10.99007361111111
 10
4.11569722222222
 20
10.99007361111111
 10
4.112224999999998
 20
10.99007361111111
  0
LWPOLYLINE
  5
1A9
330
2
100
AcDbEntity
  8
PDF_Layer 1
 62
     7
420
 16777215
370
    70
100
AcDbPolyline
 90
       17
 70
     0
 43
0.0
 10
4.126127777777776
 20
11.00743472222222
 10
4.133072222222221
 20
11.00743472222222
 10
4.146961111111109
 20
11.00743472222222
 10
4.167794444444442
 20
11.00743472222222
 10
4.19558611111111
 20
11.00743472222222
 10
4.233780555555553
 20
11.00743472222222
 10
4.275461111111109
 20
11.00743472222222
 10
4.320613888888887
 20
11.00743472222222
 10
4.365752777777776
 20
11.00743472222222
 10
4.414377777777776
 20
11.00743472222222
 10
4.463002777777775
 20
11.00743472222222
 10
4.504669444444442
 20
11.00743472222222
 10
4.542877777777776
 20
11.00743472222222
 10
4.577613888888887
 20
11.00743472222222
 10
4.601919444444442
 20
11.00743472222222
 10
4.619280555555554
 20
11.00743472222222
 10
4.629697222222221
 20
11.00743472222222
  0
LWPOLYLINE
  5
1AA
330
2
100
AcDbEntity
  8
PDF_Layer 1
 62
     7
420
 16777215
370
    70
100
AcDbPolyline
 90
       17
 70
     0
 43
0.0
 10
4.143488888888887
 20
11.02826805555555
 10
4.146961111111109
 20
11.02826805555555
 10
4.160849999999998
 20
11.02826805555555
 10
4.185155555555554
 20
11.02826805555555
 10
4.21294722222222
 20
11.02826805555555
 10
4.247669444444442
 20
11.02826805555555
 10
4.289349999999997
 20
11.02826805555555
 10
4.334502777777776
 20
11.02826805555555
 10
4.379655555555553
 20
11.02826805555555
 10
4.424794444444442
 20
11.02826805555555
 10
4.46994722222222
 20
11.02826805555555
 10
4.511627777777776
 20
11.02826805555555
 10
4.546349999999998
 20
11.02826805555555
 10
4.574141666666665
 20
11.02826805555555
 10
4.598447222222221
 20
11.02826805555555
 10
4.608863888888887
 20
11.02826805555555
 10
4.615808333333331
 20
11.02826805555555
  0
LWPOLYLINE
  5
1AB
330
2
100
AcDbEntity
  8
PDF_Layer 1
 62
     7
420
 16777215
370
    70
100
AcDbPolyline
 90
       16
 70
     0
 43
0.0
 10
4.605391666666665
 20
10.93103194444444
 10
4.598447222222221
 20
10.93103194444444
 10
4.588030555555554
 20
10.93103194444444
 10
4.563711111111109
 20
10.93103194444444
 10
4.535933333333331
 20
10.93103194444444
 10
4.497724999999998
 20
10.93103194444444
 10
4.456058333333331
 20
10.93103194444444
 10
4.414377777777776
 20
10.93103194444444
 10
4.369224999999998
 20
10.93103194444444
 10
4.324086111111109
 20
10.93103194444444
 10
4.278933333333331
 20
10.93103194444444
 10
4.240724999999998
 20
10.93103194444444
 10
4.209474999999998
 20
10.93103194444444
 10
4.181683333333332
 20
10.93103194444444
 10
4.164322222222221
 20
10.93103194444444
 10
4.153905555555554
 20
10.93103194444444
  0
LWPOLYLINE
  5
1AC
330
2
100
AcDbEntity
  8
PDF_Layer 1
 62
     7
420
 16777215
370
    70
100
AcDbPolyline
 90
       18
 70
     0
 43
0.0
 10
4.629697222222221
 20
8.812531944444444
 10
4.626224999999998
 20
8.812531944444444
 10
4.61233611111111
 20
8.812531944444444
 10
4.591502777777776
 20
8.812531944444444
 10
4.560238888888887
 20
8.812531944444444
 10
4.525516666666664
 20
8.812531944444444
 10
4.483836111111109
 20
8.812531944444444
 10
4.438683333333331
 20
8.812531944444444
 10
4.390072222222221
 20
8.812531944444444
 10
4.344919444444443
 20
8.812531944444444
 10
4.296294444444442
 20
8.812531944444444
 10
4.254627777777775
 20
8.812531944444444
 10
4.21294722222222
 20
8.812531944444444
 10
4.181683333333332
 20
8.812531944444444
 10
4.157377777777776
 20
8.812531944444444
 10
4.136544444444442
 20
8.812531944444444
 10
4.129599999999998
 20
8.812531944444444
 10
4.126127777777776
 20
8.812531944444444
  0
LWPOLYLINE
  5
1AD
330
2
100
AcDbEntity
  8
PDF_Layer 1
 62
     7
420
 16777215
370
    70
100
AcDbPolyline
 90
       18
 70
     0
 43
0.0
 10
4.112224999999998
 20
8.829893055555555
 10
4.11569722222222
 20
8.829893055555555
 10
4.129599999999998
 20
8.829893055555555
 10
4.150433333333332
 20
8.829893055555555
 10
4.181683333333332
 20
8.829893055555555
 10
4.216419444444442
 20
8.829893055555555
 10
4.26157222222222
 20
8.829893055555555
 10
4.306711111111109
 20
8.829893055555555
 10
4.355336111111109
 20
8.829893055555555
 10
4.403961111111109
 20
8.829893055555555
 10
4.452586111111109
 20
8.829893055555555
 10
4.497724999999998
 20
8.829893055555555
 10
4.539405555555553
 20
8.829893055555555
 10
4.577613888888887
 20
8.829893055555555
 10
4.605391666666665
 20
8.829893055555555
 10
4.629697222222221
 20
8.829893055555555
 10
4.643599999999998
 20
8.829893055555555
 10
4.64707222222222
 20
8.829893055555555
  0
LWPOLYLINE
  5
1AE
330
2
100
AcDbEntity
  8
PDF_Layer 1
 62
     7
420
 16777215
370
    70
100
AcDbPolyline
 90
       18
 70
     0
 43
0.0
 10
4.64707222222222
 20
8.8542125
 10
4.643599999999998
 20
8.8542125
 10
4.629697222222221
 20
8.8542125
 10
4.605391666666665
 20
8.8542125
 10
4.577613888888887
 20
8.8542125
 10
4.539405555555553
 20
8.8542125
 10
4.497724999999998
 20
8.8542125
 10
4.452586111111109
 20
8.8542125
 10
4.403961111111109
 20
8.8542125
 10
4.355336111111109
 20
8.8542125
 10
4.306711111111109
 20
8.8542125
 10
4.26157222222222
 20
8.8542125
 10
4.216419444444442
 20
8.8542125
 10
4.181683333333332
 20
8.8542125
 10
4.150433333333332
 20
8.8542125
 10
4.129599999999998
 20
8.8542125
 10
4.11569722222222
 20
8.8542125
 10
4.112224999999998
 20
8.8542125
  0
LWPOLYLINE
  5
1B0
330
2
100
AcDbEntity
  8
PDF_Layer 1
 62
     7
420
 16777215
370
    70
100
AcDbPolyline
 90
       17
 70
     0
 43
0.0
 10
4.153905555555554
 20
8.888934722222222
 10
4.157377777777776
 20
8.888934722222222
 10
4.171266666666666
 20
8.888934722222222
 10
4.19558611111111
 20
8.888934722222222
 10
4.223363888888886
 20
8.888934722222222
 10
4.26157222222222
 20
8.888934722222222
 10
4.299766666666664
 20
8.888934722222222
 10
4.344919444444443
 20
8.888934722222222
 10
4.390072222222221
 20
8.888934722222222
 10
4.435211111111109
 20
8.888934722222222
 10
4.476891666666665
 20
8.888934722222222
 10
4.518572222222219
 20
8.888934722222222
 10
4.549822222222219
 20
8.888934722222222
 10
4.577613888888887
 20
8.888934722222222
 10
4.594974999999998
 20
8.888934722222222
 10
4.601919444444442
 20
8.888934722222222
 10
4.605391666666665
 20
8.888934722222222
  0
LWPOLYLINE
  5
1B1
330
2
100
AcDbEntity
  8
PDF_Layer 1
 62
     7
420
 16777215
370
    70
100
AcDbPolyline
 90
       18
 70
     0
 43
0.0
 10
11.98889166666666
 20
10.96575416666667
 10
11.99236388888889
 20
10.96575416666667
 10
12.00625277777777
 20
10.96575416666667
 10
12.02708611111111
 20
10.96575416666667
 10
12.05834999999999
 20
10.96575416666667
 10
12.09307222222222
 20
10.96575416666667
 10
12.13475277777777
 20
10.96575416666667
 10
12.18337777777777
 20
10.96575416666667
 10
12.23198888888888
 20
10.96575416666667
 10
12.28061388888888
 20
10.96575416666667
 10
12.32923888888889
 20
10.96575416666667
 10
12.37437777777777
 20
10.96575416666667
 10
12.41605833333333
 20
10.96575416666667
 10
12.45426666666666
 20
10.96575416666667
 10
12.48204444444444
 20
10.96575416666667
 10
12.50636388888888
 20
10.96575416666667
 10
12.51678055555555
 20
10.96575416666667
 10
12.523725
 20
10.96575416666667
  0
LWPOLYLINE
  5
1B2
330
2
100
AcDbEntity
  8
PDF_Layer 1
 62
     7
420
 16777215
370
    70
100
AcDbPolyline
 90
       18
 70
     0
 43
0.0
 10
12.523725
 20
10.99007361111111
 10
12.51678055555555
 20
10.99007361111111
 10
12.50636388888888
 20
10.99007361111111
 10
12.48204444444444
 20
10.99007361111111
 10
12.45426666666666
 20
10.99007361111111
 10
12.41605833333333
 20
10.99007361111111
 10
12.37437777777777
 20
10.99007361111111
 10
12.32923888888889
 20
10.99007361111111
 10
12.28061388888888
 20
10.99007361111111
 10
12.23198888888888
 20
10.99007361111111
 10
12.18337777777777
 20
10.99007361111111
 10
12.13475277777777
 20
10.99007361111111
 10
12.09307222222222
 20
10.99007361111111
 10
12.05834999999999
 20
10.99007361111111
 10
12.02708611111111
 20
10.99007361111111
 10
12.00625277777777
 20
10.99007361111111
 10
11.99236388888889
 20
10.99007361111111
 10
11.98889166666666
 20
10.99007361111111
  0
LWPOLYLINE
  5
1B3
330
2
100
AcDbEntity
  8
PDF_Layer 1
 62
     7
420
 16777215
370
    70
100
AcDbPolyline
 90
       17
 70
     0
 43
0.0
 10
12.00278055555555
 20
11.00743472222222
 10
12.00625277777777
 20
11.00743472222222
 10
12.02014166666666
 20
11.00743472222222
 10
12.04444722222222
 20
11.00743472222222
 10
12.07223888888888
 20
11.00743472222222
 10
12.11043333333333
 20
11.00743472222222
 10
12.15211388888889
 20
11.00743472222222
 10
12.19726666666666
 20
11.00743472222222
 10
12.24240555555555
 20
11.00743472222222
 10
12.29103055555555
 20
11.00743472222222
 10
12.33618333333333
 20
11.00743472222222
 10
12.38133611111111
 20
11.00743472222222
 10
12.41953055555555
 20
11.00743472222222
 10
12.45426666666666
 20
11.00743472222222
 10
12.47857222222222
 20
11.00743472222222
 10
12.49593333333333
 20
11.00743472222222
 10
12.50636388888888
 20
11.00743472222222
  0
LWPOLYLINE
  5
1B4
330
2
100
AcDbEntity
  8
PDF_Layer 1
 62
     7
420
 16777215
370
    70
100
AcDbPolyline
 90
       17
 70
     0
 43
0.0
 10
12.02014166666666
 20
11.02826805555555
 10
12.02361388888889
 20
11.02826805555555
 10
12.03750277777777
 20
11.02826805555555
 10
12.05834999999999
 20
11.02826805555555
 10
12.0896
 20
11.02826805555555
 10
12.12433611111111
 20
11.02826805555555
 10
12.16600277777778
 20
11.02826805555555
 10
12.20768333333333
 20
11.02826805555555
 10
12.25630833333333
 20
11.02826805555555
 10
12.30144722222222
 20
11.02826805555555
 10
12.3466
 20
11.02826805555555
 10
12.38480833333333
 20
11.02826805555555
 10
12.42300277777777
 20
11.02826805555555
 10
12.45079444444444
 20
11.02826805555555
 10
12.47162777777777
 20
11.02826805555555
 10
12.48551666666666
 20
11.02826805555555
 10
12.48898888888889
 20
11.02826805555555
  0
LWPOLYLINE
  5
1B5
330
2
100
AcDbEntity
  8
PDF_Layer 1
 62
     7
420
 16777215
370
    70
100
AcDbPolyline
 90
       16
 70
     0
 43
0.0
 10
12.47857222222222
 20
10.93103194444444
 10
12.4751
 20
10.93103194444444
 10
12.46121111111111
 20
10.93103194444444
 10
12.44037777777778
 20
10.93103194444444
 10
12.40911388888888
 20
10.93103194444444
 10
12.37437777777777
 20
10.93103194444444
 10
12.33271111111111
 20
10.93103194444444
 10
12.28755833333333
 20
10.93103194444444
 10
12.24240555555555
 20
10.93103194444444
 10
12.19726666666666
 20
10.93103194444444
 10
12.15558611111111
 20
10.93103194444444
 10
12.11739166666666
 20
10.93103194444444
 10
12.08265555555555
 20
10.93103194444444
 10
12.05834999999999
 20
10.93103194444444
 10
12.040975
 20
10.93103194444444
 10
12.03055833333333
 20
10.93103194444444
  0
LWPOLYLINE
  5
1B6
330
2
100
AcDbEntity
  8
PDF_Layer 1
 62
     7
420
 16777215
370
    70
100
AcDbPolyline
 90
        8
 70
     0
 43
0.0
 10
11.87080833333333
 20
9.760643055555554
 10
11.88122499999999
 20
9.729393055555556
 10
11.912475
 20
9.677295833333333
 10
11.95068333333333
 20
9.628670833333334
 10
11.99583611111111
 20
9.586990277777777
 10
12.04791944444444
 20
9.552268055555556
 10
12.10348888888888
 20
9.524476388888889
 10
12.10696111111111
 20
9.524476388888889
  0
LWPOLYLINE
  5
1B7
330
2
100
AcDbEntity
  8
PDF_Layer 1
 62
     7
420
 16777215
370
    70
100
AcDbPolyline
 90
        7
 70
     0
 43
0.0
 10
12.40564166666666
 20
9.524476388888889
 10
12.46121111111111
 20
9.552268055555556
 10
12.51330833333333
 20
9.586990277777777
 10
12.55844722222222
 20
9.628670833333334
 10
12.59665555555555
 20
9.677295833333333
 10
12.62790555555555
 20
9.729393055555556
 10
12.64180833333333
 20
9.760643055555554
  0
LWPOLYLINE
  5
1B8
330
2
100
AcDbEntity
  8
PDF_Layer 1
 62
     7
420
 16777215
370
    70
100
AcDbPolyline
 90
        7
 70
     0
 43
0.0
 10
12.64180833333333
 20
10.05932361111111
 10
12.62790555555555
 20
10.09057361111111
 10
12.59665555555555
 20
10.14267083333333
 10
12.55844722222222
 20
10.19129583333333
 10
12.51330833333333
 20
10.2329625
 10
12.46121111111111
 20
10.26769861111111
 10
12.40564166666666
 20
10.29547638888889
  0
LWPOLYLINE
  5
1B9
330
2
100
AcDbEntity
  8
PDF_Layer 1
 62
     7
420
 16777215
370
    70
100
AcDbPolyline
 90
        8
 70
     0
 43
0.0
 10
12.10696111111111
 20
10.29547638888889
 10
12.10348888888888
 20
10.29547638888889
 10
12.04791944444444
 20
10.26769861111111
 10
11.99583611111111
 20
10.2329625
 10
11.95068333333333
 20
10.19129583333333
 10
11.912475
 20
10.14267083333333
 10
11.88122499999999
 20
10.09057361111111
 10
11.87080833333333
 20
10.05932361111111
  0
LWPOLYLINE
  5
1BA
330
2
100
AcDbEntity
  8
PDF_Layer 1
 62
     7
420
 16777215
370
    70
100
AcDbPolyline
 90
        9
 70
     0
 43
0.0
 10
11.78744722222222
 20
10.06279583333333
 10
11.80482222222222
 20
10.1044625
 10
11.83607222222222
 20
10.16697638888889
 10
11.87428055555555
 20
10.21907361111111
 10
11.91943333333333
 20
10.27117083333333
 10
11.97151666666666
 20
10.31285138888889
 10
12.02708611111111
 20
10.34757361111111
 10
12.0896
 20
10.37189305555555
 10
12.10001666666666
 20
10.3788375
  0
LWPOLYLINE
  5
1BB
330
2
100
AcDbEntity
  8
PDF_Layer 1
 62
     7
420
 16777215
370
    70
100
AcDbPolyline
 90
        9
 70
     0
 43
0.0
 10
12.40911388888888
 20
10.3788375
 10
12.41953055555555
 20
10.37189305555555
 10
12.48204444444444
 20
10.34757361111111
 10
12.53761388888888
 20
10.31285138888889
 10
12.58971111111111
 20
10.27117083333333
 10
12.63833611111111
 20
10.21907361111111
 10
12.67653055555555
 20
10.16697638888889
 10
12.70779444444444
 20
10.1044625
 10
12.72168333333333
 20
10.06279583333333
  0
LWPOLYLINE
  5
1BC
330
2
100
AcDbEntity
  8
PDF_Layer 1
 62
     7
420
 16777215
370
    70
100
AcDbPolyline
 90
        9
 70
     0
 43
0.0
 10
12.72168333333333
 20
9.757170833333333
 10
12.70779444444444
 20
9.715490277777778
 10
12.67653055555555
 20
9.652976388888889
 10
12.63833611111111
 20
9.600893055555555
 10
12.58971111111111
 20
9.548795833333333
 10
12.53761388888888
 20
9.507115277777778
 10
12.48204444444444
 20
9.472393055555555
 10
12.41953055555555
 20
9.44807361111111
 10
12.40911388888888
 20
9.441129166666666
  0
LWPOLYLINE
  5
1BD
330
2
100
AcDbEntity
  8
PDF_Layer 1
 62
     7
420
 16777215
370
    70
100
AcDbPolyline
 90
        9
 70
     0
 43
0.0
 10
12.10001666666666
 20
9.441129166666666
 10
12.0896
 20
9.44807361111111
 10
12.02708611111111
 20
9.472393055555555
 10
11.97151666666666
 20
9.507115277777778
 10
11.91943333333333
 20
9.548795833333333
 10
11.87428055555555
 20
9.600893055555555
 10
11.83607222222222
 20
9.652976388888889
 10
11.80482222222222
 20
9.715490277777778
 10
11.78744722222222
 20
9.757170833333333
  0
ARC
  5
1BE
330
2
100
AcDbEntity
  8
PDF_Layer 1
 62
     7
420
 16777215
370
    70
100
AcDbCircle
 10
12.24952663868505
 20
9.903212505680039
 30
0.0
 40
0.9212231461007707
100
AcDbArc
 50
192.4203621717368
 51
257.580772162303
  0
LWPOLYLINE
  5
1BF
330
2
100
AcDbEntity
  8
PDF_Layer 1
 62
     7
420
 16777215
370
    70
100
AcDbPolyline
 90
       14
 70
     0
 43
0.0
 10
12.45773888888888
 20
9.003545833333333
 10
12.46121111111111
 20
9.003545833333333
 10
12.55150277777777
 20
9.027851388888889
 10
12.63833611111111
 20
9.062587500000001
 10
12.71821111111111
 20
9.104254166666667
 10
12.79808611111111
 20
9.156351388888889
 10
12.87101666666666
 20
9.211920833333334
 10
12.93700277777777
 20
9.277906944444444
 10
12.99604444444444
 20
9.347365277777777
 10
13.04814166666666
 20
9.423768055555555
 10
13.09329444444444
 20
9.507115277777778
 10
13.12801666666666
 20
9.590462500000001
 10
13.15580833333333
 20
9.680768055555555
 10
13.16275277777777
 20
9.70507361111111
  0
LWPOLYLINE
  5
1C0
330
2
100
AcDbEntity
  8
PDF_Layer 1
 62
     7
420
 16777215
370
    70
100
AcDbPolyline
 90
       14
 70
     0
 43
0.0
 10
13.16275277777777
 20
10.11489305555555
 10
13.15580833333333
 20
10.13919861111111
 10
13.12801666666666
 20
10.22949027777777
 10
13.09329444444444
 20
10.31285138888889
 10
13.04814166666666
 20
10.39619861111111
 10
12.99604444444444
 20
10.47260138888889
 10
12.93700277777777
 20
10.54205972222222
 10
12.87101666666666
 20
10.60804583333333
 10
12.79808611111111
 20
10.66361527777778
 10
12.71821111111111
 20
10.7157125
 10
12.63833611111111
 20
10.75737916666666
 10
12.55150277777777
 20
10.79211527777778
 10
12.46121111111111
 20
10.81642083333333
 10
12.45773888888888
 20
10.81642083333333
  0
ARC
  5
1C1
330
2
100
AcDbEntity
  8
PDF_Layer 1
 62
     7
420
 16777215
370
    70
100
AcDbCircle
 10
12.24948190166395
 20
9.916798898893439
 30
0.0
 40
0.9211698344024462
100
AcDbArc
 50
102.4171088003241
 51
167.5817568656361
  0
ARC
  5
1C2
330
2
100
AcDbEntity
  8
PDF_Layer 1
 62
     7
420
 16777215
370
    70
100
AcDbCircle
 10
12.25215707834943
 20
9.914109789839674
 30
0.0
 40
0.9420774294390348
100
AcDbArc
 50
102.5208547037849
 51
167.4780329835878
  0
ARC
  5
1C3
330
2
100
AcDbEntity
  8
PDF_Layer 1
 62
     7
420
 16777215
370
    70
100
AcDbCircle
 10
12.25150069635489
 20
9.904138372934573
 30
0.0
 40
0.9530034774893813
100
AcDbArc
 50
12.99060703824929
 51
77.28790701389719
  0
ARC
  5
1C4
330
2
100
AcDbEntity
  8
PDF_Layer 1
 62
     7
420
 16777215
370
    70
100
AcDbCircle
 10
12.25145536174185
 20
9.915873849253463
 30
0.0
 40
0.9530578929496273
100
AcDbArc
 50
282.7141489433076
 51
347.0073370045453
  0
ARC
  5
1C5
330
2
100
AcDbEntity
  8
PDF_Layer 1
 62
     7
420
 16777215
370
    70
100
AcDbCircle
 10
12.25220148060609
 20
9.905901279945656
 30
0.0
 40
0.942130403314206
100
AcDbArc
 50
192.5240176947411
 51
257.4770946178853
  0
ARC
  5
1C6
330
2
100
AcDbEntity
  8
PDF_Layer 1
 62
     7
420
 16777215
370
    70
100
AcDbCircle
 10
12.25599365326716
 20
9.908671931880778
 30
0.0
 40
0.9566020327910562
100
AcDbArc
 50
192.5014704446763
 51
257.2237881591286
  0
ARC
  5
1C7
330
2
100
AcDbEntity
  8
PDF_Layer 1
 62
     7
420
 16777215
370
    70
100
AcDbCircle
 10
12.25883037590056
 20
9.907454346321667
 30
0.0
 40
0.9541701446036659
100
AcDbArc
 50
282.45896294951
 51
347.5410370504895
  0
ARC
  5
1C8
330
2
100
AcDbEntity
  8
PDF_Layer 1
 62
     7
420
 16777215
370
    70
100
AcDbCircle
 10
12.25886983014392
 20
9.912533947305915
 30
0.0
 40
0.954126953753192
100
AcDbArc
 50
12.4582059656572
 51
77.5428903839666
  0
ARC
  5
1C9
330
2
100
AcDbEntity
  8
PDF_Layer 1
 62
     7
420
 16777215
370
    70
100
AcDbCircle
 10
12.25595372475156
 20
9.91131662172051
 30
0.0
 40
0.9565583132990663
100
AcDbArc
 50
102.7743533101979
 51
167.4992917489262
  0
ARC
  5
1CA
330
2
100
AcDbEntity
  8
PDF_Layer 1
 62
     7
420
 16777215
370
    70
100
AcDbCircle
 10
12.25118522677409
 20
9.910616992637516
 30
0.0
 40
0.9766302012140645
100
AcDbArc
 50
282.836062101425
 51
347.4335087818805
  0
LWPOLYLINE
  5
1CB
330
2
100
AcDbEntity
  8
PDF_Layer 1
 62
     7
420
 16777215
370
    70
100
AcDbPolyline
 90
       14
 70
     0
 43
0.0
 10
12.04444722222222
 20
8.958393055555555
 10
11.99930833333333
 20
8.972281944444445
 10
11.90900277777777
 20
9.000073611111112
 10
11.82218333333333
 20
9.038268055555555
 10
11.74230833333333
 20
9.083420833333333
 10
11.66241944444444
 20
9.135518055555555
 10
11.59296111111111
 20
9.198031944444444
 10
11.526975
 20
9.264018055555556
 10
11.46794722222222
 20
9.336948611111111
 10
11.41585
 20
9.41682361111111
 10
11.37069722222222
 20
9.500170833333333
 10
11.33596111111111
 20
9.586990277777777
 10
11.31165555555555
 20
9.677295833333333
 10
11.30471111111111
 20
9.698129166666667
  0
LWPOLYLINE
  5
1CC
330
2
100
AcDbEntity
  8
PDF_Layer 1
 62
     7
420
 16777215
370
    70
100
AcDbPolyline
 90
       14
 70
     0
 43
0.0
 10
11.30471111111111
 20
10.1218375
 10
11.31165555555555
 20
10.14267083333333
 10
11.33596111111111
 20
10.2329625
 10
11.37069722222222
 20
10.31979583333333
 10
11.41585
 20
10.40314305555555
 10
11.46794722222222
 20
10.48301805555555
 10
11.526975
 20
10.55594861111111
 10
11.59296111111111
 20
10.62193472222222
 10
11.66241944444444
 20
10.68444861111111
 10
11.74230833333333
 20
10.73654583333333
 10
11.82218333333333
 20
10.78168472222222
 10
11.90900277777777
 20
10.81989305555555
 10
11.99930833333333
 20
10.84767083333333
 10
12.04444722222222
 20
10.86157361111111
  0
ARC
  5
1CD
330
2
100
AcDbEntity
  8
PDF_Layer 1
 62
     7
420
 16777215
370
    70
100
AcDbCircle
 10
12.25118522677412
 20
9.909349674029138
 30
0.0
 40
0.9766302012140608
100
AcDbArc
 50
12.56649121812063
 51
77.16393789857689
  0
LWPOLYLINE
  5
1CE
330
2
100
AcDbEntity
  8
PDF_Layer 1
 62
     7
420
 16777215
370
    70
100
AcDbPolyline
 90
       14
 70
     0
 43
0.0
 10
13.24262777777778
 20
10.12878194444444
 10
13.22873888888889
 20
10.19476805555555
 10
13.19400277777777
 20
10.28505972222222
 10
13.15580833333333
 20
10.37536527777778
 10
13.10718333333333
 20
10.4587125
 10
13.05161388888889
 20
10.53511527777778
 10
12.9891
 20
10.60804583333333
 10
12.91964166666666
 20
10.67403194444444
 10
12.84323888888889
 20
10.73654583333333
 10
12.76336388888889
 20
10.78864305555555
 10
12.67653055555555
 20
10.83030972222222
 10
12.58623888888888
 20
10.86851805555555
 10
12.49246111111111
 20
10.89629583333333
 10
12.4751
 20
10.89976805555555
  0
LWPOLYLINE
  5
1CF
330
2
100
AcDbEntity
  8
PDF_Layer 1
 62
     7
420
 16777215
370
    70
100
AcDbPolyline
 90
       14
 70
     0
 43
0.0
 10
12.03750277777777
 20
10.89976805555555
 10
12.01666944444444
 20
10.89629583333333
 10
11.92289166666666
 20
10.86851805555555
 10
11.83259999999999
 20
10.83030972222222
 10
11.74925277777777
 20
10.78864305555555
 10
11.66590555555555
 20
10.73654583333333
 10
11.59296111111111
 20
10.67403194444444
 10
11.52350277777777
 20
10.60804583333333
 10
11.45751666666666
 20
10.53511527777778
 10
11.40194722222222
 20
10.4587125
 10
11.35333611111111
 20
10.37536527777778
 10
11.31512777777778
 20
10.28505972222222
 10
11.28387777777777
 20
10.19476805555555
 10
11.26650277777777
 20
10.12878194444444
  0
LWPOLYLINE
  5
1D0
330
2
100
AcDbEntity
  8
PDF_Layer 1
 62
     7
420
 16777215
370
    70
100
AcDbPolyline
 90
       14
 70
     0
 43
0.0
 10
11.26650277777777
 20
9.691184722222223
 10
11.28387777777777
 20
9.625198611111111
 10
11.31512777777778
 20
9.534906944444443
 10
11.35333611111111
 20
9.444601388888889
 10
11.40194722222222
 20
9.361254166666666
 10
11.45751666666666
 20
9.284851388888888
 10
11.52350277777777
 20
9.211920833333334
 10
11.59296111111111
 20
9.145934722222222
 10
11.66590555555555
 20
9.083420833333333
 10
11.74925277777777
 20
9.031323611111112
 10
11.83259999999999
 20
8.989656944444444
 10
11.92289166666666
 20
8.951448611111111
 10
12.01666944444444
 20
8.927143055555555
 10
12.03750277777777
 20
8.920198611111111
  0
LWPOLYLINE
  5
1D1
330
2
100
AcDbEntity
  8
PDF_Layer 1
 62
     7
420
 16777215
370
    70
100
AcDbPolyline
 90
       14
 70
     0
 43
0.0
 10
12.4751
 20
8.920198611111111
 10
12.49246111111111
 20
8.927143055555555
 10
12.58623888888888
 20
8.951448611111111
 10
12.67653055555555
 20
8.989656944444444
 10
12.76336388888889
 20
9.031323611111112
 10
12.84323888888889
 20
9.083420833333333
 10
12.91964166666666
 20
9.145934722222222
 10
12.9891
 20
9.211920833333334
 10
13.05161388888889
 20
9.284851388888888
 10
13.10718333333333
 20
9.361254166666666
 10
13.15580833333333
 20
9.444601388888889
 10
13.19400277777777
 20
9.534906944444443
 10
13.22873888888889
 20
9.625198611111111
 10
13.24262777777778
 20
9.691184722222223
  0
LWPOLYLINE
  5
1D2
330
2
100
AcDbEntity
  8
PDF_Layer 1
 62
     7
420
 16777215
370
    70
100
AcDbPolyline
 90
       27
 70
     0
 43
0.0
 10
12.03055833333333
 20
10.92061527777778
 10
11.99236388888889
 20
10.91018472222222
 10
11.89858611111111
 20
10.87893472222222
 10
11.80829444444444
 20
10.84419861111111
 10
11.72493333333333
 20
10.7955875
 10
11.64505833333333
 20
10.74349027777778
 10
11.56865555555555
 20
10.68097638888889
 10
11.49919722222222
 20
10.61499027777778
 10
11.43668333333333
 20
10.54205972222222
 10
11.38111388888888
 20
10.46218472222222
 10
11.33248888888888
 20
10.3788375
 10
11.29429444444444
 20
10.28853194444444
 10
11.26303055555555
 20
10.19824027777778
 10
11.24566944444444
 20
10.13225416666666
 10
11.26303055555555
 20
10.19824027777778
 10
11.29429444444444
 20
10.28853194444444
 10
11.33248888888888
 20
10.37536527777778
 10
11.38111388888888
 20
10.46218472222222
 10
11.43668333333333
 20
10.54205972222222
 10
11.49919722222222
 20
10.61499027777778
 10
11.56865555555555
 20
10.68097638888889
 10
11.64505833333333
 20
10.74349027777778
 10
11.72493333333333
 20
10.7955875
 10
11.81176666666666
 20
10.84072638888889
 10
11.89858611111111
 20
10.87893472222222
 10
11.99236388888889
 20
10.91018472222222
 10
12.03055833333333
 20
10.91712916666667
  0
LWPOLYLINE
  5
1D3
330
2
100
AcDbEntity
  8
PDF_Layer 1
 62
     7
420
 16777215
370
    70
100
AcDbPolyline
 90
       27
 70
     0
 43
0.0
 10
12.47857222222222
 20
10.91712916666667
 10
12.56539166666666
 20
10.89629583333333
 10
12.65569722222222
 20
10.86157361111111
 10
12.74251666666666
 20
10.81989305555555
 10
12.82586388888888
 20
10.77126805555555
 10
12.90575277777777
 20
10.71224027777778
 10
12.97521111111111
 20
10.64972638888889
 10
13.04119722222222
 20
10.57679583333333
 10
13.10023888888889
 20
10.50039305555555
 10
13.15233611111111
 20
10.42050416666667
 10
13.197475
 20
10.33368472222222
 10
13.23221111111111
 20
10.24339305555555
 10
13.25998888888889
 20
10.14961527777778
 10
13.26346111111111
 20
10.13225416666666
 10
13.25998888888889
 20
10.14961527777778
 10
13.23221111111111
 20
10.24339305555555
 10
13.197475
 20
10.33368472222222
 10
13.15580833333333
 20
10.42050416666667
 10
13.10371111111111
 20
10.50039305555555
 10
13.04466944444444
 20
10.57679583333333
 10
12.97868333333333
 20
10.64972638888889
 10
12.90575277777777
 20
10.71224027777778
 10
12.82586388888888
 20
10.77126805555555
 10
12.74251666666666
 20
10.81989305555555
 10
12.65569722222222
 20
10.86157361111111
 10
12.56539166666666
 20
10.89629583333333
 10
12.47857222222222
 20
10.92061527777778
  0
LWPOLYLINE
  5
1D4
330
2
100
AcDbEntity
  8
PDF_Layer 1
 62
     7
420
 16777215
370
    70
100
AcDbPolyline
 90
       27
 70
     0
 43
0.0
 10
12.47857222222222
 20
8.899351388888888
 10
12.56539166666666
 20
8.923670833333334
 10
12.65569722222222
 20
8.958393055555555
 10
12.74251666666666
 20
9.000073611111112
 10
12.82586388888888
 20
9.048698611111111
 10
12.90575277777777
 20
9.107726388888888
 10
12.97868333333333
 20
9.170240277777777
 10
13.04466944444444
 20
9.243184722222222
 10
13.10371111111111
 20
9.3195875
 10
13.15580833333333
 20
9.3994625
 10
13.197475
 20
9.486281944444444
 10
13.23221111111111
 20
9.576573611111111
 10
13.25998888888889
 20
9.670351388888889
 10
13.26346111111111
 20
9.687712499999999
 10
13.25998888888889
 20
9.670351388888889
 10
13.23221111111111
 20
9.576573611111111
 10
13.197475
 20
9.486281944444444
 10
13.15233611111111
 20
9.3994625
 10
13.10023888888889
 20
9.3195875
 10
13.04119722222222
 20
9.243184722222222
 10
12.97521111111111
 20
9.170240277777777
 10
12.90575277777777
 20
9.107726388888888
 10
12.82586388888888
 20
9.048698611111111
 10
12.74251666666666
 20
9.000073611111112
 10
12.65569722222222
 20
8.958393055555555
 10
12.56539166666666
 20
8.923670833333334
 10
12.47857222222222
 20
8.902823611111111
  0
LWPOLYLINE
  5
1D5
330
2
100
AcDbEntity
  8
PDF_Layer 1
 62
     7
420
 16777215
370
    70
100
AcDbPolyline
 90
       27
 70
     0
 43
0.0
 10
12.03055833333333
 20
8.902823611111111
 10
11.99236388888889
 20
8.909768055555556
 10
11.89858611111111
 20
8.941031944444445
 10
11.81176666666666
 20
8.979240277777778
 10
11.72493333333333
 20
9.024379166666667
 10
11.64505833333333
 20
9.076476388888888
 10
11.56865555555555
 20
9.138990277777777
 10
11.49919722222222
 20
9.204976388888889
 10
11.43668333333333
 20
9.281379166666667
 10
11.38111388888888
 20
9.357781944444445
 10
11.33248888888888
 20
9.444601388888889
 10
11.29429444444444
 20
9.531434722222222
 10
11.26303055555555
 20
9.621726388888889
 10
11.24566944444444
 20
9.687712499999999
 10
11.26303055555555
 20
9.621726388888889
 10
11.29429444444444
 20
9.531434722222222
 10
11.33248888888888
 20
9.444601388888889
 10
11.38111388888888
 20
9.357781944444445
 10
11.43668333333333
 20
9.277906944444444
 10
11.49919722222222
 20
9.204976388888889
 10
11.56865555555555
 20
9.138990277777777
 10
11.64505833333333
 20
9.076476388888888
 10
11.72493333333333
 20
9.024379166666667
 10
11.80829444444444
 20
8.975754166666666
 10
11.89858611111111
 20
8.941031944444445
 10
11.99236388888889
 20
8.909768055555556
 10
12.03055833333333
 20
8.899351388888888
  0
LWPOLYLINE
  5
1DA
330
2
100
AcDbEntity
  8
PDF_Layer 1
 62
     7
420
 16777215
370
    70
100
AcDbPolyline
 90
       14
 70
     0
 43
0.0
 10
13.28083611111111
 20
9.684240277777778
 10
13.26346111111111
 20
9.618254166666666
 10
13.23221111111111
 20
9.524476388888889
 10
13.19053055555555
 20
9.434184722222221
 10
13.14190555555555
 20
9.3508375
 10
13.08634999999999
 20
9.270962499999999
 10
13.02383611111111
 20
9.194559722222223
 10
12.95089166666666
 20
9.125101388888889
 10
12.87448888888889
 20
9.062587500000001
 10
12.79461388888888
 20
9.010490277777778
 10
12.70779444444444
 20
8.961865277777778
 10
12.61748888888888
 20
8.923670833333334
 10
12.523725
 20
8.895879166666667
 10
12.48204444444444
 20
8.8854625
  0
LWPOLYLINE
  5
1DB
330
2
100
AcDbEntity
  8
PDF_Layer 1
 62
     7
420
 16777215
370
    70
100
AcDbPolyline
 90
       14
 70
     0
 43
0.0
 10
12.02708611111111
 20
8.8854625
 10
11.94026666666666
 20
8.909768055555556
 10
11.84648888888888
 20
8.941031944444445
 10
11.75966944444444
 20
8.986184722222223
 10
11.67285
 20
9.034795833333333
 10
11.59643333333333
 20
9.093837500000001
 10
11.52003055555555
 20
9.159823611111111
 10
11.45404444444444
 20
9.232754166666666
 10
11.39500277777777
 20
9.309170833333332
 10
11.34291944444444
 20
9.392504166666666
 10
11.29776666666666
 20
9.479337499999999
 10
11.26303055555555
 20
9.573101388888888
 10
11.23525277777777
 20
9.666879166666667
 10
11.23178055555555
 20
9.684240277777778
  0
LWPOLYLINE
  5
1DC
330
2
100
AcDbEntity
  8
PDF_Layer 1
 62
     7
420
 16777215
370
    70
100
AcDbPolyline
 90
       14
 70
     0
 43
0.0
 10
11.23178055555555
 20
10.13572638888889
 10
11.23525277777777
 20
10.1530875
 10
11.26303055555555
 20
10.24686527777777
 10
11.29776666666666
 20
10.34062916666666
 10
11.34291944444444
 20
10.42744861111111
 10
11.39500277777777
 20
10.51080972222222
 10
11.45404444444444
 20
10.59068472222222
 10
11.52003055555555
 20
10.66014305555555
 10
11.59643333333333
 20
10.72612916666666
 10
11.67285
 20
10.78515694444444
 10
11.75966944444444
 20
10.83378194444444
 10
11.84648888888888
 20
10.87893472222222
 10
11.94026666666666
 20
10.91018472222222
 10
12.02708611111111
 20
10.93450416666666
  0
LWPOLYLINE
  5
1DD
330
2
100
AcDbEntity
  8
PDF_Layer 1
 62
     7
420
 16777215
370
    70
100
AcDbPolyline
 90
       14
 70
     0
 43
0.0
 10
12.48204444444444
 20
10.93450416666666
 10
12.523725
 20
10.9240875
 10
12.61748888888888
 20
10.89629583333333
 10
12.70779444444444
 20
10.85810138888889
 10
12.79461388888888
 20
10.80947638888889
 10
12.87448888888889
 20
10.75737916666666
 10
12.95089166666666
 20
10.69487916666666
 10
13.02383611111111
 20
10.62540694444444
 10
13.08634999999999
 20
10.54900416666666
 10
13.14190555555555
 20
10.46912916666666
 10
13.19053055555555
 20
10.38578194444444
 10
13.23221111111111
 20
10.29547638888889
 10
13.26346111111111
 20
10.2017125
 10
13.28083611111111
 20
10.13572638888889
  0
LWPOLYLINE
  5
1DE
330
2
100
AcDbEntity
  8
PDF_Layer 1
 62
     7
420
 16777215
370
    70
100
AcDbPolyline
 90
        8
 70
     0
 43
0.0
 10
3.994155555555554
 20
9.760643055555554
 10
4.008044444444442
 20
9.729393055555556
 10
4.039294444444442
 20
9.677295833333333
 10
4.077502777777775
 20
9.628670833333334
 10
4.122655555555554
 20
9.586990277777777
 10
4.171266666666666
 20
9.552268055555556
 10
4.22683611111111
 20
9.524476388888889
 10
4.230308333333331
 20
9.524476388888889
  0
LWPOLYLINE
  5
1DF
330
2
100
AcDbEntity
  8
PDF_Layer 1
 62
     7
420
 16777215
370
    70
100
AcDbPolyline
 90
        7
 70
     0
 43
0.0
 10
4.528988888888887
 20
9.524476388888889
 10
4.584558333333331
 20
9.552268055555556
 10
4.636641666666665
 20
9.586990277777777
 10
4.681794444444443
 20
9.628670833333334
 10
4.720002777777776
 20
9.677295833333333
 10
4.751252777777776
 20
9.729393055555556
 10
4.765141666666664
 20
9.760643055555554
  0
LWPOLYLINE
  5
1E0
330
2
100
AcDbEntity
  8
PDF_Layer 1
 62
     7
420
 16777215
370
    70
100
AcDbPolyline
 90
        7
 70
     0
 43
0.0
 10
4.765141666666664
 20
10.05932361111111
 10
4.751252777777776
 20
10.09057361111111
 10
4.720002777777776
 20
10.14267083333333
 10
4.681794444444443
 20
10.19129583333333
 10
4.636641666666665
 20
10.2329625
 10
4.584558333333331
 20
10.26769861111111
 10
4.528988888888887
 20
10.29547638888889
  0
LWPOLYLINE
  5
1E1
330
2
100
AcDbEntity
  8
PDF_Layer 1
 62
     7
420
 16777215
370
    70
100
AcDbPolyline
 90
        8
 70
     0
 43
0.0
 10
4.230308333333331
 20
10.29547638888889
 10
4.22683611111111
 20
10.29547638888889
 10
4.171266666666666
 20
10.26769861111111
 10
4.122655555555554
 20
10.2329625
 10
4.077502777777775
 20
10.19129583333333
 10
4.039294444444442
 20
10.14267083333333
 10
4.008044444444442
 20
10.09057361111111
 10
3.994155555555554
 20
10.05932361111111
  0
LWPOLYLINE
  5
1E2
330
2
100
AcDbEntity
  8
PDF_Layer 1
 62
     7
420
 16777215
370
    70
100
AcDbPolyline
 90
        9
 70
     0
 43
0.0
 10
3.910794444444443
 20
10.06279583333333
 10
3.928169444444442
 20
10.1044625
 10
3.959419444444442
 20
10.16697638888889
 10
3.997627777777776
 20
10.21907361111111
 10
4.042766666666665
 20
10.27117083333333
 10
4.094863888888887
 20
10.31285138888889
 10
4.153905555555554
 20
10.34757361111111
 10
4.21294722222222
 20
10.37189305555555
 10
4.22683611111111
 20
10.3788375
  0
LWPOLYLINE
  5
1E3
330
2
100
AcDbEntity
  8
PDF_Layer 1
 62
     7
420
 16777215
370
    70
100
AcDbPolyline
 90
        9
 70
     0
 43
0.0
 10
4.532461111111109
 20
10.3788375
 10
4.542877777777776
 20
10.37189305555555
 10
4.605391666666665
 20
10.34757361111111
 10
4.664433333333331
 20
10.31285138888889
 10
4.716530555555554
 20
10.27117083333333
 10
4.761669444444443
 20
10.21907361111111
 10
4.799877777777776
 20
10.16697638888889
 10
4.831127777777776
 20
10.1044625
 10
4.845030555555554
 20
10.06279583333333
  0
LWPOLYLINE
  5
1E4
330
2
100
AcDbEntity
  8
PDF_Layer 1
 62
     7
420
 16777215
370
    70
100
AcDbPolyline
 90
        9
 70
     0
 43
0.0
 10
4.845030555555554
 20
9.757170833333333
 10
4.831127777777776
 20
9.715490277777778
 10
4.799877777777776
 20
9.652976388888889
 10
4.761669444444443
 20
9.600893055555555
 10
4.716530555555554
 20
9.548795833333333
 10
4.664433333333331
 20
9.507115277777778
 10
4.605391666666665
 20
9.472393055555555
 10
4.542877777777776
 20
9.44807361111111
 10
4.532461111111109
 20
9.441129166666666
  0
LWPOLYLINE
  5
1E5
330
2
100
AcDbEntity
  8
PDF_Layer 1
 62
     7
420
 16777215
370
    70
100
AcDbPolyline
 90
        9
 70
     0
 43
0.0
 10
4.22683611111111
 20
9.441129166666666
 10
4.21294722222222
 20
9.44807361111111
 10
4.153905555555554
 20
9.472393055555555
 10
4.094863888888887
 20
9.507115277777778
 10
4.042766666666665
 20
9.548795833333333
 10
3.997627777777776
 20
9.600893055555555
 10
3.959419444444442
 20
9.652976388888889
 10
3.928169444444442
 20
9.715490277777778
 10
3.910794444444443
 20
9.757170833333333
  0
ARC
  5
1E6
330
2
100
AcDbEntity
  8
PDF_Layer 1
 62
     7
420
 16777215
370
    70
100
AcDbCircle
 10
4.372882703663524
 20
9.903217425885742
 30
0.0
 40
0.9212328401545624
100
AcDbArc
 50
192.4205427310585
 51
257.579457268941
  0
LWPOLYLINE
  5
1E7
330
2
100
AcDbEntity
  8
PDF_Layer 1
 62
     7
420
 16777215
370
    70
100
AcDbPolyline
 90
       13
 70
     0
 43
0.0
 10
4.584558333333331
 20
9.003545833333333
 10
4.674849999999998
 20
9.027851388888889
 10
4.761669444444443
 20
9.062587500000001
 10
4.845030555555554
 20
9.104254166666667
 10
4.921433333333331
 20
9.156351388888889
 10
4.994363888888887
 20
9.211920833333334
 10
5.060349999999997
 20
9.277906944444444
 10
5.119377777777776
 20
9.347365277777777
 10
5.171474999999999
 20
9.423768055555555
 10
5.216627777777776
 20
9.507115277777778
 10
5.251363888888887
 20
9.590462500000001
 10
5.279141666666665
 20
9.680768055555555
 10
5.286086111111109
 20
9.70507361111111
  0
LWPOLYLINE
  5
1E8
330
2
100
AcDbEntity
  8
PDF_Layer 1
 62
     7
420
 16777215
370
    70
100
AcDbPolyline
 90
       13
 70
     0
 43
0.0
 10
5.286086111111109
 20
10.11489305555555
 10
5.279141666666665
 20
10.13919861111111
 10
5.251363888888887
 20
10.22949027777777
 10
5.216627777777776
 20
10.31285138888889
 10
5.171474999999999
 20
10.39619861111111
 10
5.119377777777776
 20
10.47260138888889
 10
5.060349999999997
 20
10.54205972222222
 10
4.994363888888887
 20
10.60804583333333
 10
4.921433333333331
 20
10.66361527777778
 10
4.845030555555554
 20
10.7157125
 10
4.761669444444443
 20
10.75737916666666
 10
4.674849999999998
 20
10.79211527777778
 10
4.584558333333331
 20
10.81642083333333
  0
ARC
  5
1E9
330
2
100
AcDbEntity
  8
PDF_Layer 1
 62
     7
420
 16777215
370
    70
100
AcDbCircle
 10
4.372837964312319
 20
9.916793980132117
 30
0.0
 40
0.9211795257626716
100
AcDbArc
 50
102.418423669865
 51
167.5815763301346
  0
ARC
  5
1EA
330
2
100
AcDbEntity
  8
PDF_Layer 1
 62
     7
420
 16777215
370
    70
100
AcDbCircle
 10
4.375526978956067
 20
9.914104965488373
 30
0.0
 40
0.9420870558490468
100
AcDbArc
 50
102.5221375443602
 51
167.4778624556395
  0
ARC
  5
1EB
330
2
100
AcDbEntity
  8
PDF_Layer 1
 62
     7
420
 16777215
370
    70
100
AcDbCircle
 10
4.383814641836261
 20
9.914149364058468
 30
0.0
 40
0.9420340876653952
100
AcDbArc
 50
12.52008688740914
 51
77.47991311259204
  0
ARC
  5
1EC
330
2
100
AcDbEntity
  8
PDF_Layer 1
 62
     7
420
 16777215
370
    70
100
AcDbCircle
 10
4.38377024326616
 20
9.905861701178292
 30
0.0
 40
0.9420870558490396
100
AcDbArc
 50
282.5221375443598
 51
347.4778624556395
  0
ARC
  5
1ED
330
2
100
AcDbEntity
  8
PDF_Layer 1
 62
     7
420
 16777215
370
    70
100
AcDbCircle
 10
4.37557138344517
 20
9.9059061056674
 30
0.0
 40
0.9421400323010667
100
AcDbArc
 50
192.5241882440668
 51
257.4758117559336
  0
ARC
  5
1EE
330
2
100
AcDbEntity
  8
PDF_Layer 1
 62
     7
420
 16777215
370
    70
100
AcDbCircle
 10
4.377142231071584
 20
9.907459125164937
 30
0.0
 40
0.9541796883760039
100
AcDbArc
 50
192.4591302086677
 51
257.5397734417076
  0
ARC
  5
1EF
330
2
100
AcDbEntity
  8
PDF_Layer 1
 62
     7
420
 16777215
370
    70
100
AcDbCircle
 10
4.38219922508365
 20
9.907414892078341
 30
0.0
 40
0.9541269537532423
100
AcDbArc
 50
282.458205965659
 51
347.5428903839646
  0
ARC
  5
1F0
330
2
100
AcDbEntity
  8
PDF_Layer 1
 62
     7
420
 16777215
370
    70
100
AcDbCircle
 10
4.382238676740518
 20
9.912573398962733
 30
0.0
 40
0.9540837663940829
100
AcDbArc
 50
12.45635263218333
 51
77.54364736781735
  0
ARC
  5
1F1
330
2
100
AcDbEntity
  8
PDF_Layer 1
 62
     7
420
 16777215
370
    70
100
AcDbCircle
 10
4.377102774955
 20
9.912529169489438
 30
0.0
 40
0.9541364954381133
100
AcDbArc
 50
102.458373204017
 51
167.5416267959826
  0
ARC
  5
1F2
330
2
100
AcDbEntity
  8
PDF_Layer 1
 62
     7
420
 16777215
370
    70
100
AcDbCircle
 10
4.374532448996294
 20
9.91061699263755
 30
0.0
 40
0.976630201214091
100
AcDbArc
 50
282.8360621014256
 51
347.4335087818788
  0
LWPOLYLINE
  5
1F3
330
2
100
AcDbEntity
  8
PDF_Layer 1
 62
     7
420
 16777215
370
    70
100
AcDbPolyline
 90
       14
 70
     0
 43
0.0
 10
4.167794444444442
 20
8.958393055555555
 10
4.122655555555554
 20
8.972281944444445
 10
4.03582222222222
 20
9.000073611111112
 10
3.949002777777776
 20
9.038268055555555
 10
3.865655555555553
 20
9.083420833333333
 10
3.789238888888887
 20
9.135518055555555
 10
3.71632222222222
 20
9.198031944444444
 10
3.650336111111109
 20
9.264018055555556
 10
3.591294444444442
 20
9.336948611111111
 10
3.53919722222222
 20
9.41682361111111
 10
3.497516666666665
 20
9.500170833333333
 10
3.462794444444443
 20
9.586990277777777
 10
3.435002777777776
 20
9.677295833333333
 10
3.428058333333331
 20
9.698129166666667
  0
LWPOLYLINE
  5
1F4
330
2
100
AcDbEntity
  8
PDF_Layer 1
 62
     7
420
 16777215
370
    70
100
AcDbPolyline
 90
       14
 70
     0
 43
0.0
 10
3.428058333333331
 20
10.1218375
 10
3.435002777777776
 20
10.14267083333333
 10
3.462794444444443
 20
10.2329625
 10
3.497516666666665
 20
10.31979583333333
 10
3.53919722222222
 20
10.40314305555555
 10
3.591294444444442
 20
10.48301805555555
 10
3.650336111111109
 20
10.55594861111111
 10
3.71632222222222
 20
10.62193472222222
 10
3.789238888888887
 20
10.68444861111111
 10
3.865655555555553
 20
10.73654583333333
 10
3.949002777777776
 20
10.78168472222222
 10
4.03582222222222
 20
10.81989305555555
 10
4.122655555555554
 20
10.84767083333333
 10
4.167794444444442
 20
10.86157361111111
  0
ARC
  5
1F5
330
2
100
AcDbEntity
  8
PDF_Layer 1
 62
     7
420
 16777215
370
    70
100
AcDbCircle
 10
4.374532448996274
 20
9.909349674029094
 30
0.0
 40
0.9766302012141192
100
AcDbArc
 50
12.56649121812227
 51
77.16393789857355
  0
LWPOLYLINE
  5
1F6
330
2
100
AcDbEntity
  8
PDF_Layer 1
 62
     7
420
 16777215
370
    70
100
AcDbPolyline
 90
       14
 70
     0
 43
0.0
 10
5.369433333333331
 20
10.12878194444444
 10
5.35207222222222
 20
10.19476805555555
 10
5.32082222222222
 20
10.28505972222222
 10
5.279141666666665
 20
10.37536527777778
 10
5.230516666666664
 20
10.4587125
 10
5.17494722222222
 20
10.53511527777778
 10
5.112433333333331
 20
10.60804583333333
 10
5.042988888888887
 20
10.67403194444444
 10
4.96658611111111
 20
10.73654583333333
 10
4.88669722222222
 20
10.78864305555555
 10
4.799877777777776
 20
10.83030972222222
 10
4.709586111111109
 20
10.86851805555555
 10
4.619280555555554
 20
10.89629583333333
 10
4.598447222222221
 20
10.89976805555555
  0
LWPOLYLINE
  5
1F7
330
2
100
AcDbEntity
  8
PDF_Layer 1
 62
     7
420
 16777215
370
    70
100
AcDbPolyline
 90
       14
 70
     0
 43
0.0
 10
4.160849999999998
 20
10.89976805555555
 10
4.140016666666666
 20
10.89629583333333
 10
4.049711111111109
 20
10.86851805555555
 10
3.959419444444442
 20
10.83030972222222
 10
3.872599999999998
 20
10.78864305555555
 10
3.792711111111109
 20
10.73654583333333
 10
3.71632222222222
 20
10.67403194444444
 10
3.646863888888887
 20
10.60804583333333
 10
3.584349999999997
 20
10.53511527777778
 10
3.528780555555553
 20
10.4587125
 10
3.480155555555554
 20
10.37536527777778
 10
3.438474999999998
 20
10.28505972222222
 10
3.407224999999998
 20
10.19476805555555
 10
3.389863888888887
 20
10.12878194444444
  0
LWPOLYLINE
  5
1F8
330
2
100
AcDbEntity
  8
PDF_Layer 1
 62
     7
420
 16777215
370
    70
100
AcDbPolyline
 90
       14
 70
     0
 43
0.0
 10
3.389863888888887
 20
9.691184722222223
 10
3.407224999999998
 20
9.625198611111111
 10
3.438474999999998
 20
9.534906944444443
 10
3.480155555555554
 20
9.444601388888889
 10
3.528780555555553
 20
9.361254166666666
 10
3.584349999999997
 20
9.284851388888888
 10
3.646863888888887
 20
9.211920833333334
 10
3.71632222222222
 20
9.145934722222222
 10
3.792711111111109
 20
9.083420833333333
 10
3.872599999999998
 20
9.031323611111112
 10
3.959419444444442
 20
8.989656944444444
 10
4.049711111111109
 20
8.951448611111111
 10
4.140016666666666
 20
8.927143055555555
 10
4.160849999999998
 20
8.920198611111111
  0
LWPOLYLINE
  5
1F9
330
2
100
AcDbEntity
  8
PDF_Layer 1
 62
     7
420
 16777215
370
    70
100
AcDbPolyline
 90
       14
 70
     0
 43
0.0
 10
4.598447222222221
 20
8.920198611111111
 10
4.619280555555554
 20
8.927143055555555
 10
4.709586111111109
 20
8.951448611111111
 10
4.799877777777776
 20
8.989656944444444
 10
4.88669722222222
 20
9.031323611111112
 10
4.96658611111111
 20
9.083420833333333
 10
5.042988888888887
 20
9.145934722222222
 10
5.112433333333331
 20
9.211920833333334
 10
5.17494722222222
 20
9.284851388888888
 10
5.230516666666664
 20
9.361254166666666
 10
5.279141666666665
 20
9.444601388888889
 10
5.32082222222222
 20
9.534906944444443
 10
5.35207222222222
 20
9.625198611111111
 10
5.369433333333331
 20
9.691184722222223
  0
LWPOLYLINE
  5
1FA
330
2
100
AcDbEntity
  8
PDF_Layer 1
 62
     7
420
 16777215
370
    70
100
AcDbPolyline
 90
       14
 70
     0
 43
0.0
 10
3.372488888888887
 20
10.13225416666666
 10
3.386391666666665
 20
10.19824027777778
 10
3.417641666666665
 20
10.28853194444444
 10
3.459322222222221
 20
10.37536527777778
 10
3.504461111111109
 20
10.46218472222222
 10
3.560030555555553
 20
10.54205972222222
 10
3.622544444444442
 20
10.61499027777778
 10
3.692002777777776
 20
10.68097638888889
 10
3.768405555555554
 20
10.74349027777778
 10
3.848280555555554
 20
10.7955875
 10
3.935113888888887
 20
10.84072638888889
 10
4.021933333333331
 20
10.87893472222222
 10
4.11569722222222
 20
10.91018472222222
 10
4.157377777777776
 20
10.91712916666667
  0
LWPOLYLINE
  5
1FB
330
2
100
AcDbEntity
  8
PDF_Layer 1
 62
     7
420
 16777215
370
    70
100
AcDbPolyline
 90
       14
 70
     0
 43
0.0
 10
4.601919444444442
 20
10.91712916666667
 10
4.688738888888886
 20
10.89629583333333
 10
4.779044444444442
 20
10.86157361111111
 10
4.865863888888886
 20
10.81989305555555
 10
4.949211111111109
 20
10.77126805555555
 10
5.029099999999997
 20
10.71224027777778
 10
5.102016666666665
 20
10.64972638888889
 10
5.168002777777775
 20
10.57679583333333
 10
5.227044444444443
 20
10.50039305555555
 10
5.279141666666665
 20
10.42050416666667
 10
5.32082222222222
 20
10.33368472222222
 10
5.355544444444442
 20
10.24339305555555
 10
5.383336111111109
 20
10.14961527777778
 10
5.386808333333331
 20
10.13225416666666
  0
LWPOLYLINE
  5
1FC
330
2
100
AcDbEntity
  8
PDF_Layer 1
 62
     7
420
 16777215
370
    70
100
AcDbPolyline
 90
       14
 70
     0
 43
0.0
 10
5.386808333333331
 20
9.687712499999999
 10
5.383336111111109
 20
9.670351388888889
 10
5.355544444444442
 20
9.576573611111111
 10
5.32082222222222
 20
9.486281944444444
 10
5.279141666666665
 20
9.3994625
 10
5.227044444444443
 20
9.3195875
 10
5.168002777777775
 20
9.243184722222222
 10
5.102016666666665
 20
9.170240277777777
 10
5.029099999999997
 20
9.107726388888888
 10
4.949211111111109
 20
9.048698611111111
 10
4.865863888888886
 20
9.000073611111112
 10
4.779044444444442
 20
8.958393055555555
 10
4.688738888888886
 20
8.923670833333334
 10
4.601919444444442
 20
8.902823611111111
  0
LWPOLYLINE
  5
1FD
330
2
100
AcDbEntity
  8
PDF_Layer 1
 62
     7
420
 16777215
370
    70
100
AcDbPolyline
 90
       14
 70
     0
 43
0.0
 10
4.157377777777776
 20
8.902823611111111
 10
4.11569722222222
 20
8.909768055555556
 10
4.021933333333331
 20
8.941031944444445
 10
3.935113888888887
 20
8.979240277777778
 10
3.848280555555554
 20
9.024379166666667
 10
3.768405555555554
 20
9.076476388888888
 10
3.692002777777776
 20
9.138990277777777
 10
3.622544444444442
 20
9.204976388888889
 10
3.560030555555553
 20
9.281379166666667
 10
3.504461111111109
 20
9.357781944444445
 10
3.459322222222221
 20
9.444601388888889
 10
3.417641666666665
 20
9.531434722222222
 10
3.386391666666665
 20
9.621726388888889
 10
3.372488888888887
 20
9.687712499999999
  0
LWPOLYLINE
  5
1FE
330
2
100
AcDbEntity
  8
PDF_Layer 1
 62
     7
420
 16777215
370
    70
100
AcDbPolyline
 90
       14
 70
     0
 43
0.0
 10
3.369016666666665
 20
9.687712499999999
 10
3.386391666666665
 20
9.621726388888889
 10
3.417641666666665
 20
9.531434722222222
 10
3.455849999999998
 20
9.444601388888889
 10
3.504461111111109
 20
9.357781944444445
 10
3.560030555555553
 20
9.277906944444444
 10
3.622544444444442
 20
9.204976388888889
 10
3.692002777777776
 20
9.138990277777777
 10
3.768405555555554
 20
9.076476388888888
 10
3.848280555555554
 20
9.024379166666667
 10
3.935113888888887
 20
8.975754166666666
 10
4.021933333333331
 20
8.941031944444445
 10
4.11569722222222
 20
8.909768055555556
 10
4.157377777777776
 20
8.899351388888888
  0
LWPOLYLINE
  5
1FF
330
2
100
AcDbEntity
  8
PDF_Layer 1
 62
     7
420
 16777215
370
    70
100
AcDbPolyline
 90
       14
 70
     0
 43
0.0
 10
4.601919444444442
 20
8.899351388888888
 10
4.688738888888886
 20
8.923670833333334
 10
4.779044444444442
 20
8.958393055555555
 10
4.86933611111111
 20
9.000073611111112
 10
4.952683333333331
 20
9.048698611111111
 10
5.029099999999997
 20
9.107726388888888
 10
5.102016666666665
 20
9.170240277777777
 10
5.168002777777775
 20
9.243184722222222
 10
5.227044444444443
 20
9.3195875
 10
5.279141666666665
 20
9.3994625
 10
5.32082222222222
 20
9.486281944444444
 10
5.359016666666665
 20
9.576573611111111
 10
5.383336111111109
 20
9.670351388888889
 10
5.390280555555554
 20
9.687712499999999
  0
LWPOLYLINE
  5
200
330
2
100
AcDbEntity
  8
PDF_Layer 1
 62
     7
420
 16777215
370
    70
100
AcDbPolyline
 90
       14
 70
     0
 43
0.0
 10
5.390280555555554
 20
10.13225416666666
 10
5.383336111111109
 20
10.14961527777778
 10
5.359016666666665
 20
10.24339305555555
 10
5.32082222222222
 20
10.33368472222222
 10
5.279141666666665
 20
10.42050416666667
 10
5.227044444444443
 20
10.50039305555555
 10
5.168002777777775
 20
10.57679583333333
 10
5.102016666666665
 20
10.64972638888889
 10
5.029099999999997
 20
10.71224027777778
 10
4.952683333333331
 20
10.77126805555555
 10
4.86933611111111
 20
10.81989305555555
 10
4.779044444444442
 20
10.86157361111111
 10
4.688738888888886
 20
10.89629583333333
 10
4.601919444444442
 20
10.92061527777778
  0
LWPOLYLINE
  5
201
330
2
100
AcDbEntity
  8
PDF_Layer 1
 62
     7
420
 16777215
370
    70
100
AcDbPolyline
 90
       14
 70
     0
 43
0.0
 10
4.157377777777776
 20
10.92061527777778
 10
4.11569722222222
 20
10.91018472222222
 10
4.021933333333331
 20
10.87893472222222
 10
3.935113888888887
 20
10.84419861111111
 10
3.848280555555554
 20
10.7955875
 10
3.768405555555554
 20
10.74349027777778
 10
3.692002777777776
 20
10.68097638888889
 10
3.622544444444442
 20
10.61499027777778
 10
3.560030555555553
 20
10.54205972222222
 10
3.504461111111109
 20
10.46218472222222
 10
3.455849999999998
 20
10.3788375
 10
3.417641666666665
 20
10.28853194444444
 10
3.386391666666665
 20
10.19824027777778
 10
3.369016666666665
 20
10.13225416666666
  0
LWPOLYLINE
  5
202
330
2
100
AcDbEntity
  8
PDF_Layer 1
 62
     7
420
 16777215
370
    70
100
AcDbPolyline
 90
       14
 70
     0
 43
0.0
 10
5.404169444444443
 20
9.684240277777778
 10
5.386808333333331
 20
9.618254166666666
 10
5.355544444444442
 20
9.524476388888889
 10
5.317349999999998
 20
9.434184722222221
 10
5.268724999999998
 20
9.3508375
 10
5.209683333333332
 20
9.270962499999999
 10
5.147169444444442
 20
9.194559722222223
 10
5.077711111111109
 20
9.125101388888889
 10
5.001308333333332
 20
9.062587500000001
 10
4.917961111111109
 20
9.010490277777778
 10
4.831127777777776
 20
8.961865277777778
 10
4.740836111111109
 20
8.923670833333334
 10
4.64707222222222
 20
8.895879166666667
 10
4.605391666666665
 20
8.8854625
  0
LWPOLYLINE
  5
203
330
2
100
AcDbEntity
  8
PDF_Layer 1
 62
     7
420
 16777215
370
    70
100
AcDbPolyline
 90
       14
 70
     0
 43
0.0
 10
4.153905555555554
 20
8.8854625
 10
4.063613888888887
 20
8.909768055555556
 10
3.973308333333331
 20
8.941031944444445
 10
3.883016666666664
 20
8.986184722222223
 10
3.799669444444443
 20
9.034795833333333
 10
3.719794444444442
 20
9.093837500000001
 10
3.646863888888887
 20
9.159823611111111
 10
3.577405555555554
 20
9.232754166666666
 10
3.518363888888887
 20
9.309170833333332
 10
3.466266666666665
 20
9.392504166666666
 10
3.421113888888887
 20
9.479337499999999
 10
3.386391666666665
 20
9.573101388888888
 10
3.358599999999999
 20
9.666879166666667
 10
3.355127777777776
 20
9.684240277777778
  0
LWPOLYLINE
  5
204
330
2
100
AcDbEntity
  8
PDF_Layer 1
 62
     7
420
 16777215
370
    70
100
AcDbPolyline
 90
       14
 70
     0
 43
0.0
 10
3.355127777777776
 20
10.13572638888889
 10
3.358599999999999
 20
10.1530875
 10
3.386391666666665
 20
10.24686527777777
 10
3.421113888888887
 20
10.34062916666666
 10
3.466266666666665
 20
10.42744861111111
 10
3.518363888888887
 20
10.51080972222222
 10
3.577405555555554
 20
10.59068472222222
 10
3.646863888888887
 20
10.66014305555555
 10
3.719794444444442
 20
10.72612916666666
 10
3.799669444444443
 20
10.78515694444444
 10
3.883016666666664
 20
10.83378194444444
 10
3.973308333333331
 20
10.87893472222222
 10
4.063613888888887
 20
10.91018472222222
 10
4.153905555555554
 20
10.93450416666666
  0
LWPOLYLINE
  5
205
330
2
100
AcDbEntity
  8
PDF_Layer 1
 62
     7
420
 16777215
370
    70
100
AcDbPolyline
 90
       14
 70
     0
 43
0.0
 10
4.605391666666665
 20
10.93450416666666
 10
4.64707222222222
 20
10.9240875
 10
4.740836111111109
 20
10.89629583333333
 10
4.831127777777776
 20
10.85810138888889
 10
4.917961111111109
 20
10.80947638888889
 10
5.001308333333332
 20
10.75737916666666
 10
5.077711111111109
 20
10.69487916666666
 10
5.147169444444442
 20
10.62540694444444
 10
5.209683333333332
 20
10.54900416666666
 10
5.268724999999998
 20
10.46912916666666
 10
5.317349999999998
 20
10.38578194444444
 10
5.355544444444442
 20
10.29547638888889
 10
5.386808333333331
 20
10.2017125
 10
5.404169444444443
 20
10.13572638888889
  0
LWPOLYLINE
  5
206
330
2
100
AcDbEntity
  8
PDF_Layer 1
 62
     7
420
 16777215
370
    70
100
AcDbPolyline
 90
      117
 70
     0
 43
0.0
 10
11.02772222222222
 20
2.037263888888888
 10
11.06591666666666
 20
1.919180555555555
 10
11.09718055555555
 20
1.801097222222222
 10
11.12843055555555
 20
1.683027777777777
 10
11.15622222222222
 20
1.564944444444444
 10
11.184
 20
1.443388888888889
 10
11.20484722222222
 20
1.325305555555555
 10
11.22568055555555
 20
1.20375
 10
11.24304166666666
 20
1.082194444444444
 10
11.24304166666666
 20
1.071777777777777
 10
11.24304166666666
 20
1.061361111111111
 10
11.24304166666666
 20
1.054416666666666
 10
11.23956944444444
 20
1.044
 10
11.23609722222222
 20
1.033569444444444
 10
11.232625
 20
1.026625
 10
11.22568055555555
 20
1.019680555555555
 10
11.21873611111111
 20
1.012736111111111
 10
11.20831944444444
 20
0.9953750000000001
 10
11.201375
 20
0.978013888888889
 10
11.201375
 20
0.9571666666666668
 10
11.20831944444444
 20
0.9398055555555558
 10
11.22220833333333
 20
0.9224444444444445
 10
11.23956944444444
 20
0.9120277777777779
 10
11.26040277777778
 20
0.9085555555555558
 10
11.27777777777778
 20
0.9155000000000001
 10
11.28472222222222
 20
0.9155000000000001
 10
11.29513888888889
 20
0.9189722222222224
 10
11.31944444444444
 20
0.929388888888889
 10
11.34723611111111
 20
0.9398055555555558
 10
11.38543055555555
 20
0.9536944444444445
 10
11.42711111111111
 20
0.9675833333333335
 10
11.47920833333333
 20
0.9849583333333335
 10
11.53477777777778
 20
1.005791666666666
 10
11.59381944444444
 20
1.026625
 10
11.65633333333333
 20
1.050944444444444
 10
11.72231944444444
 20
1.07525
 10
11.78830555555555
 20
1.099569444444444
 10
11.85429166666666
 20
1.123875
 10
11.92027777777778
 20
1.148180555555555
 10
11.98279166666667
 20
1.169027777777777
 10
12.04181944444444
 20
1.193333333333333
 10
12.09738888888889
 20
1.210694444444444
 10
12.14948611111111
 20
1.231541666666666
 10
12.19116666666667
 20
1.245430555555555
 10
12.22936111111111
 20
1.259319444444444
 10
12.25715277777778
 20
1.269736111111111
 10
12.28145833333333
 20
1.276680555555555
 10
12.291875
 20
1.283625
 10
12.29881944444444
 20
1.283625
 10
12.31619444444444
 20
1.294041666666666
 10
12.32661111111111
 20
1.311416666666666
 10
12.33355555555555
 20
1.328777777777777
 10
12.33702777777778
 20
1.349611111111111
 10
12.33008333333333
 20
1.366986111111111
 10
12.31619444444444
 20
1.384347222222222
 10
12.29881944444444
 20
1.394763888888888
 10
12.28145833333333
 20
1.398236111111111
 10
12.27104166666667
 20
1.398236111111111
 10
12.260625
 20
1.401708333333333
 10
12.25368055555555
 20
1.405180555555555
 10
12.24326388888889
 20
1.408652777777778
 10
12.23631944444444
 20
1.415597222222222
 10
12.22936111111111
 20
1.419069444444444
 10
12.22241666666667
 20
1.426027777777777
 10
12.21547222222222
 20
1.436444444444444
 10
12.15295833333333
 20
1.540625
 10
12.09044444444444
 20
1.644819444444444
 10
12.03140277777778
 20
1.752486111111111
 10
11.97236111111111
 20
1.860138888888888
 10
11.91680555555555
 20
1.971277777777777
 10
11.86470833333333
 20
2.082416666666667
 10
11.81608333333333
 20
2.193541666666666
 10
11.76745833333333
 20
2.308152777777777
 10
11.76398611111111
 20
2.304680555555555
 10
11.75009722222222
 20
2.301208333333333
 10
11.72926388888889
 20
2.294263888888888
 10
11.70147222222222
 20
2.283847222222222
 10
11.66327777777778
 20
2.269958333333333
 10
11.62159722222222
 20
2.252583333333333
 10
11.57297222222222
 20
2.235222222222222
 10
11.52436111111111
 20
2.217861111111111
 10
11.46879166666666
 20
2.197013888888888
 10
11.41322222222222
 20
2.176180555555555
 10
11.39586111111111
 20
2.172708333333333
 10
11.36459722222222
 20
2.162291666666666
 10
11.30902777777778
 20
2.141458333333333
 10
11.25693055555555
 20
2.120611111111111
 10
11.20484722222222
 20
2.10325
 10
11.15969444444444
 20
2.085888888888889
 10
11.11801388888889
 20
2.072
 10
11.08329166666667
 20
2.058097222222222
 10
11.0555
 20
2.047680555555555
 10
11.03813888888889
 20
2.040736111111111
 10
11.02772222222222
 20
2.037263888888888
 10
11.02425
 20
2.037263888888888
 10
10.95479166666667
 20
2.231749999999999
 10
10.96520833333333
 20
2.235222222222222
 10
10.98604166666667
 20
2.245638888888889
 10
11.01383333333333
 20
2.252583333333333
 10
11.04855555555555
 20
2.26648611111111
 10
11.08676388888889
 20
2.280375
 10
11.135375
 20
2.29773611111111
 10
11.184
 20
2.315097222222222
 10
11.23956944444444
 20
2.335944444444444
 10
11.29513888888889
 20
2.356777777777777
 10
11.35070833333333
 20
2.377611111111111
 10
11.40627777777778
 20
2.398444444444444
 10
11.46184722222222
 20
2.415805555555555
 10
11.51393055555555
 20
2.436638888888889
 10
11.55908333333333
 20
2.454013888888888
 10
11.60076388888889
 20
2.467902777777777
 10
11.63548611111111
 20
2.478319444444444
 10
11.65980555555555
 20
2.48873611111111
 10
11.68063888888889
 20
2.495680555555555
 10
11.69105555555555
 20
2.499152777777777
 10
11.69452777777777
 20
2.502625
 10
11.76398611111111
 20
2.304680555555555
  0
LWPOLYLINE
  5
20D
330
2
100
AcDbEntity
  8
PDF_Layer 1
 62
     7
420
 16777215
370
    70
100
AcDbPolyline
 90
       22
 70
     0
 43
0.0
 10
6.731680555555556
 20
2.881180555555555
 10
10.0275
 20
2.881180555555555
 10
10.0275
 20
2.895069444444444
 10
10.0275
 20
2.915916666666666
 10
10.0275
 20
2.943694444444444
 10
10.0275
 20
2.978430555555555
 10
10.0275
 20
3.023569444444444
 10
10.0275
 20
3.072194444444444
 10
10.0275
 20
3.127763888888889
 10
10.0275
 20
3.183333333333333
 10
10.0275
 20
3.242375
 10
10.0275
 20
3.304888888888888
 10
10.0275
 20
3.363930555555555
 10
10.0275
 20
3.419486111111111
 10
10.0275
 20
3.475055555555555
 10
10.0275
 20
3.523680555555555
 10
10.0275
 20
3.568833333333333
 10
10.0275
 20
3.603555555555555
 10
10.0275
 20
3.631347222222222
 10
10.0275
 20
3.652180555555555
 10
10.0275
 20
3.666069444444444
 10
6.731680555555556
 20
3.666069444444444
  0
LWPOLYLINE
  5
20E
330
2
100
AcDbEntity
  8
PDF_Layer 1
 62
     7
420
 16777215
370
    70
100
AcDbPolyline
 90
        2
 70
     0
 43
0.0
 10
6.69
 20
3.666069444444444
 10
6.641388888888888
 20
3.666069444444444
  0
LWPOLYLINE
  5
20F
330
2
100
AcDbEntity
  8
PDF_Layer 1
 62
     7
420
 16777215
370
    70
100
AcDbPolyline
 90
        2
 70
     0
 43
0.0
 10
6.339236111111111
 20
3.666069444444444
 10
6.287138888888889
 20
3.666069444444444
  0
LWPOLYLINE
  5
210
330
2
100
AcDbEntity
  8
PDF_Layer 1
 62
     7
420
 16777215
370
    70
100
AcDbPolyline
 90
        2
 70
     0
 43
0.0
 10
6.248944444444444
 20
3.666069444444444
 10
5.092444444444445
 20
3.666069444444444
  0
LWPOLYLINE
  5
211
330
2
100
AcDbEntity
  8
PDF_Layer 1
 62
     7
420
 16777215
370
    70
100
AcDbPolyline
 90
        2
 70
     0
 43
0.0
 10
5.092444444444445
 20
2.881180555555555
 10
6.248944444444444
 20
2.881180555555555
  0
LWPOLYLINE
  5
212
330
2
100
AcDbEntity
  8
PDF_Layer 1
 62
     7
420
 16777215
370
    70
100
AcDbPolyline
 90
        2
 70
     0
 43
0.0
 10
6.287138888888889
 20
2.881180555555555
 10
6.339236111111111
 20
2.881180555555555
  0
LWPOLYLINE
  5
213
330
2
100
AcDbEntity
  8
PDF_Layer 1
 62
     7
420
 16777215
370
    70
100
AcDbPolyline
 90
        2
 70
     0
 43
0.0
 10
6.641388888888888
 20
2.881180555555555
 10
6.69
 20
2.881180555555555
  0
ARC
  5
215
330
2
100
AcDbEntity
  8
PDF_Layer 1
 62
     7
420
 16777215
370
    70
100
AcDbCircle
 10
10.02211236991436
 20
1.886754223538653
 30
0.0
 40
0.9944409265343669
100
AcDbArc
 50
20.29930985760046
 51
89.68958440127373
  0
ARC
  5
216
330
2
100
AcDbEntity
  8
PDF_Layer 1
 62
     7
420
 16777215
370
    70
100
AcDbCircle
 10
10.02892023256369
 20
1.892091549482181
 30
0.0
 40
1.773978463475609
100
AcDbArc
 50
20.13056265844331
 51
90.04587053461735
  0
LWPOLYLINE
  5
219
330
2
100
AcDbEntity
  8
PDF_Layer 1
 62
     7
420
 16777215
370
    70
100
AcDbPolyline
 90
       69
 70
     0
 43
0.0
 10
4.439527777777778
 20
2.710999999999999
 10
4.602763888888889
 20
2.728374999999999
 10
4.807666666666667
 20
2.742263888888889
 10
5.012569444444443
 20
2.745736111111111
 10
5.026458333333333
 20
2.745736111111111
 10
5.043819444444444
 20
2.749208333333333
 10
5.057722222222222
 20
2.756152777777777
 10
5.068138888888888
 20
2.766569444444444
 10
5.078555555555556
 20
2.776986111111111
 10
5.0855
 20
2.790888888888889
 10
5.092444444444445
 20
2.80825
 10
5.092444444444445
 20
2.822138888888888
 10
5.092444444444445
 20
2.825611111111111
 10
5.092444444444445
 20
2.8395
 10
5.092444444444445
 20
2.860347222222222
 10
5.092444444444445
 20
2.846458333333333
 10
5.0855
 20
2.832555555555556
 10
5.078555555555556
 20
2.818666666666667
 10
5.071611111111112
 20
2.804777777777777
 10
5.057722222222222
 20
2.797833333333333
 10
5.047291666666666
 20
2.787416666666666
 10
5.033402777777777
 20
2.783944444444444
 10
5.016041666666667
 20
2.780472222222222
 10
5.016041666666667
 20
2.783944444444444
 10
5.016041666666667
 20
2.790888888888889
 10
5.016041666666667
 20
2.811722222222222
 10
5.016041666666667
 20
2.836027777777777
 10
5.016041666666667
 20
2.870763888888888
 10
5.016041666666667
 20
2.912444444444444
 10
5.016041666666667
 20
2.964527777777777
 10
5.016041666666667
 20
3.016624999999999
 10
5.016041666666667
 20
3.079138888888889
 10
5.016041666666667
 20
3.141652777777777
 10
5.016041666666667
 20
3.207638888888888
 10
5.016041666666667
 20
3.273625
 10
5.016041666666667
 20
3.339611111111111
 10
5.016041666666667
 20
3.405597222222222
 10
5.016041666666667
 20
3.468111111111111
 10
5.016041666666667
 20
3.530625
 10
5.016041666666667
 20
3.582722222222221
 10
5.016041666666667
 20
3.634819444444444
 10
5.016041666666667
 20
3.676486111111111
 10
5.016041666666667
 20
3.711222222222222
 10
5.016041666666667
 20
3.735527777777777
 10
5.016041666666667
 20
3.756375
 10
5.016041666666667
 20
3.763319444444444
 10
5.016041666666667
 20
3.766791666666666
 10
5.033402777777777
 20
3.763319444444444
 10
5.047291666666666
 20
3.759847222222222
 10
5.057722222222222
 20
3.752902777777777
 10
5.071611111111112
 20
3.742472222222222
 10
5.078555555555556
 20
3.728583333333333
 10
5.0855
 20
3.714694444444444
 10
5.092444444444445
 20
3.700805555555555
 10
5.092444444444445
 20
3.686916666666666
 10
5.092444444444445
 20
3.707749999999999
 10
5.092444444444445
 20
3.721638888888888
 10
5.092444444444445
 20
3.725111111111111
 10
5.092444444444445
 20
3.738999999999999
 10
5.0855
 20
3.756375
 10
5.078555555555556
 20
3.770263888888889
 10
5.068138888888888
 20
3.780680555555555
 10
5.057722222222222
 20
3.791097222222222
 10
5.043819444444444
 20
3.798041666666666
 10
5.026458333333333
 20
3.801513888888889
 10
5.012569444444443
 20
3.80498611111111
 10
4.807666666666667
 20
3.80498611111111
 10
4.602763888888889
 20
3.818888888888888
 10
4.439527777777778
 20
3.836249999999999
  0
LWPOLYLINE
  5
21D
330
2
100
AcDbEntity
  8
PDF_Layer 1
 62
     7
420
 16777215
370
    70
100
AcDbPolyline
 90
       78
 70
     1
 43
0.0
 10
6.724736111111111
 20
4.391916666666666
 10
6.721263888888889
 20
4.391916666666666
 10
6.707375
 20
4.391916666666666
 10
6.686527777777778
 20
4.391916666666666
 10
6.655277777777778
 20
4.391916666666666
 10
6.620541666666666
 20
4.391916666666666
 10
6.578875
 20
4.391916666666666
 10
6.537194444444445
 20
4.391916666666666
 10
6.488569444444444
 20
4.391916666666666
 10
6.443430555555555
 20
4.391916666666666
 10
6.40175
 20
4.391916666666666
 10
6.360069444444444
 20
4.391916666666666
 10
6.325347222222222
 20
4.391916666666666
 10
6.294083333333333
 20
4.391916666666666
 10
6.27325
 20
4.391916666666666
 10
6.259361111111111
 20
4.391916666666666
 10
6.255888888888889
 20
4.391916666666666
 10
6.255888888888889
 20
4.388444444444444
 10
6.252416666666666
 20
4.384972222222222
 10
6.252416666666666
 20
4.3815
 10
6.248944444444444
 20
4.378027777777777
 10
6.245472222222223
 20
4.374555555555556
 10
6.241986111111112
 20
4.374555555555556
 10
6.238513888888889
 20
4.371083333333332
 10
6.235041666666667
 20
4.371083333333332
 10
6.231569444444445
 20
4.371083333333332
 10
6.228097222222222
 20
4.367611111111111
 10
6.224625
 20
4.364138888888889
 10
6.224625
 20
4.360666666666666
 10
6.221152777777779
 20
4.357194444444444
 10
6.221152777777779
 20
4.353722222222222
 10
6.221152777777779
 20
4.329416666666666
 10
6.224625
 20
4.325930555555555
 10
6.224625
 20
4.322458333333333
 10
6.224625
 20
4.318986111111111
 10
6.228097222222222
 20
4.315513888888888
 10
6.231569444444445
 20
4.312041666666667
 10
6.235041666666667
 20
4.312041666666667
 10
6.238513888888889
 20
4.308569444444444
 10
6.241986111111112
 20
4.308569444444444
 10
6.245472222222223
 20
4.308569444444444
 10
6.262833333333333
 20
4.308569444444444
 10
6.283666666666666
 20
4.308569444444444
 10
6.314930555555555
 20
4.308569444444444
 10
6.353125
 20
4.308569444444444
 10
6.394805555555556
 20
4.308569444444444
 10
6.443430555555555
 20
4.308569444444444
 10
6.488569444444444
 20
4.308569444444444
 10
6.537194444444445
 20
4.308569444444444
 10
6.585819444444444
 20
4.308569444444444
 10
6.627486111111111
 20
4.308569444444444
 10
6.665694444444445
 20
4.308569444444444
 10
6.696958333333333
 20
4.308569444444444
 10
6.717791666666667
 20
4.308569444444444
 10
6.735152777777778
 20
4.308569444444444
 10
6.738625
 20
4.308569444444444
 10
6.742097222222223
 20
4.308569444444444
 10
6.745569444444445
 20
4.312041666666667
 10
6.749041666666667
 20
4.312041666666667
 10
6.752513888888889
 20
4.315513888888888
 10
6.755986111111111
 20
4.318986111111111
 10
6.755986111111111
 20
4.322458333333333
 10
6.755986111111111
 20
4.325930555555555
 10
6.759458333333333
 20
4.329416666666666
 10
6.759458333333333
 20
4.353722222222222
 10
6.759458333333333
 20
4.357194444444444
 10
6.755986111111111
 20
4.360666666666666
 10
6.755986111111111
 20
4.364138888888889
 10
6.752513888888889
 20
4.367611111111111
 10
6.749041666666667
 20
4.371083333333332
 10
6.745569444444445
 20
4.371083333333332
 10
6.742097222222223
 20
4.371083333333332
 10
6.738625
 20
4.374555555555556
 10
6.735152777777778
 20
4.374555555555556
 10
6.731680555555556
 20
4.378027777777777
 10
6.728208333333333
 20
4.3815
 10
6.728208333333333
 20
4.384972222222222
 10
6.724736111111111
 20
4.388444444444444
  0
LWPOLYLINE
  5
225
330
2
100
AcDbEntity
  8
PDF_Layer 1
 62
     7
420
 16777215
370
    70
100
AcDbPolyline
 90
       16
 70
     0
 43
0.0
 10
6.637916666666666
 20
3.652180555555555
 10
6.641388888888888
 20
3.693861111111111
 10
6.648333333333333
 20
3.780680555555555
 10
6.655277777777778
 20
3.867499999999999
 10
6.662222222222222
 20
3.950861111111111
 10
6.672638888888888
 20
4.037680555555555
 10
6.686527777777778
 20
4.124499999999999
 10
6.700430555555556
 20
4.20786111111111
 10
6.714319444444445
 20
4.294680555555555
 10
6.717791666666667
 20
4.298152777777778
 10
6.721263888888889
 20
4.301624999999999
 10
6.721263888888889
 20
4.305097222222222
 10
6.724736111111111
 20
4.305097222222222
 10
6.728208333333333
 20
4.308569444444444
 10
6.731680555555556
 20
4.308569444444444
 10
6.735152777777778
 20
4.308569444444444
  0
LWPOLYLINE
  5
226
330
2
100
AcDbEntity
  8
PDF_Layer 1
 62
     7
420
 16777215
370
    70
100
AcDbPolyline
 90
       16
 70
     0
 43
0.0
 10
6.245472222222223
 20
4.308569444444444
 10
6.248944444444444
 20
4.308569444444444
 10
6.252416666666666
 20
4.308569444444444
 10
6.255888888888889
 20
4.305097222222222
 10
6.259361111111111
 20
4.305097222222222
 10
6.259361111111111
 20
4.301624999999999
 10
6.262833333333333
 20
4.298152777777778
 10
6.266305555555556
 20
4.294680555555555
 10
6.280194444444444
 20
4.20786111111111
 10
6.294083333333333
 20
4.124499999999999
 10
6.307972222222223
 20
4.037680555555555
 10
6.318402777777778
 20
3.950861111111111
 10
6.325347222222222
 20
3.867499999999999
 10
6.332291666666667
 20
3.780680555555555
 10
6.339236111111111
 20
3.693861111111111
 10
6.342708333333333
 20
3.648708333333333
  0
ARC
  5
227
330
2
100
AcDbEntity
  8
PDF_Layer 1
 62
     7
420
 16777215
370
    70
100
AcDbCircle
 10
6.490312500000004
 20
4.37316366744066
 30
0.0
 40
0.2351724992985833
100
AcDbArc
 50
4.573705198963692
 51
175.4262948010365
  0
LWPOLYLINE
  5
22A
330
2
100
AcDbEntity
  8
PDF_Layer 1
 62
     7
420
 16777215
370
    70
100
AcDbPolyline
 90
       80
 70
     1
 43
0.0
 10
6.255888888888889
 20
2.155347222222222
 10
6.259361111111111
 20
2.155347222222222
 10
6.27325
 20
2.155347222222222
 10
6.294083333333333
 20
2.155347222222222
 10
6.325347222222222
 20
2.155347222222222
 10
6.360069444444444
 20
2.155347222222222
 10
6.40175
 20
2.155347222222222
 10
6.443430555555555
 20
2.155347222222222
 10
6.488569444444444
 20
2.155347222222222
 10
6.537194444444445
 20
2.155347222222222
 10
6.578875
 20
2.155347222222222
 10
6.620541666666666
 20
2.155347222222222
 10
6.655277777777778
 20
2.155347222222222
 10
6.686527777777778
 20
2.155347222222222
 10
6.707375
 20
2.155347222222222
 10
6.721263888888889
 20
2.155347222222222
 10
6.724736111111111
 20
2.155347222222222
 10
6.724736111111111
 20
2.158819444444444
 10
6.728208333333333
 20
2.162291666666666
 10
6.728208333333333
 20
2.165763888888888
 10
6.731680555555556
 20
2.169236111111111
 10
6.735152777777778
 20
2.172708333333333
 10
6.738625
 20
2.172708333333333
 10
6.742097222222223
 20
2.176180555555555
 10
6.745569444444445
 20
2.176180555555555
 10
6.749041666666667
 20
2.176180555555555
 10
6.752513888888889
 20
2.179652777777778
 10
6.752513888888889
 20
2.183125
 10
6.755986111111111
 20
2.183125
 10
6.755986111111111
 20
2.186597222222222
 10
6.759458333333333
 20
2.190069444444444
 10
6.759458333333333
 20
2.193541666666666
 10
6.759458333333333
 20
2.217861111111111
 10
6.755986111111111
 20
2.221333333333333
 10
6.755986111111111
 20
2.224805555555555
 10
6.755986111111111
 20
2.228277777777778
 10
6.752513888888889
 20
2.231749999999999
 10
6.749041666666667
 20
2.235222222222222
 10
6.745569444444445
 20
2.235222222222222
 10
6.742097222222223
 20
2.238694444444444
 10
6.738625
 20
2.238694444444444
 10
6.735152777777778
 20
2.238694444444444
 10
6.717791666666667
 20
2.238694444444444
 10
6.696958333333333
 20
2.238694444444444
 10
6.665694444444445
 20
2.238694444444444
 10
6.627486111111111
 20
2.238694444444444
 10
6.585819444444444
 20
2.238694444444444
 10
6.537194444444445
 20
2.238694444444444
 10
6.488569444444444
 20
2.238694444444444
 10
6.443430555555555
 20
2.238694444444444
 10
6.394805555555556
 20
2.238694444444444
 10
6.353125
 20
2.238694444444444
 10
6.314930555555555
 20
2.238694444444444
 10
6.283666666666666
 20
2.238694444444444
 10
6.262833333333333
 20
2.238694444444444
 10
6.245472222222223
 20
2.238694444444444
 10
6.241986111111112
 20
2.238694444444444
 10
6.238513888888889
 20
2.238694444444444
 10
6.235041666666667
 20
2.235222222222222
 10
6.231569444444445
 20
2.235222222222222
 10
6.228097222222222
 20
2.231749999999999
 10
6.224625
 20
2.228277777777778
 10
6.224625
 20
2.224805555555555
 10
6.224625
 20
2.221333333333333
 10
6.221152777777779
 20
2.217861111111111
 10
6.221152777777779
 20
2.193541666666666
 10
6.221152777777779
 20
2.190069444444444
 10
6.224625
 20
2.186597222222222
 10
6.224625
 20
2.183125
 10
6.228097222222222
 20
2.183125
 10
6.228097222222222
 20
2.179652777777778
 10
6.231569444444445
 20
2.176180555555555
 10
6.235041666666667
 20
2.176180555555555
 10
6.238513888888889
 20
2.176180555555555
 10
6.241986111111112
 20
2.172708333333333
 10
6.245472222222223
 20
2.172708333333333
 10
6.248944444444444
 20
2.169236111111111
 10
6.252416666666666
 20
2.165763888888888
 10
6.252416666666666
 20
2.162291666666666
 10
6.255888888888889
 20
2.158819444444444
  0
LWPOLYLINE
  5
232
330
2
100
AcDbEntity
  8
PDF_Layer 1
 62
     7
420
 16777215
370
    70
100
AcDbPolyline
 90
       16
 70
     0
 43
0.0
 10
6.342708333333333
 20
2.895069444444444
 10
6.339236111111111
 20
2.853402777777778
 10
6.332291666666667
 20
2.766569444444444
 10
6.325347222222222
 20
2.679749999999999
 10
6.318402777777778
 20
2.596402777777777
 10
6.307972222222223
 20
2.509569444444444
 10
6.294083333333333
 20
2.42275
 10
6.280194444444444
 20
2.339416666666666
 10
6.266305555555556
 20
2.252583333333333
 10
6.262833333333333
 20
2.249111111111111
 10
6.259361111111111
 20
2.245638888888889
 10
6.259361111111111
 20
2.242166666666666
 10
6.255888888888889
 20
2.242166666666666
 10
6.252416666666666
 20
2.238694444444444
 10
6.248944444444444
 20
2.238694444444444
 10
6.245472222222223
 20
2.238694444444444
  0
LWPOLYLINE
  5
233
330
2
100
AcDbEntity
  8
PDF_Layer 1
 62
     7
420
 16777215
370
    70
100
AcDbPolyline
 90
       16
 70
     0
 43
0.0
 10
6.735152777777778
 20
2.238694444444444
 10
6.731680555555556
 20
2.238694444444444
 10
6.728208333333333
 20
2.238694444444444
 10
6.724736111111111
 20
2.242166666666666
 10
6.721263888888889
 20
2.242166666666666
 10
6.721263888888889
 20
2.245638888888889
 10
6.717791666666667
 20
2.249111111111111
 10
6.714319444444445
 20
2.252583333333333
 10
6.700430555555556
 20
2.339416666666666
 10
6.686527777777778
 20
2.42275
 10
6.672638888888888
 20
2.509569444444444
 10
6.662222222222222
 20
2.596402777777777
 10
6.655277777777778
 20
2.679749999999999
 10
6.648333333333333
 20
2.766569444444444
 10
6.641388888888888
 20
2.853402777777778
 10
6.637916666666666
 20
2.898541666666666
  0
ARC
  5
234
330
2
100
AcDbEntity
  8
PDF_Layer 1
 62
     7
420
 16777215
370
    70
100
AcDbCircle
 10
6.490312499999999
 20
2.174115320421853
 30
0.0
 40
0.2351737037944597
100
AcDbArc
 50
184.5773720740616
 51
355.4226279259383
  0
LWPOLYLINE
  5
23A
330
2
100
AcDbEntity
  8
PDF_Layer 1
 62
     7
420
 16777215
370
    70
100
AcDbPolyline
 90
      139
 70
     0
 43
0.0
 10
6.738625
 20
3.377819444444444
 10
6.738625
 20
3.391708333333333
 10
6.738625
 20
3.443805555555555
 10
6.738625
 20
3.495902777777777
 10
6.738625
 20
3.541041666666666
 10
6.738625
 20
3.57925
 10
6.738625
 20
3.6105
 10
6.738625
 20
3.631347222222222
 10
6.738625
 20
3.645236111111111
 10
6.738625
 20
3.648708333333333
 10
6.735152777777778
 20
3.659124999999999
 10
6.731680555555556
 20
3.666069444444444
 10
6.724736111111111
 20
3.673013888888888
 10
6.717791666666667
 20
3.676486111111111
 10
6.707375
 20
3.676486111111111
 10
6.700430555555556
 20
3.676486111111111
 10
6.69
 20
3.669541666666666
 10
6.686527777777778
 20
3.662597222222222
 10
6.683055555555555
 20
3.659124999999999
 10
6.679583333333333
 20
3.655652777777777
 10
6.676111111111111
 20
3.652180555555555
 10
6.672638888888888
 20
3.652180555555555
 10
6.669166666666666
 20
3.652180555555555
 10
6.641388888888888
 20
3.652180555555555
 10
6.644861111111111
 20
3.652180555555555
 10
6.630958333333333
 20
3.648708333333333
 10
6.606652777777778
 20
3.638291666666666
 10
6.568458333333333
 20
3.627874999999999
 10
6.519833333333334
 20
3.620930555555555
 10
6.467736111111111
 20
3.620930555555555
 10
6.422583333333333
 20
3.624402777777777
 10
6.38438888888889
 20
3.634819444444444
 10
6.353125
 20
3.645236111111111
 10
6.339236111111111
 20
3.652180555555555
 10
6.307972222222223
 20
3.652180555555555
 10
6.3045
 20
3.652180555555555
 10
6.301027777777778
 20
3.652180555555555
 10
6.297555555555556
 20
3.655652777777777
 10
6.294083333333333
 20
3.655652777777777
 10
6.294083333333333
 20
3.659124999999999
 10
6.290611111111111
 20
3.659124999999999
 10
6.290611111111111
 20
3.662597222222222
 10
6.287138888888889
 20
3.669541666666666
 10
6.280194444444444
 20
3.673013888888888
 10
6.27325
 20
3.676486111111111
 10
6.266305555555556
 20
3.676486111111111
 10
6.259361111111111
 20
3.676486111111111
 10
6.252416666666666
 20
3.673013888888888
 10
6.245472222222223
 20
3.666069444444444
 10
6.241986111111112
 20
3.659124999999999
 10
6.241986111111112
 20
3.655652777777777
 10
6.241986111111112
 20
3.652180555555555
 10
6.238513888888889
 20
3.652180555555555
 10
6.238513888888889
 20
3.648708333333333
 10
6.235041666666667
 20
3.648708333333333
 10
6.210736111111112
 20
3.634819444444444
 10
6.186430555555556
 20
3.617458333333333
 10
6.165583333333334
 20
3.600083333333333
 10
6.148222222222222
 20
3.57925
 10
6.127388888888889
 20
3.558416666666666
 10
6.1135
 20
3.537569444444444
 10
6.096125
 20
3.513263888888888
 10
6.085708333333333
 20
3.488958333333333
 10
6.085708333333333
 20
3.485472222222222
 10
6.085708333333333
 20
3.471583333333333
 10
6.085708333333333
 20
3.447277777777777
 10
6.085708333333333
 20
3.419486111111111
 10
6.085708333333333
 20
3.381291666666666
 10
6.085708333333333
 20
3.339611111111111
 10
6.085708333333333
 20
3.297944444444444
 10
6.085708333333333
 20
3.249319444444444
 10
6.085708333333333
 20
3.207638888888888
 10
6.085708333333333
 20
3.165972222222221
 10
6.085708333333333
 20
3.127763888888889
 10
6.085708333333333
 20
3.099972222222222
 10
6.085708333333333
 20
3.075666666666666
 10
6.085708333333333
 20
3.061777777777777
 10
6.085708333333333
 20
3.058305555555555
 10
6.096125
 20
3.033986111111111
 10
6.1135
 20
3.009680555555555
 10
6.127388888888889
 20
2.988847222222222
 10
6.148222222222222
 20
2.967999999999999
 10
6.165583333333334
 20
2.947166666666666
 10
6.186430555555556
 20
2.929805555555555
 10
6.210736111111112
 20
2.912444444444444
 10
6.235041666666667
 20
2.898541666666666
 10
6.238513888888889
 20
2.898541666666666
 10
6.238513888888889
 20
2.895069444444444
 10
6.241986111111112
 20
2.895069444444444
 10
6.241986111111112
 20
2.891597222222221
 10
6.241986111111112
 20
2.888125
 10
6.245472222222223
 20
2.881180555555555
 10
6.252416666666666
 20
2.874236111111111
 10
6.259361111111111
 20
2.870763888888888
 10
6.266305555555556
 20
2.870763888888888
 10
6.27325
 20
2.870763888888888
 10
6.280194444444444
 20
2.874236111111111
 10
6.287138888888889
 20
2.877708333333333
 10
6.290611111111111
 20
2.884652777777777
 10
6.290611111111111
 20
2.888125
 10
6.294083333333333
 20
2.888125
 10
6.294083333333333
 20
2.891597222222221
 10
6.297555555555556
 20
2.891597222222221
 10
6.301027777777778
 20
2.895069444444444
 10
6.3045
 20
2.895069444444444
 10
6.307972222222223
 20
2.895069444444444
 10
6.335763888888888
 20
2.895069444444444
 10
6.346180555555555
 20
2.898541666666666
 10
6.367013888888888
 20
2.905499999999999
 10
6.40175
 20
2.915916666666666
 10
6.450375
 20
2.926333333333333
 10
6.502458333333334
 20
2.926333333333333
 10
6.547611111111112
 20
2.922861111111111
 10
6.589291666666666
 20
2.915916666666666
 10
6.624013888888889
 20
2.905499999999999
 10
6.641388888888888
 20
2.895069444444444
 10
6.669166666666666
 20
2.895069444444444
 10
6.672638888888888
 20
2.895069444444444
 10
6.676111111111111
 20
2.895069444444444
 10
6.679583333333333
 20
2.891597222222221
 10
6.683055555555555
 20
2.888125
 10
6.686527777777778
 20
2.884652777777777
 10
6.69
 20
2.877708333333333
 10
6.700430555555556
 20
2.874236111111111
 10
6.707375
 20
2.870763888888888
 10
6.717791666666667
 20
2.870763888888888
 10
6.724736111111111
 20
2.874236111111111
 10
6.731680555555556
 20
2.881180555555555
 10
6.735152777777778
 20
2.888125
 10
6.738625
 20
2.898541666666666
 10
6.738625
 20
2.902013888888889
 10
6.738625
 20
2.915916666666666
 10
6.738625
 20
2.936749999999999
 10
6.738625
 20
2.967999999999999
 10
6.738625
 20
3.006208333333333
 10
6.738625
 20
3.051361111111111
 10
6.738625
 20
3.103458333333333
 10
6.738625
 20
3.159013888888889
 10
6.738625
 20
3.172916666666666
  0
LWPOLYLINE
  5
247
330
2
100
AcDbEntity
  8
PDF_Layer 1
 62
     7
420
 16777215
370
    70
100
AcDbPolyline
 90
       17
 70
     0
 43
0.0
 10
6.738625
 20
2.898541666666666
 10
6.766416666666667
 20
2.940222222222221
 10
6.794194444444444
 20
2.981902777777778
 10
6.8185
 20
3.027041666666666
 10
6.835875
 20
3.075666666666666
 10
6.853236111111112
 20
3.124291666666666
 10
6.863652777777778
 20
3.172916666666666
 10
6.870597222222222
 20
3.221527777777777
 10
6.870597222222222
 20
3.273625
 10
6.870597222222222
 20
3.325722222222222
 10
6.863652777777778
 20
3.374347222222222
 10
6.853236111111112
 20
3.422972222222222
 10
6.835875
 20
3.471583333333333
 10
6.8185
 20
3.520208333333333
 10
6.794194444444444
 20
3.56536111111111
 10
6.766416666666667
 20
3.607027777777777
 10
6.738625
 20
3.648708333333333
  0
LWPOLYLINE
  5
24B
330
2
100
AcDbEntity
  8
PDF_Layer 1
 62
     7
420
 16777215
370
    70
100
AcDbPolyline
 90
       94
 70
     1
 43
0.0
 10
3.272625
 20
2.238694444444444
 10
3.272625
 20
2.242166666666666
 10
3.272625
 20
2.252583333333333
 10
3.272625
 20
2.273430555555555
 10
3.272625
 20
2.304680555555555
 10
3.272625
 20
2.339416666666666
 10
3.272625
 20
2.388027777777777
 10
3.272625
 20
2.440111111111111
 10
3.272625
 20
2.502625
 10
3.272625
 20
2.568611111111111
 10
3.272625
 20
2.641541666666666
 10
3.272625
 20
2.721430555555555
 10
3.272625
 20
2.80825
 10
3.272625
 20
2.895069444444444
 10
3.272625
 20
2.985375
 10
3.272625
 20
3.082611111111111
 10
3.272625
 20
3.176388888888888
 10
3.272625
 20
3.273625
 10
3.272625
 20
3.370874999999999
 10
3.272625
 20
3.468111111111111
 10
3.272625
 20
3.561888888888888
 10
3.272625
 20
3.652180555555555
 10
3.272625
 20
3.742472222222222
 10
3.272625
 20
3.825833333333333
 10
3.272625
 20
3.905708333333333
 10
3.272625
 20
3.978638888888888
 10
3.272625
 20
4.044624999999999
 10
3.272625
 20
4.107138888888888
 10
3.272625
 20
4.159236111111111
 10
3.272625
 20
4.20786111111111
 10
3.272625
 20
4.242583333333333
 10
3.272625
 20
4.273847222222222
 10
3.272625
 20
4.294680555555555
 10
3.272625
 20
4.305097222222222
 10
3.272625
 20
4.308569444444444
 10
3.272625
 20
4.312041666666667
 10
3.272625
 20
4.315513888888888
 10
3.269152777777778
 20
4.315513888888888
 10
3.269152777777778
 20
4.318986111111111
 10
3.265666666666667
 20
4.322458333333333
 10
3.248305555555556
 20
4.332888888888889
 10
3.230944444444444
 20
4.343305555555556
 10
3.213583333333334
 20
4.346777777777777
 10
3.196208333333334
 20
4.353722222222222
 10
3.178847222222223
 20
4.357194444444444
 10
3.161486111111111
 20
4.357194444444444
 10
3.140638888888888
 20
4.357194444444444
 10
3.123277777777778
 20
4.357194444444444
 10
3.123277777777778
 20
4.35025
 10
3.123277777777778
 20
4.339833333333332
 10
3.123277777777778
 20
4.315513888888888
 10
3.123277777777778
 20
4.284263888888888
 10
3.123277777777778
 20
4.242583333333333
 10
3.123277777777778
 20
4.193958333333332
 10
3.123277777777778
 20
4.138402777777777
 10
3.123277777777778
 20
4.072416666666667
 10
3.123277777777778
 20
4.002944444444444
 10
3.123277777777778
 20
3.926541666666666
 10
3.123277777777778
 20
3.843194444444444
 10
3.123277777777778
 20
3.756375
 10
3.123277777777778
 20
3.666069444444444
 10
3.123277777777778
 20
3.568833333333333
 10
3.123277777777778
 20
3.471583333333333
 10
3.123277777777778
 20
3.374347222222222
 10
3.123277777777778
 20
3.273625
 10
3.123277777777778
 20
3.172916666666666
 10
3.123277777777778
 20
3.075666666666666
 10
3.123277777777778
 20
2.978430555555555
 10
3.123277777777778
 20
2.881180555555555
 10
3.123277777777778
 20
2.790888888888889
 10
3.123277777777778
 20
2.704055555555555
 10
3.123277777777778
 20
2.620708333333333
 10
3.123277777777778
 20
2.544305555555555
 10
3.123277777777778
 20
2.474847222222222
 10
3.123277777777778
 20
2.408861111111111
 10
3.123277777777778
 20
2.353305555555555
 10
3.123277777777778
 20
2.304680555555555
 10
3.123277777777778
 20
2.263013888888888
 10
3.123277777777778
 20
2.231749999999999
 10
3.123277777777778
 20
2.210916666666666
 10
3.123277777777778
 20
2.197013888888888
 10
3.123277777777778
 20
2.190069444444444
 10
3.140638888888888
 20
2.190069444444444
 10
3.161486111111111
 20
2.190069444444444
 10
3.178847222222223
 20
2.190069444444444
 10
3.196208333333334
 20
2.193541666666666
 10
3.213583333333334
 20
2.200499999999999
 10
3.230944444444444
 20
2.207444444444444
 10
3.248305555555556
 20
2.214388888888889
 10
3.265666666666667
 20
2.224805555555555
 10
3.269152777777778
 20
2.228277777777778
 10
3.269152777777778
 20
2.231749999999999
 10
3.272625
 20
2.231749999999999
 10
3.272625
 20
2.235222222222222
  0
LWPOLYLINE
  5
24F
330
2
100
AcDbEntity
  8
PDF_Layer 1
 62
     7
420
 16777215
370
    70
100
AcDbPolyline
 90
       77
 70
     0
 43
0.0
 10
3.272625
 20
2.242166666666666
 10
3.272625
 20
2.245638888888889
 10
3.276097222222222
 20
2.249111111111111
 10
3.276097222222222
 20
2.252583333333333
 10
3.279569444444445
 20
2.252583333333333
 10
3.279569444444445
 20
2.256055555555555
 10
3.283041666666667
 20
2.259527777777778
 10
3.286513888888888
 20
2.259527777777778
 10
3.289986111111111
 20
2.259527777777778
 10
3.303875
 20
2.263013888888888
 10
3.317763888888888
 20
2.26648611111111
 10
3.331652777777778
 20
2.269958333333333
 10
3.345555555555557
 20
2.273430555555555
 10
3.359444444444446
 20
2.280375
 10
3.369861111111111
 20
2.283847222222222
 10
3.38375
 20
2.290791666666666
 10
3.394166666666668
 20
2.301208333333333
 10
3.397638888888889
 20
2.301208333333333
 10
3.397638888888889
 20
2.304680555555555
 10
3.401125000000001
 20
2.304680555555555
 10
3.401125000000001
 20
2.308152777777777
 10
3.401125000000001
 20
2.311625
 10
3.404597222222221
 20
2.315097222222222
 10
3.404597222222221
 20
2.322041666666666
 10
3.404597222222221
 20
2.335944444444444
 10
3.404597222222221
 20
2.356777777777777
 10
3.404597222222221
 20
2.388027777777777
 10
3.404597222222221
 20
2.429694444444444
 10
3.404597222222221
 20
2.478319444444444
 10
3.404597222222221
 20
2.533888888888888
 10
3.404597222222221
 20
2.596402777777777
 10
3.404597222222221
 20
2.665861111111111
 10
3.404597222222221
 20
2.742263888888889
 10
3.404597222222221
 20
2.822138888888888
 10
3.404597222222221
 20
2.905499999999999
 10
3.404597222222221
 20
2.995791666666666
 10
3.404597222222221
 20
3.086083333333333
 10
3.404597222222221
 20
3.17986111111111
 10
3.404597222222221
 20
3.273625
 10
3.404597222222221
 20
3.367402777777777
 10
3.404597222222221
 20
3.461166666666666
 10
3.404597222222221
 20
3.551458333333333
 10
3.404597222222221
 20
3.641763888888888
 10
3.404597222222221
 20
3.725111111111111
 10
3.404597222222221
 20
3.80498611111111
 10
3.404597222222221
 20
3.881402777777777
 10
3.404597222222221
 20
3.950861111111111
 10
3.404597222222221
 20
4.013374999999999
 10
3.404597222222221
 20
4.068944444444444
 10
3.404597222222221
 20
4.117555555555555
 10
3.404597222222221
 20
4.159236111111111
 10
3.404597222222221
 20
4.190486111111111
 10
3.404597222222221
 20
4.211333333333333
 10
3.404597222222221
 20
4.225222222222221
 10
3.404597222222221
 20
4.232166666666666
 10
3.401125000000001
 20
4.235638888888888
 10
3.401125000000001
 20
4.23911111111111
 10
3.401125000000001
 20
4.242583333333333
 10
3.397638888888889
 20
4.242583333333333
 10
3.397638888888889
 20
4.246055555555555
 10
3.394166666666668
 20
4.246055555555555
 10
3.38375
 20
4.256472222222221
 10
3.369861111111111
 20
4.263416666666666
 10
3.359444444444446
 20
4.270374999999999
 10
3.345555555555557
 20
4.273847222222222
 10
3.331652777777778
 20
4.277319444444444
 10
3.317763888888888
 20
4.280791666666667
 10
3.303875
 20
4.284263888888888
 10
3.289986111111111
 20
4.287736111111111
 10
3.286513888888888
 20
4.287736111111111
 10
3.283041666666667
 20
4.287736111111111
 10
3.279569444444445
 20
4.291208333333333
 10
3.279569444444445
 20
4.294680555555555
 10
3.276097222222222
 20
4.294680555555555
 10
3.276097222222222
 20
4.298152777777778
 10
3.272625
 20
4.301624999999999
 10
3.272625
 20
4.305097222222222
  0
LWPOLYLINE
  5
255
330
2
100
AcDbEntity
  8
PDF_Layer 1
 62
     7
420
 16777215
370
    70
100
AcDbPolyline
 90
       45
 70
     0
 43
0.0
 10
3.404597222222221
 20
2.325513888888888
 10
3.404597222222221
 20
2.329
 10
3.404597222222221
 20
2.332472222222222
 10
3.404597222222221
 20
2.335944444444444
 10
3.408069444444445
 20
2.339416666666666
 10
3.411541666666666
 20
2.342888888888889
 10
3.41501388888889
 20
2.342888888888889
 10
3.41501388888889
 20
2.346361111111111
 10
3.41501388888889
 20
2.356777777777777
 10
3.41501388888889
 20
2.377611111111111
 10
3.41501388888889
 20
2.408861111111111
 10
3.41501388888889
 20
2.447055555555555
 10
3.41501388888889
 20
2.492208333333333
 10
3.41501388888889
 20
2.547777777777778
 10
3.41501388888889
 20
2.606819444444444
 10
3.41501388888889
 20
2.676277777777777
 10
3.41501388888889
 20
2.749208333333333
 10
3.41501388888889
 20
2.829083333333333
 10
3.41501388888889
 20
2.912444444444444
 10
3.41501388888889
 20
2.999263888888888
 10
3.41501388888889
 20
3.089555555555555
 10
3.41501388888889
 20
3.17986111111111
 10
3.41501388888889
 20
3.273625
 10
3.41501388888889
 20
3.367402777777777
 10
3.41501388888889
 20
3.457694444444444
 10
3.41501388888889
 20
3.547986111111111
 10
3.41501388888889
 20
3.634819444444444
 10
3.41501388888889
 20
3.718166666666666
 10
3.41501388888889
 20
3.798041666666666
 10
3.41501388888889
 20
3.870972222222222
 10
3.41501388888889
 20
3.940430555555555
 10
3.41501388888889
 20
3.999472222222221
 10
3.41501388888889
 20
4.055041666666665
 10
3.41501388888889
 20
4.100194444444444
 10
3.41501388888889
 20
4.138402777777777
 10
3.41501388888889
 20
4.169652777777777
 10
3.41501388888889
 20
4.190486111111111
 10
3.41501388888889
 20
4.200916666666666
 10
3.41501388888889
 20
4.204388888888888
 10
3.411541666666666
 20
4.204388888888888
 10
3.408069444444445
 20
4.20786111111111
 10
3.404597222222221
 20
4.211333333333333
 10
3.404597222222221
 20
4.214805555555555
 10
3.404597222222221
 20
4.218277777777776
 10
3.404597222222221
 20
4.22175
  0
ARC
  5
257
330
2
100
AcDbEntity
  8
PDF_Layer 1
 62
     7
420
 16777215
370
    70
100
AcDbCircle
 10
5.160935662788732
 20
7.444534275516459
 30
0.0
 40
3.680595735347947
100
AcDbArc
 50
241.682411493263
 51
267.7438542963484
  0
ARC
  5
258
330
2
100
AcDbEntity
  8
PDF_Layer 1
 62
     7
420
 16777215
370
    70
100
AcDbCircle
 10
5.16343446420353
 20
-0.9065158315149092
 30
0.0
 40
3.689933000091744
100
AcDbArc
 50
92.2892644941194
 51
118.2835447352209
  0
LWPOLYLINE
  5
25B
330
2
100
AcDbEntity
  8
PDF_Layer 1
 62
     7
420
 16777215
370
    70
100
AcDbPolyline
 90
       21
 70
     0
 43
0.0
 10
2.845444444444446
 20
3.721638888888888
 10
2.848916666666667
 20
3.718166666666666
 10
2.852402777777777
 20
3.686916666666666
 10
2.855875000000001
 20
3.627874999999999
 10
2.855875000000001
 20
3.551458333333333
 10
2.859347222222222
 20
3.457694444444444
 10
2.862819444444445
 20
3.350027777777777
 10
2.866291666666667
 20
3.242375
 10
2.866291666666667
 20
3.134708333333333
 10
2.86976388888889
 20
3.033986111111111
 10
2.873236111111111
 20
2.947166666666666
 10
2.876708333333334
 20
2.881180555555555
 10
2.880180555555556
 20
2.8395
 10
2.880180555555556
 20
2.822138888888888
 10
2.883652777777777
 20
2.822138888888888
 10
2.894069444444445
 20
2.8395
 10
2.904486111111111
 20
2.860347222222222
 10
2.914902777777777
 20
2.860347222222222
 10
2.921861111111111
 20
2.860347222222222
 10
2.932277777777779
 20
2.8395
 10
2.942694444444445
 20
2.822138888888888
  0
LWPOLYLINE
  5
25C
330
2
100
AcDbEntity
  8
PDF_Layer 1
 62
     7
420
 16777215
370
    70
100
AcDbPolyline
 90
       29
 70
     0
 43
0.0
 10
2.939222222222221
 20
3.683444444444444
 10
2.942694444444445
 20
3.676486111111111
 10
2.946166666666666
 20
3.641763888888888
 10
2.949638888888889
 20
3.586194444444444
 10
2.949638888888889
 20
3.509791666666666
 10
2.953111111111111
 20
3.422972222222222
 10
2.956583333333334
 20
3.325722222222222
 10
2.960055555555555
 20
3.225
 10
2.963527777777779
 20
3.127763888888889
 10
2.963527777777779
 20
3.037472222222222
 10
2.967
 20
2.961055555555555
 10
2.970472222222221
 20
2.905499999999999
 10
2.973944444444445
 20
2.870763888888888
 10
2.977416666666666
 20
2.860347222222222
 10
2.984361111111111
 20
2.860347222222222
 10
2.994777777777779
 20
2.860347222222222
 10
3.005194444444445
 20
2.8395
 10
3.015625
 20
2.822138888888888
 10
3.026041666666666
 20
2.822138888888888
 10
3.036458333333333
 20
2.8395
 10
3.046875
 20
2.860347222222222
 10
3.057291666666666
 20
2.860347222222222
 10
3.06423611111111
 20
2.860347222222222
 10
3.074652777777778
 20
2.8395
 10
3.088555555555554
 20
2.822138888888888
 10
3.095499999999999
 20
2.822138888888888
 10
3.109388888888888
 20
2.8395
 10
3.119805555555554
 20
2.860347222222222
 10
3.123277777777778
 20
2.860347222222222
  0
LWPOLYLINE
  5
25E
330
2
100
AcDbEntity
  8
PDF_Layer 1
 62
     7
420
 16777215
370
    70
100
AcDbPolyline
 90
       26
 70
     0
 43
0.0
 10
2.994777777777779
 20
2.863819444444444
 10
2.991305555555555
 20
2.870763888888888
 10
2.987833333333334
 20
2.905499999999999
 10
2.984361111111111
 20
2.961055555555555
 10
2.984361111111111
 20
3.037472222222222
 10
2.980888888888889
 20
3.127763888888889
 10
2.977416666666666
 20
3.225
 10
2.973944444444445
 20
3.325722222222222
 10
2.970472222222221
 20
3.422972222222222
 10
2.970472222222221
 20
3.509791666666666
 10
2.967
 20
3.586194444444444
 10
2.963527777777779
 20
3.641763888888888
 10
2.960055555555555
 20
3.676486111111111
 10
2.956583333333334
 20
3.686916666666666
 10
2.949638888888889
 20
3.686916666666666
 10
2.939222222222221
 20
3.686916666666666
 10
2.928805555555555
 20
3.707749999999999
 10
2.918388888888889
 20
3.725111111111111
 10
2.907958333333334
 20
3.725111111111111
 10
2.897541666666667
 20
3.707749999999999
 10
2.887125000000001
 20
3.686916666666666
 10
2.876708333333334
 20
3.686916666666666
 10
2.86976388888889
 20
3.686916666666666
 10
2.859347222222222
 20
3.707749999999999
 10
2.845444444444446
 20
3.725111111111111
 10
2.835027777777778
 20
3.725111111111111
  0
LWPOLYLINE
  5
25F
330
2
100
AcDbEntity
  8
PDF_Layer 1
 62
     7
420
 16777215
370
    70
100
AcDbPolyline
 90
        4
 70
     0
 43
0.0
 10
2.987833333333334
 20
3.725111111111111
 10
2.980888888888889
 20
3.725111111111111
 10
2.970472222222221
 20
3.707749999999999
 10
2.956583333333334
 20
3.686916666666666
  0
LWPOLYLINE
  5
260
330
2
100
AcDbEntity
  8
PDF_Layer 1
 62
     7
420
 16777215
370
    70
100
AcDbPolyline
 90
       21
 70
     0
 43
0.0
 10
3.102444444444444
 20
3.686916666666666
 10
3.092027777777778
 20
3.686916666666666
 10
3.085083333333333
 20
3.686916666666666
 10
3.071180555555555
 20
3.707749999999999
 10
3.060763888888889
 20
3.725111111111111
 10
3.050347222222223
 20
3.725111111111111
 10
3.039930555555555
 20
3.707749999999999
 10
3.029513888888889
 20
3.686916666666666
 10
3.03298611111111
 20
3.673013888888888
 10
3.036458333333333
 20
3.634819444444444
 10
3.039930555555555
 20
3.572305555555555
 10
3.039930555555555
 20
3.495902777777777
 10
3.043402777777778
 20
3.402124999999999
 10
3.046875
 20
3.304888888888888
 10
3.050347222222223
 20
3.204166666666666
 10
3.053819444444444
 20
3.106930555555555
 10
3.053819444444444
 20
3.020097222222222
 10
3.057291666666666
 20
2.950638888888888
 10
3.060763888888889
 20
2.898541666666666
 10
3.06423611111111
 20
2.867291666666666
 10
3.06423611111111
 20
2.863819444444444
  0
LWPOLYLINE
  5
261
330
2
100
AcDbEntity
  8
PDF_Layer 1
 62
     7
420
 16777215
370
    70
100
AcDbPolyline
 90
        3
 70
     0
 43
0.0
 10
3.123277777777778
 20
3.725111111111111
 10
3.11286111111111
 20
3.707749999999999
 10
3.098972222222222
 20
3.686916666666666
  0
LWPOLYLINE
  5
262
330
2
100
AcDbEntity
  8
PDF_Layer 1
 62
     7
420
 16777215
370
    70
100
AcDbPolyline
 90
       60
 70
     0
 43
0.0
 10
2.838500000000001
 20
3.725111111111111
 10
2.824611111111112
 20
3.707749999999999
 10
2.814194444444446
 20
3.686916666666666
 10
2.807250000000001
 20
3.686916666666666
 10
2.796833333333333
 20
3.686916666666666
 10
2.78988888888889
 20
3.679958333333333
 10
2.78988888888889
 20
3.673013888888888
 10
2.78988888888889
 20
3.662597222222222
 10
2.78988888888889
 20
3.638291666666666
 10
2.78988888888889
 20
3.6105
 10
2.78988888888889
 20
3.572305555555555
 10
2.78988888888889
 20
3.527152777777777
 10
2.78988888888889
 20
3.475055555555555
 10
2.78988888888889
 20
3.422972222222222
 10
2.78988888888889
 20
3.363930555555555
 10
2.78988888888889
 20
3.304888888888888
 10
2.78988888888889
 20
3.242375
 10
2.78988888888889
 20
3.183333333333333
 10
2.78988888888889
 20
3.124291666666666
 10
2.78988888888889
 20
3.072194444444444
 10
2.78988888888889
 20
3.020097222222222
 10
2.78988888888889
 20
2.974958333333333
 10
2.78988888888889
 20
2.940222222222221
 10
2.78988888888889
 20
2.908958333333333
 10
2.78988888888889
 20
2.884652777777777
 10
2.78988888888889
 20
2.874236111111111
 10
2.78988888888889
 20
2.867291666666666
 10
2.82113888888889
 20
2.836027777777777
 10
2.817666666666667
 20
2.846458333333333
 10
2.817666666666667
 20
2.867291666666666
 10
2.817666666666667
 20
2.902013888888889
 10
2.814194444444446
 20
2.943694444444444
 10
2.814194444444446
 20
2.995791666666666
 10
2.814194444444446
 20
3.058305555555555
 10
2.810722222222223
 20
3.124291666666666
 10
2.810722222222223
 20
3.19375
 10
2.807250000000001
 20
3.266680555555555
 10
2.807250000000001
 20
3.336138888888888
 10
2.807250000000001
 20
3.405597222222222
 10
2.803777777777778
 20
3.471583333333333
 10
2.803777777777778
 20
3.530625
 10
2.803777777777778
 20
3.582722222222221
 10
2.800305555555556
 20
3.624402777777777
 10
2.800305555555556
 20
3.659124999999999
 10
2.800305555555556
 20
3.679958333333333
 10
2.796833333333333
 20
3.686916666666666
 10
2.800305555555556
 20
3.683444444444444
 10
2.800305555555556
 20
3.659124999999999
 10
2.803777777777778
 20
3.6105
 10
2.807250000000001
 20
3.541041666666666
 10
2.810722222222223
 20
3.457694444444444
 10
2.814194444444446
 20
3.363930555555555
 10
2.814194444444446
 20
3.263208333333333
 10
2.817666666666667
 20
3.165972222222221
 10
2.82113888888889
 20
3.072194444444444
 10
2.824611111111112
 20
2.988847222222222
 10
2.828083333333333
 20
2.926333333333333
 10
2.828083333333333
 20
2.881180555555555
 10
2.831555555555556
 20
2.860347222222222
 10
2.831555555555556
 20
2.863819444444444
  0
LWPOLYLINE
  5
263
330
2
100
AcDbEntity
  8
PDF_Layer 1
 62
     7
420
 16777215
370
    70
100
AcDbPolyline
 90
       17
 70
     0
 43
0.0
 10
2.814194444444446
 20
3.683444444444444
 10
2.817666666666667
 20
3.683444444444444
 10
2.82113888888889
 20
3.659124999999999
 10
2.82113888888889
 20
3.6105
 10
2.824611111111112
 20
3.541041666666666
 10
2.828083333333333
 20
3.457694444444444
 10
2.831555555555556
 20
3.363930555555555
 10
2.835027777777778
 20
3.263208333333333
 10
2.835027777777778
 20
3.165972222222221
 10
2.838500000000001
 20
3.072194444444444
 10
2.841972222222223
 20
2.988847222222222
 10
2.845444444444446
 20
2.926333333333333
 10
2.848916666666667
 20
2.881180555555555
 10
2.848916666666667
 20
2.860347222222222
 10
2.862819444444445
 20
2.8395
 10
2.873236111111111
 20
2.822138888888888
 10
2.883652777777777
 20
2.822138888888888
  0
LWPOLYLINE
  5
265
330
2
100
AcDbEntity
  8
PDF_Layer 1
 62
     7
420
 16777215
370
    70
100
AcDbPolyline
 90
        5
 70
     0
 43
0.0
 10
3.029513888888889
 20
3.686916666666666
 10
3.019097222222223
 20
3.686916666666666
 10
3.012138888888889
 20
3.686916666666666
 10
3.001722222222221
 20
3.707749999999999
 10
2.991305555555555
 20
3.725111111111111
  0
LWPOLYLINE
  5
268
330
2
100
AcDbEntity
  8
PDF_Layer 1
 62
     7
420
 16777215
370
    70
100
AcDbPolyline
 90
        2
 70
     0
 43
0.0
 10
2.82113888888889
 20
2.8395
 10
2.835027777777778
 20
2.860347222222222
  0
LWPOLYLINE
  5
26A
330
2
100
AcDbEntity
  8
PDF_Layer 1
 62
     7
420
 16777215
370
    70
100
AcDbPolyline
 90
        4
 70
     0
 43
0.0
 10
2.946166666666666
 20
2.822138888888888
 10
2.953111111111111
 20
2.822138888888888
 10
2.967
 20
2.8395
 10
2.977416666666666
 20
2.860347222222222
  0
LWPOLYLINE
  5
271
330
2
100
AcDbEntity
  8
PDF_Layer 1
 62
     7
420
 16777215
370
    70
100
AcDbPolyline
 90
        2
 70
     0
 43
0.0
 10
3.123277777777778
 20
3.725111111111111
 10
3.123277777777778
 20
3.725111111111111
  0
LWPOLYLINE
  5
281
330
2
100
AcDbEntity
  8
PDF_Layer 1
 62
     7
420
 16777215
370
    70
100
AcDbPolyline
 90
        3
 70
     0
 43
0.0
 10
2.831555555555556
 20
2.860347222222222
 10
2.841972222222223
 20
2.860347222222222
 10
2.852402777777777
 20
2.860347222222222
  0
LWPOLYLINE
  5
282
330
2
100
AcDbEntity
  8
PDF_Layer 1
 62
     7
420
 16777215
370
    70
100
AcDbPolyline
 90
        2
 70
     0
 43
0.0
 10
2.501625
 20
2.988847222222222
 10
2.78988888888889
 20
2.988847222222222
  0
LWPOLYLINE
  5
283
330
2
100
AcDbEntity
  8
PDF_Layer 1
 62
     7
420
 16777215
370
    70
100
AcDbPolyline
 90
        2
 70
     0
 43
0.0
 10
2.78988888888889
 20
3.558416666666666
 10
2.501625
 20
3.558416666666666
  0
LWPOLYLINE
  5
284
330
2
100
AcDbEntity
  8
PDF_Layer 1
 62
     7
420
 16777215
370
    70
100
AcDbPolyline
 90
        2
 70
     0
 43
0.0
 10
5.092444444444445
 20
3.089555555555555
 10
6.085708333333333
 20
3.089555555555555
  0
LWPOLYLINE
  5
285
330
2
100
AcDbEntity
  8
PDF_Layer 1
 62
     7
420
 16777215
370
    70
100
AcDbPolyline
 90
        2
 70
     0
 43
0.0
 10
6.085708333333333
 20
3.457694444444444
 10
5.092444444444445
 20
3.457694444444444
  0
LWPOLYLINE
  5
286
330
2
100
AcDbEntity
  8
PDF_Layer 1
 62
     7
420
 16777215
370
    70
100
AcDbPolyline
 90
       42
 70
     1
 43
0.0
 10
2.348819444444444
 20
2.898541666666666
 10
2.348819444444444
 20
2.905499999999999
 10
2.348819444444444
 20
2.919388888888888
 10
2.348819444444444
 20
2.940222222222221
 10
2.348819444444444
 20
2.971486111111111
 10
2.348819444444444
 20
3.009680555555555
 10
2.348819444444444
 20
3.054833333333333
 10
2.348819444444444
 20
3.103458333333333
 10
2.348819444444444
 20
3.159013888888889
 10
2.348819444444444
 20
3.214583333333333
 10
2.348819444444444
 20
3.273625
 10
2.348819444444444
 20
3.332666666666666
 10
2.348819444444444
 20
3.388236111111111
 10
2.348819444444444
 20
3.443805555555555
 10
2.348819444444444
 20
3.492430555555555
 10
2.348819444444444
 20
3.537569444444444
 10
2.348819444444444
 20
3.575777777777777
 10
2.348819444444444
 20
3.607027777777777
 10
2.348819444444444
 20
3.627874999999999
 10
2.348819444444444
 20
3.641763888888888
 10
2.348819444444444
 20
3.648708333333333
 10
2.216847222222224
 20
3.648708333333333
 10
2.216847222222224
 20
3.641763888888888
 10
2.216847222222224
 20
3.627874999999999
 10
2.216847222222224
 20
3.607027777777777
 10
2.216847222222224
 20
3.575777777777777
 10
2.216847222222224
 20
3.537569444444444
 10
2.216847222222224
 20
3.492430555555555
 10
2.216847222222224
 20
3.443805555555555
 10
2.216847222222224
 20
3.388236111111111
 10
2.216847222222224
 20
3.332666666666666
 10
2.216847222222224
 20
3.273625
 10
2.216847222222224
 20
3.214583333333333
 10
2.216847222222224
 20
3.159013888888889
 10
2.216847222222224
 20
3.103458333333333
 10
2.216847222222224
 20
3.054833333333333
 10
2.216847222222224
 20
3.009680555555555
 10
2.216847222222224
 20
2.971486111111111
 10
2.216847222222224
 20
2.940222222222221
 10
2.216847222222224
 20
2.919388888888888
 10
2.216847222222224
 20
2.905499999999999
 10
2.216847222222224
 20
2.898541666666666
  0
LWPOLYLINE
  5
288
330
2
100
AcDbEntity
  8
PDF_Layer 1
 62
     7
420
 16777215
370
    70
100
AcDbPolyline
 90
       37
 70
     0
 43
0.0
 10
2.348819444444444
 20
2.908958333333333
 10
2.463430555555556
 20
2.908958333333333
 10
2.470375
 20
2.908958333333333
 10
2.477319444444445
 20
2.908958333333333
 10
2.484263888888889
 20
2.912444444444444
 10
2.491208333333334
 20
2.919388888888888
 10
2.494680555555556
 20
2.926333333333333
 10
2.498152777777779
 20
2.933277777777777
 10
2.501625
 20
2.940222222222221
 10
2.501625
 20
2.947166666666666
 10
2.501625
 20
2.95411111111111
 10
2.501625
 20
2.971486111111111
 10
2.501625
 20
2.995791666666666
 10
2.501625
 20
3.027041666666666
 10
2.501625
 20
3.068722222222222
 10
2.501625
 20
3.113875
 10
2.501625
 20
3.165972222222221
 10
2.501625
 20
3.218055555555555
 10
2.501625
 20
3.273625
 10
2.501625
 20
3.329194444444444
 10
2.501625
 20
3.381291666666666
 10
2.501625
 20
3.433388888888889
 10
2.501625
 20
3.478527777777777
 10
2.501625
 20
3.520208333333333
 10
2.501625
 20
3.551458333333333
 10
2.501625
 20
3.575777777777777
 10
2.501625
 20
3.593138888888888
 10
2.501625
 20
3.600083333333333
 10
2.501625
 20
3.607027777777777
 10
2.498152777777779
 20
3.613972222222221
 10
2.494680555555556
 20
3.620930555555555
 10
2.491208333333334
 20
3.627874999999999
 10
2.484263888888889
 20
3.634819444444444
 10
2.477319444444445
 20
3.638291666666666
 10
2.470375
 20
3.638291666666666
 10
2.463430555555556
 20
3.638291666666666
 10
2.348819444444444
 20
3.638291666666666
  0
LWPOLYLINE
  5
28C
330
2
100
AcDbEntity
  8
PDF_Layer 1
 62
     7
420
 16777215
370
    70
100
AcDbPolyline
 90
       13
 70
     0
 43
0.0
 10
2.216847222222224
 20
3.398652777777777
 10
2.189055555555556
 20
3.398652777777777
 10
2.070972222222222
 20
3.329194444444444
 10
2.070972222222222
 20
3.325722222222222
 10
2.070972222222222
 20
3.311833333333333
 10
2.070972222222222
 20
3.294458333333333
 10
2.070972222222222
 20
3.273625
 10
2.070972222222222
 20
3.252791666666666
 10
2.070972222222222
 20
3.235430555555555
 10
2.070972222222222
 20
3.221527777777777
 10
2.070972222222222
 20
3.218055555555555
 10
2.189055555555556
 20
3.148597222222222
 10
2.216847222222224
 20
3.148597222222222
  0
CIRCLE
  5
296
330
2
100
AcDbEntity
  8
PDF_Layer 1
 62
     7
420
 16777215
370
    70
100
AcDbCircle
 10
6.489758459143676
 20
3.274814014699227
 30
0.0
 40
0.2349806602256574
  0
CIRCLE
  5
297
330
2
100
AcDbEntity
  8
PDF_Layer 1
 62
     7
420
 16777215
370
    70
100
AcDbCircle
 10
6.489804784093386
 20
3.273785442134146
 30
0.0
 40
0.2502190471644821
  0
CIRCLE
  5
298
330
2
100
AcDbEntity
  8
PDF_Layer 1
 62
     7
420
 16777215
370
    70
100
AcDbCircle
 10
6.489522881097411
 20
3.272590150197772
 30
0.0
 40
0.2684532095839052
  0
LWPOLYLINE
  5
2A3
330
2
100
AcDbEntity
  8
PDF_Layer 1
 62
     7
420
 16777215
370
    70
100
AcDbPolyline
 90
       21
 70
     0
 43
0.0
 10
5.092444444444445
 20
3.686916666666666
 10
5.092444444444445
 20
3.676486111111111
 10
5.092444444444445
 20
3.659124999999999
 10
5.092444444444445
 20
3.631347222222222
 10
5.092444444444445
 20
3.59661111111111
 10
5.092444444444445
 20
3.554944444444444
 10
5.092444444444445
 20
3.506319444444444
 10
5.092444444444445
 20
3.454222222222222
 10
5.092444444444445
 20
3.395180555555555
 10
5.092444444444445
 20
3.336138888888888
 10
5.092444444444445
 20
3.273625
 10
5.092444444444445
 20
3.21111111111111
 10
5.092444444444445
 20
3.152069444444444
 10
5.092444444444445
 20
3.093027777777777
 10
5.092444444444445
 20
3.040944444444444
 10
5.092444444444445
 20
2.992319444444444
 10
5.092444444444445
 20
2.950638888888888
 10
5.092444444444445
 20
2.915916666666666
 10
5.092444444444445
 20
2.888125
 10
5.092444444444445
 20
2.870763888888888
 10
5.092444444444445
 20
2.860347222222222
  0
LWPOLYLINE
  5
2A5
330
2
100
AcDbEntity
  8
PDF_Layer 1
 62
     7
420
 16777215
370
    70
100
AcDbPolyline
 90
       14
 70
     0
 43
0.0
 10
2.838500000000001
 20
3.721638888888888
 10
2.841972222222223
 20
3.693861111111111
 10
2.845444444444446
 20
3.641763888888888
 10
2.848916666666667
 20
3.568833333333333
 10
2.848916666666667
 20
3.475055555555555
 10
2.852402777777777
 20
3.370874999999999
 10
2.855875000000001
 20
3.263208333333333
 10
2.859347222222222
 20
3.155541666666666
 10
2.862819444444445
 20
3.051361111111111
 10
2.862819444444445
 20
2.964527777777777
 10
2.866291666666667
 20
2.891597222222221
 10
2.86976388888889
 20
2.846458333333333
 10
2.873236111111111
 20
2.822138888888888
 10
2.873236111111111
 20
2.825611111111111
  0
LWPOLYLINE
  5
2A6
330
2
100
AcDbEntity
  8
PDF_Layer 1
 62
     7
420
 16777215
370
    70
100
AcDbPolyline
 90
       15
 70
     0
 43
0.0
 10
2.907958333333334
 20
3.721638888888888
 10
2.911430555555556
 20
3.721638888888888
 10
2.914902777777777
 20
3.693861111111111
 10
2.914902777777777
 20
3.641763888888888
 10
2.918388888888889
 20
3.568833333333333
 10
2.921861111111111
 20
3.475055555555555
 10
2.925333333333334
 20
3.370874999999999
 10
2.928805555555555
 20
3.263208333333333
 10
2.928805555555555
 20
3.155541666666666
 10
2.932277777777779
 20
3.051361111111111
 10
2.93575
 20
2.964527777777777
 10
2.939222222222221
 20
2.891597222222221
 10
2.942694444444445
 20
2.846458333333333
 10
2.942694444444445
 20
2.822138888888888
 10
2.946166666666666
 20
2.825611111111111
  0
LWPOLYLINE
  5
2A7
330
2
100
AcDbEntity
  8
PDF_Layer 1
 62
     7
420
 16777215
370
    70
100
AcDbPolyline
 90
       14
 70
     0
 43
0.0
 10
2.980888888888889
 20
3.721638888888888
 10
2.984361111111111
 20
3.693861111111111
 10
2.987833333333334
 20
3.641763888888888
 10
2.991305555555555
 20
3.568833333333333
 10
2.994777777777779
 20
3.475055555555555
 10
2.994777777777779
 20
3.370874999999999
 10
2.99825
 20
3.263208333333333
 10
3.001722222222221
 20
3.155541666666666
 10
3.005194444444445
 20
3.051361111111111
 10
3.005194444444445
 20
2.964527777777777
 10
3.008666666666666
 20
2.891597222222221
 10
3.012138888888889
 20
2.846458333333333
 10
3.015625
 20
2.822138888888888
 10
3.015625
 20
2.825611111111111
  0
LWPOLYLINE
  5
2A8
330
2
100
AcDbEntity
  8
PDF_Layer 1
 62
     7
420
 16777215
370
    70
100
AcDbPolyline
 90
       15
 70
     0
 43
0.0
 10
3.050347222222223
 20
3.721638888888888
 10
3.053819444444444
 20
3.721638888888888
 10
3.057291666666666
 20
3.693861111111111
 10
3.057291666666666
 20
3.641763888888888
 10
3.060763888888889
 20
3.568833333333333
 10
3.06423611111111
 20
3.475055555555555
 10
3.067708333333333
 20
3.370874999999999
 10
3.071180555555555
 20
3.263208333333333
 10
3.071180555555555
 20
3.155541666666666
 10
3.074652777777778
 20
3.051361111111111
 10
3.078138888888888
 20
2.964527777777777
 10
3.08161111111111
 20
2.891597222222221
 10
3.085083333333333
 20
2.846458333333333
 10
3.085083333333333
 20
2.822138888888888
 10
3.088555555555554
 20
2.825611111111111
  0
LWPOLYLINE
  5
2AA
330
2
100
AcDbEntity
  8
PDF_Layer 1
 62
     7
420
 16777215
370
    70
100
AcDbPolyline
 90
       14
 70
     0
 43
0.0
 10
2.887125000000001
 20
3.686916666666666
 10
2.887125000000001
 20
3.679958333333333
 10
2.890597222222222
 20
3.652180555555555
 10
2.894069444444445
 20
3.600083333333333
 10
2.897541666666667
 20
3.527152777777777
 10
2.90101388888889
 20
3.440333333333333
 10
2.90101388888889
 20
3.343083333333333
 10
2.904486111111111
 20
3.245847222222222
 10
2.907958333333334
 20
3.145125
 10
2.911430555555556
 20
3.054833333333333
 10
2.914902777777777
 20
2.974958333333333
 10
2.914902777777777
 20
2.915916666666666
 10
2.918388888888889
 20
2.874236111111111
 10
2.921861111111111
 20
2.860347222222222
  0
LWPOLYLINE
  5
2AD
330
2
100
AcDbEntity
  8
PDF_Layer 1
 62
     7
420
 16777215
370
    70
100
AcDbPolyline
 90
       10
 70
     0
 43
0.0
 10
3.102444444444444
 20
3.683444444444444
 10
3.102444444444444
 20
3.686916666666666
 10
3.105916666666667
 20
3.666069444444444
 10
3.105916666666667
 20
3.624402777777777
 10
3.109388888888888
 20
3.558416666666666
 10
3.11286111111111
 20
3.478527777777777
 10
3.116333333333333
 20
3.384763888888889
 10
3.119805555555554
 20
3.284041666666666
 10
3.119805555555554
 20
3.186805555555555
 10
3.123277777777778
 20
3.113875
  0
LWPOLYLINE
  5
2B0
330
2
100
AcDbEntity
  8
PDF_Layer 1
 62
     7
420
 16777215
370
    70
100
AcDbPolyline
 90
       14
 70
     0
 43
0.0
 10
2.86976388888889
 20
3.683444444444444
 10
2.86976388888889
 20
3.679958333333333
 10
2.873236111111111
 20
3.652180555555555
 10
2.876708333333334
 20
3.600083333333333
 10
2.880180555555556
 20
3.527152777777777
 10
2.883652777777777
 20
3.440333333333333
 10
2.883652777777777
 20
3.343083333333333
 10
2.887125000000001
 20
3.245847222222222
 10
2.890597222222222
 20
3.145125
 10
2.894069444444445
 20
3.054833333333333
 10
2.897541666666667
 20
2.974958333333333
 10
2.897541666666667
 20
2.915916666666666
 10
2.90101388888889
 20
2.874236111111111
 10
2.904486111111111
 20
2.860347222222222
  0
LWPOLYLINE
  5
2B2
330
2
100
AcDbEntity
  8
PDF_Layer 1
 62
     7
420
 16777215
370
    70
100
AcDbPolyline
 90
       14
 70
     0
 43
0.0
 10
3.012138888888889
 20
3.686916666666666
 10
3.015625
 20
3.673013888888888
 10
3.019097222222223
 20
3.634819444444444
 10
3.019097222222223
 20
3.572305555555555
 10
3.022569444444444
 20
3.495902777777777
 10
3.026041666666666
 20
3.402124999999999
 10
3.029513888888889
 20
3.304888888888888
 10
3.03298611111111
 20
3.204166666666666
 10
3.03298611111111
 20
3.106930555555555
 10
3.036458333333333
 20
3.020097222222222
 10
3.039930555555555
 20
2.950638888888888
 10
3.043402777777778
 20
2.898541666666666
 10
3.046875
 20
2.867291666666666
 10
3.046875
 20
2.860347222222222
  0
LWPOLYLINE
  5
2B3
330
2
100
AcDbEntity
  8
PDF_Layer 1
 62
     7
420
 16777215
370
    70
100
AcDbPolyline
 90
       14
 70
     0
 43
0.0
 10
3.085083333333333
 20
3.686916666666666
 10
3.088555555555554
 20
3.666069444444444
 10
3.088555555555554
 20
3.624402777777777
 10
3.092027777777778
 20
3.558416666666666
 10
3.095499999999999
 20
3.478527777777777
 10
3.098972222222222
 20
3.384763888888889
 10
3.102444444444444
 20
3.284041666666666
 10
3.102444444444444
 20
3.186805555555555
 10
3.105916666666667
 20
3.089555555555555
 10
3.109388888888888
 20
3.006208333333333
 10
3.11286111111111
 20
2.936749999999999
 10
3.116333333333333
 20
2.888125
 10
3.116333333333333
 20
2.863819444444444
 10
3.119805555555554
 20
2.863819444444444
  0
LWPOLYLINE
  5
2B5
330
2
100
AcDbEntity
  8
PDF_Layer 1
 62
     7
420
 16777215
370
    70
100
AcDbPolyline
 90
       14
 70
     0
 43
0.0
 10
2.918388888888889
 20
3.721638888888888
 10
2.918388888888889
 20
3.718166666666666
 10
2.921861111111111
 20
3.686916666666666
 10
2.925333333333334
 20
3.627874999999999
 10
2.928805555555555
 20
3.551458333333333
 10
2.932277777777779
 20
3.457694444444444
 10
2.932277777777779
 20
3.350027777777777
 10
2.93575
 20
3.242375
 10
2.939222222222221
 20
3.134708333333333
 10
2.942694444444445
 20
3.033986111111111
 10
2.946166666666666
 20
2.947166666666666
 10
2.946166666666666
 20
2.881180555555555
 10
2.949638888888889
 20
2.8395
 10
2.953111111111111
 20
2.822138888888888
  0
LWPOLYLINE
  5
2B6
330
2
100
AcDbEntity
  8
PDF_Layer 1
 62
     7
420
 16777215
370
    70
100
AcDbPolyline
 90
       14
 70
     0
 43
0.0
 10
2.991305555555555
 20
3.721638888888888
 10
2.991305555555555
 20
3.718166666666666
 10
2.994777777777779
 20
3.686916666666666
 10
2.99825
 20
3.627874999999999
 10
2.99825
 20
3.551458333333333
 10
3.001722222222221
 20
3.457694444444444
 10
3.005194444444445
 20
3.350027777777777
 10
3.008666666666666
 20
3.242375
 10
3.012138888888889
 20
3.134708333333333
 10
3.012138888888889
 20
3.033986111111111
 10
3.015625
 20
2.947166666666666
 10
3.019097222222223
 20
2.881180555555555
 10
3.022569444444444
 20
2.8395
 10
3.026041666666666
 20
2.822138888888888
  0
LWPOLYLINE
  5
2B7
330
2
100
AcDbEntity
  8
PDF_Layer 1
 62
     7
420
 16777215
370
    70
100
AcDbPolyline
 90
       14
 70
     0
 43
0.0
 10
3.060763888888889
 20
3.721638888888888
 10
3.06423611111111
 20
3.718166666666666
 10
3.06423611111111
 20
3.686916666666666
 10
3.067708333333333
 20
3.627874999999999
 10
3.071180555555555
 20
3.551458333333333
 10
3.074652777777778
 20
3.457694444444444
 10
3.078138888888888
 20
3.350027777777777
 10
3.078138888888888
 20
3.242375
 10
3.08161111111111
 20
3.134708333333333
 10
3.085083333333333
 20
3.033986111111111
 10
3.088555555555554
 20
2.947166666666666
 10
3.092027777777778
 20
2.881180555555555
 10
3.092027777777778
 20
2.8395
 10
3.095499999999999
 20
2.822138888888888
  0
LWPOLYLINE
  5
2B9
330
2
100
AcDbEntity
  8
PDF_Layer 1
 62
     7
420
 16777215
370
    70
100
AcDbPolyline
 90
        9
 70
     0
 43
0.0
 10
2.817666666666667
 20
2.988847222222222
 10
2.817666666666667
 20
2.995791666666666
 10
2.817666666666667
 20
3.009680555555555
 10
2.817666666666667
 20
3.033986111111111
 10
2.817666666666667
 20
3.068722222222222
 10
2.817666666666667
 20
3.106930555555555
 10
2.817666666666667
 20
3.148597222222222
 10
2.817666666666667
 20
3.197222222222221
 10
2.817666666666667
 20
3.235430555555555
  0
LWPOLYLINE
  5
2BE
330
2
100
AcDbEntity
  8
PDF_Layer 1
 62
     7
420
 16777215
370
    70
100
AcDbPolyline
 90
       13
 70
     0
 43
0.0
 10
2.189055555555556
 20
3.398652777777777
 10
2.189055555555556
 20
3.395180555555555
 10
2.189055555555556
 20
3.384763888888889
 10
2.189055555555556
 20
3.363930555555555
 10
2.189055555555556
 20
3.339611111111111
 10
2.189055555555556
 20
3.308361111111111
 10
2.189055555555556
 20
3.273625
 10
2.189055555555556
 20
3.238902777777777
 10
2.189055555555556
 20
3.207638888888888
 10
2.189055555555556
 20
3.183333333333333
 10
2.189055555555556
 20
3.162486111111111
 10
2.189055555555556
 20
3.152069444444444
 10
2.189055555555556
 20
3.148597222222222
  0
LWPOLYLINE
  5
2C2
330
2
100
AcDbEntity
  8
PDF_Layer 1
 62
     7
420
 16777215
370
    70
100
AcDbPolyline
 90
       26
 70
     0
 43
0.0
 10
12.28145833333333
 20
1.398236111111111
 10
12.27798611111111
 20
1.398236111111111
 10
12.27104166666667
 20
1.394763888888888
 10
12.25368055555555
 20
1.387819444444444
 10
12.22588888888889
 20
1.380875
 10
12.19463888888889
 20
1.366986111111111
 10
12.15295833333333
 20
1.353083333333333
 10
12.10434722222222
 20
1.335722222222222
 10
12.05225
 20
1.314888888888888
 10
11.99320833333333
 20
1.294041666666666
 10
11.93416666666666
 20
1.273208333333333
 10
11.86818055555555
 20
1.248902777777777
 10
11.79872222222222
 20
1.224583333333333
 10
11.73273611111111
 20
1.200277777777777
 10
11.66327777777778
 20
1.175972222222222
 10
11.59729166666666
 20
1.151652777777777
 10
11.53477777777778
 20
1.127347222222222
 10
11.47573611111111
 20
1.106513888888889
 10
11.42016666666666
 20
1.085666666666666
 10
11.36806944444444
 20
1.068305555555555
 10
11.32291666666666
 20
1.050944444444444
 10
11.28819444444444
 20
1.037055555555555
 10
11.25693055555555
 20
1.026625
 10
11.23609722222222
 20
1.019680555555555
 10
11.22220833333333
 20
1.012736111111111
 10
11.21873611111111
 20
1.012736111111111
  0
LWPOLYLINE
  5
2C3
330
2
100
AcDbEntity
  8
PDF_Layer 1
 62
     7
420
 16777215
370
    70
100
AcDbPolyline
 90
       25
 70
     0
 43
0.0
 10
11.24304166666666
 20
1.082194444444444
 10
11.24651388888889
 20
1.082194444444444
 10
11.25345833333333
 20
1.085666666666666
 10
11.27083333333333
 20
1.089138888888889
 10
11.29513888888889
 20
1.099569444444444
 10
11.32986111111111
 20
1.113458333333333
 10
11.36806944444444
 20
1.127347222222222
 10
11.41669444444444
 20
1.144708333333333
 10
11.46879166666666
 20
1.162069444444444
 10
11.52436111111111
 20
1.182916666666666
 10
11.58686111111111
 20
1.207222222222222
 10
11.649375
 20
1.228055555555555
 10
11.71536111111111
 20
1.252375
 10
11.777875
 20
1.276680555555555
 10
11.843875
 20
1.297527777777777
 10
11.906375
 20
1.321833333333333
 10
11.96541666666666
 20
1.342666666666666
 10
12.01751388888889
 20
1.363513888888888
 10
12.06961111111111
 20
1.380875
 10
12.11129166666667
 20
1.398236111111111
 10
12.14948611111111
 20
1.412125
 10
12.17727777777778
 20
1.422555555555555
 10
12.19811111111111
 20
1.4295
 10
12.212
 20
1.432972222222222
 10
12.21547222222222
 20
1.436444444444444
  0
LWPOLYLINE
  5
2C6
330
2
100
AcDbEntity
  8
PDF_Layer 1
 62
     7
420
 16777215
370
    70
100
AcDbPolyline
 90
        4
 70
     0
 43
0.0
 10
5.012569444444443
 20
2.745736111111111
 10
5.012569444444443
 20
2.749208333333333
 10
5.012569444444443
 20
2.763097222222222
 10
5.012569444444443
 20
2.780472222222222
  0
LWPOLYLINE
  5
2C7
330
2
100
AcDbEntity
  8
PDF_Layer 1
 62
     7
420
 16777215
370
    70
100
AcDbPolyline
 90
        4
 70
     0
 43
0.0
 10
5.012569444444443
 20
3.766791666666666
 10
5.012569444444443
 20
3.784152777777777
 10
5.012569444444443
 20
3.798041666666666
 10
5.012569444444443
 20
3.80498611111111
  0
LWPOLYLINE
  5
2C8
330
2
100
AcDbEntity
  8
PDF_Layer 1
 62
     7
420
 16777215
370
    70
100
AcDbPolyline
 90
       19
 70
     0
 43
0.0
 10
6.221152777777779
 20
4.329416666666666
 10
6.224625
 20
4.329416666666666
 10
6.231569444444445
 20
4.329416666666666
 10
6.248944444444444
 20
4.329416666666666
 10
6.276722222222223
 20
4.329416666666666
 10
6.311444444444444
 20
4.329416666666666
 10
6.349652777777778
 20
4.329416666666666
 10
6.394805555555556
 20
4.329416666666666
 10
6.439944444444445
 20
4.329416666666666
 10
6.488569444444444
 20
4.329416666666666
 10
6.540666666666667
 20
4.329416666666666
 10
6.585819444444444
 20
4.329416666666666
 10
6.630958333333333
 20
4.329416666666666
 10
6.669166666666666
 20
4.329416666666666
 10
6.703902777777778
 20
4.329416666666666
 10
6.731680555555556
 20
4.329416666666666
 10
6.749041666666667
 20
4.329416666666666
 10
6.755986111111111
 20
4.329416666666666
 10
6.759458333333333
 20
4.329416666666666
  0
LWPOLYLINE
  5
2CA
330
2
100
AcDbEntity
  8
PDF_Layer 1
 62
     7
420
 16777215
370
    70
100
AcDbPolyline
 90
       19
 70
     0
 43
0.0
 10
6.759458333333333
 20
4.353722222222222
 10
6.755986111111111
 20
4.353722222222222
 10
6.749041666666667
 20
4.353722222222222
 10
6.731680555555556
 20
4.353722222222222
 10
6.703902777777778
 20
4.353722222222222
 10
6.669166666666666
 20
4.353722222222222
 10
6.630958333333333
 20
4.353722222222222
 10
6.585819444444444
 20
4.353722222222222
 10
6.540666666666667
 20
4.353722222222222
 10
6.488569444444444
 20
4.353722222222222
 10
6.439944444444445
 20
4.353722222222222
 10
6.394805555555556
 20
4.353722222222222
 10
6.349652777777778
 20
4.353722222222222
 10
6.311444444444444
 20
4.353722222222222
 10
6.276722222222223
 20
4.353722222222222
 10
6.248944444444444
 20
4.353722222222222
 10
6.231569444444445
 20
4.353722222222222
 10
6.224625
 20
4.353722222222222
 10
6.221152777777779
 20
4.353722222222222
  0
LWPOLYLINE
  5
2CB
330
2
100
AcDbEntity
  8
PDF_Layer 1
 62
     7
420
 16777215
370
    70
100
AcDbPolyline
 90
       17
 70
     0
 43
0.0
 10
6.238513888888889
 20
4.371083333333332
 10
6.245472222222223
 20
4.371083333333332
 10
6.262833333333333
 20
4.371083333333332
 10
6.283666666666666
 20
4.371083333333332
 10
6.314930555555555
 20
4.371083333333332
 10
6.353125
 20
4.371083333333332
 10
6.398277777777778
 20
4.371083333333332
 10
6.443430555555555
 20
4.371083333333332
 10
6.488569444444444
 20
4.371083333333332
 10
6.537194444444445
 20
4.371083333333332
 10
6.582347222222222
 20
4.371083333333332
 10
6.627486111111111
 20
4.371083333333332
 10
6.662222222222222
 20
4.371083333333332
 10
6.696958333333333
 20
4.371083333333332
 10
6.717791666666667
 20
4.371083333333332
 10
6.735152777777778
 20
4.371083333333332
 10
6.742097222222223
 20
4.371083333333332
  0
LWPOLYLINE
  5
2CE
330
2
100
AcDbEntity
  8
PDF_Layer 1
 62
     7
420
 16777215
370
    70
100
AcDbPolyline
 90
       16
 70
     0
 43
0.0
 10
6.714319444444445
 20
4.294680555555555
 10
6.707375
 20
4.294680555555555
 10
6.693472222222222
 20
4.294680555555555
 10
6.669166666666666
 20
4.294680555555555
 10
6.637916666666666
 20
4.294680555555555
 10
6.599708333333333
 20
4.294680555555555
 10
6.558027777777778
 20
4.294680555555555
 10
6.512888888888889
 20
4.294680555555555
 10
6.467736111111111
 20
4.294680555555555
 10
6.422583333333333
 20
4.294680555555555
 10
6.380916666666667
 20
4.294680555555555
 10
6.342708333333333
 20
4.294680555555555
 10
6.311444444444444
 20
4.294680555555555
 10
6.287138888888889
 20
4.294680555555555
 10
6.27325
 20
4.294680555555555
 10
6.266305555555556
 20
4.294680555555555
  0
LWPOLYLINE
  5
2CF
330
2
100
AcDbEntity
  8
PDF_Layer 1
 62
     7
420
 16777215
370
    70
100
AcDbPolyline
 90
       19
 70
     0
 43
0.0
 10
6.759458333333333
 20
2.217861111111111
 10
6.755986111111111
 20
2.217861111111111
 10
6.749041666666667
 20
2.217861111111111
 10
6.731680555555556
 20
2.217861111111111
 10
6.703902777777778
 20
2.217861111111111
 10
6.669166666666666
 20
2.217861111111111
 10
6.630958333333333
 20
2.217861111111111
 10
6.585819444444444
 20
2.217861111111111
 10
6.540666666666667
 20
2.217861111111111
 10
6.488569444444444
 20
2.217861111111111
 10
6.439944444444445
 20
2.217861111111111
 10
6.394805555555556
 20
2.217861111111111
 10
6.349652777777778
 20
2.217861111111111
 10
6.311444444444444
 20
2.217861111111111
 10
6.276722222222223
 20
2.217861111111111
 10
6.248944444444444
 20
2.217861111111111
 10
6.231569444444445
 20
2.217861111111111
 10
6.224625
 20
2.217861111111111
 10
6.221152777777779
 20
2.217861111111111
  0
LWPOLYLINE
  5
2D0
330
2
100
AcDbEntity
  8
PDF_Layer 1
 62
     7
420
 16777215
370
    70
100
AcDbPolyline
 90
       19
 70
     0
 43
0.0
 10
6.221152777777779
 20
2.193541666666666
 10
6.224625
 20
2.193541666666666
 10
6.231569444444445
 20
2.193541666666666
 10
6.248944444444444
 20
2.193541666666666
 10
6.276722222222223
 20
2.193541666666666
 10
6.311444444444444
 20
2.193541666666666
 10
6.349652777777778
 20
2.193541666666666
 10
6.394805555555556
 20
2.193541666666666
 10
6.439944444444445
 20
2.193541666666666
 10
6.488569444444444
 20
2.193541666666666
 10
6.540666666666667
 20
2.193541666666666
 10
6.585819444444444
 20
2.193541666666666
 10
6.630958333333333
 20
2.193541666666666
 10
6.669166666666666
 20
2.193541666666666
 10
6.703902777777778
 20
2.193541666666666
 10
6.731680555555556
 20
2.193541666666666
 10
6.749041666666667
 20
2.193541666666666
 10
6.755986111111111
 20
2.193541666666666
 10
6.759458333333333
 20
2.193541666666666
  0
LWPOLYLINE
  5
2D2
330
2
100
AcDbEntity
  8
PDF_Layer 1
 62
     7
420
 16777215
370
    70
100
AcDbPolyline
 90
       18
 70
     0
 43
0.0
 10
6.742097222222223
 20
2.176180555555555
 10
6.738625
 20
2.176180555555555
 10
6.728208333333333
 20
2.176180555555555
 10
6.707375
 20
2.176180555555555
 10
6.679583333333333
 20
2.176180555555555
 10
6.644861111111111
 20
2.176180555555555
 10
6.606652777777778
 20
2.176180555555555
 10
6.5615
 20
2.176180555555555
 10
6.512888888888889
 20
2.176180555555555
 10
6.467736111111111
 20
2.176180555555555
 10
6.419111111111111
 20
2.176180555555555
 10
6.373972222222223
 20
2.176180555555555
 10
6.335763888888888
 20
2.176180555555555
 10
6.301027777777778
 20
2.176180555555555
 10
6.27325
 20
2.176180555555555
 10
6.252416666666666
 20
2.176180555555555
 10
6.241986111111112
 20
2.176180555555555
 10
6.238513888888889
 20
2.176180555555555
  0
LWPOLYLINE
  5
2D5
330
2
100
AcDbEntity
  8
PDF_Layer 1
 62
     7
420
 16777215
370
    70
100
AcDbPolyline
 90
       15
 70
     0
 43
0.0
 10
6.266305555555556
 20
2.252583333333333
 10
6.280194444444444
 20
2.252583333333333
 10
6.297555555555556
 20
2.252583333333333
 10
6.325347222222222
 20
2.252583333333333
 10
6.360069444444444
 20
2.252583333333333
 10
6.40175
 20
2.252583333333333
 10
6.443430555555555
 20
2.252583333333333
 10
6.488569444444444
 20
2.252583333333333
 10
6.537194444444445
 20
2.252583333333333
 10
6.578875
 20
2.252583333333333
 10
6.620541666666666
 20
2.252583333333333
 10
6.651805555555555
 20
2.252583333333333
 10
6.683055555555555
 20
2.252583333333333
 10
6.700430555555556
 20
2.252583333333333
 10
6.714319444444445
 20
2.252583333333333
  0
LWPOLYLINE
  5
2D7
330
2
100
AcDbEntity
  8
PDF_Layer 1
 62
     7
420
 16777215
370
    70
100
AcDbPolyline
 90
        8
 70
     0
 43
0.0
 10
6.290611111111111
 20
2.884652777777777
 10
6.290611111111111
 20
2.895069444444444
 10
6.290611111111111
 20
2.912444444444444
 10
6.290611111111111
 20
2.940222222222221
 10
6.290611111111111
 20
2.974958333333333
 10
6.290611111111111
 20
3.013152777777778
 10
6.290611111111111
 20
3.061777777777777
 10
6.290611111111111
 20
3.0965
  0
LWPOLYLINE
  5
2D8
330
2
100
AcDbEntity
  8
PDF_Layer 1
 62
     7
420
 16777215
370
    70
100
AcDbPolyline
 90
        9
 70
     0
 43
0.0
 10
6.290611111111111
 20
3.45075
 10
6.290611111111111
 20
3.461166666666666
 10
6.290611111111111
 20
3.509791666666666
 10
6.290611111111111
 20
3.554944444444444
 10
6.290611111111111
 20
3.593138888888888
 10
6.290611111111111
 20
3.620930555555555
 10
6.290611111111111
 20
3.645236111111111
 10
6.290611111111111
 20
3.659124999999999
 10
6.290611111111111
 20
3.662597222222222
  0
LWPOLYLINE
  5
2D9
330
2
100
AcDbEntity
  8
PDF_Layer 1
 62
     7
420
 16777215
370
    70
100
AcDbPolyline
 90
        9
 70
     0
 43
0.0
 10
6.241986111111112
 20
3.659124999999999
 10
6.241986111111112
 20
3.648708333333333
 10
6.241986111111112
 20
3.631347222222222
 10
6.241986111111112
 20
3.603555555555555
 10
6.241986111111112
 20
3.572305555555555
 10
6.241986111111112
 20
3.530625
 10
6.241986111111112
 20
3.482
 10
6.241986111111112
 20
3.429916666666666
 10
6.241986111111112
 20
3.377819444444444
  0
LWPOLYLINE
  5
2DA
330
2
100
AcDbEntity
  8
PDF_Layer 1
 62
     7
420
 16777215
370
    70
100
AcDbPolyline
 90
       10
 70
     0
 43
0.0
 10
6.241986111111112
 20
3.169444444444444
 10
6.241986111111112
 20
3.141652777777777
 10
6.241986111111112
 20
3.089555555555555
 10
6.241986111111112
 20
3.040944444444444
 10
6.241986111111112
 20
2.995791666666666
 10
6.241986111111112
 20
2.957583333333333
 10
6.241986111111112
 20
2.929805555555555
 10
6.241986111111112
 20
2.905499999999999
 10
6.241986111111112
 20
2.891597222222221
 10
6.241986111111112
 20
2.888125
  0
LWPOLYLINE
  5
2DB
330
2
100
AcDbEntity
  8
PDF_Layer 1
 62
     7
420
 16777215
370
    70
100
AcDbPolyline
 90
        8
 70
     0
 43
0.0
 10
6.686527777777778
 20
3.662597222222222
 10
6.686527777777778
 20
3.652180555555555
 10
6.686527777777778
 20
3.634819444444444
 10
6.686527777777778
 20
3.607027777777777
 10
6.686527777777778
 20
3.572305555555555
 10
6.686527777777778
 20
3.530625
 10
6.686527777777778
 20
3.485472222222222
 10
6.686527777777778
 20
3.457694444444444
  0
LWPOLYLINE
  5
2DC
330
2
100
AcDbEntity
  8
PDF_Layer 1
 62
     7
420
 16777215
370
    70
100
AcDbPolyline
 90
        8
 70
     0
 43
0.0
 10
6.686527777777778
 20
3.089555555555555
 10
6.686527777777778
 20
3.037472222222222
 10
6.686527777777778
 20
2.992319444444444
 10
6.686527777777778
 20
2.95411111111111
 10
6.686527777777778
 20
2.926333333333333
 10
6.686527777777778
 20
2.902013888888889
 10
6.686527777777778
 20
2.888125
 10
6.686527777777778
 20
2.884652777777777
  0
LWPOLYLINE
  5
2DD
330
2
100
AcDbEntity
  8
PDF_Layer 1
 62
     7
420
 16777215
370
    70
100
AcDbPolyline
 90
        8
 70
     0
 43
0.0
 10
6.307972222222223
 20
3.652180555555555
 10
6.307972222222223
 20
3.648708333333333
 10
6.307972222222223
 20
3.634819444444444
 10
6.307972222222223
 20
3.6105
 10
6.307972222222223
 20
3.57925
 10
6.307972222222223
 20
3.541041666666666
 10
6.307972222222223
 20
3.495902777777777
 10
6.307972222222223
 20
3.468111111111111
  0
LWPOLYLINE
  5
2DE
330
2
100
AcDbEntity
  8
PDF_Layer 1
 62
     7
420
 16777215
370
    70
100
AcDbPolyline
 90
        8
 70
     0
 43
0.0
 10
6.307972222222223
 20
3.079138888888889
 10
6.307972222222223
 20
3.051361111111111
 10
6.307972222222223
 20
3.006208333333333
 10
6.307972222222223
 20
2.967999999999999
 10
6.307972222222223
 20
2.936749999999999
 10
6.307972222222223
 20
2.912444444444444
 10
6.307972222222223
 20
2.902013888888889
 10
6.307972222222223
 20
2.895069444444444
  0
LWPOLYLINE
  5
2DF
330
2
100
AcDbEntity
  8
PDF_Layer 1
 62
     7
420
 16777215
370
    70
100
AcDbPolyline
 90
        8
 70
     0
 43
0.0
 10
6.669166666666666
 20
2.895069444444444
 10
6.669166666666666
 20
2.902013888888889
 10
6.669166666666666
 20
2.912444444444444
 10
6.669166666666666
 20
2.936749999999999
 10
6.669166666666666
 20
2.967999999999999
 10
6.669166666666666
 20
3.006208333333333
 10
6.669166666666666
 20
3.051361111111111
 10
6.669166666666666
 20
3.072194444444444
  0
LWPOLYLINE
  5
2E0
330
2
100
AcDbEntity
  8
PDF_Layer 1
 62
     7
420
 16777215
370
    70
100
AcDbPolyline
 90
        8
 70
     0
 43
0.0
 10
6.669166666666666
 20
3.475055555555555
 10
6.669166666666666
 20
3.495902777777777
 10
6.669166666666666
 20
3.541041666666666
 10
6.669166666666666
 20
3.57925
 10
6.669166666666666
 20
3.6105
 10
6.669166666666666
 20
3.634819444444444
 10
6.669166666666666
 20
3.648708333333333
 10
6.669166666666666
 20
3.652180555555555
  0
LWPOLYLINE
  5
2E1
330
2
100
AcDbEntity
  8
PDF_Layer 1
 62
     7
420
 16777215
370
    70
100
AcDbPolyline
 90
       10
 70
     0
 43
0.0
 10
6.235041666666667
 20
2.898541666666666
 10
6.235041666666667
 20
2.905499999999999
 10
6.235041666666667
 20
2.919388888888888
 10
6.235041666666667
 20
2.940222222222221
 10
6.235041666666667
 20
2.971486111111111
 10
6.235041666666667
 20
3.009680555555555
 10
6.235041666666667
 20
3.054833333333333
 10
6.235041666666667
 20
3.103458333333333
 10
6.235041666666667
 20
3.159013888888889
 10
6.235041666666667
 20
3.197222222222221
  0
LWPOLYLINE
  5
2E2
330
2
100
AcDbEntity
  8
PDF_Layer 1
 62
     7
420
 16777215
370
    70
100
AcDbPolyline
 90
       10
 70
     0
 43
0.0
 10
6.235041666666667
 20
3.350027777777777
 10
6.235041666666667
 20
3.388236111111111
 10
6.235041666666667
 20
3.443805555555555
 10
6.235041666666667
 20
3.492430555555555
 10
6.235041666666667
 20
3.537569444444444
 10
6.235041666666667
 20
3.575777777777777
 10
6.235041666666667
 20
3.607027777777777
 10
6.235041666666667
 20
3.627874999999999
 10
6.235041666666667
 20
3.641763888888888
 10
6.235041666666667
 20
3.648708333333333
  0
LWPOLYLINE
  5
2E3
330
2
100
AcDbEntity
  8
PDF_Layer 1
 62
     7
420
 16777215
370
    70
100
AcDbPolyline
 90
       34
 70
     0
 43
0.0
 10
3.265666666666667
 20
2.224805555555555
 10
3.265666666666667
 20
2.231749999999999
 10
3.265666666666667
 20
2.245638888888889
 10
3.265666666666667
 20
2.273430555555555
 10
3.265666666666667
 20
2.304680555555555
 10
3.265666666666667
 20
2.349833333333333
 10
3.265666666666667
 20
2.398444444444444
 10
3.265666666666667
 20
2.45748611111111
 10
3.265666666666667
 20
2.523472222222222
 10
3.265666666666667
 20
2.596402777777777
 10
3.265666666666667
 20
2.672805555555555
 10
3.265666666666667
 20
2.756152777777777
 10
3.265666666666667
 20
2.842972222222222
 10
3.265666666666667
 20
2.936749999999999
 10
3.265666666666667
 20
3.030513888888889
 10
3.265666666666667
 20
3.127763888888889
 10
3.265666666666667
 20
3.225
 10
3.265666666666667
 20
3.322249999999999
 10
3.265666666666667
 20
3.419486111111111
 10
3.265666666666667
 20
3.516736111111111
 10
3.265666666666667
 20
3.6105
 10
3.265666666666667
 20
3.704277777777777
 10
3.265666666666667
 20
3.791097222222222
 10
3.265666666666667
 20
3.874444444444444
 10
3.265666666666667
 20
3.954333333333332
 10
3.265666666666667
 20
4.023791666666665
 10
3.265666666666667
 20
4.089777777777777
 10
3.265666666666667
 20
4.148819444444444
 10
3.265666666666667
 20
4.197430555555555
 10
3.265666666666667
 20
4.242583333333333
 10
3.265666666666667
 20
4.273847222222222
 10
3.265666666666667
 20
4.301624999999999
 10
3.265666666666667
 20
4.315513888888888
 10
3.265666666666667
 20
4.322458333333333
  0
LWPOLYLINE
  5
2E4
330
2
100
AcDbEntity
  8
PDF_Layer 1
 62
     7
420
 16777215
370
    70
100
AcDbPolyline
 90
       35
 70
     0
 43
0.0
 10
3.289986111111111
 20
4.287736111111111
 10
3.289986111111111
 20
4.284263888888888
 10
3.289986111111111
 20
4.277319444444444
 10
3.289986111111111
 20
4.259944444444444
 10
3.289986111111111
 20
4.232166666666666
 10
3.289986111111111
 20
4.193958333333332
 10
3.289986111111111
 20
4.152291666666666
 10
3.289986111111111
 20
4.100194444444444
 10
3.289986111111111
 20
4.037680555555555
 10
3.289986111111111
 20
3.971694444444444
 10
3.289986111111111
 20
3.898763888888888
 10
3.289986111111111
 20
3.82236111111111
 10
3.289986111111111
 20
3.738999999999999
 10
3.289986111111111
 20
3.648708333333333
 10
3.289986111111111
 20
3.558416666666666
 10
3.289986111111111
 20
3.464638888888889
 10
3.289986111111111
 20
3.370874999999999
 10
3.289986111111111
 20
3.273625
 10
3.289986111111111
 20
3.176388888888888
 10
3.289986111111111
 20
3.082611111111111
 10
3.289986111111111
 20
2.988847222222222
 10
3.289986111111111
 20
2.898541666666666
 10
3.289986111111111
 20
2.80825
 10
3.289986111111111
 20
2.724902777777777
 10
3.289986111111111
 20
2.648486111111111
 10
3.289986111111111
 20
2.575555555555555
 10
3.289986111111111
 20
2.509569444444444
 10
3.289986111111111
 20
2.447055555555555
 10
3.289986111111111
 20
2.394972222222222
 10
3.289986111111111
 20
2.353305555555555
 10
3.289986111111111
 20
2.315097222222222
 10
3.289986111111111
 20
2.290791666666666
 10
3.289986111111111
 20
2.269958333333333
 10
3.289986111111111
 20
2.263013888888888
 10
3.289986111111111
 20
2.259527777777778
  0
LWPOLYLINE
  5
2E5
330
2
100
AcDbEntity
  8
PDF_Layer 1
 62
     7
420
 16777215
370
    70
100
AcDbPolyline
 90
       32
 70
     0
 43
0.0
 10
3.394166666666668
 20
2.301208333333333
 10
3.394166666666668
 20
2.315097222222222
 10
3.394166666666668
 20
2.335944444444444
 10
3.394166666666668
 20
2.363722222222222
 10
3.394166666666668
 20
2.401916666666666
 10
3.394166666666668
 20
2.447055555555555
 10
3.394166666666668
 20
2.499152777777777
 10
3.394166666666668
 20
2.561666666666666
 10
3.394166666666668
 20
2.627652777777777
 10
3.394166666666668
 20
2.700583333333333
 10
3.394166666666668
 20
2.780472222222222
 10
3.394166666666668
 20
2.863819444444444
 10
3.394166666666668
 20
2.950638888888888
 10
3.394166666666668
 20
3.040944444444444
 10
3.394166666666668
 20
3.134708333333333
 10
3.394166666666668
 20
3.225
 10
3.394166666666668
 20
3.322249999999999
 10
3.394166666666668
 20
3.416013888888889
 10
3.394166666666668
 20
3.506319444444444
 10
3.394166666666668
 20
3.59661111111111
 10
3.394166666666668
 20
3.683444444444444
 10
3.394166666666668
 20
3.766791666666666
 10
3.394166666666668
 20
3.846666666666666
 10
3.394166666666668
 20
3.919597222222222
 10
3.394166666666668
 20
3.985583333333332
 10
3.394166666666668
 20
4.048097222222222
 10
3.394166666666668
 20
4.100194444444444
 10
3.394166666666668
 20
4.145347222222222
 10
3.394166666666668
 20
4.183541666666666
 10
3.394166666666668
 20
4.211333333333333
 10
3.394166666666668
 20
4.232166666666666
 10
3.394166666666668
 20
4.246055555555555
  0
LWPOLYLINE
  5
2EA
330
2
100
AcDbEntity
  8
PDF_Layer 1
 62
     7
420
 16777215
370
    70
100
AcDbPolyline
 90
       21
 70
     0
 43
0.0
 10
2.463430555555556
 20
2.908958333333333
 10
2.463430555555556
 20
2.912444444444444
 10
2.463430555555556
 20
2.926333333333333
 10
2.463430555555556
 20
2.947166666666666
 10
2.463430555555556
 20
2.978430555555555
 10
2.463430555555556
 20
3.013152777777778
 10
2.463430555555556
 20
3.058305555555555
 10
2.463430555555556
 20
3.106930555555555
 10
2.463430555555556
 20
3.159013888888889
 10
2.463430555555556
 20
3.218055555555555
 10
2.463430555555556
 20
3.273625
 10
2.463430555555556
 20
3.332666666666666
 10
2.463430555555556
 20
3.388236111111111
 10
2.463430555555556
 20
3.440333333333333
 10
2.463430555555556
 20
3.488958333333333
 10
2.463430555555556
 20
3.534097222222222
 10
2.463430555555556
 20
3.568833333333333
 10
2.463430555555556
 20
3.600083333333333
 10
2.463430555555556
 20
3.620930555555555
 10
2.463430555555556
 20
3.634819444444444
 10
2.463430555555556
 20
3.638291666666666
  0
LWPOLYLINE
  5
2EC
330
2
100
AcDbEntity
  8
PDF_Layer 1
 62
     7
420
 16777215
370
    25
100
AcDbPolyline
 90
        2
 70
     0
 43
0.0
 10
3.296088888888888
 20
9.909980555555554
 10
3.296088888888888
 20
11.76800833333333
  0
LWPOLYLINE
  5
2ED
330
2
100
AcDbEntity
  8
PDF_Layer 1
 62
     7
420
 16777215
370
    25
100
AcDbPolyline
 90
        2
 70
     0
 43
0.0
 10
5.463209722222221
 20
9.909980555555554
 10
5.463209722222221
 20
11.76800833333333
  0
LWPOLYLINE
  5
2EE
330
2
100
AcDbEntity
  8
PDF_Layer 1
 62
     7
420
 16777215
370
    25
100
AcDbPolyline
 90
        2
 70
     0
 43
0.0
 10
3.296088888888888
 20
11.70894305555555
 10
5.463213888888888
 20
11.70894305555555
  0
LWPOLYLINE
  5
2EF
330
2
100
AcDbEntity
  8
PDF_Layer 1
 62
     7
420
 16777215
370
    25
100
AcDbPolyline
 90
        2
 70
     0
 43
0.0
 10
5.525397222222221
 20
11.70894305555555
 10
6.088341666666666
 20
11.70894305555555
  0
LWPOLYLINE
  5
2F0
330
2
100
AcDbEntity
  8
PDF_Layer 1
 62
     7
420
 16777215
370
    25
100
AcDbPolyline
 90
        2
 70
     0
 43
0.0
 10
3.233899999999999
 20
11.70894305555555
 10
2.670955555555555
 20
11.70894305555555
  0
LWPOLYLINE
  5
2F1
330
2
100
AcDbEntity
  8
PDF_Layer 1
 62
     7
420
 16777215
370
    25
100
AcDbPolyline
 90
        2
 70
     0
 43
0.0
 10
7.331658333333333
 20
9.909980555555554
 10
7.331658333333333
 20
11.76800833333333
  0
LWPOLYLINE
  5
2F2
330
2
100
AcDbEntity
  8
PDF_Layer 1
 62
     7
420
 16777215
370
    25
100
AcDbPolyline
 90
        2
 70
     0
 43
0.0
 10
9.304294444444442
 20
9.909980555555554
 10
9.304294444444442
 20
11.76800833333333
  0
LWPOLYLINE
  5
2F3
330
2
100
AcDbEntity
  8
PDF_Layer 1
 62
     7
420
 16777215
370
    25
100
AcDbPolyline
 90
        2
 70
     0
 43
0.0
 10
7.331658333333333
 20
11.69152777777778
 10
9.304297222222222
 20
11.69152777777778
  0
LWPOLYLINE
  5
2F4
330
2
100
AcDbEntity
  8
PDF_Layer 1
 62
     7
420
 16777215
370
    25
100
AcDbPolyline
 90
        2
 70
     0
 43
0.0
 10
9.366481944444444
 20
11.69152777777778
 10
9.929426388888888
 20
11.69152777777778
  0
LWPOLYLINE
  5
2F5
330
2
100
AcDbEntity
  8
PDF_Layer 1
 62
     7
420
 16777215
370
    25
100
AcDbPolyline
 90
        2
 70
     0
 43
0.0
 10
12.25630694444444
 20
11.24359861111111
 10
14.57623749999999
 20
11.24359861111111
  0
LWPOLYLINE
  5
2F6
330
2
100
AcDbEntity
  8
PDF_Layer 1
 62
     7
420
 16777215
370
    25
100
AcDbPolyline
 90
        2
 70
     0
 43
0.0
 10
12.25630694444444
 20
8.576368055555555
 10
14.57623749999999
 20
8.576368055555555
  0
LWPOLYLINE
  5
2F7
330
2
100
AcDbEntity
  8
PDF_Layer 1
 62
     7
420
 16777215
370
    25
100
AcDbPolyline
 90
        2
 70
     0
 43
0.0
 10
4.379652777777777
 20
9.909980555555554
 10
4.379652777777777
 20
6.350202777777775
  0
LWPOLYLINE
  5
2F8
330
2
100
AcDbEntity
  8
PDF_Layer 1
 62
     7
420
 16777215
370
    25
100
AcDbPolyline
 90
        2
 70
     0
 43
0.0
 10
12.25630694444444
 20
9.909980555555554
 10
12.25630694444444
 20
6.285188888888888
  0
LWPOLYLINE
  5
2F9
330
2
100
AcDbEntity
  8
PDF_Layer 1
 62
     7
420
 16777215
370
    25
100
AcDbPolyline
 90
        2
 70
     0
 43
0.0
 10
3.123284722222221
 20
2.290784722222221
 10
3.123284722222221
 20
0.3042569444444443
  0
LWPOLYLINE
  5
2FB
330
2
100
AcDbEntity
  8
PDF_Layer 1
 62
     7
420
 16777215
370
    25
100
AcDbPolyline
 90
        2
 70
     0
 43
0.0
 10
8.360501388888886
 20
2.818997222222222
 10
8.360501388888886
 20
2.256052777777777
  0
LWPOLYLINE
  5
2FC
330
2
100
AcDbEntity
  8
PDF_Layer 1
 62
     7
420
 16777215
370
    25
100
AcDbPolyline
 90
        2
 70
     0
 43
0.0
 10
8.360501388888886
 20
3.728258333333332
 10
8.360501388888886
 20
4.910188888888888
  0
LWPOLYLINE
  5
2FD
330
2
100
AcDbEntity
  8
PDF_Layer 1
 62
     7
420
 16777215
370
    25
100
AcDbPolyline
 90
        2
 70
     0
 43
0.0
 10
10.02750694444444
 20
3.273627777777777
 10
13.53520138888889
 20
3.273627777777777
  0
LWPOLYLINE
  5
2FE
330
2
100
AcDbEntity
  8
PDF_Layer 1
 62
     7
420
 16777215
370
    25
100
AcDbPolyline
 90
        2
 70
     0
 43
0.0
 10
12.29534166666666
 20
1.283623611111111
 10
14.12211944444444
 20
1.950443055555555
  0
LWPOLYLINE
  5
2FF
330
2
100
AcDbEntity
  8
PDF_Layer 1
 62
     7
420
 16777215
370
    25
100
AcDbPolyline
 90
        2
 70
     0
 43
0.0
 10
13.33723888888889
 20
1.099568055555555
 10
13.33723888888889
 20
3.27362361111111
  0
LWPOLYLINE
  5
300
330
2
100
AcDbEntity
  8
PDF_Layer 1
 62
     7
420
 16777215
370
    25
100
AcDbPolyline
 90
        2
 70
     0
 43
0.0
 10
13.33723888888889
 20
3.335815277777777
 10
13.33723888888889
 20
3.898759722222221
  0
ARC
  5
301
330
2
100
AcDbEntity
  8
PDF_Layer 1
 62
     7
420
 16777215
370
    25
100
AcDbCircle
 10
11.82653600062747
 20
1.102552155154032
 30
0.0
 40
2.250438200065943
100
AcDbArc
 50
359.9240253019439
 51
20.23690742642396
  0
LWPOLYLINE
  5
302
330
2
100
AcDbEntity
  8
PDF_Layer 1
 62
     7
420
 16777215
370
    25
100
AcDbPolyline
 90
       10
 70
     0
 43
0.0
 10
13.91655833333333
 20
1.939330555555555
 10
13.91373888888888
 20
1.946969444444444
 10
13.88596111111111
 20
2.009483333333333
 10
13.85818333333333
 20
2.071997222222222
 10
13.83039166666666
 20
2.13451111111111
 10
13.79566944444444
 20
2.197025
 10
13.76093333333333
 20
2.256052777777777
 10
13.72621111111111
 20
2.315094444444444
 10
13.68800277777777
 20
2.374136111111111
 10
13.64979444444444
 20
2.429705555555555
  0
MTEXT
  5
303
330
2
100
AcDbEntity
  8
PDF_Text
 62
     7
420
 16777215
100
AcDbMText
 10
3.9108
 20
11.76195694444444
 30
0.0
 40
0.35791015625
 41
0.0
 46
0.0
 71
     7
 72
     5
  1
Ø55
  7
PDF Arial
 73
     1
 44
1.0
  0
MTEXT
  5
304
330
2
100
AcDbEntity
  8
PDF_Text
 62
     7
420
 16777215
100
AcDbMText
 10
7.922299999999999
 20
11.71695694444444
 30
0.0
 40
0.35791015625
 41
0.0
 46
0.0
 71
     7
 72
     5
  1
Ø50
  7
PDF Arial
 73
     1
 44
1.0
  0
MTEXT
  5
305
330
2
100
AcDbEntity
  8
PDF_Text
 62
     7
420
 16777215
100
AcDbMText
 10
7.887799999999999
 20
6.425456944444443
 30
0.0
 40
0.35791015625
 41
0.0
 46
0.0
 71
     7
 72
     5
  1
200
  7
PDF Arial
 73
     1
 44
1.0
  0
MTEXT
  5
306
330
2
100
AcDbEntity
  8
PDF_Text
 62
     7
420
 16777215
100
AcDbMText
 10
7.22730833333333
 20
0.4164847222222222
 30
0.0
 40
0.35791015625
 41
0.0
 46
0.0
 71
     7
 72
     5
  1
220
  7
PDF Arial
 73
     1
 44
1.0
  0
MTEXT
  5
307
330
2
100
AcDbEntity
  8
PDF_Text
 62
     7
420
 16777215
100
AcDbMText
 10
8.292749999999999
 20
3.898769444444443
 30
0.0
 40
0.35791015625
 41
0.0
 46
0.0
 71
     7
 72
     5
  1
Ø20
  7
PDF Arial
 11
0.0000000000000001
 21
1.0
 31
0.0
 73
     1
 44
1.0
  0
MTEXT
  5
308
330
2
100
AcDbEntity
  8
PDF_Text
 62
     7
420
 16777215
100
AcDbMText
 10
13.26025
 20
1.880769444444443
 30
0.0
 40
0.35791015625
 41
0.0
 46
0.0
 71
     7
 72
     5
  1
55
  7
PDF Arial
 11
0.0000000000000001
 21
1.0
 31
0.0
 73
     1
 44
1.0
  0
MTEXT
  5
309
330
2
100
AcDbEntity
  8
PDF_Text
 62
     7
420
 16777215
100
AcDbMText
 10
14.49383472222222
 20
9.642570833333332
 30
0.0
 40
0.35791015625
 41
0.0
 46
0.0
 71
     7
 72
     5
  1
68
  7
PDF Arial
 11
0.0000000000000001
 21
1.0
 31
0.0
 73
     1
 44
1.0
  0
MTEXT
  5
30A
330
2
100
AcDbEntity
  8
PDF_Text
 62
     7
420
 16777215
100
AcDbMText
 10
14.0821112375
 20
1.766038222222222
 30
0.0
 40
0.35791015625
 41
0.0
 46
0.0
 71
     7
 72
     5
  1
20°
  7
PDF Arial
 11
0.1219999448736394
 21
-0.9925301070752611
 31
0.0
 73
     1
 44
1.0
  0
LWPOLYLINE
  5
30B
330
2
100
AcDbEntity
  8
PDF_Layer 1
 62
     7
420
 16777215
370
    70
100
AcDbPolyline
 90
        3
 70
     0
 43
0.0
 10
8.710419444444442
 20
9.691184722222223
 42
0.5709362006885261
 10
8.317974999999998
 20
10.3614625
 42
0.567769748370645
 10
7.922058333333328
 20
9.691184722222223
  0
LWPOLYLINE
  5
30C
330
2
100
AcDbEntity
  8
PDF_Layer 1
 62
     7
420
 16777215
370
    70
100
AcDbPolyline
 90
        2
 70
     1
 43
0.0
 10
8.710419444444442
 20
9.062587500000001
 42
4.522768988012905
 10
7.922058333333335
 20
9.06258750000001
 42
-4.522768988012905
  0
VIEWPORT
  5
4A
330
C
100
AcDbEntity
 67
     1
  8
0
100
AcDbViewport
 10
17.24759499286355
 20
11.49745669559334
 30
0.0
 40
36.33732196730226
 41
27.12504315869042
 68
     1
 69
     1
 12
17.24759499286355
 22
11.49745669559334
 13
0.0
 23
0.0
 14
0.5
 24
0.5
 15
0.5
 25
0.5
 16
0.0
 26
0.0
 36
1.0
 17
0.0
 27
0.0
 37
0.0
 42
50.0
 43
0.0
 44
0.0
 45
27.12504315869042
 50
0.0
 51
0.0
 72
  1000
 90
    32864
  1

281
     0
 71
     1
 74
     0
110
0.0
120
0.0
130
0.0
111
1.0
121
0.0
131
0.0
112
0.0
122
1.0
132
0.0
 79
     0
146
0.0
170
     0
 61
     5
348
88
292
     1
282
     1
141
0.0
142
0.0
 63
   250
421
  3355443
  0
ENDSEC
  0
SECTION
  2
OBJECTS
  0
DICTIONARY
  5
7
330
0
100
AcDbDictionary
281
     1
  3
ACAD_CIP_PREVIOUS_PRODUCT_INFO
350
CD
  3
ACAD_COLOR
350
55
  3
ACAD_DETAILVIEWSTYLE
350
C5
  3
ACAD_GROUP
350
1F
  3
ACAD_LAYOUT
350
B
  3
ACAD_MATERIAL
350
54
  3
ACAD_MLEADERSTYLE
350
C1
  3
ACAD_MLINESTYLE
350
20
  3
ACAD_PLOTSETTINGS
350
21
  3
ACAD_PLOTSTYLENAME
350
6
  3
ACAD_SCALELIST
350
AF
  3
ACAD_SECTIONVIEWSTYLE
350
C3
  3
ACAD_TABLESTYLE
350
93
  3
ACAD_VISUALSTYLE
350
82
  3
ACDB_RECOMPOSE_DATA
350
332
  3
AcDbVariableDictionary
350
9B
  0
DICTIONARY
  5
30E
330
4
100
AcDbDictionary
280
     1
281
     1
  3
ADSK_XREC_LAYER_RECONCILED
360
30F
  0
DICTIONARY
  5
310
330
25
100
AcDbDictionary
280
     1
281
     1
  3
ADSK_XREC_LAYER_RECONCILED
360
311
  0
DICTIONARY
  5
312
330
CE
100
AcDbDictionary
280
     1
281
     1
  3
ADSK_XREC_LAYER_RECONCILED
360
313
  0
DICTIONARY
  5
314
330
E1
100
AcDbDictionary
280
     1
281
     1
  3
ADSK_XREC_LAYER_RECONCILED
360
315
  0
XRECORD
  5
CD
102
{ACAD_REACTORS
330
7
102
}
330
7
100
AcDbXrecord
280
     1
300
ACD
300
2017
300
ACD_F_S
  0
DICTIONARY
  5
55
102
{ACAD_REACTORS
330
7
102
}
330
7
100
AcDbDictionary
281
     1
  0
DICTIONARY
  5
C5
102
{ACAD_REACTORS
330
7
102
}
330
7
100
AcDbDictionary
281
     1
  3
Imperial24
350
C6
  0
DICTIONARY
  5
1F
102
{ACAD_REACTORS
330
7
102
}
330
7
100
AcDbDictionary
281
     1
  0
DICTIONARY
  5
B
102
{ACAD_REACTORS
330
7
102
}
330
7
100
AcDbDictionary
281
     1
  3
Generic 24in x 36in Title Block
350
F
  3
Model
350
A
  0
DICTIONARY
  5
54
102
{ACAD_REACTORS
330
7
102
}
330
7
100
AcDbDictionary
281
     1
  3
ByBlock
350
80
  3
ByLayer
350
7F
  3
Global
350
81
  0
DICTIONARY
  5
C1
102
{ACAD_REACTORS
330
7
102
}
330
7
100
AcDbDictionary
281
     1
  3
Standard
350
C2
  0
DICTIONARY
  5
20
102
{ACAD_REACTORS
330
7
102
}
330
7
100
AcDbDictionary
281
     1
  3
Standard
350
22
  0
DICTIONARY
  5
21
102
{ACAD_REACTORS
330
7
102
}
330
7
100
AcDbDictionary
281
     1
  0
ACDBDICTIONARYWDFLT
  5
6
102
{ACAD_REACTORS
330
7
102
}
330
7
100
AcDbDictionary
281
     1
  3
Normal
350
5
100
AcDbDictionaryWithDefault
340
5
  0
DICTIONARY
  5
AF
102
{ACAD_REACTORS
330
7
102
}
330
7
100
AcDbDictionary
281
     1
  3
A0
350
B0
  3
A1
350
B1
  3
A2
350
B2
  3
A3
350
B3
  3
A4
350
B4
  3
A5
350
B5
  3
A6
350
B6
  3
A7
350
B7
  3
A8
350
B8
  3
A9
350
B9
  3
B0
350
BA
  3
B1
350
BB
  3
B2
350
BC
  3
B3
350
BD
  3
B4
350
BE
  3
B5
350
BF
  3
B6
350
C0
  0
DICTIONARY
  5
C3
102
{ACAD_REACTORS
330
7
102
}
330
7
100
AcDbDictionary
281
     1
  3
Imperial24
350
C4
  0
DICTIONARY
  5
93
102
{ACAD_REACTORS
330
7
102
}
330
7
100
AcDbDictionary
281
     1
  3
Standard
350
94
  0
DICTIONARY
  5
82
102
{ACAD_REACTORS
330
7
102
}
330
7
100
AcDbDictionary
281
     1
  3
2dWireframe
350
88
  3
3D Hidden
350
8A
  3
3dWireframe
350
89
  3
Basic
350
87
  3
Brighten
350
8E
  3
ColorChange
350
92
  3
Conceptual
350
8B
  3
Dim
350
8D
  3
EdgeColorOff
350
AE
  3
Facepattern
350
91
  3
Flat
350
83
  3
FlatWithEdges
350
84
  3
Gouraud
350
85
  3
GouraudWithEdges
350
86
  3
Hidden
350
A6
  3
JitterOff
350
AC
  3
Linepattern
350
90
  3
OverhangOff
350
AD
  3
Realistic
350
8C
  3
Shaded
350
AB
  3
Shaded with edges
350
AA
  3
Shades of Gray
350
A7
  3
Sketchy
350
A8
  3
Thicken
350
8F
  3
Wireframe
350
A5
  3
X-Ray
350
A9
  0
XRECORD
  5
332
102
{ACAD_REACTORS
330
7
102
}
330
7
100
AcDbXrecord
280
     1
 90
        1
330
94
330
C4
330
C6
  0
DICTIONARY
  5
9B
102
{ACAD_REACTORS
330
7
102
}
330
7
100
AcDbDictionary
281
     1
  3
CANNOSCALE
350
328
  3
CMLEADERSTYLE
350
324
  3
CTABLESTYLE
350
9C
  3
CVIEWDETAILSTYLE
350
325
  3
CVIEWSECTIONSTYLE
350
326
  3
LAYEREVAL
350
32A
  3
LAYERNOTIFY
350
32B
  3
LIGHTINGUNITS
350
329
  3
MSLTSCALE
350
327
  0
XRECORD
  5
30F
102
{ACAD_REACTORS
330
30E
102
}
330
30E
100
AcDbXrecord
280
     1
290
     1
  0
XRECORD
  5
311
102
{ACAD_REACTORS
330
310
102
}
330
310
100
AcDbXrecord
280
     1
290
     1
  0
XRECORD
  5
313
102
{ACAD_REACTORS
330
312
102
}
330
312
100
AcDbXrecord
280
     1
290
     1
  0
XRECORD
  5
315
102
{ACAD_REACTORS
330
314
102
}
330
314
100
AcDbXrecord
280
     1
290
     1
  0
ACDBDETAILVIEWSTYLE
  5
C6
102
{ACAD_XDICTIONARY
360
330
102
}
102
{ACAD_REACTORS
330
C5
102
}
330
C5
100
AcDbModelDocViewStyle
 70
     0
  3
Imperial24
290
     0
100
AcDbDetailViewStyle
 70
     0
 71
     0
 90
        3
 71
     1
340
12
 62
   256
 40
0.24
340
0
 62
   256
 40
0.24
300

 40
0.36
280
     3
 71
     2
340
8
 90
       25
 62
   256
 71
     3
340
12
 62
   256
 40
0.24
 90
        1
 40
0.75
 90
        1
300
%<\AcVar ViewType \f "%tc1">% %<\AcVar ViewDetailId>%\PSCALE %<\AcVar ViewScale \f "%sn">%
 71
     4
340
8
 90
       25
 62
   256
340
8
 90
       25
 62
   256
280
     0
  0
LAYOUT
  5
F
102
{ACAD_REACTORS
330
B
102
}
330
B
100
AcDbPlotSettings
  1

  2
none_device
  4
ARCH_D_(24.00_x_36.00_Inches)
  6

 40
6.4
 41
19.1
 42
6.4
 43
19.1
 44
609.5999755859375
 45
914.4000244140626
 46
6.095999999999999
 47
-0.254
 48
0.0
 49
0.0
140
0.0
141
0.0
142
1.0
143
1.0
 70
   692
 72
     0
 73
     1
 74
     1
  7

 75
    16
147
1.0
 76
     0
 77
     2
 78
   300
148
0.2650993882970653
149
0.268587724897764
100
AcDbLayout
  1
Generic 24in x 36in Title Block
 70
     1
 71
     1
 10
-0.7524054877282309
 20
-0.5025428238148726
 11
35.24759547345533
 21
23.49745621500156
 12
0.0
 22
0.0
 32
0.0
 14
1.000000000000000E+20
 24
1.000000000000000E+20
 34
1.000000000000000E+20
 15
-1.000000000000000E+20
 25
-1.000000000000000E+20
 35
-1.000000000000000E+20
146
0.0
 13
0.0
 23
0.0
 33
0.0
 16
1.0
 26
0.0
 36
0.0
 17
0.0
 27
1.0
 37
0.0
 76
     0
330
C
331
4A
  0
LAYOUT
  5
A
102
{ACAD_REACTORS
330
B
102
}
330
B
100
AcDbPlotSettings
  1

  2
none_device
  4
Letter_(8.50_x_11.00_Inches)
  6

 40
6.349999904632568
 41
6.349999904632568
 42
6.350006103515625
 43
6.350006103515625
 44
215.8999938964844
 45
279.3999938964844
 46
20.37045378159827
 47
10.87052656611426
 48
0.0
 49
0.0
140
0.0
141
0.0
142
1.0
143
3.59932905303845
 70
 11956
 72
     0
 73
     1
 74
     1
  7

 75
     0
147
0.2778295580271631
 76
     0
 77
     2
 78
   300
148
5.106903281790129
149
0.2718425107115592
100
AcDbLayout
  1
Model
 70
     1
 71
     0
 10
0.0
 20
0.0
 11
12.0
 21
9.0
 12
0.0
 22
0.0
 32
0.0
 14
0.0
 24
0.0
 34
0.0
 15
0.0
 25
0.0
 35
0.0
146
0.0
 13
0.0
 23
0.0
 33
0.0
 16
1.0
 26
0.0
 36
0.0
 17
0.0
 27
1.0
 37
0.0
 76
     0
330
2
331
7D
  0
MATERIAL
  5
80
102
{ACAD_REACTORS
330
54
102
}
330
54
100
AcDbMaterial
  1
ByBlock
 73
     1
 78
     1
172
     1
176
     1
270
     1
274
     1
 94
       63
  0
MATERIAL
  5
7F
102
{ACAD_REACTORS
330
54
102
}
330
54
100
AcDbMaterial
  1
ByLayer
 73
     1
 78
     1
172
     1
176
     1
270
     1
274
     1
 94
       63
  0
MATERIAL
  5
81
102
{ACAD_REACTORS
330
54
102
}
330
54
100
AcDbMaterial
  1
Global
 73
     1
 78
     1
172
     1
176
     1
270
     1
274
     1
 94
       63
  0
MLEADERSTYLE
  5
C2
102
{ACAD_REACTORS
330
C1
102
}
330
C1
100
AcDbMLeaderStyle
179
     2
170
     2
171
     1
172
     0
 90
        2
 40
0.0
 41
0.0
173
     1
 91
-1056964608
340
15
 92
       -2
290
     1
 42
0.09
291
     1
 43
0.36
  3
Standard
 44
0.18
300

342
12
174
     1
178
     6
175
     1
176
     0
 93
-1056964608
 45
0.18
292
     0
297
     0
 46
0.18
 94
-1056964608
 47
1.0
 49
1.0
140
1.0
293
     1
141
0.0
294
     1
177
     0
142
1.0
295
     1
296
     0
143
0.125
271
     0
272
     9
273
     9
298
     1
  0
MLINESTYLE
  5
22
102
{ACAD_REACTORS
330
20
102
}
330
20
100
AcDbMlineStyle
  2
STANDARD
 70
     0
  3

 62
   256
 51
90.0
 52
90.0
 71
     2
 49
0.5
 62
   256
  6
BYLAYER
 49
-0.5
 62
   256
  6
BYLAYER
  0
ACDBPLACEHOLDER
  5
5
102
{ACAD_REACTORS
330
6
102
}
330
6
  0
SCALE
  5
B0
102
{ACAD_REACTORS
330
AF
102
}
330
AF
100
AcDbScale
 70
     0
300
1:1
140
1.0
141
1.0
290
     1
  0
SCALE
  5
B1
102
{ACAD_REACTORS
330
AF
102
}
330
AF
100
AcDbScale
 70
     0
300
1/128" = 1'-0"
140
0.0078125
141
12.0
290
     0
  0
SCALE
  5
B2
102
{ACAD_REACTORS
330
AF
102
}
330
AF
100
AcDbScale
 70
     0
300
1/64" = 1'-0"
140
0.015625
141
12.0
290
     0
  0
SCALE
  5
B3
102
{ACAD_REACTORS
330
AF
102
}
330
AF
100
AcDbScale
 70
     0
300
1/32" = 1'-0"
140
0.03125
141
12.0
290
     0
  0
SCALE
  5
B4
102
{ACAD_REACTORS
330
AF
102
}
330
AF
100
AcDbScale
 70
     0
300
1/16" = 1'-0"
140
0.0625
141
12.0
290
     0
  0
SCALE
  5
B5
102
{ACAD_REACTORS
330
AF
102
}
330
AF
100
AcDbScale
 70
     0
300
3/32" = 1'-0"
140
0.09375
141
12.0
290
     0
  0
SCALE
  5
B6
102
{ACAD_REACTORS
330
AF
102
}
330
AF
100
AcDbScale
 70
     0
300
1/8" = 1'-0"
140
0.125
141
12.0
290
     0
  0
SCALE
  5
B7
102
{ACAD_REACTORS
330
AF
102
}
330
AF
100
AcDbScale
 70
     0
300
3/16" = 1'-0"
140
0.1875
141
12.0
290
     0
  0
SCALE
  5
B8
102
{ACAD_REACTORS
330
AF
102
}
330
AF
100
AcDbScale
 70
     0
300
1/4" = 1'-0"
140
0.25
141
12.0
290
     0
  0
SCALE
  5
B9
102
{ACAD_REACTORS
330
AF
102
}
330
AF
100
AcDbScale
 70
     0
300
3/8" = 1'-0"
140
0.375
141
12.0
290
     0
  0
SCALE
  5
BA
102
{ACAD_REACTORS
330
AF
102
}
330
AF
100
AcDbScale
 70
     0
300
1/2" = 1'-0"
140
0.5
141
12.0
290
     0
  0
SCALE
  5
BB
102
{ACAD_REACTORS
330
AF
102
}
330
AF
100
AcDbScale
 70
     0
300
3/4" = 1'-0"
140
0.75
141
12.0
290
     0
  0
SCALE
  5
BC
102
{ACAD_REACTORS
330
AF
102
}
330
AF
100
AcDbScale
 70
     0
300
1" = 1'-0"
140
1.0
141
12.0
290
     0
  0
SCALE
  5
BD
102
{ACAD_REACTORS
330
AF
102
}
330
AF
100
AcDbScale
 70
     0
300
1-1/2" = 1'-0"
140
1.5
141
12.0
290
     0
  0
SCALE
  5
BE
102
{ACAD_REACTORS
330
AF
102
}
330
AF
100
AcDbScale
 70
     0
300
3" = 1'-0"
140
3.0
141
12.0
290
     0
  0
SCALE
  5
BF
102
{ACAD_REACTORS
330
AF
102
}
330
AF
100
AcDbScale
 70
     0
300
6" = 1'-0"
140
6.0
141
12.0
290
     0
  0
SCALE
  5
C0
102
{ACAD_REACTORS
330
AF
102
}
330
AF
100
AcDbScale
 70
     0
300
1'-0" = 1'-0"
140
12.0
141
12.0
290
     0
  0
ACDBSECTIONVIEWSTYLE
  5
C4
102
{ACAD_XDICTIONARY
360
32E
102
}
102
{ACAD_REACTORS
330
C3
102
}
330
C3
100
AcDbModelDocViewStyle
 70
     0
  3
Imperial24
290
     0
100
AcDbSectionViewStyle
 70
     0
 71
     0
 90
       78
 71
     1
340
12
 62
   256
 40
0.24
340
0
340
0
 62
   256
 40
0.24
300
I, O, Q, S, X, Z
 40
0.48
 90
        3
 40
0.18
 90
        1
 71
     2
340
8
 90
       25
 62
   256
340
8
 90
       50
 62
   256
 40
0.24
 40
0.0
 40
0.24
 71
     3
340
12
 62
   256
 40
0.24
 90
        1
 40
0.75
 90
        1
300
%<\AcVar ViewType \f "%tc1">% %<\AcVar ViewSectionStartId>%-%<\AcVar ViewSectionEndId>%\PSCALE %<\AcVar ViewScale \f "%sn">%
 71
     4
 62
   256
 62
   257
300
ANSI31
 40
1.0
 90
        0
290
     0
290
     0
 90
        6
 40
0.0
 40
1.570796326794896
 40
0.2617993877991494
 40
1.308996938995747
 40
-0.2617993877991494
 40
1.832595714594046
  0
TABLESTYLE
  5
94
102
{ACAD_XDICTIONARY
360
32C
102
}
102
{ACAD_REACTORS
330
93
102
}
330
93
100
AcDbTableStyle
280
     0
  3
Standard
 70
     0
 71
     0
 40
0.06
 41
0.06
280
     0
281
     0
  7
Standard
140
0.18
170
     2
 62
     0
 63
     7
283
     0
 90
      512
 91
        0
  1

274
    -2
284
     1
 64
     0
275
    -2
285
     1
 65
     0
276
    -2
286
     1
 66
     0
277
    -2
287
     1
 67
     0
278
    -2
288
     1
 68
     0
279
    -2
289
     1
 69
     0
  7
Standard
140
0.25
170
     5
 62
     0
 63
     7
283
     0
 90
      512
 91
        0
  1

274
    -2
284
     1
 64
     0
275
    -2
285
     1
 65
     0
276
    -2
286
     1
 66
     0
277
    -2
287
     1
 67
     0
278
    -2
288
     1
 68
     0
279
    -2
289
     1
 69
     0
  7
Standard
140
0.18
170
     5
 62
     0
 63
     7
283
     0
 90
      512
 91
        0
  1

274
    -2
284
     1
 64
     0
275
    -2
285
     1
 65
     0
276
    -2
286
     1
 66
     0
277
    -2
287
     1
 67
     0
278
    -2
288
     1
 68
     0
279
    -2
289
     1
 69
     0
  0
VISUALSTYLE
  5
88
102
{ACAD_REACTORS
330
82
102
}
330
82
100
AcDbVisualStyle
  2
2dWireframe
 70
     4
177
     3
291
     0
 70
    58
 90
        0
176
     1
 90
        2
176
     1
 90
        1
176
     1
 90
        0
176
     1
 40
0.6
176
     1
 40
30.0
176
     1
 62
     7
420
 16777215
176
     1
 90
        1
176
     1
 90
        4
176
     1
 62
     7
176
     1
 62
   257
176
     1
 90
        1
176
     1
 90
        1
176
     1
 40
1.0
176
     1
 90
        0
176
     1
 62
   257
176
     1
 40
1.0
176
     1
 90
        1
176
     1
 90
        6
176
     1
 90
        2
176
     1
 62
     7
176
     1
 90
        5
176
     1
 90
        0
176
     1
 90
        0
176
     1
290
     0
176
     1
 90
        1
176
     1
 40
0.0
176
     1
 90
        0
176
     1
290
     1
176
     1
290
     1
176
     1
290
     0
176
     1
290
     0
176
     1
290
     0
176
     1
290
     0
176
     1
290
     0
176
     1
290
     0
176
     1
290
     0
176
     1
 90
       50
176
     1
 40
0.0
176
     1
 40
1.0
176
     1
 90
        0
176
     1
 62
    18
420
        0
176
     1
 90
       50
176
     1
 90
        3
176
     1
 62
     5
420
      255
176
     1
290
     0
176
     1
 90
       50
176
     1
 90
       50
176
     1
 90
       50
176
     1
290
     0
176
     1
 90
       50
176
     1
 62
   256
176
     0
 40
1.0
176
     0
 90
        2
176
     1
  1
strokes_ogs.tif
176
     1
290
     0
176
     1
 40
1.0
176
     1
 40
1.0
176
     1
  0
VISUALSTYLE
  5
8A
102
{ACAD_REACTORS
330
82
102
}
330
82
100
AcDbVisualStyle
  2
3D Hidden
 70
     6
177
     3
291
     0
 70
    58
 90
        1
176
     1
 90
        2
176
     1
 90
        2
176
     1
 90
        0
176
     1
 40
0.6
176
     1
 40
30.0
176
     1
 62
     7
420
 16777215
176
     1
 90
        2
176
     1
 90
       10
176
     1
 62
     7
176
     1
 62
   257
176
     1
 90
        2
176
     1
 90
        2
176
     1
 40
40.0
176
     1
 90
        0
176
     1
 62
   257
176
     1
 40
1.0
176
     1
 90
        1
176
     1
 90
        6
176
     1
 90
        2
176
     1
 62
     7
176
     1
 90
        3
176
     1
 90
        0
176
     1
 90
        0
176
     1
290
     0
176
     1
 90
        1
176
     1
 40
0.0
176
     1
 90
        0
176
     1
290
     0
176
     1
290
     1
176
     1
290
     1
176
     1
290
     0
176
     1
290
     0
176
     1
290
     0
176
     1
290
     0
176
     1
290
     0
176
     1
290
     0
176
     1
 90
       50
176
     1
 40
0.0
176
     1
 40
1.0
176
     1
 90
        0
176
     1
 62
    18
420
        0
176
     1
 90
       50
176
     1
 90
        3
176
     1
 62
     5
420
      255
176
     1
290
     0
176
     1
 90
       50
176
     1
 90
       50
176
     1
 90
       50
176
     1
290
     0
176
     1
 90
       50
176
     1
 62
   256
176
     0
 40
1.0
176
     0
 90
        2
176
     1
  1
strokes_ogs.tif
176
     1
290
     0
176
     1
 40
1.0
176
     1
 40
1.0
176
     1
  0
VISUALSTYLE
  5
89
102
{ACAD_REACTORS
330
82
102
}
330
82
100
AcDbVisualStyle
  2
3dWireframe
 70
     5
177
     3
291
     0
 70
    58
 90
        0
176
     1
 90
        2
176
     1
 90
        1
176
     1
 90
        0
176
     1
 40
0.6
176
     1
 40
30.0
176
     1
 62
     7
420
 16777215
176
     1
 90
        1
176
     1
 90
        4
176
     1
 62
     7
176
     1
 62
   257
176
     1
 90
        1
176
     1
 90
        1
176
     1
 40
1.0
176
     1
 90
        0
176
     1
 62
   257
176
     1
 40
1.0
176
     1
 90
        1
176
     1
 90
        6
176
     1
 90
        2
176
     1
 62
     7
176
     1
 90
        5
176
     1
 90
        0
176
     1
 90
        0
176
     1
290
     0
176
     1
 90
        1
176
     1
 40
0.0
176
     1
 90
        0
176
     1
290
     0
176
     1
290
     1
176
     1
290
     1
176
     1
290
     0
176
     1
290
     0
176
     1
290
     0
176
     1
290
     0
176
     1
290
     0
176
     1
290
     0
176
     1
 90
       50
176
     1
 40
0.0
176
     1
 40
1.0
176
     1
 90
        0
176
     1
 62
    18
420
        0
176
     1
 90
       50
176
     1
 90
        3
176
     1
 62
     5
420
      255
176
     1
290
     0
176
     1
 90
       50
176
     1
 90
       50
176
     1
 90
       50
176
     1
290
     0
176
     1
 90
       50
176
     1
 62
   256
176
     0
 40
1.0
176
     0
 90
        2
176
     1
  1
strokes_ogs.tif
176
     1
290
     0
176
     1
 40
1.0
176
     1
 40
1.0
176
     1
  0
VISUALSTYLE
  5
87
102
{ACAD_REACTORS
330
82
102
}
330
82
100
AcDbVisualStyle
  2
Basic
 70
     7
177
     3
291
     1
 70
    58
 90
        1
176
     1
 90
        0
176
     1
 90
        1
176
     1
 90
        0
176
     1
 40
0.6
176
     1
 40
30.0
176
     1
 62
     7
420
 16777215
176
     1
 90
        0
176
     1
 90
        4
176
     1
 62
     7
176
     1
 62
   257
176
     1
 90
        1
176
     1
 90
        1
176
     1
 40
1.0
176
     1
 90
        8
176
     1
 62
     7
176
     1
 40
1.0
176
     1
 90
        1
176
     1
 90
        6
176
     1
 90
        2
176
     1
 62
     7
176
     1
 90
        5
176
     1
 90
        0
176
     1
 90
        0
176
     1
290
     0
176
     1
 90
        1
176
     1
 40
0.0
176
     1
 90
        0
176
     1
290
     0
176
     1
290
     1
176
     1
290
     1
176
     1
290
     0
176
     1
290
     0
176
     1
290
     0
176
     1
290
     0
176
     1
290
     0
176
     1
290
     0
176
     1
 90
       50
176
     1
 40
0.0
176
     1
 40
1.0
176
     1
 90
        0
176
     1
 62
    18
420
        0
176
     1
 90
       50
176
     1
 90
        3
176
     1
 62
     5
420
      255
176
     1
290
     0
176
     1
 90
       50
176
     1
 90
       50
176
     1
 90
       50
176
     1
290
     0
176
     1
 90
       50
176
     1
 62
   256
176
     0
 40
1.0
176
     0
 90
        2
176
     1
  1
strokes_ogs.tif
176
     1
290
     0
176
     1
 40
1.0
176
     1
 40
1.0
176
     1
  0
VISUALSTYLE
  5
8E
102
{ACAD_REACTORS
330
82
102
}
330
82
100
AcDbVisualStyle
  2
Brighten
 70
    12
177
     3
291
     1
 70
    58
 90
        2
176
     1
 90
        2
176
     1
 90
        1
176
     1
 90
        0
176
     1
 40
0.6
176
     1
 40
30.0
176
     1
 62
     7
420
 16777215
176
     1
 90
        1
176
     1
 90
        4
176
     1
 62
     7
176
     1
 62
   257
176
     1
 90
        1
176
     1
 90
        1
176
     1
 40
1.0
176
     1
 90
        8
176
     1
 62
     7
176
     1
 40
1.0
176
     1
 90
        1
176
     1
 90
        6
176
     1
 90
        2
176
     1
 62
     7
176
     1
 90
        5
176
     1
 90
        0
176
     1
 90
        0
176
     1
290
     0
176
     1
 90
        1
176
     1
 40
50.0
176
     1
 90
        0
176
     1
290
     0
176
     1
290
     1
176
     1
290
     1
176
     1
290
     0
176
     1
290
     0
176
     1
290
     0
176
     1
290
     0
176
     1
290
     0
176
     1
290
     0
176
     1
 90
       50
176
     1
 40
0.0
176
     1
 40
1.0
176
     1
 90
        0
176
     1
 62
    18
420
        0
176
     1
 90
       50
176
     1
 90
        3
176
     1
 62
     5
420
      255
176
     1
290
     0
176
     1
 90
       50
176
     1
 90
       50
176
     1
 90
       50
176
     1
290
     0
176
     1
 90
       50
176
     1
 62
   256
176
     0
 40
1.0
176
     0
 90
        2
176
     1
  1
strokes_ogs.tif
176
     1
290
     0
176
     1
 40
1.0
176
     1
 40
1.0
176
     1
  0
VISUALSTYLE
  5
92
102
{ACAD_REACTORS
330
82
102
}
330
82
100
AcDbVisualStyle
  2
ColorChange
 70
    16
177
     3
291
     1
 70
    58
 90
        2
176
     1
 90
        2
176
     1
 90
        3
176
     1
 90
        0
176
     1
 40
0.6
176
     1
 40
30.0
176
     1
 62
     8
420
  8421504
176
     1
 90
        1
176
     1
 90
        4
176
     1
 62
     7
176
     1
 62
   257
176
     1
 90
        1
176
     1
 90
        1
176
     1
 40
1.0
176
     1
 90
        8
176
     1
 62
     8
420
  8421504
176
     1
 40
1.0
176
     1
 90
        1
176
     1
 90
        6
176
     1
 90
        2
176
     1
 62
     7
176
     1
 90
        5
176
     1
 90
        0
176
     1
 90
        0
176
     1
290
     0
176
     1
 90
        1
176
     1
 40
0.0
176
     1
 90
        0
176
     1
290
     0
176
     1
290
     1
176
     1
290
     1
176
     1
290
     0
176
     1
290
     0
176
     1
290
     0
176
     1
290
     0
176
     1
290
     0
176
     1
290
     0
176
     1
 90
       50
176
     1
 40
0.0
176
     1
 40
1.0
176
     1
 90
        0
176
     1
 62
    18
420
        0
176
     1
 90
       50
176
     1
 90
        3
176
     1
 62
     5
420
      255
176
     1
290
     0
176
     1
 90
       50
176
     1
 90
       50
176
     1
 90
       50
176
     1
290
     0
176
     1
 90
       50
176
     1
 62
   256
176
     0
 40
1.0
176
     0
 90
        2
176
     1
  1
strokes_ogs.tif
176
     1
290
     0
176
     1
 40
1.0
176
     1
 40
1.0
176
     1
  0
VISUALSTYLE
  5
8B
102
{ACAD_REACTORS
330
82
102
}
330
82
100
AcDbVisualStyle
  2
Conceptual
 70
     9
177
     3
291
     0
 70
    58
 90
        3
176
     1
 90
        2
176
     1
 90
        1
176
     1
 90
        0
176
     1
 40
0.6
176
     1
 40
30.0
176
     1
 62
     7
420
 16777215
176
     1
 90
        2
176
     1
 90
        2
176
     1
 62
     7
176
     1
 62
   257
176
     1
 90
        1
176
     1
 90
        1
176
     1
 40
40.0
176
     1
 90
        8
176
     1
 62
     7
176
     1
 40
1.0
176
     1
 90
        1
176
     1
 90
        6
176
     1
 90
        2
176
     1
 62
     7
176
     1
 90
        5
176
     1
 90
        0
176
     1
 90
        0
176
     1
290
     0
176
     1
 90
        1
176
     1
 40
0.0
176
     1
 90
        0
176
     1
290
     0
176
     1
290
     1
176
     1
290
     1
176
     1
290
     0
176
     1
290
     0
176
     1
290
     0
176
     1
290
     0
176
     1
290
     0
176
     1
290
     0
176
     1
 90
       50
176
     1
 40
0.0
176
     1
 40
1.0
176
     1
 90
        0
176
     1
 62
    18
420
        0
176
     1
 90
       50
176
     1
 90
        3
176
     1
 62
     5
420
      255
176
     1
290
     0
176
     1
 90
       50
176
     1
 90
       50
176
     1
 90
       50
176
     1
290
     0
176
     1
 90
       50
176
     1
 62
   256
176
     0
 40
1.0
176
     0
 90
        2
176
     1
  1
strokes_ogs.tif
176
     1
290
     0
176
     1
 40
1.0
176
     1
 40
1.0
176
     1
  0
VISUALSTYLE
  5
8D
102
{ACAD_REACTORS
330
82
102
}
330
82
100
AcDbVisualStyle
  2
Dim
 70
    11
177
     3
291
     1
 70
    58
 90
        2
176
     1
 90
        2
176
     1
 90
        1
176
     1
 90
        0
176
     1
 40
0.6
176
     1
 40
30.0
176
     1
 62
     7
420
 16777215
176
     1
 90
        1
176
     1
 90
        4
176
     1
 62
     7
176
     1
 62
   257
176
     1
 90
        1
176
     1
 90
        1
176
     1
 40
1.0
176
     1
 90
        8
176
     1
 62
     7
176
     1
 40
1.0
176
     1
 90
        1
176
     1
 90
        6
176
     1
 90
        2
176
     1
 62
     7
176
     1
 90
        5
176
     1
 90
        0
176
     1
 90
        0
176
     1
290
     0
176
     1
 90
        1
176
     1
 40
-50.0
176
     1
 90
        0
176
     1
290
     0
176
     1
290
     1
176
     1
290
     1
176
     1
290
     0
176
     1
290
     0
176
     1
290
     0
176
     1
290
     0
176
     1
290
     0
176
     1
290
     0
176
     1
 90
       50
176
     1
 40
0.0
176
     1
 40
1.0
176
     1
 90
        0
176
     1
 62
    18
420
        0
176
     1
 90
       50
176
     1
 90
        3
176
     1
 62
     5
420
      255
176
     1
290
     0
176
     1
 90
       50
176
     1
 90
       50
176
     1
 90
       50
176
     1
290
     0
176
     1
 90
       50
176
     1
 62
   256
176
     0
 40
1.0
176
     0
 90
        2
176
     1
  1
strokes_ogs.tif
176
     1
290
     0
176
     1
 40
1.0
176
     1
 40
1.0
176
     1
  0
VISUALSTYLE
  5
AE
102
{ACAD_REACTORS
330
82
102
}
330
82
100
AcDbVisualStyle
  2
EdgeColorOff
 70
    22
177
     3
291
     1
 70
    58
 90
        2
176
     0
 90
        2
176
     0
 90
        0
176
     0
 90
        0
176
     0
 40
0.6
176
     0
 40
30.0
176
     0
 62
     7
420
 16777215
176
     0
 90
        1
176
     0
 90
        4
176
     0
 62
     7
176
     0
 62
   257
176
     0
 90
        1
176
     0
 90
        1
176
     0
 40
1.0
176
     0
 90
        8
176
     2
 62
     7
176
     0
 40
1.0
176
     0
 90
        1
176
     0
 90
        6
176
     0
 90
        2
176
     0
 62
     7
176
     0
 90
        5
176
     0
 90
        0
176
     0
 90
        0
176
     0
290
     0
176
     0
 90
        1
176
     0
 40
0.0
176
     0
 90
        0
176
     0
290
     0
176
     0
290
     1
176
     0
290
     1
176
     0
290
     0
176
     0
290
     0
176
     0
290
     0
176
     0
290
     0
176
     0
290
     0
176
     0
290
     0
176
     0
 90
       50
176
     0
 40
0.0
176
     0
 40
1.0
176
     0
 90
        0
176
     0
 62
    18
420
        0
176
     0
 90
       50
176
     0
 90
        3
176
     0
 62
     5
420
      255
176
     0
290
     0
176
     0
 90
       50
176
     0
 90
       50
176
     0
 90
       50
176
     0
290
     0
176
     0
 90
       50
176
     0
 62
   256
176
     0
 40
1.0
176
     0
 90
        2
176
     0
  1
strokes_ogs.tif
176
     0
290
     0
176
     0
 40
1.0
176
     0
 40
1.0
176
     0
  0
VISUALSTYLE
  5
91
102
{ACAD_REACTORS
330
82
102
}
330
82
100
AcDbVisualStyle
  2
Facepattern
 70
    15
177
     3
291
     1
 70
    58
 90
        2
176
     1
 90
        2
176
     1
 90
        1
176
     1
 90
        0
176
     1
 40
0.6
176
     1
 40
30.0
176
     1
 62
     7
420
 16777215
176
     1
 90
        1
176
     1
 90
        4
176
     1
 62
     7
176
     1
 62
   257
176
     1
 90
        1
176
     1
 90
        1
176
     1
 40
1.0
176
     1
 90
        8
176
     1
 62
     7
176
     1
 40
1.0
176
     1
 90
        1
176
     1
 90
        6
176
     1
 90
        2
176
     1
 62
     7
176
     1
 90
        5
176
     1
 90
        0
176
     1
 90
        0
176
     1
290
     0
176
     1
 90
        1
176
     1
 40
0.0
176
     1
 90
        0
176
     1
290
     0
176
     1
290
     1
176
     1
290
     1
176
     1
290
     0
176
     1
290
     0
176
     1
290
     0
176
     1
290
     0
176
     1
290
     0
176
     1
290
     0
176
     1
 90
       50
176
     1
 40
0.0
176
     1
 40
1.0
176
     1
 90
        0
176
     1
 62
    18
420
        0
176
     1
 90
       50
176
     1
 90
        3
176
     1
 62
     5
420
      255
176
     1
290
     0
176
     1
 90
       50
176
     1
 90
       50
176
     1
 90
       50
176
     1
290
     0
176
     1
 90
       50
176
     1
 62
   256
176
     0
 40
1.0
176
     0
 90
        2
176
     1
  1
strokes_ogs.tif
176
     1
290
     0
176
     1
 40
1.0
176
     1
 40
1.0
176
     1
  0
VISUALSTYLE
  5
83
102
{ACAD_REACTORS
330
82
102
}
330
82
100
AcDbVisualStyle
  2
Flat
 70
     0
177
     3
291
     1
 70
    58
 90
        2
176
     1
 90
        1
176
     1
 90
        1
176
     1
 90
        2
176
     1
 40
0.6
176
     1
 40
30.0
176
     1
 62
     7
420
 16777215
176
     1
 90
        0
176
     1
 90
        4
176
     1
 62
     7
176
     1
 62
   257
176
     1
 90
        1
176
     1
 90
        1
176
     1
 40
1.0
176
     1
 90
        8
176
     1
 62
     7
176
     1
 40
1.0
176
     1
 90
        1
176
     1
 90
        6
176
     1
 90
        2
176
     1
 62
     7
176
     1
 90
        5
176
     1
 90
        0
176
     1
 90
        0
176
     1
290
     0
176
     1
 90
        1
176
     1
 40
0.0
176
     1
 90
        0
176
     1
290
     0
176
     1
290
     1
176
     1
290
     1
176
     1
290
     0
176
     1
290
     0
176
     1
290
     0
176
     1
290
     0
176
     1
290
     0
176
     1
290
     0
176
     1
 90
       50
176
     1
 40
0.0
176
     1
 40
1.0
176
     1
 90
        0
176
     1
 62
    18
420
        0
176
     1
 90
       50
176
     1
 90
        3
176
     1
 62
     5
420
      255
176
     1
290
     0
176
     1
 90
       50
176
     1
 90
       50
176
     1
 90
       50
176
     1
290
     0
176
     1
 90
       50
176
     1
 62
   256
176
     0
 40
1.0
176
     0
 90
        2
176
     1
  1
strokes_ogs.tif
176
     1
290
     0
176
     1
 40
1.0
176
     1
 40
1.0
176
     1
  0
VISUALSTYLE
  5
84
102
{ACAD_REACTORS
330
82
102
}
330
82
100
AcDbVisualStyle
  2
FlatWithEdges
 70
     1
177
     3
291
     1
 70
    58
 90
        2
176
     1
 90
        1
176
     1
 90
        1
176
     1
 90
        2
176
     1
 40
0.6
176
     1
 40
30.0
176
     1
 62
     7
420
 16777215
176
     1
 90
        1
176
     1
 90
        4
176
     1
 62
     7
176
     1
 62
   257
176
     1
 90
        1
176
     1
 90
        1
176
     1
 40
1.0
176
     1
 90
        0
176
     1
 62
   257
176
     1
 40
1.0
176
     1
 90
        1
176
     1
 90
        6
176
     1
 90
        2
176
     1
 62
     7
176
     1
 90
        5
176
     1
 90
        0
176
     1
 90
        0
176
     1
290
     0
176
     1
 90
        1
176
     1
 40
0.0
176
     1
 90
        0
176
     1
290
     0
176
     1
290
     1
176
     1
290
     1
176
     1
290
     0
176
     1
290
     0
176
     1
290
     0
176
     1
290
     0
176
     1
290
     0
176
     1
290
     0
176
     1
 90
       50
176
     1
 40
0.0
176
     1
 40
1.0
176
     1
 90
        0
176
     1
 62
    18
420
        0
176
     1
 90
       50
176
     1
 90
        3
176
     1
 62
     5
420
      255
176
     1
290
     0
176
     1
 90
       50
176
     1
 90
       50
176
     1
 90
       50
176
     1
290
     0
176
     1
 90
       50
176
     1
 62
   256
176
     0
 40
1.0
176
     0
 90
        2
176
     1
  1
strokes_ogs.tif
176
     1
290
     0
176
     1
 40
1.0
176
     1
 40
1.0
176
     1
  0
VISUALSTYLE
  5
85
102
{ACAD_REACTORS
330
82
102
}
330
82
100
AcDbVisualStyle
  2
Gouraud
 70
     2
177
     3
291
     1
 70
    58
 90
        2
176
     1
 90
        2
176
     1
 90
        1
176
     1
 90
        2
176
     1
 40
0.6
176
     1
 40
30.0
176
     1
 62
     7
420
 16777215
176
     1
 90
        0
176
     1
 90
        4
176
     1
 62
     7
176
     1
 62
   257
176
     1
 90
        1
176
     1
 90
        1
176
     1
 40
1.0
176
     1
 90
        0
176
     1
 62
     7
176
     1
 40
1.0
176
     1
 90
        1
176
     1
 90
        6
176
     1
 90
        2
176
     1
 62
     7
176
     1
 90
        5
176
     1
 90
        0
176
     1
 90
        0
176
     1
290
     0
176
     1
 90
        1
176
     1
 40
0.0
176
     1
 90
        0
176
     1
290
     0
176
     1
290
     1
176
     1
290
     1
176
     1
290
     0
176
     1
290
     0
176
     1
290
     0
176
     1
290
     0
176
     1
290
     0
176
     1
290
     0
176
     1
 90
       50
176
     1
 40
0.0
176
     1
 40
1.0
176
     1
 90
        0
176
     1
 62
    18
420
        0
176
     1
 90
       50
176
     1
 90
        3
176
     1
 62
     5
420
      255
176
     1
290
     0
176
     1
 90
       50
176
     1
 90
       50
176
     1
 90
       50
176
     1
290
     0
176
     1
 90
       50
176
     1
 62
   256
176
     0
 40
1.0
176
     0
 90
        2
176
     1
  1
strokes_ogs.tif
176
     1
290
     0
176
     1
 40
1.0
176
     1
 40
1.0
176
     1
  0
VISUALSTYLE
  5
86
102
{ACAD_REACTORS
330
82
102
}
330
82
100
AcDbVisualStyle
  2
GouraudWithEdges
 70
     3
177
     3
291
     1
 70
    58
 90
        2
176
     1
 90
        2
176
     1
 90
        1
176
     1
 90
        2
176
     1
 40
0.6
176
     1
 40
30.0
176
     1
 62
     7
420
 16777215
176
     1
 90
        1
176
     1
 90
        4
176
     1
 62
     7
176
     1
 62
   257
176
     1
 90
        1
176
     1
 90
        1
176
     1
 40
1.0
176
     1
 90
        0
176
     1
 62
   257
176
     1
 40
1.0
176
     1
 90
        1
176
     1
 90
        6
176
     1
 90
        2
176
     1
 62
     7
176
     1
 90
        5
176
     1
 90
        0
176
     1
 90
        0
176
     1
290
     0
176
     1
 90
        1
176
     1
 40
0.0
176
     1
 90
        0
176
     1
290
     0
176
     1
290
     1
176
     1
290
     1
176
     1
290
     0
176
     1
290
     0
176
     1
290
     0
176
     1
290
     0
176
     1
290
     0
176
     1
290
     0
176
     1
 90
       50
176
     1
 40
0.0
176
     1
 40
1.0
176
     1
 90
        0
176
     1
 62
    18
420
        0
176
     1
 90
       50
176
     1
 90
        3
176
     1
 62
     5
420
      255
176
     1
290
     0
176
     1
 90
       50
176
     1
 90
       50
176
     1
 90
       50
176
     1
290
     0
176
     1
 90
       50
176
     1
 62
   256
176
     0
 40
1.0
176
     0
 90
        2
176
     1
  1
strokes_ogs.tif
176
     1
290
     0
176
     1
 40
1.0
176
     1
 40
1.0
176
     1
  0
VISUALSTYLE
  5
A6
102
{ACAD_REACTORS
330
82
102
}
330
82
100
AcDbVisualStyle
  2
Hidden
 70
     6
177
     3
291
     0
 70
    58
 90
        1
176
     1
 90
        2
176
     1
 90
        2
176
     1
 90
        0
176
     1
 40
0.6
176
     1
 40
30.0
176
     1
 62
     7
420
 16777215
176
     1
 90
        2
176
     1
 90
        2
176
     1
 62
     7
176
     1
 62
   257
176
     1
 90
        2
176
     1
 90
        1
176
     1
 40
40.0
176
     1
 90
        0
176
     1
 62
   257
176
     1
 40
1.0
176
     1
 90
        1
176
     1
 90
        6
176
     1
 90
        2
176
     1
 62
     7
176
     1
 90
        3
176
     1
 90
        0
176
     1
 90
        0
176
     1
290
     0
176
     1
 90
        1
176
     1
 40
0.0
176
     1
 90
        0
176
     1
290
     0
176
     1
290
     1
176
     1
290
     1
176
     1
290
     0
176
     1
290
     0
176
     1
290
     0
176
     1
290
     0
176
     1
290
     0
176
     1
290
     0
176
     1
 90
       50
176
     1
 40
0.0
176
     1
 40
1.0
176
     1
 90
        0
176
     1
 62
    18
420
        0
176
     1
 90
       50
176
     1
 90
        3
176
     1
 62
     5
420
      255
176
     1
290
     0
176
     1
 90
       50
176
     1
 90
       50
176
     1
 90
       50
176
     1
290
     0
176
     1
 90
       50
176
     1
 62
   256
176
     0
 40
1.0
176
     0
 90
        2
176
     1
  1
strokes_ogs.tif
176
     1
290
     0
176
     1
 40
1.0
176
     1
 40
1.0
176
     1
  0
VISUALSTYLE
  5
AC
102
{ACAD_REACTORS
330
82
102
}
330
82
100
AcDbVisualStyle
  2
JitterOff
 70
    20
177
     3
291
     1
 70
    58
 90
        2
176
     0
 90
        2
176
     0
 90
        0
176
     0
 90
        0
176
     0
 40
0.6
176
     0
 40
30.0
176
     0
 62
     7
420
 16777215
176
     0
 90
        1
176
     0
 90
        4
176
     0
 62
     7
176
     0
 62
   257
176
     0
 90
        1
176
     0
 90
        1
176
     0
 40
1.0
176
     0
 90
       10
176
     2
 62
     7
176
     0
 40
1.0
176
     0
 90
        1
176
     0
 90
        6
176
     0
 90
        2
176
     0
 62
     7
176
     0
 90
        5
176
     0
 90
        0
176
     0
 90
        0
176
     0
290
     0
176
     0
 90
        1
176
     0
 40
0.0
176
     0
 90
        0
176
     0
290
     0
176
     0
290
     1
176
     0
290
     1
176
     0
290
     0
176
     0
290
     0
176
     0
290
     0
176
     0
290
     0
176
     0
290
     0
176
     0
290
     0
176
     0
 90
       50
176
     0
 40
0.0
176
     0
 40
1.0
176
     0
 90
        0
176
     0
 62
    18
420
        0
176
     0
 90
       50
176
     0
 90
        3
176
     0
 62
     5
420
      255
176
     0
290
     0
176
     0
 90
       50
176
     0
 90
       50
176
     0
 90
       50
176
     0
290
     0
176
     0
 90
       50
176
     0
 62
   256
176
     0
 40
1.0
176
     0
 90
        2
176
     0
  1
strokes_ogs.tif
176
     0
290
     0
176
     0
 40
1.0
176
     0
 40
1.0
176
     0
  0
VISUALSTYLE
  5
90
102
{ACAD_REACTORS
330
82
102
}
330
82
100
AcDbVisualStyle
  2
Linepattern
 70
    14
177
     3
291
     1
 70
    58
 90
        2
176
     1
 90
        2
176
     1
 90
        1
176
     1
 90
        0
176
     1
 40
0.6
176
     1
 40
30.0
176
     1
 62
     7
420
 16777215
176
     1
 90
        1
176
     1
 90
        4
176
     1
 62
     7
176
     1
 62
   257
176
     1
 90
        7
176
     1
 90
        7
176
     1
 40
1.0
176
     1
 90
        8
176
     1
 62
     7
176
     1
 40
1.0
176
     1
 90
        1
176
     1
 90
        6
176
     1
 90
        2
176
     1
 62
     7
176
     1
 90
        5
176
     1
 90
        0
176
     1
 90
        0
176
     1
290
     0
176
     1
 90
        1
176
     1
 40
0.0
176
     1
 90
        0
176
     1
290
     0
176
     1
290
     1
176
     1
290
     1
176
     1
290
     0
176
     1
290
     0
176
     1
290
     0
176
     1
290
     0
176
     1
290
     0
176
     1
290
     0
176
     1
 90
       50
176
     1
 40
0.0
176
     1
 40
1.0
176
     1
 90
        0
176
     1
 62
    18
420
        0
176
     1
 90
       50
176
     1
 90
        3
176
     1
 62
     5
420
      255
176
     1
290
     0
176
     1
 90
       50
176
     1
 90
       50
176
     1
 90
       50
176
     1
290
     0
176
     1
 90
       50
176
     1
 62
   256
176
     0
 40
1.0
176
     0
 90
        2
176
     1
  1
strokes_ogs.tif
176
     1
290
     0
176
     1
 40
1.0
176
     1
 40
1.0
176
     1
  0
VISUALSTYLE
  5
AD
102
{ACAD_REACTORS
330
82
102
}
330
82
100
AcDbVisualStyle
  2
OverhangOff
 70
    21
177
     3
291
     1
 70
    58
 90
        2
176
     0
 90
        2
176
     0
 90
        0
176
     0
 90
        0
176
     0
 40
0.6
176
     0
 40
30.0
176
     0
 62
     7
420
 16777215
176
     0
 90
        1
176
     0
 90
        4
176
     0
 62
     7
176
     0
 62
   257
176
     0
 90
        1
176
     0
 90
        1
176
     0
 40
1.0
176
     0
 90
        9
176
     2
 62
     7
176
     0
 40
1.0
176
     0
 90
        1
176
     0
 90
        6
176
     0
 90
        2
176
     0
 62
     7
176
     0
 90
        5
176
     0
 90
        0
176
     0
 90
        0
176
     0
290
     0
176
     0
 90
        1
176
     0
 40
0.0
176
     0
 90
        0
176
     0
290
     0
176
     0
290
     1
176
     0
290
     1
176
     0
290
     0
176
     0
290
     0
176
     0
290
     0
176
     0
290
     0
176
     0
290
     0
176
     0
290
     0
176
     0
 90
       50
176
     0
 40
0.0
176
     0
 40
1.0
176
     0
 90
        0
176
     0
 62
    18
420
        0
176
     0
 90
       50
176
     0
 90
        3
176
     0
 62
     5
420
      255
176
     0
290
     0
176
     0
 90
       50
176
     0
 90
       50
176
     0
 90
       50
176
     0
290
     0
176
     0
 90
       50
176
     0
 62
   256
176
     0
 40
1.0
176
     0
 90
        2
176
     0
  1
strokes_ogs.tif
176
     0
290
     0
176
     0
 40
1.0
176
     0
 40
1.0
176
     0
  0
VISUALSTYLE
  5
8C
102
{ACAD_REACTORS
330
82
102
}
330
82
100
AcDbVisualStyle
  2
Realistic
 70
     8
177
     3
291
     0
 70
    58
 90
        2
176
     1
 90
        2
176
     1
 90
        1
176
     1
 90
        0
176
     1
 40
0.6
176
     1
 40
30.0
176
     1
 62
     7
420
 16777215
176
     1
 90
        1
176
     1
 90
        0
176
     1
 62
     7
176
     1
 62
   257
176
     1
 90
        1
176
     1
 90
        1
176
     1
 40
1.0
176
     1
 90
        8
176
     1
 62
     7
176
     1
 40
1.0
176
     1
 90
        1
176
     1
 90
        6
176
     1
 90
        2
176
     1
 62
     7
176
     1
 90
        5
176
     1
 90
        0
176
     1
 90
        0
176
     1
290
     0
176
     1
 90
       13
176
     1
 40
0.0
176
     1
 90
        0
176
     1
290
     0
176
     1
290
     1
176
     1
290
     1
176
     1
290
     0
176
     1
290
     0
176
     1
290
     0
176
     1
290
     0
176
     1
290
     0
176
     1
290
     0
176
     1
 90
       50
176
     1
 40
0.0
176
     1
 40
1.0
176
     1
 90
        0
176
     1
 62
    18
420
        0
176
     1
 90
       50
176
     1
 90
        3
176
     1
 62
     5
420
      255
176
     1
290
     0
176
     1
 90
       50
176
     1
 90
       50
176
     1
 90
       50
176
     1
290
     0
176
     1
 90
       50
176
     1
 62
   256
176
     0
 40
1.0
176
     0
 90
        2
176
     1
  1
strokes_ogs.tif
176
     1
290
     0
176
     1
 40
1.0
176
     1
 40
1.0
176
     1
  0
VISUALSTYLE
  5
AB
102
{ACAD_REACTORS
330
82
102
}
330
82
100
AcDbVisualStyle
  2
Shaded
 70
    27
177
     3
291
     0
 70
    58
 90
        2
176
     1
 90
        2
176
     1
 90
        1
176
     1
 90
        2
176
     1
 40
0.6
176
     1
 40
30.0
176
     1
 62
     7
420
 16777215
176
     1
 90
        0
176
     1
 90
        4
176
     1
 62
     7
176
     1
 62
   257
176
     1
 90
        1
176
     1
 90
        1
176
     1
 40
1.0
176
     1
 90
        8
176
     1
 62
   257
176
     1
 40
1.0
176
     1
 90
        1
176
     1
 90
        6
176
     1
 90
        2
176
     1
 62
     8
420
  7895160
176
     1
 90
        3
176
     1
 90
        0
176
     1
 90
        0
176
     1
290
     0
176
     1
 90
        5
176
     1
 40
0.0
176
     1
 90
        0
176
     1
290
     0
176
     1
290
     1
176
     1
290
     1
176
     1
290
     0
176
     1
290
     0
176
     1
290
     0
176
     1
290
     0
176
     1
290
     0
176
     1
290
     0
176
     1
 90
       50
176
     1
 40
0.0
176
     1
 40
1.0
176
     1
 90
        0
176
     1
 62
    18
420
        0
176
     1
 90
       50
176
     1
 90
        3
176
     1
 62
     5
420
      255
176
     1
290
     0
176
     1
 90
       50
176
     1
 90
       50
176
     1
 90
       50
176
     1
290
     0
176
     1
 90
       50
176
     1
 62
   256
176
     0
 40
1.0
176
     0
 90
        2
176
     1
  1
strokes_ogs.tif
176
     1
290
     0
176
     1
 40
1.0
176
     1
 40
1.0
176
     1
  0
VISUALSTYLE
  5
AA
102
{ACAD_REACTORS
330
82
102
}
330
82
100
AcDbVisualStyle
  2
Shaded with edges
 70
    26
177
     3
291
     0
 70
    58
 90
        2
176
     1
 90
        2
176
     1
 90
        1
176
     1
 90
        2
176
     1
 40
0.6
176
     1
 40
30.0
176
     1
 62
     7
420
 16777215
176
     1
 90
        1
176
     1
 90
        2
176
     1
 62
     7
176
     1
 62
   257
176
     1
 90
        2
176
     1
 90
        1
176
     1
 40
1.0
176
     1
 90
        8
176
     1
 62
   257
176
     1
 40
1.0
176
     1
 90
        1
176
     1
 90
        6
176
     1
 90
        2
176
     1
 62
     7
176
     1
 90
        3
176
     1
 90
        0
176
     1
 90
        0
176
     1
290
     0
176
     1
 90
        5
176
     1
 40
0.0
176
     1
 90
        0
176
     1
290
     0
176
     1
290
     1
176
     1
290
     1
176
     1
290
     0
176
     1
290
     0
176
     1
290
     0
176
     1
290
     0
176
     1
290
     0
176
     1
290
     0
176
     1
 90
       50
176
     1
 40
0.0
176
     1
 40
1.0
176
     1
 90
        0
176
     1
 62
    18
420
        0
176
     1
 90
       50
176
     1
 90
        3
176
     1
 62
     5
420
      255
176
     1
290
     0
176
     1
 90
       50
176
     1
 90
       50
176
     1
 90
       50
176
     1
290
     0
176
     1
 90
       50
176
     1
 62
   256
176
     0
 40
1.0
176
     0
 90
        2
176
     1
  1
strokes_ogs.tif
176
     1
290
     0
176
     1
 40
1.0
176
     1
 40
1.0
176
     1
  0
VISUALSTYLE
  5
A7
102
{ACAD_REACTORS
330
82
102
}
330
82
100
AcDbVisualStyle
  2
Shades of Gray
 70
    23
177
     3
291
     0
 70
    58
 90
        2
176
     1
 90
        2
176
     1
 90
        3
176
     1
 90
        0
176
     1
 40
0.6
176
     1
 40
30.0
176
     1
 62
     7
420
 16777215
176
     1
 90
        2
176
     1
 90
        2
176
     1
 62
     7
176
     1
 62
     7
176
     1
 90
        1
176
     1
 90
        1
176
     1
 40
40.0
176
     1
 90
        8
176
     1
 62
     7
176
     1
 40
1.0
176
     1
 90
        1
176
     1
 90
        6
176
     1
 90
        2
176
     1
 62
     7
176
     1
 90
        3
176
     1
 90
        0
176
     1
 90
        0
176
     1
290
     0
176
     1
 90
        1
176
     1
 40
0.0
176
     1
 90
        0
176
     1
290
     0
176
     1
290
     1
176
     1
290
     1
176
     1
290
     0
176
     1
290
     0
176
     1
290
     0
176
     1
290
     0
176
     1
290
     0
176
     1
290
     0
176
     1
 90
       50
176
     1
 40
0.0
176
     1
 40
1.0
176
     1
 90
        0
176
     1
 62
    18
420
        0
176
     1
 90
       50
176
     1
 90
        3
176
     1
 62
     5
420
      255
176
     1
290
     0
176
     1
 90
       50
176
     1
 90
       50
176
     1
 90
       50
176
     1
290
     0
176
     1
 90
       50
176
     1
 62
   256
176
     0
 40
1.0
176
     0
 90
        2
176
     1
  1
strokes_ogs.tif
176
     1
290
     0
176
     1
 40
1.0
176
     1
 40
1.0
176
     1
  0
VISUALSTYLE
  5
A8
102
{ACAD_REACTORS
330
82
102
}
330
82
100
AcDbVisualStyle
  2
Sketchy
 70
    24
177
     3
291
     0
 70
    58
 90
        1
176
     1
 90
        2
176
     1
 90
        2
176
     1
 90
        0
176
     1
 40
0.6
176
     1
 40
30.0
176
     1
 62
     7
420
 16777215
176
     1
 90
        2
176
     1
 90
        2
176
     1
 62
     7
176
     1
 62
     7
176
     1
 90
        1
176
     1
 90
        1
176
     1
 40
40.0
176
     1
 90
       11
176
     1
 62
     7
176
     1
 40
1.0
176
     1
 90
        1
176
     1
 90
        6
176
     1
 90
        2
176
     1
 62
     7
176
     1
 90
        6
176
     1
 90
        0
176
     1
 90
        0
176
     1
290
     0
176
     1
 90
        1
176
     1
 40
0.0
176
     1
 90
        0
176
     1
290
     0
176
     1
290
     1
176
     1
290
     1
176
     1
290
     0
176
     1
290
     0
176
     1
290
     0
176
     1
290
     0
176
     1
290
     0
176
     1
290
     0
176
     1
 90
       50
176
     1
 40
0.0
176
     1
 40
1.0
176
     1
 90
        0
176
     1
 62
    18
420
        0
176
     1
 90
       50
176
     1
 90
        3
176
     1
 62
     5
420
      255
176
     1
290
     0
176
     1
 90
       50
176
     1
 90
       50
176
     1
 90
       50
176
     1
290
     0
176
     1
 90
       50
176
     1
 62
   256
176
     0
 40
1.0
176
     0
 90
        2
176
     1
  1
strokes_ogs.tif
176
     1
290
     0
176
     1
 40
1.0
176
     1
 40
1.0
176
     1
  0
VISUALSTYLE
  5
8F
102
{ACAD_REACTORS
330
82
102
}
330
82
100
AcDbVisualStyle
  2
Thicken
 70
    13
177
     3
291
     1
 70
    58
 90
        2
176
     1
 90
        2
176
     1
 90
        1
176
     1
 90
        0
176
     1
 40
0.6
176
     1
 40
30.0
176
     1
 62
     7
420
 16777215
176
     1
 90
        1
176
     1
 90
        4
176
     1
 62
     7
176
     1
 62
   257
176
     1
 90
        1
176
     1
 90
        1
176
     1
 40
1.0
176
     1
 90
       12
176
     1
 62
     7
176
     1
 40
1.0
176
     1
 90
        1
176
     1
 90
        6
176
     1
 90
        2
176
     1
 62
     7
176
     1
 90
        5
176
     1
 90
        0
176
     1
 90
        0
176
     1
290
     0
176
     1
 90
        1
176
     1
 40
0.0
176
     1
 90
        0
176
     1
290
     0
176
     1
290
     1
176
     1
290
     1
176
     1
290
     0
176
     1
290
     0
176
     1
290
     0
176
     1
290
     0
176
     1
290
     0
176
     1
290
     0
176
     1
 90
       50
176
     1
 40
0.0
176
     1
 40
1.0
176
     1
 90
        0
176
     1
 62
    18
420
        0
176
     1
 90
       50
176
     1
 90
        3
176
     1
 62
     5
420
      255
176
     1
290
     0
176
     1
 90
       50
176
     1
 90
       50
176
     1
 90
       50
176
     1
290
     0
176
     1
 90
       50
176
     1
 62
   256
176
     0
 40
1.0
176
     0
 90
        2
176
     1
  1
strokes_ogs.tif
176
     1
290
     0
176
     1
 40
1.0
176
     1
 40
1.0
176
     1
  0
VISUALSTYLE
  5
A5
102
{ACAD_REACTORS
330
82
102
}
330
82
100
AcDbVisualStyle
  2
Wireframe
 70
     5
177
     3
291
     0
 70
    58
 90
        0
176
     1
 90
        2
176
     1
 90
        0
176
     1
 90
        0
176
     1
 40
0.6
176
     1
 40
30.0
176
     1
 62
     7
420
 16777215
176
     1
 90
        1
176
     1
 90
        4
176
     1
 62
     7
176
     1
 62
   257
176
     1
 90
        1
176
     1
 90
        1
176
     1
 40
1.0
176
     1
 90
        0
176
     1
 62
   257
176
     1
 40
1.0
176
     1
 90
        1
176
     1
 90
        6
176
     1
 90
        2
176
     1
 62
     7
176
     1
 90
        3
176
     1
 90
        0
176
     1
 90
        0
176
     1
290
     0
176
     1
 90
        1
176
     1
 40
0.0
176
     1
 90
        0
176
     1
290
     0
176
     1
290
     1
176
     1
290
     1
176
     1
290
     0
176
     1
290
     0
176
     1
290
     0
176
     1
290
     0
176
     1
290
     0
176
     1
290
     0
176
     1
 90
       50
176
     1
 40
0.0
176
     1
 40
1.0
176
     1
 90
        0
176
     1
 62
    18
420
        0
176
     1
 90
       50
176
     1
 90
        3
176
     1
 62
     5
420
      255
176
     1
290
     0
176
     1
 90
       50
176
     1
 90
       50
176
     1
 90
       50
176
     1
290
     0
176
     1
 90
       50
176
     1
 62
   256
176
     0
 40
1.0
176
     0
 90
        2
176
     1
  1
strokes_ogs.tif
176
     1
290
     0
176
     1
 40
1.0
176
     1
 40
1.0
176
     1
  0
VISUALSTYLE
  5
A9
102
{ACAD_REACTORS
330
82
102
}
330
82
100
AcDbVisualStyle
  2
X-Ray
 70
    25
177
     3
291
     0
 70
    58
 90
        2
176
     1
 90
        2
176
     1
 90
        1
176
     1
 90
        1
176
     1
 40
0.5
176
     1
 40
30.0
176
     1
 62
     7
420
 16777215
176
     1
 90
        1
176
     1
 90
        0
176
     1
 62
     7
176
     1
 62
   257
176
     1
 90
        1
176
     1
 90
        1
176
     1
 40
1.0
176
     1
 90
        8
176
     1
 62
     7
176
     1
 40
1.0
176
     1
 90
        1
176
     1
 90
        6
176
     1
 90
        2
176
     1
 62
     7
176
     1
 90
        3
176
     1
 90
        0
176
     1
 90
        0
176
     1
290
     0
176
     1
 90
       13
176
     1
 40
0.0
176
     1
 90
        0
176
     1
290
     0
176
     1
290
     1
176
     1
290
     1
176
     1
290
     0
176
     1
290
     0
176
     1
290
     0
176
     1
290
     0
176
     1
290
     0
176
     1
290
     0
176
     1
 90
       50
176
     1
 40
0.0
176
     1
 40
1.0
176
     1
 90
        0
176
     1
 62
    18
420
        0
176
     1
 90
       50
176
     1
 90
        3
176
     1
 62
     5
420
      255
176
     1
290
     0
176
     1
 90
       50
176
     1
 90
       50
176
     1
 90
       50
176
     1
290
     0
176
     1
 90
       50
176
     1
 62
   256
176
     0
 40
1.0
176
     0
 90
        2
176
     1
  1
strokes_ogs.tif
176
     1
290
     0
176
     1
 40
1.0
176
     1
 40
1.0
176
     1
  0
DICTIONARYVAR
  5
328
102
{ACAD_REACTORS
330
9B
102
}
330
9B
100
DictionaryVariables
280
     0
  1
1:1
  0
DICTIONARYVAR
  5
324
102
{ACAD_REACTORS
330
9B
102
}
330
9B
100
DictionaryVariables
280
     0
  1
STANDARD
  0
DICTIONARYVAR
  5
9C
102
{ACAD_REACTORS
330
9B
102
}
330
9B
100
DictionaryVariables
280
     0
  1
STANDARD
  0
DICTIONARYVAR
  5
325
102
{ACAD_REACTORS
330
9B
102
}
330
9B
100
DictionaryVariables
280
     0
  1
Imperial24
  0
DICTIONARYVAR
  5
326
102
{ACAD_REACTORS
330
9B
102
}
330
9B
100
DictionaryVariables
280
     0
  1
Imperial24
  0
DICTIONARYVAR
  5
32A
102
{ACAD_REACTORS
330
9B
102
}
330
9B
100
DictionaryVariables
280
     0
  1
1
  0
DICTIONARYVAR
  5
32B
102
{ACAD_REACTORS
330
9B
102
}
330
9B
100
DictionaryVariables
280
     0
  1
15
  0
DICTIONARYVAR
  5
329
102
{ACAD_REACTORS
330
9B
102
}
330
9B
100
DictionaryVariables
280
     0
  1
0
  0
DICTIONARYVAR
  5
327
102
{ACAD_REACTORS
330
9B
102
}
330
9B
100
DictionaryVariables
280
     0
  1
0
  0
DICTIONARY
  5
330
330
C6
100
AcDbDictionary
280
     1
281
     1
  3
ACAD_XREC_ROUNDTRIP
360
331
  0
DICTIONARY
  5
32E
330
C4
100
AcDbDictionary
280
     1
281
     1
  3
ACAD_XREC_ROUNDTRIP
360
32F
  0
DICTIONARY
  5
32C
330
94
100
AcDbDictionary
280
     1
281
     1
  3
ACAD_ROUNDTRIP_2008_TABLESTYLE_CELLSTYLEMAP
360
32D
  0
XRECORD
  5
331
102
{ACAD_REACTORS
330
330
102
}
330
330
100
AcDbXrecord
280
     1
102
DISPLAYNAME
  1
Imperial24
102
FLAGS
 90
        0
  0
XRECORD
  5
32F
102
{ACAD_REACTORS
330
32E
102
}
330
32E
100
AcDbXrecord
280
     1
102
DISPLAYNAME
  1
Imperial24
102
FLAGS
 90
        0
  0
CELLSTYLEMAP
  5
32D
102
{ACAD_REACTORS
330
32C
102
}
330
32C
100
AcDbCellStyleMap
 90
        3
300
CELLSTYLE
  1
TABLEFORMAT_BEGIN
 90
        5
170
     1
 91
        0
 92
    32768
 62
   257
 93
        1
300
CONTENTFORMAT
  1
CONTENTFORMAT_BEGIN
 90
        0
 91
        0
 92
      512
 93
        0
300

 40
0.0
140
1.0
 94
        5
 62
     0
340
12
144
0.25
309
CONTENTFORMAT_END
171
     0
 94
        6
 95
        1
302
GRIDFORMAT
  1
GRIDFORMAT_BEGIN
 90
        0
 91
        1
 62
     0
 92
       -2
340
0
 93
        0
 40
0.045
309
GRIDFORMAT_END
 95
        2
302
GRIDFORMAT
  1
GRIDFORMAT_BEGIN
 90
        0
 91
        1
 62
     0
 92
       -2
340
0
 93
        0
 40
0.045
309
GRIDFORMAT_END
 95
        4
302
GRIDFORMAT
  1
GRIDFORMAT_BEGIN
 90
        0
 91
        1
 62
     0
 92
       -2
340
0
 93
        0
 40
0.045
309
GRIDFORMAT_END
 95
        8
302
GRIDFORMAT
  1
GRIDFORMAT_BEGIN
 90
        0
 91
        1
 62
     0
 92
       -2
340
0
 93
        0
 40
0.045
309
GRIDFORMAT_END
 95
       16
302
GRIDFORMAT
  1
GRIDFORMAT_BEGIN
 90
        0
 91
        1
 62
     0
 92
       -2
340
0
 93
        0
 40
0.045
309
GRIDFORMAT_END
 95
       32
302
GRIDFORMAT
  1
GRIDFORMAT_BEGIN
 90
        0
 91
        1
 62
     0
 92
       -2
340
0
 93
        0
 40
0.045
309
GRIDFORMAT_END
309
TABLEFORMAT_END
  1
CELLSTYLE_BEGIN
 90
        1
 91
        1
300
_TITLE
309
CELLSTYLE_END
300
CELLSTYLE
  1
TABLEFORMAT_BEGIN
 90
        5
170
     1
 91
        0
 92
        0
 62
   257
 93
        1
300
CONTENTFORMAT
  1
CONTENTFORMAT_BEGIN
 90
        0
 91
        0
 92
      512
 93
        0
300

 40
0.0
140
1.0
 94
        5
 62
     0
340
12
144
0.18
309
CONTENTFORMAT_END
171
     0
 94
        6
 95
        1
302
GRIDFORMAT
  1
GRIDFORMAT_BEGIN
 90
        0
 91
        1
 62
     0
 92
       -2
340
0
 93
        0
 40
0.045
309
GRIDFORMAT_END
 95
        2
302
GRIDFORMAT
  1
GRIDFORMAT_BEGIN
 90
        0
 91
        1
 62
     0
 92
       -2
340
0
 93
        0
 40
0.045
309
GRIDFORMAT_END
 95
        4
302
GRIDFORMAT
  1
GRIDFORMAT_BEGIN
 90
        0
 91
        1
 62
     0
 92
       -2
340
0
 93
        0
 40
0.045
309
GRIDFORMAT_END
 95
        8
302
GRIDFORMAT
  1
GRIDFORMAT_BEGIN
 90
        0
 91
        1
 62
     0
 92
       -2
340
0
 93
        0
 40
0.045
309
GRIDFORMAT_END
 95
       16
302
GRIDFORMAT
  1
GRIDFORMAT_BEGIN
 90
        0
 91
        1
 62
     0
 92
       -2
340
0
 93
        0
 40
0.045
309
GRIDFORMAT_END
 95
       32
302
GRIDFORMAT
  1
GRIDFORMAT_BEGIN
 90
        0
 91
        1
 62
     0
 92
       -2
340
0
 93
        0
 40
0.045
309
GRIDFORMAT_END
309
TABLEFORMAT_END
  1
CELLSTYLE_BEGIN
 90
        2
 91
        1
300
_HEADER
309
CELLSTYLE_END
300
CELLSTYLE
  1
TABLEFORMAT_BEGIN
 90
        5
170
     1
 91
        0
 92
        0
 62
   257
 93
        1
300
CONTENTFORMAT
  1
CONTENTFORMAT_BEGIN
 90
        0
 91
        0
 92
      512
 93
        0
300

 40
0.0
140
1.0
 94
        2
 62
     0
340
12
144
0.18
309
CONTENTFORMAT_END
171
     0
 94
        6
 95
        1
302
GRIDFORMAT
  1
GRIDFORMAT_BEGIN
 90
        0
 91
        1
 62
     0
 92
       -2
340
0
 93
        0
 40
0.045
309
GRIDFORMAT_END
 95
        2
302
GRIDFORMAT
  1
GRIDFORMAT_BEGIN
 90
        0
 91
        1
 62
     0
 92
       -2
340
0
 93
        0
 40
0.045
309
GRIDFORMAT_END
 95
        4
302
GRIDFORMAT
  1
GRIDFORMAT_BEGIN
 90
        0
 91
        1
 62
     0
 92
       -2
340
0
 93
        0
 40
0.045
309
GRIDFORMAT_END
 95
        8
302
GRIDFORMAT
  1
GRIDFORMAT_BEGIN
 90
        0
 91
        1
 62
     0
 92
       -2
340
0
 93
        0
 40
0.045
309
GRIDFORMAT_END
 95
       16
302
GRIDFORMAT
  1
GRIDFORMAT_BEGIN
 90
        0
 91
        1
 62
     0
 92
       -2
340
0
 93
        0
 40
0.045
309
GRIDFORMAT_END
 95
       32
302
GRIDFORMAT
  1
GRIDFORMAT_BEGIN
 90
        0
 91
        1
 62
     0
 92
       -2
340
0
 93
        0
 40
0.045
309
GRIDFORMAT_END
309
TABLEFORMAT_END
  1
CELLSTYLE_BEGIN
 90
        3
 91
        2
300
_DATA
309
CELLSTYLE_END
  0
ENDSEC
  0
EOF
