  0
SECTION
  2
HEADER
  9
$ACADVER
  1
AC1015
  9
$ACADMAINTVER
 70
     6
  9
$DWGCODEPAGE
  3
ANSI_1252
  9
$INSBASE
 10
0.0
 20
0.0
 30
0.0
  9
$EXTMIN
 10
0.0
 20
0.0
 30
0.0
  9
$EXTMAX
 10
297.0
 20
210.0
 30
0.0
  9
$LIMMIN
 10
0.0
 20
0.0
  9
$LIMMAX
 10
297.0
 20
210.0
  9
$ORTHOMODE
 70
     0
  9
$REGENMODE
 70
     1
  9
$FILLMODE
 70
     1
  9
$QTEXTMODE
 70
     0
  9
$MIRRTEXT
 70
     1
  9
$LTSCALE
 40
1.0
  9
$ATTMODE
 70
     1
  9
$TEXTSIZE
 40
3.5
  9
$TRACEWID
 40
1.0
  9
$TEXTSTYLE
  7
Standard
  9
$CLAYER
  8
0
  9
$CELTYPE
  6
ByLayer
  9
$CECOLOR
 62
   256
  9
$CELTSCALE
 40
1.0
  9
$DISPSILH
 70
     0
  9
$DIMSCALE
 40
1.0
  9
$DIMASZ
 40
1.5
  9
$DIMEXO
 40
1.0
  9
$DIMDLI
 40
3.75
  9
$DIMRND
 40
0.0
  9
$DIMDLE
 40
0.0
  9
$DIMEXE
 40
1.0
  9
$DIMTP
 40
0.0
  9
$DIMTM
 40
0.0
  9
$DIMTXT
 40
2.0
  9
$DIMCEN
 40
2.5
  9
$DIMTSZ
 40
0.0
  9
$DIMTOL
 70
     0
  9
$DIMLIM
 70
     0
  9
$DIMTIH
 70
     1
  9
$DIMTOH
 70
     1
  9
$DIMSE1
 70
     0
  9
$DIMSE2
 70
     0
  9
$DIMTAD
 70
     1
  9
$DIMZIN
 70
     1
  9
$DIMBLK
  1

  9
$DIMASO
 70
     1
  9
$DIMSHO
 70
     1
  9
$DIMPOST
  1

  9
$DIMAPOST
  1

  9
$DIMALT
 70
     0
  9
$DIMALTD
 70
     3
  9
$DIMALTF
 40
0.0393700787
  9
$DIMLFAC
 40
2.0
  9
$DIMTOFL
 70
     1
  9
$DIMTVP
 40
0.0
  9
$DIMTIX
 70
     0
  9
$DIMSOXD
 70
     0
  9
$DIMSAH
 70
     0
  9
$DIMBLK1
  1

  9
$DIMBLK2
  1

  9
$DIMSTYLE
  2
ISO-25
  9
$DIMCLRD
 70
     0
  9
$DIMCLRE
 70
     0
  9
$DIMCLRT
 70
     0
  9
$DIMTFAC
 40
1.0
  9
$DIMGAP
 40
1.524
  9
$DIMJUST
 70
     0
  9
$DIMSD1
 70
     0
  9
$DIMSD2
 70
     0
  9
$DIMTOLJ
 70
     0
  9
$DIMTZIN
 70
     1
  9
$DIMALTZ
 70
     0
  9
$DIMALTTZ
 70
     0
  9
$DIMUPT
 70
     0
  9
$DIMDEC
 70
     1
  9
$DIMTDEC
 70
     1
  9
$DIMALTU
 70
     2
  9
$DIMALTTD
 70
     3
  9
$DIMTXSTY
  7
Standard
  9
$DIMAUNIT
 70
     0
  9
$DIMADEC
 70
     2
  9
$DIMALTRND
 40
0.0
  9
$DIMAZIN
 70
     0
  9
$DIMDSEP
 70
    44
  9
$DIMATFIT
 70
     3
  9
$DIMFRAC
 70
     0
  9
$DIMLDRBLK
  1

  9
$DIMLUNIT
 70
     2
  9
$DIMLWD
 70
    -2
  9
$DIMLWE
 70
    -2
  9
$DIMTMOVE
 70
     0
  9
$LUNITS
 70
     2
  9
$LUPREC
 70
     2
  9
$SKETCHINC
 40
1.0
  9
$FILLETRAD
 40
10.0
  9
$AUNITS
 70
     0
  9
$AUPREC
 70
     2
  9
$MENU
  1
.
  9
$ELEVATION
 40
0.0
  9
$PELEVATION
 40
0.0
  9
$THICKNESS
 40
0.0
  9
$LIMCHECK
 70
     0
  9
$CHAMFERA
 40
0.0
  9
$CHAMFERB
 40
0.0
  9
$CHAMFERC
 40
0.0
  9
$CHAMFERD
 40
0.0
  9
$SKPOLY
 70
     0
  9
$TDCREATE
 40
2457472.601591459
  9
$TDUCREATE
 40
2457472.143258125
  9
$TDUPDATE
 40
2457472.60159154
  9
$TDUUPDATE
 40
2457472.143258206
  9
$TDINDWG
 40
0.0000000116
  9
$TDUSRTIMER
 40
0.0000000116
  9
$USRTIMER
 70
     1
  9
$ANGBASE
 50
0.0
  9
$ANGDIR
 70
     0
  9
$PDMODE
 70
     0
  9
$PDSIZE
 40
-1.0
  9
$PLINEWID
 40
0.0
  9
$SPLFRAME
 70
     0
  9
$SPLINETYPE
 70
     6
  9
$SPLINESEGS
 70
     8
  9
$HANDSEED
  5
88
  9
$SURFTAB1
 70
     6
  9
$SURFTAB2
 70
     6
  9
$SURFTYPE
 70
     6
  9
$SURFU
 70
     6
  9
$SURFV
 70
     6
  9
$UCSBASE
  2

  9
$UCSNAME
  2

  9
$UCSORG
 10
0.0
 20
0.0
 30
0.0
  9
$UCSXDIR
 10
1.0
 20
0.0
 30
0.0
  9
$UCSYDIR
 10
0.0
 20
1.0
 30
0.0
  9
$UCSORTHOREF
  2

  9
$UCSORTHOVIEW
 70
     0
  9
$UCSORGTOP
 10
0.0
 20
0.0
 30
0.0
  9
$UCSORGBOTTOM
 10
0.0
 20
0.0
 30
0.0
  9
$UCSORGLEFT
 10
0.0
 20
0.0
 30
0.0
  9
$UCSORGRIGHT
 10
0.0
 20
0.0
 30
0.0
  9
$UCSORGFRONT
 10
0.0
 20
0.0
 30
0.0
  9
$UCSORGBACK
 10
0.0
 20
0.0
 30
0.0
  9
$PUCSBASE
  2

  9
$PUCSNAME
  2

  9
$PUCSORG
 10
0.0
 20
0.0
 30
0.0
  9
$PUCSXDIR
 10
1.0
 20
0.0
 30
0.0
  9
$PUCSYDIR
 10
0.0
 20
1.0
 30
0.0
  9
$PUCSORTHOREF
  2

  9
$PUCSORTHOVIEW
 70
     0
  9
$PUCSORGTOP
 10
0.0
 20
0.0
 30
0.0
  9
$PUCSORGBOTTOM
 10
0.0
 20
0.0
 30
0.0
  9
$PUCSORGLEFT
 10
0.0
 20
0.0
 30
0.0
  9
$PUCSORGRIGHT
 10
0.0
 20
0.0
 30
0.0
  9
$PUCSORGFRONT
 10
0.0
 20
0.0
 30
0.0
  9
$PUCSORGBACK
 10
0.0
 20
0.0
 30
0.0
  9
$USERI1
 70
     0
  9
$USERI2
 70
     0
  9
$USERI3
 70
     0
  9
$USERI4
 70
     0
  9
$USERI5
 70
     0
  9
$USERR1
 40
0.0
  9
$USERR2
 40
0.0
  9
$USERR3
 40
0.0
  9
$USERR4
 40
0.0
  9
$USERR5
 40
0.0
  9
$WORLDVIEW
 70
     1
  9
$SHADEDGE
 70
     3
  9
$SHADEDIF
 70
    70
  9
$TILEMODE
 70
     1
  9
$MAXACTVP
 70
    64
  9
$PINSBASE
 10
0.0
 20
0.0
 30
0.0
  9
$PLIMCHECK
 70
     0
  9
$PEXTMIN
 10
1.0000000000E+20
 20
1.0000000000E+20
 30
1.0000000000E+20
  9
$PEXTMAX
 10
-1.0000000000E+20
 20
-1.0000000000E+20
 30
-1.0000000000E+20
  9
$PLIMMIN
 10
0.0
 20
0.0
  9
$PLIMMAX
 10
420.0
 20
297.0
  9
$UNITMODE
 70
     0
  9
$VISRETAIN
 70
     1
  9
$PLINEGEN
 70
     0
  9
$PSLTSCALE
 70
     1
  9
$TREEDEPTH
 70
  3020
  9
$CMLSTYLE
  2
Standard
  9
$CMLJUST
 70
     0
  9
$CMLSCALE
 40
20.0
  9
$PROXYGRAPHICS
 70
     1
  9
$MEASUREMENT
 70
     1
  9
$CELWEIGHT
370
    -1
  9
$ENDCAPS
280
     0
  9
$JOINSTYLE
280
     0
  9
$LWDISPLAY
290
     1
  9
$INSUNITS
 70
     4
  9
$HYPERLINKBASE
  1

  9
$STYLESHEET
  1

  9
$XEDIT
290
     1
  9
$CEPSNTYPE
380
     0
  9
$PSTYLEMODE
290
     1
  9
$FINGERPRINTGUID
  2
{D0698F2B-6D1D-4CFA-AB6E-170DDD49AD8B}
  9
$VERSIONGUID
  2
{FAEB1C32-E019-11D5-929B-00C0DF256EC4}
  9
$EXTNAMES
290
     1
  9
$PSVPSCALE
 40
0.0
  9
$OLESTARTUP
290
     0
  0
ENDSEC
  0
SECTION
  2
CLASSES
  0
CLASS
  1
ACDBDICTIONARYWDFLT
  2
AcDbDictionaryWithDefault
  3
ObjectDBX Classes
 90
        0
280
     0
281
     0
  0
CLASS
  1
VISUALSTYLE
  2
AcDbVisualStyle
  3
ObjectDBX Classes
 90
     4095
280
     0
281
     0
  0
CLASS
  1
MATERIAL
  2
AcDbMaterial
  3
ObjectDBX Classes
 90
     1153
280
     0
281
     0
  0
CLASS
  1
SCALE
  2
AcDbScale
  3
ObjectDBX Classes
 90
     1153
280
     0
281
     0
  0
CLASS
  1
TABLESTYLE
  2
AcDbTableStyle
  3
ObjectDBX Classes
 90
     4095
280
     0
281
     0
  0
CLASS
  1
MLEADERSTYLE
  2
AcDbMLeaderStyle
  3
ACDB_MLEADERSTYLE_CLASS
 90
     4095
280
     0
281
     0
  0
CLASS
  1
SUN
  2
AcDbSun
  3
SCENEOE
 90
     1153
280
     0
281
     0
  0
CLASS
  1
ACDBPLACEHOLDER
  2
AcDbPlaceHolder
  3
ObjectDBX Classes
 90
        0
280
     0
281
     0
  0
CLASS
  1
LAYOUT
  2
AcDbLayout
  3
ObjectDBX Classes
 90
        0
280
     0
281
     0
  0
ENDSEC
  0
SECTION
  2
TABLES
  0
TABLE
  2
VPORT
  5
8
330
0
100
AcDbSymbolTable
 70
     1
  0
VPORT
  5
29
330
8
100
AcDbSymbolTableRecord
100
AcDbViewportTableRecord
  2
*Active
 70
     0
 10
0.0
 20
0.0
 11
1.0
 21
1.0
 12
148.5
 22
105.0
 13
0.0
 23
0.0
 14
10.0
 24
10.0
 15
10.0
 25
10.0
 16
0.0
 26
0.0
 36
1.0
 17
0.0
 27
0.0
 37
0.0
 40
210.0
 41
1.4142857143
 42
50.0
 43
0.0
 44
0.0
 50
0.0
 51
0.0
 71
     0
 72
  2000
 73
     1
 74
     3
 75
     0
 76
     0
 77
     0
 78
     0
281
     0
 65
     1
110
0.0
120
0.0
130
0.0
111
1.0
121
0.0
131
0.0
112
0.0
122
1.0
132
0.0
 79
     0
146
0.0
  0
ENDTAB
  0
TABLE
  2
LTYPE
  5
5
330
0
100
AcDbSymbolTable
 70
     6
  0
LTYPE
  5
14
330
5
100
AcDbSymbolTableRecord
100
AcDbLinetypeTableRecord
  2
ByBlock
 70
     0
  3

 72
    65
 73
     0
 40
0.0
  0
LTYPE
  5
15
330
5
100
AcDbSymbolTableRecord
100
AcDbLinetypeTableRecord
  2
ByLayer
 70
     0
  3

 72
    65
 73
     0
 40
0.0
  0
LTYPE
  5
16
330
5
100
AcDbSymbolTableRecord
100
AcDbLinetypeTableRecord
  2
Continuous
 70
     0
  3
Solid line
 72
    65
 73
     0
 40
0.0
  0
LTYPE
  5
6E
330
5
100
AcDbSymbolTableRecord
100
AcDbLinetypeTableRecord
  2
HIDDEN
 70
     0
  3
Hidden __ __ __ __ __ __ __ __ __ __ __ __ __ __
 72
    65
 73
     2
 40
1.905
 49
1.27
 74
     0
 49
-0.635
 74
     0
  0
LTYPE
  5
6F
330
5
100
AcDbSymbolTableRecord
100
AcDbLinetypeTableRecord
  2
PHANTOM
 70
     0
  3
Phantom ______  __  __  ______  __  __  ______
 72
    65
 73
     6
 40
12.7
 49
6.35
 74
     0
 49
-1.27
 74
     0
 49
1.27
 74
     0
 49
-1.27
 74
     0
 49
1.27
 74
     0
 49
-1.27
 74
     0
  0
LTYPE
  5
70
330
5
100
AcDbSymbolTableRecord
100
AcDbLinetypeTableRecord
  2
CENTER
 70
     0
  3
Center ____ _ ____ _ ____ _ ____ _ ____ _ ____
 72
    65
 73
     4
 40
10.16
 49
6.35
 74
     0
 49
-1.27
 74
     0
 49
1.27
 74
     0
 49
-1.27
 74
     0
  0
LTYPE
  5
71
330
5
100
AcDbSymbolTableRecord
100
AcDbLinetypeTableRecord
  2
CENTERX2
 70
     0
  3
Center (2x) ________  __  ________  __  _____
 72
    65
 73
     4
 40
20.32
 49
12.7
 74
     0
 49
-2.54
 74
     0
 49
2.54
 74
     0
 49
-2.54
 74
     0
  0
LTYPE
  5
72
330
5
100
AcDbSymbolTableRecord
100
AcDbLinetypeTableRecord
  2
DOT2
 70
     0
  3
Dot (.5x) ........................................
 72
    65
 73
     2
 40
0.635
 49
0.0
 74
     0
 49
-0.635
 74
     0
  0
ENDTAB
  0
TABLE
  2
LAYER
  5
2
330
0
100
AcDbSymbolTable
 70
     4
  0
LAYER
  5
10
330
2
100
AcDbSymbolTableRecord
100
AcDbLayerTableRecord
  2
0
 70
     0
 62
     7
  6
Continuous
370
    -3
390
F
  0
LAYER
  5
73
330
2
100
AcDbSymbolTableRecord
100
AcDbLayerTableRecord
  2
FORMAT
 70
     0
 62
     7
  6
Continuous
370
    -3
390
F
  0
LAYER
  5
74
330
2
100
AcDbSymbolTableRecord
100
AcDbLayerTableRecord
  2
BORDER
 70
     0
 62
     7
  6
Continuous
370
    40
390
F
  0
LAYER
  5
75
330
2
100
AcDbSymbolTableRecord
100
AcDbLayerTableRecord
  2
REVISION_TABLE
 70
     0
 62
    -7
  6
Continuous
290
     0
370
    -3
390
F
  0
ENDTAB
  0
TABLE
  2
STYLE
  5
3
330
0
100
AcDbSymbolTable
 70
     1
  0
STYLE
  5
11
330
3
100
AcDbSymbolTableRecord
100
AcDbTextStyleTableRecord
  2
Standard
 70
     0
 40
0.0
 41
1.0
 50
0.0
 71
     0
 42
3.5
  3
txt
  4

  0
ENDTAB
  0
TABLE
  2
VIEW
  5
6
330
0
100
AcDbSymbolTable
 70
     0
  0
ENDTAB
  0
TABLE
  2
UCS
  5
7
330
0
100
AcDbSymbolTable
 70
     0
  0
ENDTAB
  0
TABLE
  2
APPID
  5
9
330
0
100
AcDbSymbolTable
 70
     1
  0
APPID
  5
12
330
9
100
AcDbSymbolTableRecord
100
AcDbRegAppTableRecord
  2
ACAD
 70
     0
  0
ENDTAB
  0
TABLE
  2
DIMSTYLE
  5
A
330
0
100
AcDbSymbolTable
 70
     1
100
AcDbDimStyleTable
  0
DIMSTYLE
105
27
330
A
100
AcDbSymbolTableRecord
100
AcDbDimStyleTableRecord
  2
ISO-25
 70
     0
 41
2.5
 42
0.625
 43
3.75
 44
1.25
 73
     0
 74
     0
 77
     1
 78
     8
140
2.5
141
2.5
143
0.0393700787
147
0.625
171
     3
172
     1
178
     0
271
     2
272
     2
274
     3
278
    44
283
     0
284
     8
340
11
  0
ENDTAB
  0
TABLE
  2
BLOCK_RECORD
  5
1
330
0
100
AcDbSymbolTable
 70
     1
  0
BLOCK_RECORD
  5
1F
330
1
100
AcDbSymbolTableRecord
100
AcDbBlockTableRecord
  2
*Model_Space
340
22
  0
BLOCK_RECORD
  5
1B
330
1
100
AcDbSymbolTableRecord
100
AcDbBlockTableRecord
  2
*Paper_Space
340
1E
  0
BLOCK_RECORD
  5
23
330
1
100
AcDbSymbolTableRecord
100
AcDbBlockTableRecord
  2
*Paper_Space0
340
26
  0
ENDTAB
  0
ENDSEC
  0
SECTION
  2
BLOCKS
  0
BLOCK
  5
20
330
1F
100
AcDbEntity
  8
0
100
AcDbBlockBegin
  2
*Model_Space
 70
     0
 10
0.0
 20
0.0
 30
0.0
  3
*Model_Space
  1

  0
ENDBLK
  5
21
330
1F
100
AcDbEntity
  8
0
100
AcDbBlockEnd
  0
BLOCK
  5
1C
330
1B
100
AcDbEntity
 67
     1
  8
0
100
AcDbBlockBegin
  2
*Paper_Space
 70
     0
 10
0.0
 20
0.0
 30
0.0
  3
*Paper_Space
  1

  0
ENDBLK
  5
1D
330
1B
100
AcDbEntity
 67
     1
  8
0
100
AcDbBlockEnd
  0
BLOCK
  5
24
330
23
100
AcDbEntity
  8
0
100
AcDbBlockBegin
  2
*Paper_Space0
 70
     0
 10
0.0
 20
0.0
 30
0.0
  3
*Paper_Space0
  1

  0
ENDBLK
  5
25
330
23
100
AcDbEntity
  8
0
100
AcDbBlockEnd
  0
ENDSEC
  0
SECTION
  2
ENTITIES
  0
LINE
  5
76
330
1F
100
AcDbEntity
  8
0
  6
Continuous
 62
     7
370
    15
100
AcDbLine
 10
450.4467318768
 20
112.8711834404
 30
0.0
 11
448.122042515
 21
112.8344309035
 31
0.0
  0
LINE
  5
77
330
1F
100
AcDbEntity
  8
0
  6
Continuous
 62
     7
370
    15
100
AcDbLine
 10
448.295926991
 20
101.8358053444
 30
0.0
 11
450.6206163528
 21
101.8725578813
 31
0.0
  0
LINE
  5
78
330
1F
100
AcDbEntity
  8
0
  6
Continuous
 62
     7
370
    15
100
AcDbLine
 10
380.4804458998
 20
118.9707450279
 30
0.0
 11
380.8490907349
 21
103.9788275959
 31
0.0
  0
LINE
  5
79
330
1F
100
AcDbEntity
  8
0
  6
Continuous
 62
     7
370
    15
100
AcDbLine
 10
390.2243445354
 20
109.1687446181
 30
0.0
 11
389.9775751281
 21
119.204275372
 31
0.0
  0
LINE
  5
7A
330
1F
100
AcDbEntity
  8
0
  6
Continuous
 62
     7
370
    15
100
AcDbLine
 10
390.3462199631
 20
104.2123579401
 30
0.0
 11
390.3198614938
 21
105.2842948234
 31
0.0
  0
LINE
  5
7B
330
1F
100
AcDbEntity
  8
0
  6
Continuous
 62
     7
370
    15
100
AcDbLine
 10
448.165513634
 20
110.0847745138
 30
0.0
 11
389.5493655738
 21
109.1580734335
 31
0.0
  0
LINE
  5
7C
330
1F
100
AcDbEntity
  8
0
  6
Continuous
 62
     7
370
    15
100
AcDbLine
 10
390.3215274805
 20
103.6695937406
 30
0.0
 11
448.252455872
 21
104.5854617342
 31
0.0
  0
LINE
  5
7D
330
1F
100
AcDbEntity
  8
0
  6
Continuous
 62
     7
370
    15
100
AcDbLine
 10
375.9396749008
 20
120.5734873834
 30
0.0
 11
375.9818057391
 21
118.8601253912
 31
0.0
  0
LINE
  5
7E
330
1F
100
AcDbEntity
  8
0
  6
Continuous
 62
     7
370
    15
100
AcDbLine
 10
394.4762152888
 20
119.3148950088
 30
0.0
 11
394.4340844506
 21
121.028257001
 31
0.0
  0
LWPOLYLINE
  5
7F
330
1F
100
AcDbEntity
  8
0
  6
Continuous
 62
     7
370
    15
100
AcDbPolyline
 90
       32
 70
   128
 43
0.0
 10
450.4467318768
 20
112.8711834404
 10
450.4473036732
 20
112.8696213371
 10
450.4503855965
 20
112.8258038033
 10
450.4543800462
 20
112.7222318366
 10
450.4592432583
 20
112.5600401933
 10
450.4649219505
 20
112.3410058788
 10
450.4713539057
 20
112.0675286791
 10
450.4784686542
 20
111.7426048674
 10
450.4861882453
 20
111.3697943772
 10
450.4944281015
 20
110.9531817981
 10
450.5030979452
 20
110.4973316248
 10
450.5121027879
 20
110.0072382471
 10
450.5213439705
 20
109.4882712306
 10
450.5307202448
 20
108.9461164866
 10
450.5401288823
 20
108.3867139759
 10
450.5494668
 20
107.8161926295
 10
450.5586316897
 20
107.2408031986
 10
450.567523139
 20
106.6668497703
 10
450.5760437313
 20
106.1006206983
 10
450.5841001133
 20
105.548319707
 10
450.5916040174
 20
105.0159979215
 10
450.5984732295
 20
104.5094875708
 10
450.6046324888
 20
104.0343380882
 10
450.6100143134
 20
103.5957553109
 10
450.6145597387
 20
103.1985444435
 10
450.6182189643
 20
102.8470574116
 10
450.6209518988
 20
102.5451451804
 10
450.6227285996
 20
102.2961155637
 10
450.6235296008
 20
102.102696982
 10
450.6233461266
 20
101.9670085697
 10
450.622180187
 20
101.8905369576
 10
450.6206163528
 20
101.8725578813
  0
LWPOLYLINE
  5
80
330
1F
100
AcDbEntity
  8
0
  6
Continuous
 62
     7
370
    15
100
AcDbPolyline
 90
       52
 70
   128
 43
0.0
 10
448.1456935499
 20
110.0844611651
 10
448.1441856383
 20
110.197501214
 10
448.138026379
 20
110.6726506966
 10
448.1326445544
 20
111.111233474
 10
448.128099129
 20
111.5084443413
 10
448.1244399035
 20
111.8599313733
 10
448.121706969
 20
112.1618436044
 10
448.1199302682
 20
112.4108732212
 10
448.1191292669
 20
112.6042918029
 10
448.1193127412
 20
112.7399802151
 10
448.1204786808
 20
112.8164518272
 10
448.1226143114
 20
112.8328688003
 10
448.1256962347
 20
112.7890512664
 10
448.1296906844
 20
112.6854792997
 10
448.1345538965
 20
112.5232876564
 10
448.1402325887
 20
112.3042533419
 10
448.1466645439
 20
112.0307761422
 10
448.1537792924
 20
111.7058523306
 10
448.1614988835
 20
111.3330418403
 10
448.1697387397
 20
110.9164292613
 10
448.1784085834
 20
110.4605790879
 10
448.1874134261
 20
109.9704857102
 10
448.1966546087
 20
109.4515186938
 10
448.206030883
 20
108.9093639498
 10
448.2154395205
 20
108.3499614391
 10
448.2247774382
 20
107.7794400926
 10
448.2339423279
 20
107.2040506617
 10
448.2428337772
 20
106.6300972334
 10
448.2513543695
 20
106.0638681615
 10
448.2594107515
 20
105.5115671701
 10
448.2669146556
 20
104.9792453847
 10
448.2737838677
 20
104.4727350339
 10
448.279943127
 20
103.9975855513
 10
448.2853249516
 20
103.559002774
 10
448.2898703769
 20
103.1617919067
 10
448.2935296025
 20
102.8103048747
 10
448.296262537
 20
102.5083926435
 10
448.2980392378
 20
102.2593630268
 10
448.298840239
 20
102.0659444451
 10
448.2986567648
 20
101.9302560329
 10
448.2974908252
 20
101.8537844207
 10
448.2953551946
 20
101.8373674477
 10
448.2922732713
 20
101.8811849816
 10
448.2882788216
 20
101.9847569482
 10
448.2834156095
 20
102.1469485916
 10
448.2777369173
 20
102.365982906
 10
448.2713049621
 20
102.6394601058
 10
448.2641902136
 20
102.9643839174
 10
448.2564706225
 20
103.3371944076
 10
448.2482307663
 20
103.7538069867
 10
448.2395609225
 20
104.2096571601
 10
448.2326357879
 20
104.5851483855
  0
ARC
  5
81
330
1F
100
AcDbEntity
  8
0
  6
Continuous
 62
     7
370
    15
100
AcDbCircle
 10
200.7834723839
 20
103.4234061269
 30
0.0
 40
247.4717118417122
100
AcDbArc
 50
0.2690454034
 51
1.5424566992
  0
SPLINE
  5
82
330
1F
100
AcDbEntity
  8
0
  6
Continuous
 62
     7
370
    15
100
AcDbSpline
210
0.0
220
0.0
230
1.0
 70
     8
 71
     3
 72
    20
 73
    16
 74
     0
 42
0.000000001
 43
0.00000001
 40
0.0
 40
0.0
 40
0.0
 40
0.0
 40
0.0762244700164354
 40
0.1448855124189601
 40
0.215477462796671
 40
0.2841754779795059
 40
0.3549120670003026
 40
0.4235046849232509
 40
0.4935814583995959
 40
0.5734271972332758
 40
0.6551144750011388
 40
0.7441335320386034
 40
0.8360900836754211
 40
0.9188004144840142
 40
1.0
 40
1.0
 40
1.0
 40
1.0
 10
389.5494643441461
 20
109.1517248047622
 30
0.0
 10
389.5148088770391
 20
109.1479572878648
 30
0.0
 10
389.4489366563618
 20
109.1407960886318
 30
0.0
 10
389.3928143606508
 20
109.0476397921377
 30
0.0
 10
389.3733639477814
 20
108.9106270885738
 30
0.0
 10
389.395301482045
 20
108.7201156685623
 30
0.0
 10
389.4547065110672
 20
108.4880274024085
 30
0.0
 10
389.5449904979849
 20
108.2178024909654
 30
0.0
 10
389.6611044247519
 20
107.9046703032217
 30
0.0
 10
389.7981060024945
 20
107.54303841479
 30
0.0
 10
389.9487255350391
 20
107.1238674987863
 30
0.0
 10
390.0957615113475
 20
106.6599751041062
 30
0.0
 10
390.2152334346818
 20
106.1793072506442
 30
0.0
 10
390.2968345034178
 20
105.7100193198867
 30
0.0
 10
390.3114076885902
 20
105.4252743820603
 30
0.0
 10
390.3186271212041
 20
105.2842141494171
 30
0.0
  0
LWPOLYLINE
  5
83
330
1F
100
AcDbEntity
  8
0
  6
Continuous
 62
     7
370
    15
100
AcDbPolyline
 90
       30
 70
   128
 43
0.0
 10
389.9775751281
 20
119.204275372
 10
389.9418647642
 20
119.6426223498
 10
389.8460867749
 20
120.1156678142
 10
389.6922463728
 20
120.5757836001
 10
389.4822781901
 20
121.0171834844
 10
389.2188226986
 20
121.4343166076
 10
388.9051930039
 20
121.8219372786
 10
388.5453331815
 20
122.1751709425
 10
388.1437686773
 20
122.489575481
 10
387.705549398
 20
122.7611970747
 10
387.2361862054
 20
122.9866199245
 10
386.7415816138
 20
123.1630092071
 10
386.2279555631
 20
123.2881467251
 10
385.7017671987
 20
123.3604588015
 10
385.1696336448
 20
123.37903607
 10
384.6382467894
 20
123.3436449107
 10
384.1142891306
 20
123.2547303879
 10
383.60434974
 20
123.1134106534
 10
383.1148414013
 20
122.9214628849
 10
382.6519199658
 20
122.6813009367
 10
382.2214069393
 20
122.395944985
 10
381.8287162727
 20
122.0689835461
 10
381.4787862792
 20
121.7045283501
 10
381.1760175313
 20
121.3071626324
 10
380.9242175218
 20
120.8818834975
 10
380.7265527818
 20
120.4340390773
 10
380.5855090602
 20
119.9692612751
 10
380.5028600636
 20
119.4933949416
 10
380.4796451512
 20
119.0124243719
 10
380.4804458998
 20
118.9707450279
  0
LWPOLYLINE
  5
84
330
1F
100
AcDbEntity
  8
0
  6
Continuous
 62
     7
370
    15
100
AcDbPolyline
 90
       57
 70
   128
 43
0.0
 10
390.3470207118
 20
104.170678596
 10
390.3105095992
 20
104.6507049178
 10
390.21473161
 20
105.1237503822
 10
390.0608912078
 20
105.5838661681
 10
389.8509230252
 20
106.0252660524
 10
389.5874675336
 20
106.4423991756
 10
389.273837839
 20
106.8300198466
 10
388.9139780165
 20
107.1832535105
 10
388.5124135123
 20
107.497658049
 10
388.0741942331
 20
107.7692796428
 10
387.6048310404
 20
107.9947024925
 10
387.1102264489
 20
108.1710917751
 10
386.5966003981
 20
108.2962292931
 10
386.0704120338
 20
108.3685413695
 10
385.5382784798
 20
108.387118638
 10
385.0068916244
 20
108.3517274787
 10
384.4829339656
 20
108.262812956
 10
383.972994575
 20
108.1214932215
 10
383.4834862363
 20
107.9295454529
 10
383.0205648009
 20
107.6893835048
 10
382.5900517743
 20
107.404027553
 10
382.1973611078
 20
107.0770661142
 10
381.8474311142
 20
106.7126109181
 10
381.5446623663
 20
106.3152452004
 10
381.2928623568
 20
105.8899660655
 10
381.0951976168
 20
105.4421216453
 10
380.9541538953
 20
104.9773438431
 10
380.8715048987
 20
104.5014775096
 10
380.8482899862
 20
104.02050694
 10
380.8848010988
 20
103.5404806182
 10
380.980579088
 20
103.0674351537
 10
381.1344194902
 20
102.6073193678
 10
381.3443876728
 20
102.1659194835
 10
381.6078431643
 20
101.7487863603
 10
381.921472859
 20
101.3611656893
 10
382.2813326815
 20
101.0079320255
 10
382.6828971857
 20
100.6935274869
 10
383.1211164649
 20
100.4219058932
 10
383.5904796576
 20
100.1964830434
 10
384.0850842491
 20
100.0200937608
 10
384.5987102999
 20
99.8949562428
 10
385.1248986642
 20
99.8226441664
 10
385.6570322182
 20
99.8040668979
 10
386.1884190736
 20
99.8394580572
 10
386.7123767323
 20
99.92837258
 10
387.2223161229
 20
100.0696923145
 10
387.7118244617
 20
100.2616400831
 10
388.1747458971
 20
100.5018020312
 10
388.6052589237
 20
100.787157983
 10
388.9979495902
 20
101.1141194218
 10
389.3478795838
 20
101.4785746178
 10
389.6506483317
 20
101.8759403355
 10
389.9024483412
 20
102.3012194704
 10
390.1001130812
 20
102.7490638907
 10
390.2411568027
 20
103.2138416928
 10
390.3238057993
 20
103.6897080263
 10
390.3470207118
 20
104.170678596
  0
LWPOLYLINE
  5
85
330
1F
100
AcDbEntity
  8
0
  6
Continuous
 62
     7
370
    15
100
AcDbPolyline
 90
       41
 70
   128
 43
0.0
 10
394.4340844506
 20
121.028257001
 10
394.3963486711
 20
121.6190915731
 10
394.2973265986
 20
122.2857847171
 10
394.1392197818
 20
122.9428476335
 10
393.9230536042
 20
123.5860190172
 10
393.6502299863
 20
124.211127655
 10
393.3225182939
 20
124.8141194775
 10
392.9420438632
 20
125.3910838514
 10
392.5112742169
 20
125.9382789412
 10
392.0330030613
 20
126.4521559769
 10
391.5103321685
 20
126.9293822687
 10
390.9466512598
 20
127.3668628209
 10
390.3456160222
 20
127.7617604043
 10
389.7111243998
 20
128.1115139566
 10
389.0472913143
 20
128.4138551917
 10
388.3584219779
 20
128.6668233106
 10
387.6489839726
 20
128.8687777182
 10
386.9235782763
 20
129.0184086625
 10
386.186909423
 20
129.1147457295
 10
385.4437549931
 20
129.1571641363
 10
384.6989346282
 20
129.1453887833
 10
383.9572787742
 20
129.0794960381
 10
383.2235973539
 20
128.9599132405
 10
382.5026485728
 20
128.7874159309
 10
381.7991080604
 20
128.5631228203
 10
381.1175385469
 20
128.2884885359
 10
380.4623602722
 20
127.9652941862
 10
379.8378223188
 20
127.5956358107
 10
379.2479750549
 20
127.1819107858
 10
378.6966438665
 20
126.7268022769
 10
378.1874043477
 20
126.2332618375
 10
377.7235591124
 20
125.7044902667
 10
377.3081163749
 20
125.143916851
 10
376.9437704407
 20
124.5551771241
 10
376.632884233
 20
123.9420892891
 10
376.3774739682
 20
123.3086294558
 10
376.1791960799
 20
122.6589058543
 10
376.0393364762
 20
121.9971321916
 10
375.9588022004
 20
121.3276003238
 10
375.9381155481
 20
120.6546524218
 10
375.9396749008
 20
120.5734873834
  0
LWPOLYLINE
  5
86
330
1F
100
AcDbEntity
  8
0
  6
Continuous
 62
     7
370
    15
100
AcDbPolyline
 90
       53
 70
   128
 43
0.0
 10
394.4777746415
 20
119.2337299703
 10
394.4384795094
 20
119.9057295809
 10
394.3394574369
 20
120.5724227248
 10
394.1813506201
 20
121.2294856412
 10
393.9651844425
 20
121.872657025
 10
393.6923608245
 20
122.4977656628
 10
393.3646491322
 20
123.1007574853
 10
392.9841747015
 20
123.6777218592
 10
392.5534050552
 20
124.224916949
 10
392.0751338996
 20
124.7387939847
 10
391.5524630068
 20
125.2160202765
 10
390.9887820981
 20
125.6535008287
 10
390.3877468605
 20
126.0483984121
 10
389.7532552381
 20
126.3981519643
 10
389.0894221525
 20
126.7004931994
 10
388.4005528162
 20
126.9534613184
 10
387.6911148109
 20
127.155415726
 10
386.9657091146
 20
127.3050466703
 10
386.2290402613
 20
127.4013837373
 10
385.4858858314
 20
127.4438021441
 10
384.7410654665
 20
127.4320267911
 10
383.9994096125
 20
127.3661340459
 10
383.2657281922
 20
127.2465512483
 10
382.5447794111
 20
127.0740539386
 10
381.8412388987
 20
126.8497608281
 10
381.1596693852
 20
126.5751265437
 10
380.5044911105
 20
126.251932194
 10
379.8799531571
 20
125.8822738185
 10
379.2901058932
 20
125.4685487935
 10
378.7387747048
 20
125.0134402847
 10
378.229535186
 20
124.5198998453
 10
377.7656899507
 20
123.9911282745
 10
377.3502472132
 20
123.4305548587
 10
376.985901279
 20
122.8418151319
 10
376.6750150713
 20
122.2287272968
 10
376.4196048065
 20
121.5952674636
 10
376.2213269182
 20
120.9455438621
 10
376.0814673145
 20
120.2837701994
 10
376.0009330387
 20
119.6142383315
 10
375.9802463864
 20
118.9412904296
 10
376.0195415185
 20
118.269290819
 10
376.118563591
 20
117.6025976751
 10
376.2766704078
 20
116.9455347587
 10
376.4928365854
 20
116.3023633749
 10
376.7656602034
 20
115.6772547371
 10
377.0933718957
 20
115.0742629146
 10
377.4738463264
 20
114.4972985407
 10
377.9046159728
 20
113.9501034509
 10
378.3828871283
 20
113.4362264152
 10
378.9055580211
 20
112.9590001234
 10
379.4692389298
 20
112.5215195712
 10
380.0702741674
 20
112.1266219878
 10
380.6567429608
 20
111.8011586681
  0
ARC
  5
87
330
1F
100
AcDbEntity
  8
0
  6
Continuous
 62
     7
370
    15
100
AcDbCircle
 10
386.2297878742
 20
119.2896163927
 30
0.0
 40
8.2481761017672
100
AcDbArc
 50
298.4083084755
 51
359.6117831872
  0
ENDSEC
  0
SECTION
  2
OBJECTS
  0
DICTIONARY
  5
C
330
0
100
AcDbDictionary
281
     1
  3
ACAD_GROUP
350
D
  3
ACAD_LAYOUT
350
1A
  3
ACAD_MLINESTYLE
350
17
  3
ACAD_PLOTSETTINGS
350
19
  3
ACAD_PLOTSTYLENAME
350
E
  3
ACAD_SCALELIST
350
47
  0
DICTIONARY
  5
D
102
{ACAD_REACTORS
330
C
102
}
330
C
100
AcDbDictionary
281
     1
  0
DICTIONARY
  5
1A
102
{ACAD_REACTORS
330
C
102
}
330
C
100
AcDbDictionary
281
     1
  3
Layout1
350
1E
  3
Layout2
350
26
  3
Model
350
22
  0
DICTIONARY
  5
17
102
{ACAD_REACTORS
330
C
102
}
330
C
100
AcDbDictionary
281
     1
  3
Standard
350
18
  0
DICTIONARY
  5
19
102
{ACAD_REACTORS
330
C
102
}
330
C
100
AcDbDictionary
281
     1
  0
ACDBDICTIONARYWDFLT
  5
E
102
{ACAD_REACTORS
330
C
102
}
330
C
100
AcDbDictionary
281
     1
  3
Normal
350
F
100
AcDbDictionaryWithDefault
340
F
  0
DICTIONARY
  5
47
102
{ACAD_REACTORS
330
C
102
}
330
C
100
AcDbDictionary
281
     1
  3
A0
350
48
  3
A1
350
49
  3
A2
350
4A
  3
A3
350
4B
  3
A4
350
4C
  3
A5
350
4D
  3
A6
350
4E
  3
A7
350
4F
  3
A8
350
50
  3
A9
350
51
  3
B0
350
52
  3
B1
350
53
  3
B2
350
54
  3
B3
350
55
  3
B4
350
56
  3
B5
350
57
  3
B6
350
58
  3
B7
350
59
  3
B8
350
5A
  3
B9
350
5B
  3
C0
350
5C
  3
C1
350
5D
  3
C2
350
5E
  3
C3
350
5F
  3
C4
350
60
  3
C5
350
61
  3
C6
350
62
  3
C7
350
63
  3
C8
350
64
  3
C9
350
65
  3
D0
350
66
  3
D1
350
67
  3
D2
350
68
  0
LAYOUT
  5
1E
102
{ACAD_REACTORS
330
1A
102
}
330
1A
100
AcDbPlotSettings
  1

  2
none_device
  4

  6

 40
0.0
 41
0.0
 42
0.0
 43
0.0
 44
0.0
 45
0.0
 46
0.0
 47
0.0
 48
0.0
 49
0.0
140
0.0
141
0.0
142
1.0
143
1.0
 70
   688
 72
     1
 73
     0
 74
     5
  7

 75
    16
147
1.0
148
0.0
149
0.0
100
AcDbLayout
  1
Layout1
 70
     1
 71
     1
 10
0.0
 20
0.0
 11
420.0
 21
297.0
 12
0.0
 22
0.0
 32
0.0
 14
1.0000000000E+20
 24
1.0000000000E+20
 34
1.0000000000E+20
 15
-1.0000000000E+20
 25
-1.0000000000E+20
 35
-1.0000000000E+20
146
0.0
 13
0.0
 23
0.0
 33
0.0
 16
1.0
 26
0.0
 36
0.0
 17
0.0
 27
1.0
 37
0.0
 76
     0
330
1B
  0
LAYOUT
  5
26
102
{ACAD_REACTORS
330
1A
102
}
330
1A
100
AcDbPlotSettings
  1

  2
none_device
  4

  6

 40
0.0
 41
0.0
 42
0.0
 43
0.0
 44
0.0
 45
0.0
 46
0.0
 47
0.0
 48
0.0
 49
0.0
140
0.0
141
0.0
142
1.0
143
1.0
 70
   688
 72
     1
 73
     0
 74
     5
  7

 75
    16
147
1.0
148
0.0
149
0.0
100
AcDbLayout
  1
Layout2
 70
     1
 71
     2
 10
0.0
 20
0.0
 11
0.0
 21
0.0
 12
0.0
 22
0.0
 32
0.0
 14
0.0
 24
0.0
 34
0.0
 15
0.0
 25
0.0
 35
0.0
146
0.0
 13
0.0
 23
0.0
 33
0.0
 16
1.0
 26
0.0
 36
0.0
 17
0.0
 27
1.0
 37
0.0
 76
     0
330
23
  0
LAYOUT
  5
22
102
{ACAD_REACTORS
330
1A
102
}
330
1A
100
AcDbPlotSettings
  1

  2
none_device
  4
Letter_(8.50_x_11.00_Inches)
  6

 40
6.35
 41
6.35
 42
6.35000508
 43
6.35000508
 44
215.9
 45
279.4
 46
0.0
 47
0.0
 48
0.0
 49
0.0
140
0.0
141
0.0
142
1.0
143
1.0
 70
  1712
 72
     1
 73
     0
 74
     0
  7

 75
     0
147
1.0
148
0.0
149
0.0
100
AcDbLayout
  1
Model
 70
     1
 71
     0
 10
0.0
 20
0.0
 11
297.0
 21
210.0
 12
0.0
 22
0.0
 32
0.0
 14
0.0
 24
0.0
 34
0.0
 15
297.0
 25
210.0
 35
0.0
146
0.0
 13
0.0
 23
0.0
 33
0.0
 16
1.0
 26
0.0
 36
0.0
 17
0.0
 27
1.0
 37
0.0
 76
     0
330
1F
331
29
  0
MLINESTYLE
  5
18
102
{ACAD_REACTORS
330
17
102
}
330
17
100
AcDbMlineStyle
  2
Standard
 70
     0
  3

 62
   256
 51
90.0
 52
90.0
 71
     2
 49
0.5
 62
   256
  6
BYLAYER
 49
-0.5
 62
   256
  6
BYLAYER
  0
ACDBPLACEHOLDER
  5
F
102
{ACAD_REACTORS
330
E
102
}
330
E
  0
SCALE
  5
48
102
{ACAD_REACTORS
330
47
102
}
330
47
100
AcDbScale
 70
     0
300
1:1
140
1.0
141
1.0
290
     1
  0
SCALE
  5
49
102
{ACAD_REACTORS
330
47
102
}
330
47
100
AcDbScale
 70
     0
300
1:2
140
1.0
141
2.0
290
     0
  0
SCALE
  5
4A
102
{ACAD_REACTORS
330
47
102
}
330
47
100
AcDbScale
 70
     0
300
1:4
140
1.0
141
4.0
290
     0
  0
SCALE
  5
4B
102
{ACAD_REACTORS
330
47
102
}
330
47
100
AcDbScale
 70
     0
300
1:5
140
1.0
141
5.0
290
     0
  0
SCALE
  5
4C
102
{ACAD_REACTORS
330
47
102
}
330
47
100
AcDbScale
 70
     0
300
1:8
140
1.0
141
8.0
290
     0
  0
SCALE
  5
4D
102
{ACAD_REACTORS
330
47
102
}
330
47
100
AcDbScale
 70
     0
300
1:10
140
1.0
141
10.0
290
     0
  0
SCALE
  5
4E
102
{ACAD_REACTORS
330
47
102
}
330
47
100
AcDbScale
 70
     0
300
1:16
140
1.0
141
16.0
290
     0
  0
SCALE
  5
4F
102
{ACAD_REACTORS
330
47
102
}
330
47
100
AcDbScale
 70
     0
300
1:20
140
1.0
141
20.0
290
     0
  0
SCALE
  5
50
102
{ACAD_REACTORS
330
47
102
}
330
47
100
AcDbScale
 70
     0
300
1:30
140
1.0
141
30.0
290
     0
  0
SCALE
  5
51
102
{ACAD_REACTORS
330
47
102
}
330
47
100
AcDbScale
 70
     0
300
1:40
140
1.0
141
40.0
290
     0
  0
SCALE
  5
52
102
{ACAD_REACTORS
330
47
102
}
330
47
100
AcDbScale
 70
     0
300
1:50
140
1.0
141
50.0
290
     0
  0
SCALE
  5
53
102
{ACAD_REACTORS
330
47
102
}
330
47
100
AcDbScale
 70
     0
300
1:100
140
1.0
141
100.0
290
     0
  0
SCALE
  5
54
102
{ACAD_REACTORS
330
47
102
}
330
47
100
AcDbScale
 70
     0
300
2:1
140
2.0
141
1.0
290
     0
  0
SCALE
  5
55
102
{ACAD_REACTORS
330
47
102
}
330
47
100
AcDbScale
 70
     0
300
4:1
140
4.0
141
1.0
290
     0
  0
SCALE
  5
56
102
{ACAD_REACTORS
330
47
102
}
330
47
100
AcDbScale
 70
     0
300
8:1
140
8.0
141
1.0
290
     0
  0
SCALE
  5
57
102
{ACAD_REACTORS
330
47
102
}
330
47
100
AcDbScale
 70
     0
300
10:1
140
10.0
141
1.0
290
     0
  0
SCALE
  5
58
102
{ACAD_REACTORS
330
47
102
}
330
47
100
AcDbScale
 70
     0
300
100:1
140
100.0
141
1.0
290
     0
  0
SCALE
  5
59
102
{ACAD_REACTORS
330
47
102
}
330
47
100
AcDbScale
 70
     0
300
1/128" = 1'-0"
140
0.0078125
141
12.0
290
     0
  0
SCALE
  5
5A
102
{ACAD_REACTORS
330
47
102
}
330
47
100
AcDbScale
 70
     0
300
1/64" = 1'-0"
140
0.015625
141
12.0
290
     0
  0
SCALE
  5
5B
102
{ACAD_REACTORS
330
47
102
}
330
47
100
AcDbScale
 70
     0
300
1/32" = 1'-0"
140
0.03125
141
12.0
290
     0
  0
SCALE
  5
5C
102
{ACAD_REACTORS
330
47
102
}
330
47
100
AcDbScale
 70
     0
300
1/16" = 1'-0"
140
0.0625
141
12.0
290
     0
  0
SCALE
  5
5D
102
{ACAD_REACTORS
330
47
102
}
330
47
100
AcDbScale
 70
     0
300
3/32" = 1'-0"
140
0.09375
141
12.0
290
     0
  0
SCALE
  5
5E
102
{ACAD_REACTORS
330
47
102
}
330
47
100
AcDbScale
 70
     0
300
1/8" = 1'-0"
140
0.125
141
12.0
290
     0
  0
SCALE
  5
5F
102
{ACAD_REACTORS
330
47
102
}
330
47
100
AcDbScale
 70
     0
300
3/16" = 1'-0"
140
0.1875
141
12.0
290
     0
  0
SCALE
  5
60
102
{ACAD_REACTORS
330
47
102
}
330
47
100
AcDbScale
 70
     0
300
1/4" = 1'-0"
140
0.25
141
12.0
290
     0
  0
SCALE
  5
61
102
{ACAD_REACTORS
330
47
102
}
330
47
100
AcDbScale
 70
     0
300
3/8" = 1'-0"
140
0.375
141
12.0
290
     0
  0
SCALE
  5
62
102
{ACAD_REACTORS
330
47
102
}
330
47
100
AcDbScale
 70
     0
300
1/2" = 1'-0"
140
0.5
141
12.0
290
     0
  0
SCALE
  5
63
102
{ACAD_REACTORS
330
47
102
}
330
47
100
AcDbScale
 70
     0
300
3/4" = 1'-0"
140
0.75
141
12.0
290
     0
  0
SCALE
  5
64
102
{ACAD_REACTORS
330
47
102
}
330
47
100
AcDbScale
 70
     0
300
1" = 1'-0"
140
1.0
141
12.0
290
     0
  0
SCALE
  5
65
102
{ACAD_REACTORS
330
47
102
}
330
47
100
AcDbScale
 70
     0
300
1-1/2" = 1'-0"
140
1.5
141
12.0
290
     0
  0
SCALE
  5
66
102
{ACAD_REACTORS
330
47
102
}
330
47
100
AcDbScale
 70
     0
300
3" = 1'-0"
140
3.0
141
12.0
290
     0
  0
SCALE
  5
67
102
{ACAD_REACTORS
330
47
102
}
330
47
100
AcDbScale
 70
     0
300
6" = 1'-0"
140
6.0
141
12.0
290
     0
  0
SCALE
  5
68
102
{ACAD_REACTORS
330
47
102
}
330
47
100
AcDbScale
 70
     0
300
1'-0" = 1'-0"
140
12.0
141
12.0
290
     0
  0
ENDSEC
  0
EOF
