999
Erzeugt mit innoplus bad 
0
SECTION
2
HEADER
9
$ACADVER
1
AC1009
9
$DWGCODEPAGE
3
ISO8859-1
0
ENDSEC
0
SECTION
2
TABLES
0
TABLE
2
LAYER
70
1
0
LAYER
2
0
70
0
62
7
6
CONTINUOUS
0
ENDTAB
0
ENDSEC
0
SECTION
2
ENTITIES
0
LINE
8
0
6
CONTINUOUS
10
192.250000
20
-20.000000
30
0.0
11
192.664214
21
-20.000000
31
0.0
0
LINE
8
0
6
CONTINUOUS
10
191.250000
20
-19.000000
30
0.0
11
192.250000
21
-20.000000
31
0.0
0
LINE
8
0
6
CONTINUOUS
10
192.664214
20
-20.000000
30
0.0
11
219.335786
21
-20.000000
31
0.0
0
LINE
8
0
6
CONTINUOUS
10
219.750000
20
-20.000000
30
0.0
11
220.750000
21
-19.000000
31
0.0
0
LINE
8
0
6
CONTINUOUS
10
219.335786
20
-20.000000
30
0.0
11
219.750000
21
-20.000000
31
0.0
0
LINE
8
0
6
CONTINUOUS
10
191.250000
20
-19.000000
30
0.0
11
192.250000
21
-19.000000
31
0.0
0
LINE
8
0
6
CONTINUOUS
10
191.250000
20
12.000000
30
0.0
11
191.250000
21
-19.000000
31
0.0
0
LINE
8
0
6
CONTINUOUS
10
192.250000
20
13.000000
30
0.0
11
191.250000
21
12.000000
31
0.0
0
LINE
8
0
6
CONTINUOUS
10
219.750000
20
13.000000
30
0.0
11
192.250000
21
13.000000
31
0.0
0
LINE
8
0
6
CONTINUOUS
10
220.750000
20
12.000000
30
0.0
11
219.750000
21
13.000000
31
0.0
0
LINE
8
0
6
CONTINUOUS
10
220.750000
20
-19.000000
30
0.0
11
220.750000
21
12.000000
31
0.0
0
LINE
8
0
6
CONTINUOUS
10
219.750000
20
-19.000000
30
0.0
11
220.750000
21
-19.000000
31
0.0
0
LINE
8
0
6
CONTINUOUS
10
192.664214
20
12.000000
30
0.0
11
192.250000
21
11.585787
31
0.0
0
LINE
8
0
6
CONTINUOUS
10
219.335786
20
12.000000
30
0.0
11
192.664214
21
12.000000
31
0.0
0
LINE
8
0
6
CONTINUOUS
10
219.750000
20
11.585787
30
0.0
11
219.335786
21
12.000000
31
0.0
0
LINE
8
0
6
CONTINUOUS
10
219.750000
20
-19.000000
30
0.0
11
219.750000
21
11.585787
31
0.0
0
LINE
8
0
6
CONTINUOUS
10
192.250000
20
-19.000000
30
0.0
11
219.750000
21
-19.000000
31
0.0
0
LINE
8
0
6
CONTINUOUS
10
192.250000
20
11.585787
30
0.0
11
192.250000
21
-19.000000
31
0.0
0
LINE
8
0
6
CONTINUOUS
10
-219.750000
20
-20.000000
30
0.0
11
-219.335786
21
-20.000000
31
0.0
0
LINE
8
0
6
CONTINUOUS
10
-220.750000
20
-19.000000
30
0.0
11
-219.750000
21
-20.000000
31
0.0
0
LINE
8
0
6
CONTINUOUS
10
-219.335786
20
-20.000000
30
0.0
11
-192.664214
21
-20.000000
31
0.0
0
LINE
8
0
6
CONTINUOUS
10
-192.250000
20
-20.000000
30
0.0
11
-191.250000
21
-19.000000
31
0.0
0
LINE
8
0
6
CONTINUOUS
10
-192.664214
20
-20.000000
30
0.0
11
-192.250000
21
-20.000000
31
0.0
0
LINE
8
0
6
CONTINUOUS
10
-220.750000
20
-19.000000
30
0.0
11
-219.750000
21
-19.000000
31
0.0
0
LINE
8
0
6
CONTINUOUS
10
-220.750000
20
12.000000
30
0.0
11
-220.750000
21
-19.000000
31
0.0
0
LINE
8
0
6
CONTINUOUS
10
-219.750000
20
13.000000
30
0.0
11
-220.750000
21
12.000000
31
0.0
0
LINE
8
0
6
CONTINUOUS
10
-192.250000
20
13.000000
30
0.0
11
-219.750000
21
13.000000
31
0.0
0
LINE
8
0
6
CONTINUOUS
10
-191.250000
20
12.000000
30
0.0
11
-192.250000
21
13.000000
31
0.0
0
LINE
8
0
6
CONTINUOUS
10
-191.250000
20
-19.000000
30
0.0
11
-191.250000
21
12.000000
31
0.0
0
LINE
8
0
6
CONTINUOUS
10
-192.250000
20
-19.000000
30
0.0
11
-191.250000
21
-19.000000
31
0.0
0
LINE
8
0
6
CONTINUOUS
10
-219.335786
20
12.000000
30
0.0
11
-219.750000
21
11.585786
31
0.0
0
LINE
8
0
6
CONTINUOUS
10
-192.664214
20
12.000000
30
0.0
11
-219.335786
21
12.000000
31
0.0
0
LINE
8
0
6
CONTINUOUS
10
-192.250000
20
11.585786
30
0.0
11
-192.664214
21
12.000000
31
0.0
0
LINE
8
0
6
CONTINUOUS
10
-192.250000
20
-19.000000
30
0.0
11
-192.250000
21
11.585786
31
0.0
0
LINE
8
0
6
CONTINUOUS
10
-219.750000
20
-19.000000
30
0.0
11
-192.250000
21
-19.000000
31
0.0
0
LINE
8
0
6
CONTINUOUS
10
-219.750000
20
11.585786
30
0.0
11
-219.750000
21
-19.000000
31
0.0
0
LINE
8
0
6
CONTINUOUS
10
225.000000
20
-19.000000
30
0.0
11
225.000000
21
-18.585786
31
0.0
0
LINE
8
0
6
CONTINUOUS
10
224.000000
20
-20.000000
30
0.0
11
225.000000
21
-19.000000
31
0.0
0
LINE
8
0
6
CONTINUOUS
10
225.000000
20
-18.585786
30
0.0
11
225.000000
21
-9.414214
31
0.0
0
LINE
8
0
6
CONTINUOUS
10
225.000000
20
-9.000000
30
0.0
11
224.000000
21
-8.000000
31
0.0
0
LINE
8
0
6
CONTINUOUS
10
225.000000
20
-9.414214
30
0.0
11
225.000000
21
-9.000000
31
0.0
0
LINE
8
0
6
CONTINUOUS
10
225.000000
20
-9.000000
30
0.0
11
225.000000
21
-8.256895
31
0.0
0
LINE
8
0
6
CONTINUOUS
10
224.000000
20
-8.000000
30
0.0
11
225.000000
21
-9.000000
31
0.0
0
LINE
8
0
6
CONTINUOUS
10
224.000000
20
-7.314916
30
0.0
11
224.000000
21
-8.000000
31
0.0
0
LINE
8
0
6
CONTINUOUS
10
225.000000
20
-8.256895
30
0.0
11
225.000000
21
-6.084921
31
0.0
0
LINE
8
0
6
CONTINUOUS
10
224.000000
20
-5.363961
30
0.0
11
224.000000
21
-7.314916
31
0.0
0
LINE
8
0
6
CONTINUOUS
10
225.000000
20
-6.084921
30
0.0
11
225.000000
21
-2.834332
31
0.0
0
LINE
8
0
6
CONTINUOUS
10
224.000000
20
-2.444151
30
0.0
11
224.000000
21
-5.363961
31
0.0
0
LINE
8
0
6
CONTINUOUS
10
225.000000
20
-2.834332
30
0.0
11
225.000000
21
0.901509
31
0.0
0
LINE
8
0
6
CONTINUOUS
10
224.000000
20
1.000000
30
0.0
11
224.000000
21
-2.444151
31
0.0
0
LINE
8
0
6
CONTINUOUS
10
225.000000
20
0.901509
30
0.0
11
225.000000
21
18.585786
31
0.0
0
LINE
8
0
6
CONTINUOUS
10
224.000000
20
19.000000
30
0.0
11
224.000000
21
1.000000
31
0.0
0
LINE
8
0
6
CONTINUOUS
10
225.000000
20
19.000000
30
0.0
11
224.000000
21
20.000000
31
0.0
0
LINE
8
0
6
CONTINUOUS
10
225.000000
20
18.585786
30
0.0
11
225.000000
21
19.000000
31
0.0
0
LINE
8
0
6
CONTINUOUS
10
224.000000
20
20.000000
30
0.0
11
-224.000000
21
20.000000
31
0.0
0
LINE
8
0
6
CONTINUOUS
10
224.000000
20
19.000000
30
0.0
11
224.000000
21
20.000000
31
0.0
0
LINE
8
0
6
CONTINUOUS
10
-224.000000
20
19.000000
30
0.0
11
224.000000
21
19.000000
31
0.0
0
LINE
8
0
6
CONTINUOUS
10
224.000000
20
-8.000000
30
0.0
11
-224.000000
21
-8.000000
31
0.0
0
LINE
8
0
6
CONTINUOUS
10
224.000000
20
-9.000000
30
0.0
11
224.000000
21
-8.000000
31
0.0
0
LINE
8
0
6
CONTINUOUS
10
224.000000
20
-9.000000
30
0.0
11
-224.000000
21
-9.000000
31
0.0
0
LINE
8
0
6
CONTINUOUS
10
224.000000
20
-19.000000
30
0.0
11
224.000000
21
-9.000000
31
0.0
0
LINE
8
0
6
CONTINUOUS
10
224.000000
20
-19.000000
30
0.0
11
-224.000000
21
-19.000000
31
0.0
0
LINE
8
0
6
CONTINUOUS
10
224.000000
20
-20.000000
30
0.0
11
224.000000
21
-19.000000
31
0.0
0
LINE
8
0
6
CONTINUOUS
10
-224.000000
20
-20.000000
30
0.0
11
224.000000
21
-20.000000
31
0.0
0
LINE
8
0
6
CONTINUOUS
10
-225.000000
20
-19.000000
30
0.0
11
-224.000000
21
-20.000000
31
0.0
0
LINE
8
0
6
CONTINUOUS
10
-225.000000
20
-18.585786
30
0.0
11
-225.000000
21
-19.000000
31
0.0
0
LINE
8
0
6
CONTINUOUS
10
-224.000000
20
-20.000000
30
0.0
11
-224.000000
21
-19.000000
31
0.0
0
LINE
8
0
6
CONTINUOUS
10
-225.000000
20
-9.414214
30
0.0
11
-225.000000
21
-18.585786
31
0.0
0
LINE
8
0
6
CONTINUOUS
10
-224.000000
20
-19.000000
30
0.0
11
-224.000000
21
-9.000000
31
0.0
0
LINE
8
0
6
CONTINUOUS
10
-225.000000
20
-9.000000
30
0.0
11
-225.000000
21
-9.414214
31
0.0
0
LINE
8
0
6
CONTINUOUS
10
-224.000000
20
-8.000000
30
0.0
11
-225.000000
21
-9.000000
31
0.0
0
LINE
8
0
6
CONTINUOUS
10
-224.000000
20
-9.000000
30
0.0
11
-224.000000
21
-8.000000
31
0.0
0
LINE
8
0
6
CONTINUOUS
10
-225.000000
20
-9.000000
30
0.0
11
-224.000000
21
-8.000000
31
0.0
0
LINE
8
0
6
CONTINUOUS
10
-225.000000
20
-8.256895
30
0.0
11
-225.000000
21
-9.000000
31
0.0
0
LINE
8
0
6
CONTINUOUS
10
-224.000000
20
-8.000000
30
0.0
11
-224.000000
21
-7.314916
31
0.0
0
LINE
8
0
6
CONTINUOUS
10
-225.000000
20
-6.084921
30
0.0
11
-225.000000
21
-8.256895
31
0.0
0
LINE
8
0
6
CONTINUOUS
10
-224.000000
20
-7.314916
30
0.0
11
-224.000000
21
-5.363961
31
0.0
0
LINE
8
0
6
CONTINUOUS
10
-225.000000
20
-2.834332
30
0.0
11
-225.000000
21
-6.084921
31
0.0
0
LINE
8
0
6
CONTINUOUS
10
-224.000000
20
-5.363961
30
0.0
11
-224.000000
21
-2.444151
31
0.0
0
LINE
8
0
6
CONTINUOUS
10
-225.000000
20
0.901509
30
0.0
11
-225.000000
21
-2.834332
31
0.0
0
LINE
8
0
6
CONTINUOUS
10
-224.000000
20
-2.444151
30
0.0
11
-224.000000
21
1.000000
31
0.0
0
LINE
8
0
6
CONTINUOUS
10
-225.000000
20
18.585786
30
0.0
11
-225.000000
21
0.901509
31
0.0
0
LINE
8
0
6
CONTINUOUS
10
-224.000000
20
1.000000
30
0.0
11
-224.000000
21
19.000000
31
0.0
0
LINE
8
0
6
CONTINUOUS
10
-225.000000
20
19.000000
30
0.0
11
-225.000000
21
18.585786
31
0.0
0
LINE
8
0
6
CONTINUOUS
10
-224.000000
20
20.000000
30
0.0
11
-225.000000
21
19.000000
31
0.0
0
LINE
8
0
6
CONTINUOUS
10
-224.000000
20
19.000000
30
0.0
11
-224.000000
21
20.000000
31
0.0
0
LINE
8
0
6
CONTINUOUS
10
224.000000
20
19.000000
30
0.0
11
-224.000000
21
19.000000
31
0.0
0
LINE
8
0
6
CONTINUOUS
10
224.000000
20
1.000000
30
0.0
11
224.000000
21
19.000000
31
0.0
0
LINE
8
0
6
CONTINUOUS
10
-224.000000
20
19.000000
30
0.0
11
-224.000000
21
1.000000
31
0.0
0
LINE
8
0
6
CONTINUOUS
10
224.000000
20
-2.444151
30
0.0
11
224.000000
21
1.000000
31
0.0
0
LINE
8
0
6
CONTINUOUS
10
-224.000000
20
1.000000
30
0.0
11
-224.000000
21
-2.444151
31
0.0
0
LINE
8
0
6
CONTINUOUS
10
224.000000
20
-5.363961
30
0.0
11
224.000000
21
-2.444151
31
0.0
0
LINE
8
0
6
CONTINUOUS
10
-224.000000
20
-2.444151
30
0.0
11
-224.000000
21
-5.363961
31
0.0
0
LINE
8
0
6
CONTINUOUS
10
224.000000
20
-7.314916
30
0.0
11
224.000000
21
-5.363961
31
0.0
0
LINE
8
0
6
CONTINUOUS
10
-224.000000
20
-5.363961
30
0.0
11
-224.000000
21
-7.314916
31
0.0
0
LINE
8
0
6
CONTINUOUS
10
224.000000
20
-8.000000
30
0.0
11
224.000000
21
-7.314916
31
0.0
0
LINE
8
0
6
CONTINUOUS
10
-224.000000
20
-8.000000
30
0.0
11
224.000000
21
-8.000000
31
0.0
0
LINE
8
0
6
CONTINUOUS
10
-224.000000
20
-7.314916
30
0.0
11
-224.000000
21
-8.000000
31
0.0
0
ENDSEC
0
EOF
