  0
SECTION
  2
HEADER
  9
$ACADVER
  1
AC1027
  9
$ACADMAINTVER
 70
   125
  9
$DWGCODEPAGE
  3
ANSI_1252
  9
$LASTSAVEDBY
  1
fleminab
  9
$REQUIREDVERSIONS
160
                 0
  9
$INSBASE
 10
0.0
 20
0.0
 30
0.0
  9
$EXTMIN
 10
2.888476230098035
 20
0.3223098605116093
 30
-0.0000000349181948
  9
$EXTMAX
 10
13.76514481226228
 20
12.18850647059811
 30
0.0000000814935746
  9
$LIMMIN
 10
0.0
 20
0.0
  9
$LIMMAX
 10
12.0
 20
9.0
  9
$ORTHOMODE
 70
     0
  9
$REGENMODE
 70
     1
  9
$FILLMODE
 70
     1
  9
$QTEXTMODE
 70
     0
  9
$MIRRTEXT
 70
     0
  9
$LTSCALE
 40
1.0
  9
$ATTMODE
 70
     1
  9
$TEXTSIZE
 40
0.2
  9
$TRACEWID
 40
0.05
  9
$TEXTSTYLE
  7
Standard
  9
$CLAYER
  8
0
  9
$CELTYPE
  6
ByLayer
  9
$CECOLOR
 62
   256
  9
$CELTSCALE
 40
1.0
  9
$DISPSILH
 70
     0
  9
$DIMSCALE
 40
1.0
  9
$DIMASZ
 40
0.18
  9
$DIMEXO
 40
0.0625
  9
$DIMDLI
 40
0.38
  9
$DIMRND
 40
0.0
  9
$DIMDLE
 40
0.0
  9
$DIMEXE
 40
0.18
  9
$DIMTP
 40
0.0
  9
$DIMTM
 40
0.0
  9
$DIMTXT
 40
0.18
  9
$DIMCEN
 40
0.09
  9
$DIMTSZ
 40
0.0
  9
$DIMTOL
 70
     0
  9
$DIMLIM
 70
     0
  9
$DIMTIH
 70
     1
  9
$DIMTOH
 70
     1
  9
$DIMSE1
 70
     0
  9
$DIMSE2
 70
     0
  9
$DIMTAD
 70
     0
  9
$DIMZIN
 70
     0
  9
$DIMBLK
  1

  9
$DIMASO
 70
     1
  9
$DIMSHO
 70
     1
  9
$DIMPOST
  1

  9
$DIMAPOST
  1

  9
$DIMALT
 70
     0
  9
$DIMALTD
 70
     2
  9
$DIMALTF
 40
25.4
  9
$DIMLFAC
 40
1.0
  9
$DIMTOFL
 70
     0
  9
$DIMTVP
 40
0.0
  9
$DIMTIX
 70
     0
  9
$DIMSOXD
 70
     0
  9
$DIMSAH
 70
     0
  9
$DIMBLK1
  1

  9
$DIMBLK2
  1

  9
$DIMSTYLE
  2
Standard
  9
$DIMCLRD
 70
     0
  9
$DIMCLRE
 70
     0
  9
$DIMCLRT
 70
     0
  9
$DIMTFAC
 40
1.0
  9
$DIMGAP
 40
0.09
  9
$DIMJUST
 70
     0
  9
$DIMSD1
 70
     0
  9
$DIMSD2
 70
     0
  9
$DIMTOLJ
 70
     1
  9
$DIMTZIN
 70
     0
  9
$DIMALTZ
 70
     0
  9
$DIMALTTZ
 70
     0
  9
$DIMUPT
 70
     0
  9
$DIMDEC
 70
     4
  9
$DIMTDEC
 70
     4
  9
$DIMALTU
 70
     2
  9
$DIMALTTD
 70
     2
  9
$DIMTXSTY
  7
Standard
  9
$DIMAUNIT
 70
     0
  9
$DIMADEC
 70
     0
  9
$DIMALTRND
 40
0.0
  9
$DIMAZIN
 70
     0
  9
$DIMDSEP
 70
    46
  9
$DIMATFIT
 70
     3
  9
$DIMFRAC
 70
     0
  9
$DIMLDRBLK
  1

  9
$DIMLUNIT
 70
     2
  9
$DIMLWD
 70
    -2
  9
$DIMLWE
 70
    -2
  9
$DIMTMOVE
 70
     0
  9
$DIMFXL
 40
1.0
  9
$DIMFXLON
 70
     0
  9
$DIMJOGANG
 40
0.7853981633974483
  9
$DIMTFILL
 70
     0
  9
$DIMTFILLCLR
 70
     0
  9
$DIMARCSYM
 70
     0
  9
$DIMLTYPE
  6

  9
$DIMLTEX1
  6

  9
$DIMLTEX2
  6

  9
$DIMTXTDIRECTION
 70
     0
  9
$LUNITS
 70
     2
  9
$LUPREC
 70
     4
  9
$SKETCHINC
 40
0.1
  9
$FILLETRAD
 40
0.0
  9
$AUNITS
 70
     0
  9
$AUPREC
 70
     0
  9
$MENU
  1
.
  9
$ELEVATION
 40
0.0
  9
$PELEVATION
 40
0.0
  9
$THICKNESS
 40
0.0
  9
$LIMCHECK
 70
     0
  9
$CHAMFERA
 40
0.0
  9
$CHAMFERB
 40
0.0
  9
$CHAMFERC
 40
0.0
  9
$CHAMFERD
 40
0.0
  9
$SKPOLY
 70
     0
  9
$TDCREATE
 40
2458248.512824074
  9
$TDUCREATE
 40
2458248.096157408
  9
$TDUPDATE
 40
2458248.513159722
  9
$TDUUPDATE
 40
2458248.096493055
  9
$TDINDWG
 40
0.0003356481
  9
$TDUSRTIMER
 40
0.0003356481
  9
$USRTIMER
 70
     1
  9
$ANGBASE
 50
0.0
  9
$ANGDIR
 70
     0
  9
$PDMODE
 70
     0
  9
$PDSIZE
 40
0.0
  9
$PLINEWID
 40
0.0
  9
$SPLFRAME
 70
     0
  9
$SPLINETYPE
 70
     6
  9
$SPLINESEGS
 70
     8
  9
$HANDSEED
  5
308
  9
$SURFTAB1
 70
     6
  9
$SURFTAB2
 70
     6
  9
$SURFTYPE
 70
     6
  9
$SURFU
 70
     6
  9
$SURFV
 70
     6
  9
$UCSBASE
  2

  9
$UCSNAME
  2

  9
$UCSORG
 10
0.0
 20
0.0
 30
0.0
  9
$UCSXDIR
 10
1.0
 20
0.0
 30
0.0
  9
$UCSYDIR
 10
0.0
 20
1.0
 30
0.0
  9
$UCSORTHOREF
  2

  9
$UCSORTHOVIEW
 70
     0
  9
$UCSORGTOP
 10
0.0
 20
0.0
 30
0.0
  9
$UCSORGBOTTOM
 10
0.0
 20
0.0
 30
0.0
  9
$UCSORGLEFT
 10
0.0
 20
0.0
 30
0.0
  9
$UCSORGRIGHT
 10
0.0
 20
0.0
 30
0.0
  9
$UCSORGFRONT
 10
0.0
 20
0.0
 30
0.0
  9
$UCSORGBACK
 10
0.0
 20
0.0
 30
0.0
  9
$PUCSBASE
  2

  9
$PUCSNAME
  2

  9
$PUCSORG
 10
0.0
 20
0.0
 30
0.0
  9
$PUCSXDIR
 10
1.0
 20
0.0
 30
0.0
  9
$PUCSYDIR
 10
0.0
 20
1.0
 30
0.0
  9
$PUCSORTHOREF
  2

  9
$PUCSORTHOVIEW
 70
     0
  9
$PUCSORGTOP
 10
0.0
 20
0.0
 30
0.0
  9
$PUCSORGBOTTOM
 10
0.0
 20
0.0
 30
0.0
  9
$PUCSORGLEFT
 10
0.0
 20
0.0
 30
0.0
  9
$PUCSORGRIGHT
 10
0.0
 20
0.0
 30
0.0
  9
$PUCSORGFRONT
 10
0.0
 20
0.0
 30
0.0
  9
$PUCSORGBACK
 10
0.0
 20
0.0
 30
0.0
  9
$USERI1
 70
     0
  9
$USERI2
 70
     0
  9
$USERI3
 70
     0
  9
$USERI4
 70
     0
  9
$USERI5
 70
     0
  9
$USERR1
 40
0.0
  9
$USERR2
 40
0.0
  9
$USERR3
 40
0.0
  9
$USERR4
 40
0.0
  9
$USERR5
 40
0.0
  9
$WORLDVIEW
 70
     1
  9
$SHADEDGE
 70
     3
  9
$SHADEDIF
 70
    70
  9
$TILEMODE
 70
     1
  9
$MAXACTVP
 70
    64
  9
$PINSBASE
 10
0.0
 20
0.0
 30
0.0
  9
$PLIMCHECK
 70
     0
  9
$PEXTMIN
 10
1.000000000000000E+20
 20
1.000000000000000E+20
 30
1.000000000000000E+20
  9
$PEXTMAX
 10
-1.000000000000000E+20
 20
-1.000000000000000E+20
 30
-1.000000000000000E+20
  9
$PLIMMIN
 10
-0.7524054877282309
 20
-0.5025428238148726
  9
$PLIMMAX
 10
35.24759547345533
 20
23.49745621500156
  9
$UNITMODE
 70
     0
  9
$VISRETAIN
 70
     1
  9
$PLINEGEN
 70
     0
  9
$PSLTSCALE
 70
     1
  9
$TREEDEPTH
 70
  3020
  9
$CMLSTYLE
  2
Standard
  9
$CMLJUST
 70
     0
  9
$CMLSCALE
 40
1.0
  9
$PROXYGRAPHICS
 70
     1
  9
$MEASUREMENT
 70
     0
  9
$CELWEIGHT
370
    -1
  9
$ENDCAPS
280
     0
  9
$JOINSTYLE
280
     0
  9
$LWDISPLAY
290
     0
  9
$INSUNITS
 70
     1
  9
$HYPERLINKBASE
  1

  9
$STYLESHEET
  1

  9
$XEDIT
290
     1
  9
$CEPSNTYPE
380
     0
  9
$PSTYLEMODE
290
     1
  9
$FINGERPRINTGUID
  2
{8E2B8E1A-5BA9-514E-8048-82CBBACDBB25}
  9
$VERSIONGUID
  2
{D400BDD5-40F6-CB4B-9F9C-60DBA99D3D5A}
  9
$EXTNAMES
290
     1
  9
$PSVPSCALE
 40
0.0
  9
$OLESTARTUP
290
     0
  9
$SORTENTS
280
   127
  9
$INDEXCTL
280
     0
  9
$HIDETEXT
280
     0
  9
$XCLIPFRAME
280
     0
  9
$HALOGAP
280
     0
  9
$OBSCOLOR
 70
   257
  9
$OBSLTYPE
280
     0
  9
$INTERSECTIONDISPLAY
280
     0
  9
$INTERSECTIONCOLOR
 70
   257
  9
$DIMASSOC
280
     1
  9
$PROJECTNAME
  1

  9
$CAMERADISPLAY
290
     0
  9
$LENSLENGTH
 40
50.0
  9
$CAMERAHEIGHT
 40
0.0
  9
$STEPSPERSEC
 40
2.0
  9
$STEPSIZE
 40
6.0
  9
$3DDWFPREC
 40
2.0
  9
$PSOLWIDTH
 40
0.25
  9
$PSOLHEIGHT
 40
4.0
  9
$LOFTANG1
 40
1.570796326794896
  9
$LOFTANG2
 40
1.570796326794896
  9
$LOFTMAG1
 40
0.0
  9
$LOFTMAG2
 40
0.0
  9
$LOFTPARAM
 70
     7
  9
$LOFTNORMALS
280
     1
  9
$LATITUDE
 40
37.795
  9
$LONGITUDE
 40
-122.394
  9
$NORTHDIRECTION
 40
0.0
  9
$TIMEZONE
 70
 -8000
  9
$LIGHTGLYPHDISPLAY
280
     1
  9
$TILEMODELIGHTSYNCH
280
     1
  9
$CMATERIAL
347
7F
  9
$SOLIDHIST
280
     1
  9
$SHOWHIST
280
     1
  9
$DWFFRAME
280
     2
  9
$DGNFRAME
280
     0
  9
$REALWORLDSCALE
290
     1
  9
$INTERFERECOLOR
 62
     1
  9
$INTERFEREOBJVS
345
8C
  9
$INTERFEREVPVS
346
A5
  9
$CSHADOW
280
     0
  9
$SHADOWPLANELOCATION
 40
0.0
  0
ENDSEC
  0
SECTION
  2
CLASSES
  0
CLASS
  1
ACDBDICTIONARYWDFLT
  2
AcDbDictionaryWithDefault
  3
ObjectDBX Classes
 90
        0
 91
        1
280
     0
281
     0
  0
CLASS
  1
PLOTSETTINGS
  2
AcDbPlotSettings
  3
ObjectDBX Classes
 90
        0
 91
        0
280
     0
281
     0
  0
CLASS
  1
MATERIAL
  2
AcDbMaterial
  3
ObjectDBX Classes
 90
     1153
 91
        3
280
     0
281
     0
  0
CLASS
  1
VISUALSTYLE
  2
AcDbVisualStyle
  3
ObjectDBX Classes
 90
     4095
 91
       26
280
     0
281
     0
  0
CLASS
  1
TABLESTYLE
  2
AcDbTableStyle
  3
ObjectDBX Classes
 90
     4095
 91
        1
280
     0
281
     0
  0
CLASS
  1
DICTIONARYVAR
  2
AcDbDictionaryVar
  3
ObjectDBX Classes
 90
        0
 91
       17
280
     0
281
     0
  0
CLASS
  1
SCALE
  2
AcDbScale
  3
ObjectDBX Classes
 90
     1153
 91
       17
280
     0
281
     0
  0
CLASS
  1
MLEADERSTYLE
  2
AcDbMLeaderStyle
  3
ACDB_MLEADERSTYLE_CLASS
 90
     4095
 91
        1
280
     0
281
     0
  0
CLASS
  1
ACDBSECTIONVIEWSTYLE
  2
AcDbSectionViewStyle
  3
ObjectDBX Classes
 90
     1025
 91
        1
280
     0
281
     0
  0
CLASS
  1
ACDBDETAILVIEWSTYLE
  2
AcDbDetailViewStyle
  3
ObjectDBX Classes
 90
     1025
 91
        1
280
     0
281
     0
  0
CLASS
  1
CELLSTYLEMAP
  2
AcDbCellStyleMap
  3
ObjectDBX Classes
 90
     1152
 91
        1
280
     0
281
     0
  0
ENDSEC
  0
SECTION
  2
TABLES
  0
TABLE
  2
VPORT
  5
19
330
0
100
AcDbSymbolTable
 70
     1
1001
ACAD
1000
DbSaveVer
1071
        5
  0
VPORT
  5
7D
330
19
100
AcDbSymbolTableRecord
100
AcDbViewportTableRecord
  2
*Active
 70
     0
 10
0.0
 20
0.0
 11
1.0
 21
1.0
 12
8.326810521180156
 22
6.255408165554861
 13
0.0
 23
0.0
 14
0.5
 24
0.5
 15
0.5
 25
0.5
 16
0.0
 26
0.0
 36
1.0
 17
0.0
 27
0.0
 37
0.0
 40
11.95115744500359
 41
2.292712066905615
 42
50.0
 43
0.0
 44
0.0
 50
0.0
 51
0.0
 71
     0
 72
  1000
 73
     1
 74
     3
 75
     0
 76
     0
 77
     0
 78
     0
281
     0
 65
     1
110
0.0
120
0.0
130
0.0
111
1.0
121
0.0
131
0.0
112
0.0
122
1.0
132
0.0
 79
     0
146
0.0
348
88
 60
     3
 61
     5
292
     1
282
     1
141
0.0
142
0.0
 63
   250
421
  3355443
1001
ACAD_NAV_VCDISPLAY
1070
     3
  0
ENDTAB
  0
TABLE
  2
LTYPE
  5
14
330
0
100
AcDbSymbolTable
 70
     1
  0
LTYPE
  5
15
330
14
100
AcDbSymbolTableRecord
100
AcDbLinetypeTableRecord
  2
ByBlock
 70
     0
  3

 72
    65
 73
     0
 40
0.0
  0
LTYPE
  5
16
330
14
100
AcDbSymbolTableRecord
100
AcDbLinetypeTableRecord
  2
ByLayer
 70
     0
  3

 72
    65
 73
     0
 40
0.0
  0
LTYPE
  5
8
330
14
100
AcDbSymbolTableRecord
100
AcDbLinetypeTableRecord
  2
Continuous
 70
     0
  3
Solid line
 72
    65
 73
     0
 40
0.0
  0
ENDTAB
  0
TABLE
  2
LAYER
  5
10
330
0
100
AcDbSymbolTable
 70
     4
  0
LAYER
  5
4
102
{ACAD_XDICTIONARY
360
2E3
102
}
330
10
100
AcDbSymbolTableRecord
100
AcDbLayerTableRecord
  2
0
 70
     0
 62
     7
  6
Continuous
370
    -3
390
5
347
81
348
0
  0
LAYER
  5
25
102
{ACAD_XDICTIONARY
360
2E5
102
}
330
10
100
AcDbSymbolTableRecord
100
AcDbLayerTableRecord
  2
Title Block
 70
     0
 62
     7
  6
Continuous
370
    -3
390
5
347
81
348
0
  0
LAYER
  5
CE
102
{ACAD_XDICTIONARY
360
2E7
102
}
330
10
100
AcDbSymbolTableRecord
100
AcDbLayerTableRecord
  2
PDF_Layer 1
 70
     0
 62
    28
420
  1052429
  6
Continuous
370
    -3
390
5
347
81
348
0
  0
LAYER
  5
DB
102
{ACAD_XDICTIONARY
360
2E9
102
}
330
10
100
AcDbSymbolTableRecord
100
AcDbLayerTableRecord
  2
PDF_Text
 70
     0
 62
   250
420
  2301728
  6
Continuous
370
    -3
390
5
347
81
348
0
  0
ENDTAB
  0
TABLE
  2
STYLE
  5
11
330
0
100
AcDbSymbolTable
 70
     3
  0
STYLE
  5
12
330
11
100
AcDbSymbolTableRecord
100
AcDbTextStyleTableRecord
  2
Standard
 70
     0
 40
0.0
 41
1.0
 50
0.0
 71
     0
 42
0.2
  3
txt
  4

  0
STYLE
  5
27
330
11
100
AcDbSymbolTableRecord
100
AcDbTextStyleTableRecord
  2
Roman
 70
     0
 40
0.0
 41
1.0
 50
0.0
 71
     0
 42
0.2
  3
ROMANS.SHX
  4

  0
STYLE
  5
DA
330
11
100
AcDbSymbolTableRecord
100
AcDbTextStyleTableRecord
  2
PDF Arial
 70
     0
 40
0.0
 41
1.0
 50
0.0
 71
     0
 42
0.2
  3
arial.ttf
  4

1001
ACAD
1000
Arial
1071
       34
  0
ENDTAB
  0
TABLE
  2
VIEW
  5
17
330
0
100
AcDbSymbolTable
 70
     0
  0
ENDTAB
  0
TABLE
  2
UCS
  5
18
330
0
100
AcDbSymbolTable
 70
     0
  0
ENDTAB
  0
TABLE
  2
APPID
  5
1B
330
0
100
AcDbSymbolTable
 70
     2
  0
APPID
  5
1C
330
1B
100
AcDbSymbolTableRecord
100
AcDbRegAppTableRecord
  2
ACAD
 70
     0
  0
APPID
  5
2EB
330
1B
100
AcDbSymbolTableRecord
100
AcDbRegAppTableRecord
  2
ACAD_NAV_VCDISPLAY
 70
     0
  0
ENDTAB
  0
TABLE
  2
DIMSTYLE
  5
1D
330
0
100
AcDbSymbolTable
 70
     1
100
AcDbDimStyleTable
 71
     0
  0
DIMSTYLE
105
23
330
1D
100
AcDbSymbolTableRecord
100
AcDbDimStyleTableRecord
  2
Standard
 70
     0
340
12
  0
ENDTAB
  0
TABLE
  2
BLOCK_RECORD
  5
1
330
0
100
AcDbSymbolTable
 70
     0
  0
BLOCK_RECORD
  5
2
330
1
100
AcDbSymbolTableRecord
100
AcDbBlockTableRecord
  2
*Model_Space
340
A
 70
     0
280
     1
281
     0
  0
BLOCK_RECORD
  5
C
330
1
100
AcDbSymbolTableRecord
100
AcDbBlockTableRecord
  2
*Paper_Space
340
F
 70
     0
280
     1
281
     0
  0
ENDTAB
  0
ENDSEC
  0
SECTION
  2
BLOCKS
  0
BLOCK
  5
3
330
2
100
AcDbEntity
  8
0
100
AcDbBlockBegin
  2
*Model_Space
 70
     2
 10
0.0
 20
0.0
 30
0.0
  3
*Model_Space
  1

  0
ENDBLK
  5
9
330
2
100
AcDbEntity
  8
0
100
AcDbBlockEnd
  0
BLOCK
  5
D
330
C
100
AcDbEntity
 67
     1
  8
0
100
AcDbBlockBegin
  2
*Paper_Space
 70
     0
 10
0.0
 20
0.0
 30
0.0
  3
*Paper_Space
  1

  0
ENDBLK
  5
E
330
C
100
AcDbEntity
 67
     1
  8
0
100
AcDbBlockEnd
  0
ENDSEC
  0
SECTION
  2
ENTITIES
  0
SOLID
  5
CF
330
2
100
AcDbEntity
  8
PDF_Layer 1
 62
     7
420
 16777215
440
 33554559
370
    25
100
AcDbTrace
 10
10.4170875
 20
11.54882777777777
 30
0.0
 11
10.4227125
 21
11.5073
 31
0.0
 12
10.3582125
 22
11.46893888888889
 32
0.0
 13
10.45651805555555
 23
11.48252222222222
 33
0.0
  0
SOLID
  5
D0
330
2
100
AcDbEntity
  8
PDF_Layer 1
 62
     7
420
 16777215
440
 33554559
370
    25
100
AcDbTrace
 10
8.058926388888888
 20
10.14550138888889
 30
0.0
 11
8.0927875
 21
10.12079305555555
 31
0.0
 12
8.157218055555555
 22
10.15927916666666
 32
0.0
 13
8.098495833333332
 23
10.07926527777778
 33
0.0
  0
SOLID
  5
D1
330
2
100
AcDbEntity
  8
PDF_Layer 1
 62
     7
420
 16777215
440
 33554559
370
    25
100
AcDbTrace
 10
4.734049999999999
 20
5.498277777777777
 30
0.0
 11
4.717661111111111
 21
5.536847222222221
 31
0.0
 12
4.642605555555554
 22
5.536847222222221
 32
0.0
 13
4.734049999999999
 23
5.575430555555555
 33
0.0
  0
SOLID
  5
D2
330
2
100
AcDbEntity
  8
PDF_Layer 1
 62
     7
420
 16777215
440
 33554559
370
    25
100
AcDbTrace
 10
13.40808055555555
 20
5.498277777777777
 30
0.0
 11
13.42446944444444
 21
5.536847222222221
 31
0.0
 12
13.499525
 22
5.536847222222221
 32
0.0
 13
13.40808055555555
 23
5.575430555555555
 33
0.0
  0
SOLID
  5
D3
330
2
100
AcDbEntity
  8
PDF_Layer 1
 62
     7
420
 16777215
440
 33554559
370
    25
100
AcDbTrace
 10
4.087768055555555
 20
6.817084722222221
 30
0.0
 11
4.04919861111111
 21
6.800695833333332
 31
0.0
 12
4.04919861111111
 22
6.725654166666665
 32
0.0
 13
4.010615277777777
 23
6.817084722222221
 33
0.0
  0
SOLID
  5
D4
330
2
100
AcDbEntity
  8
PDF_Layer 1
 62
     7
420
 16777215
440
 33554559
370
    25
100
AcDbTrace
 10
4.087768055555555
 20
10.96210416666666
 30
0.0
 11
4.04919861111111
 21
10.97849305555555
 31
0.0
 12
4.04919861111111
 22
11.05353472222222
 32
0.0
 13
4.010615277777777
 23
10.96210416666666
 33
0.0
  0
SOLID
  5
D5
330
2
100
AcDbEntity
  8
PDF_Layer 1
 62
     7
420
 16777215
440
 33554559
370
    25
100
AcDbTrace
 10
4.040215277777777
 20
3.891791666666666
 30
0.0
 11
4.078784722222222
 21
3.908194444444444
 31
0.0
 12
4.078784722222222
 22
3.98323611111111
 32
0.0
 13
4.117368055555555
 23
3.891791666666666
 33
0.0
  0
SOLID
  5
D6
330
2
100
AcDbEntity
  8
PDF_Layer 1
 62
     7
420
 16777215
440
 33554559
370
    25
100
AcDbTrace
 10
4.040215277777777
 20
0.5723069444444446
 30
0.0
 11
4.078784722222222
 21
0.5559041666666668
 31
0.0
 12
4.078784722222222
 22
0.4808625000000001
 32
0.0
 13
4.117368055555555
 23
0.5723069444444446
 33
0.0
  0
SOLID
  5
D7
330
2
100
AcDbEntity
  8
PDF_Layer 1
 62
     7
420
 16777215
440
 33554559
370
    25
100
AcDbTrace
 10
3.19245
 20
11.98314722222222
 30
0.0
 11
3.231019444444445
 21
11.99953611111111
 31
0.0
 12
3.231019444444445
 22
12.07457777777778
 32
0.0
 13
3.269602777777778
 23
11.98314722222222
 33
0.0
  0
SOLID
  5
D8
330
2
100
AcDbEntity
  8
PDF_Layer 1
 62
     7
420
 16777215
440
 33554559
370
    25
100
AcDbTrace
 10
3.19245
 20
6.817084722222221
 30
0.0
 11
3.231019444444445
 21
6.800695833333332
 31
0.0
 12
3.231019444444445
 22
6.725654166666665
 32
0.0
 13
3.269602777777778
 23
6.817084722222221
 33
0.0
  0
LWPOLYLINE
  5
DC
330
2
100
AcDbEntity
  8
PDF_Layer 1
 62
     7
420
 16777215
370
    25
100
AcDbPolyline
 90
        2
 70
     0
 43
0.0
 10
11.87604444444444
 20
0.865423611111111
 10
11.95135
 20
0.865423611111111
  0
LWPOLYLINE
  5
DD
330
2
100
AcDbEntity
  8
PDF_Layer 1
 62
     7
420
 16777215
370
    25
100
AcDbPolyline
 90
        2
 70
     0
 43
0.0
 10
11.95134861111111
 20
0.865423611111111
 10
12.02755694444444
 20
0.865423611111111
  0
LWPOLYLINE
  5
DE
330
2
100
AcDbEntity
  8
PDF_Layer 1
 62
     7
420
 16777215
370
    25
100
AcDbPolyline
 90
        2
 70
     0
 43
0.0
 10
12.02756111111111
 20
0.865423611111111
 10
12.69450555555555
 20
0.865423611111111
  0
LWPOLYLINE
  5
DF
330
2
100
AcDbEntity
  8
PDF_Layer 1
 62
     7
420
 16777215
370
    25
100
AcDbPolyline
 90
        2
 70
     0
 43
0.0
 10
12.74470972222222
 20
0.865423611111111
 10
12.89530694444444
 20
0.865423611111111
  0
LWPOLYLINE
  5
E0
330
2
100
AcDbEntity
  8
PDF_Layer 1
 62
     7
420
 16777215
370
    25
100
AcDbPolyline
 90
        2
 70
     0
 43
0.0
 10
12.94551527777777
 20
0.865423611111111
 10
13.61247361111111
 20
0.865423611111111
  0
LWPOLYLINE
  5
E1
330
2
100
AcDbEntity
  8
PDF_Layer 1
 62
     7
420
 16777215
370
    25
100
AcDbPolyline
 90
        2
 70
     0
 43
0.0
 10
13.61246805555555
 20
0.865423611111111
 10
13.6886625
 20
0.865423611111111
  0
LWPOLYLINE
  5
E2
330
2
100
AcDbEntity
  8
PDF_Layer 1
 62
     7
420
 16777215
370
    25
100
AcDbPolyline
 90
        2
 70
     0
 43
0.0
 10
13.68866666666666
 20
0.865423611111111
 10
13.76397222222222
 20
0.865423611111111
  0
LWPOLYLINE
  5
E3
330
2
100
AcDbEntity
  8
PDF_Layer 1
 62
     7
420
 16777215
370
    25
100
AcDbPolyline
 90
        2
 70
     0
 43
0.0
 10
6.581618055555554
 20
0.865423611111111
 10
6.65692361111111
 20
0.865423611111111
  0
LWPOLYLINE
  5
E4
330
2
100
AcDbEntity
  8
PDF_Layer 1
 62
     7
420
 16777215
370
    25
100
AcDbPolyline
 90
        2
 70
     0
 43
0.0
 10
6.656920833333331
 20
0.865423611111111
 10
6.732212499999998
 20
0.865423611111111
  0
LWPOLYLINE
  5
E5
330
2
100
AcDbEntity
  8
PDF_Layer 1
 62
     7
420
 16777215
370
    25
100
AcDbPolyline
 90
        2
 70
     0
 43
0.0
 10
6.732218055555555
 20
0.865423611111111
 10
7.530940277777777
 20
0.865423611111111
  0
LWPOLYLINE
  5
E6
330
2
100
AcDbEntity
  8
PDF_Layer 1
 62
     7
420
 16777215
370
    25
100
AcDbPolyline
 90
        2
 70
     0
 43
0.0
 10
7.582065277777778
 20
0.865423611111111
 10
7.7326625
 20
0.865423611111111
  0
LWPOLYLINE
  5
E7
330
2
100
AcDbEntity
  8
PDF_Layer 1
 62
     7
420
 16777215
370
    25
100
AcDbPolyline
 90
        2
 70
     0
 43
0.0
 10
7.782843055555554
 20
0.865423611111111
 10
8.582481944444444
 20
0.865423611111111
  0
LWPOLYLINE
  5
E8
330
2
100
AcDbEntity
  8
PDF_Layer 1
 62
     7
420
 16777215
370
    25
100
AcDbPolyline
 90
        2
 70
     0
 43
0.0
 10
8.632690277777777
 20
0.865423611111111
 10
8.783315277777777
 20
0.865423611111111
  0
LWPOLYLINE
  5
E9
330
2
100
AcDbEntity
  8
PDF_Layer 1
 62
     7
420
 16777215
370
    25
100
AcDbPolyline
 90
        2
 70
     0
 43
0.0
 10
8.834377777777778
 20
0.865423611111111
 10
9.633127777777778
 20
0.865423611111111
  0
LWPOLYLINE
  5
EA
330
2
100
AcDbEntity
  8
PDF_Layer 1
 62
     7
420
 16777215
370
    25
100
AcDbPolyline
 90
        2
 70
     0
 43
0.0
 10
9.68333611111111
 20
0.865423611111111
 10
9.83483611111111
 20
0.865423611111111
  0
LWPOLYLINE
  5
EB
330
2
100
AcDbEntity
  8
PDF_Layer 1
 62
     7
420
 16777215
370
    25
100
AcDbPolyline
 90
        2
 70
     0
 43
0.0
 10
9.885037499999999
 20
0.865423611111111
 10
10.68375972222222
 20
0.865423611111111
  0
LWPOLYLINE
  5
EC
330
2
100
AcDbEntity
  8
PDF_Layer 1
 62
     7
420
 16777215
370
    25
100
AcDbPolyline
 90
        2
 70
     0
 43
0.0
 10
10.73396805555555
 20
0.865423611111111
 10
10.88546805555555
 20
0.865423611111111
  0
LWPOLYLINE
  5
ED
330
2
100
AcDbEntity
  8
PDF_Layer 1
 62
     7
420
 16777215
370
    25
100
AcDbPolyline
 90
        2
 70
     0
 43
0.0
 10
10.93568194444444
 20
0.865423611111111
 10
11.73440416666666
 20
0.865423611111111
  0
LWPOLYLINE
  5
EE
330
2
100
AcDbEntity
  8
PDF_Layer 1
 62
     7
420
 16777215
370
    25
100
AcDbPolyline
 90
        2
 70
     0
 43
0.0
 10
11.73440277777777
 20
0.865423611111111
 10
11.81058333333333
 20
0.865423611111111
  0
LWPOLYLINE
  5
EF
330
2
100
AcDbEntity
  8
PDF_Layer 1
 62
     7
420
 16777215
370
    25
100
AcDbPolyline
 90
        2
 70
     0
 43
0.0
 10
11.8105875
 20
0.865423611111111
 10
11.88590694444444
 20
0.865423611111111
  0
LWPOLYLINE
  5
F0
330
2
100
AcDbEntity
  8
PDF_Layer 1
 62
     7
420
 16777215
370
    25
100
AcDbPolyline
 90
        2
 70
     0
 43
0.0
 10
9.259318055555555
 20
1.362955555555555
 10
9.259318055555555
 20
1.28763611111111
  0
LWPOLYLINE
  5
F1
330
2
100
AcDbEntity
  8
PDF_Layer 1
 62
     7
420
 16777215
370
    25
100
AcDbPolyline
 90
        2
 70
     0
 43
0.0
 10
9.259318055555555
 20
1.287638888888888
 10
9.259318055555555
 20
1.211458333333333
  0
LWPOLYLINE
  5
F2
330
2
100
AcDbEntity
  8
PDF_Layer 1
 62
     7
420
 16777215
370
    25
100
AcDbPolyline
 90
        2
 70
     0
 43
0.0
 10
9.259318055555555
 20
1.211452777777777
 10
9.259318055555555
 20
0.9693833333333333
  0
LWPOLYLINE
  5
F3
330
2
100
AcDbEntity
  8
PDF_Layer 1
 62
     7
420
 16777215
370
    25
100
AcDbPolyline
 90
        2
 70
     0
 43
0.0
 10
9.259318055555555
 20
0.9182944444444444
 10
9.259318055555555
 20
0.7676972222222222
  0
LWPOLYLINE
  5
F4
330
2
100
AcDbEntity
  8
PDF_Layer 1
 62
     7
420
 16777215
370
    25
100
AcDbPolyline
 90
        2
 70
     0
 43
0.0
 10
9.259318055555555
 20
0.7175152777777778
 10
9.259318055555555
 20
0.4745430555555556
  0
LWPOLYLINE
  5
F5
330
2
100
AcDbEntity
  8
PDF_Layer 1
 62
     7
420
 16777215
370
    25
100
AcDbPolyline
 90
        2
 70
     0
 43
0.0
 10
9.259318055555555
 20
0.4745416666666667
 10
9.259318055555555
 20
0.398361111111111
  0
LWPOLYLINE
  5
F6
330
2
100
AcDbEntity
  8
PDF_Layer 1
 62
     7
420
 16777215
370
    25
100
AcDbPolyline
 90
        2
 70
     0
 43
0.0
 10
9.259318055555555
 20
0.3983555555555555
 10
9.259318055555555
 20
0.3230361111111111
  0
LWPOLYLINE
  5
F7
330
2
100
AcDbEntity
  8
PDF_Layer 1
 62
     7
420
 16777215
370
    25
100
AcDbPolyline
 90
        2
 70
     0
 43
0.0
 10
8.899834722222223
 20
10.81419583333333
 10
8.793154166666667
 20
10.81419583333333
  0
LWPOLYLINE
  5
F8
330
2
100
AcDbEntity
  8
PDF_Layer 1
 62
     7
420
 16777215
370
    25
100
AcDbPolyline
 90
        3
 70
     0
 43
0.0
 10
9.365984722222222
 20
10.81419583333333
 10
9.259318055555555
 20
10.81419583333333
 10
9.151734722222222
 20
10.81419583333333
  0
LWPOLYLINE
  5
F9
330
2
100
AcDbEntity
  8
PDF_Layer 1
 62
     7
420
 16777215
370
    25
100
AcDbPolyline
 90
        2
 70
     0
 43
0.0
 10
9.10153472222222
 20
10.81419583333333
 10
8.950048611111109
 20
10.81419583333333
  0
LWPOLYLINE
  5
FB
330
2
100
AcDbEntity
  8
PDF_Layer 1
 62
     7
420
 16777215
370
    25
100
AcDbPolyline
 90
        2
 70
     0
 43
0.0
 10
9.416177777777777
 20
10.81419583333333
 10
9.567691666666666
 20
10.81419583333333
  0
LWPOLYLINE
  5
FC
330
2
100
AcDbEntity
  8
PDF_Layer 1
 62
     7
420
 16777215
370
    25
100
AcDbPolyline
 90
        2
 70
     0
 43
0.0
 10
9.617906944444444
 20
10.81419583333333
 10
9.724573611111111
 20
10.81419583333333
  0
LWPOLYLINE
  5
FD
330
2
100
AcDbEntity
  8
PDF_Layer 1
 62
     7
420
 16777215
370
    25
100
AcDbPolyline
 90
        2
 70
     0
 43
0.0
 10
9.259318055555555
 20
11.17366527777778
 10
9.259318055555555
 20
11.28034583333333
  0
LWPOLYLINE
  5
FE
330
2
100
AcDbEntity
  8
PDF_Layer 1
 62
     7
420
 16777215
370
    25
100
AcDbPolyline
 90
        3
 70
     0
 43
0.0
 10
9.259318055555555
 20
10.70751527777777
 10
9.259318055555555
 20
10.81419583333333
 10
9.259318055555555
 20
10.92177916666666
  0
LWPOLYLINE
  5
FF
330
2
100
AcDbEntity
  8
PDF_Layer 1
 62
     7
420
 16777215
370
    25
100
AcDbPolyline
 90
        2
 70
     0
 43
0.0
 10
9.259318055555555
 20
10.97197083333333
 10
9.259318055555555
 20
11.12347083333333
  0
LWPOLYLINE
  5
101
330
2
100
AcDbEntity
  8
PDF_Layer 1
 62
     7
420
 16777215
370
    25
100
AcDbPolyline
 90
        2
 70
     0
 43
0.0
 10
9.259318055555555
 20
10.65731527777777
 10
9.259318055555555
 20
10.50580138888888
  0
LWPOLYLINE
  5
102
330
2
100
AcDbEntity
  8
PDF_Layer 1
 62
     7
420
 16777215
370
    25
100
AcDbPolyline
 90
        2
 70
     0
 43
0.0
 10
9.259318055555555
 20
10.4556
 10
9.259318055555555
 20
10.34803055555555
  0
LWPOLYLINE
  5
103
330
2
100
AcDbEntity
  8
PDF_Layer 1
 62
     7
420
 16777215
370
    25
100
AcDbPolyline
 90
        2
 70
     0
 43
0.0
 10
11.89487083333333
 20
6.910169444444443
 10
11.96120416666666
 20
6.946919444444443
  0
LWPOLYLINE
  5
104
330
2
100
AcDbEntity
  8
PDF_Layer 1
 62
     7
420
 16777215
370
    25
100
AcDbPolyline
 90
        2
 70
     0
 43
0.0
 10
11.96120833333333
 20
6.946919444444444
 10
12.02755555555555
 20
6.982766666666666
  0
LWPOLYLINE
  5
105
330
2
100
AcDbEntity
  8
PDF_Layer 1
 62
     7
420
 16777215
370
    25
100
AcDbPolyline
 90
        2
 70
     0
 43
0.0
 10
12.02756111111111
 20
6.98276111111111
 10
12.70974166666667
 20
7.357483333333332
  0
LWPOLYLINE
  5
106
330
2
100
AcDbEntity
  8
PDF_Layer 1
 62
     7
420
 16777215
370
    25
100
AcDbPolyline
 90
        2
 70
     0
 43
0.0
 10
12.7536625
 20
7.381693055555555
 10
12.88635694444444
 20
7.454304166666665
  0
LWPOLYLINE
  5
107
330
2
100
AcDbEntity
  8
PDF_Layer 1
 62
     7
420
 16777215
370
    25
100
AcDbPolyline
 90
        2
 70
     0
 43
0.0
 10
12.93025694444444
 20
7.47850833333333
 10
13.61246527777778
 20
7.852341666666664
  0
LWPOLYLINE
  5
108
330
2
100
AcDbEntity
  8
PDF_Layer 1
 62
     7
420
 16777215
370
    25
100
AcDbPolyline
 90
        2
 70
     0
 43
0.0
 10
13.61246805555555
 20
7.852336111111108
 10
13.67880138888889
 20
7.888183333333331
  0
LWPOLYLINE
  5
109
330
2
100
AcDbEntity
  8
PDF_Layer 1
 62
     7
420
 16777215
370
    25
100
AcDbPolyline
 90
        2
 70
     0
 43
0.0
 10
13.67880555555555
 20
7.888183333333331
 10
13.74513888888889
 20
7.92494722222222
  0
LWPOLYLINE
  5
10A
330
2
100
AcDbEntity
  8
PDF_Layer 1
 62
     7
420
 16777215
370
    25
100
AcDbPolyline
 90
        2
 70
     0
 43
0.0
 10
6.581618055555554
 20
6.959452777777777
 10
6.65692361111111
 20
6.959452777777777
  0
LWPOLYLINE
  5
10B
330
2
100
AcDbEntity
  8
PDF_Layer 1
 62
     7
420
 16777215
370
    25
100
AcDbPolyline
 90
        2
 70
     0
 43
0.0
 10
6.656920833333331
 20
6.959452777777777
 10
6.732212499999998
 20
6.959452777777777
  0
LWPOLYLINE
  5
10C
330
2
100
AcDbEntity
  8
PDF_Layer 1
 62
     7
420
 16777215
370
    25
100
AcDbPolyline
 90
        2
 70
     0
 43
0.0
 10
6.732218055555555
 20
6.959452777777777
 10
7.530940277777777
 20
6.959452777777777
  0
LWPOLYLINE
  5
10D
330
2
100
AcDbEntity
  8
PDF_Layer 1
 62
     7
420
 16777215
370
    25
100
AcDbPolyline
 90
        2
 70
     0
 43
0.0
 10
7.582065277777778
 20
6.959452777777777
 10
7.7326625
 20
6.959452777777777
  0
LWPOLYLINE
  5
10E
330
2
100
AcDbEntity
  8
PDF_Layer 1
 62
     7
420
 16777215
370
    25
100
AcDbPolyline
 90
        2
 70
     0
 43
0.0
 10
7.782843055555554
 20
6.959452777777777
 10
8.582481944444444
 20
6.959452777777777
  0
LWPOLYLINE
  5
10F
330
2
100
AcDbEntity
  8
PDF_Layer 1
 62
     7
420
 16777215
370
    25
100
AcDbPolyline
 90
        2
 70
     0
 43
0.0
 10
8.632690277777777
 20
6.959452777777777
 10
8.783315277777777
 20
6.959452777777777
  0
LWPOLYLINE
  5
110
330
2
100
AcDbEntity
  8
PDF_Layer 1
 62
     7
420
 16777215
370
    25
100
AcDbPolyline
 90
        2
 70
     0
 43
0.0
 10
8.834377777777778
 20
6.959452777777777
 10
9.633127777777778
 20
6.959452777777777
  0
LWPOLYLINE
  5
111
330
2
100
AcDbEntity
  8
PDF_Layer 1
 62
     7
420
 16777215
370
    25
100
AcDbPolyline
 90
        2
 70
     0
 43
0.0
 10
9.68333611111111
 20
6.959452777777777
 10
9.83483611111111
 20
6.959452777777777
  0
LWPOLYLINE
  5
112
330
2
100
AcDbEntity
  8
PDF_Layer 1
 62
     7
420
 16777215
370
    25
100
AcDbPolyline
 90
        2
 70
     0
 43
0.0
 10
9.885037499999999
 20
6.959452777777777
 10
10.68375972222222
 20
6.959452777777777
  0
LWPOLYLINE
  5
113
330
2
100
AcDbEntity
  8
PDF_Layer 1
 62
     7
420
 16777215
370
    25
100
AcDbPolyline
 90
        2
 70
     0
 43
0.0
 10
10.73396805555555
 20
6.959452777777777
 10
10.88546805555555
 20
6.959452777777777
  0
LWPOLYLINE
  5
114
330
2
100
AcDbEntity
  8
PDF_Layer 1
 62
     7
420
 16777215
370
    25
100
AcDbPolyline
 90
        2
 70
     0
 43
0.0
 10
10.93568194444444
 20
6.959452777777777
 10
11.73440416666666
 20
6.959452777777777
  0
LWPOLYLINE
  5
115
330
2
100
AcDbEntity
  8
PDF_Layer 1
 62
     7
420
 16777215
370
    25
100
AcDbPolyline
 90
        2
 70
     0
 43
0.0
 10
11.73440277777777
 20
6.959452777777777
 10
11.81058333333333
 20
6.959452777777777
  0
LWPOLYLINE
  5
116
330
2
100
AcDbEntity
  8
PDF_Layer 1
 62
     7
420
 16777215
370
    25
100
AcDbPolyline
 90
        2
 70
     0
 43
0.0
 10
11.8105875
 20
6.959452777777777
 10
11.88590694444444
 20
6.959452777777777
  0
LWPOLYLINE
  5
117
330
2
100
AcDbEntity
  8
PDF_Layer 1
 62
     7
420
 16777215
370
    25
100
AcDbPolyline
 90
        2
 70
     0
 43
0.0
 10
6.581618055555554
 20
10.81419583333333
 10
6.65692361111111
 20
10.81419583333333
  0
LWPOLYLINE
  5
118
330
2
100
AcDbEntity
  8
PDF_Layer 1
 62
     7
420
 16777215
370
    25
100
AcDbPolyline
 90
        2
 70
     0
 43
0.0
 10
6.656920833333331
 20
10.81419583333333
 10
6.732212499999998
 20
10.81419583333333
  0
LWPOLYLINE
  5
119
330
2
100
AcDbEntity
  8
PDF_Layer 1
 62
     7
420
 16777215
370
    25
100
AcDbPolyline
 90
        2
 70
     0
 43
0.0
 10
6.732218055555555
 20
10.81419583333333
 10
7.800801388888888
 20
10.81419583333333
  0
LWPOLYLINE
  5
11A
330
2
100
AcDbEntity
  8
PDF_Layer 1
 62
     7
420
 16777215
370
    25
100
AcDbPolyline
 90
        2
 70
     0
 43
0.0
 10
7.851006944444444
 20
10.81419583333333
 10
8.001604166666666
 20
10.81419583333333
  0
LWPOLYLINE
  5
11B
330
2
100
AcDbEntity
  8
PDF_Layer 1
 62
     7
420
 16777215
370
    25
100
AcDbPolyline
 90
        2
 70
     0
 43
0.0
 10
8.052700000000001
 20
10.81419583333333
 10
9.120352777777778
 20
10.81419583333333
  0
LWPOLYLINE
  5
11C
330
2
100
AcDbEntity
  8
PDF_Layer 1
 62
     7
420
 16777215
370
    25
100
AcDbPolyline
 90
        2
 70
     0
 43
0.0
 10
9.120347222222221
 20
10.81419583333333
 10
9.195652777777777
 20
10.81419583333333
  0
LWPOLYLINE
  5
11D
330
2
100
AcDbEntity
  8
PDF_Layer 1
 62
     7
420
 16777215
370
    25
100
AcDbPolyline
 90
        2
 70
     0
 43
0.0
 10
9.195651388888888
 20
10.81419583333333
 10
9.271859722222222
 20
10.81419583333333
  0
LWPOLYLINE
  5
11E
330
2
100
AcDbEntity
  8
PDF_Layer 1
 62
     7
420
 16777215
370
   106
100
AcDbPolyline
 90
        2
 70
     0
 43
0.0
 10
8.943766666666663
 20
1.104763888888888
 10
6.80754444444444
 20
1.104763888888888
  0
LWPOLYLINE
  5
11F
330
2
100
AcDbEntity
  8
PDF_Layer 1
 62
     7
420
 16777215
370
   106
100
AcDbPolyline
 90
        2
 70
     0
 43
0.0
 10
6.807543055555555
 20
0.6260583333333333
 10
8.943765277777778
 20
0.6260583333333333
  0
LWPOLYLINE
  5
120
330
2
100
AcDbEntity
  8
PDF_Layer 1
 62
     7
420
 16777215
370
   106
100
AcDbPolyline
 90
        3
 70
     0
 43
0.0
 10
13.32109583333333
 20
1.104763888888888
 10
13.31662361111111
 20
1.104763888888888
 10
12.27048472222222
 20
1.104763888888888
  0
LWPOLYLINE
  5
121
330
2
100
AcDbEntity
  8
PDF_Layer 1
 62
     7
420
 16777215
370
   106
100
AcDbPolyline
 90
        2
 70
     0
 43
0.0
 10
12.27048055555555
 20
0.6260583333333333
 10
13.31661944444444
 20
0.6260583333333333
  0
LWPOLYLINE
  5
122
330
2
100
AcDbEntity
  8
PDF_Layer 1
 62
     7
420
 16777215
370
   106
100
AcDbPolyline
 90
        3
 70
     0
 43
0.0
 10
11.78640416666666
 20
1.104763888888888
 10
11.65908472222222
 20
1.104763888888888
 10
9.57395972222222
 20
1.104763888888888
  0
LWPOLYLINE
  5
123
330
2
100
AcDbEntity
  8
PDF_Layer 1
 62
     7
420
 16777215
370
   106
100
AcDbPolyline
 90
        2
 70
     0
 43
0.0
 10
9.573961111111108
 20
0.6260583333333333
 10
11.6590861111111
 20
0.6260583333333333
  0
LWPOLYLINE
  5
124
330
2
100
AcDbEntity
  8
PDF_Layer 1
 62
     7
420
 16777215
370
   106
100
AcDbPolyline
 90
        2
 70
     0
 43
0.0
 10
13.33455416666666
 20
0.6260583333333333
 10
13.36952638888889
 20
0.6260583333333333
  0
LWPOLYLINE
  5
125
330
2
100
AcDbEntity
  8
PDF_Layer 1
 62
     7
420
 16777215
370
   106
100
AcDbPolyline
 90
        3
 70
     0
 43
0.0
 10
13.40178472222222
 20
1.095791666666666
 10
13.36952083333333
 20
1.104763888888888
 10
13.33454861111111
 20
1.104763888888888
  0
LWPOLYLINE
  5
126
330
2
100
AcDbEntity
  8
PDF_Layer 1
 62
     7
420
 16777215
370
   106
100
AcDbPolyline
 90
        3
 70
     0
 43
0.0
 10
9.568572222222218
 20
0.5498722222222222
 10
9.573961111111108
 20
0.5498722222222222
 10
9.573961111111108
 20
1.136163888888888
  0
LWPOLYLINE
  5
127
330
2
100
AcDbEntity
  8
PDF_Layer 1
 62
     7
420
 16777215
370
   106
100
AcDbPolyline
 90
        4
 70
     0
 43
0.0
 10
8.943766666666663
 20
0.6260583333333333
 10
8.943766666666663
 20
0.5498777777777777
 42
0.1044334644366585
 10
9.259322222222218
 20
0.4808583333333314
 42
0.1044337330777366
 10
9.573956944444443
 20
0.5498763888888871
  0
LWPOLYLINE
  5
128
330
2
100
AcDbEntity
  8
PDF_Layer 1
 62
     7
420
 16777215
370
   106
100
AcDbPolyline
 90
        2
 70
     0
 43
0.0
 10
8.943766666666663
 20
1.136162499999999
 10
8.943766666666663
 20
1.104759722222222
  0
LWPOLYLINE
  5
129
330
2
100
AcDbEntity
  8
PDF_Layer 1
 62
     7
420
 16777215
370
   106
100
AcDbPolyline
 90
        2
 70
     0
 43
0.0
 10
6.807543055555555
 20
1.104763888888888
 10
6.664084722222222
 20
1.104763888888888
  0
LWPOLYLINE
  5
12A
330
2
100
AcDbEntity
  8
PDF_Layer 1
 62
     7
420
 16777215
370
   106
100
AcDbPolyline
 90
        2
 70
     0
 43
0.0
 10
6.664083333333333
 20
1.104763888888888
 10
6.520666666666666
 20
1.104763888888888
  0
LWPOLYLINE
  5
12B
330
2
100
AcDbEntity
  8
PDF_Layer 1
 62
     7
420
 16777215
370
   106
100
AcDbPolyline
 90
        2
 70
     0
 43
0.0
 10
6.520663888888888
 20
1.104763888888888
 10
6.379024999999999
 20
1.104763888888888
  0
LWPOLYLINE
  5
12C
330
2
100
AcDbEntity
  8
PDF_Layer 1
 62
     7
420
 16777215
370
   106
100
AcDbPolyline
 90
        3
 70
     0
 43
0.0
 10
6.379022222222221
 20
1.104763888888888
 10
6.240077777777777
 20
1.104763888888888
 10
6.103813888888888
 20
1.104763888888888
  0
LWPOLYLINE
  5
12E
330
2
100
AcDbEntity
  8
PDF_Layer 1
 62
     7
420
 16777215
370
   106
100
AcDbPolyline
 90
        2
 70
     0
 43
0.0
 10
6.103820833333331
 20
1.104763888888888
 10
5.972043055555554
 20
1.104763888888888
  0
LWPOLYLINE
  5
12F
330
2
100
AcDbEntity
  8
PDF_Layer 1
 62
     7
420
 16777215
370
   106
100
AcDbPolyline
 90
        2
 70
     0
 43
0.0
 10
5.972038888888888
 20
1.104763888888888
 10
5.844733333333332
 20
1.104763888888888
  0
LWPOLYLINE
  5
130
330
2
100
AcDbEntity
  8
PDF_Layer 1
 62
     7
420
 16777215
370
   106
100
AcDbPolyline
 90
        2
 70
     0
 43
0.0
 10
5.844740277777776
 20
1.104763888888888
 10
5.72282361111111
 20
1.104763888888888
  0
LWPOLYLINE
  5
131
330
2
100
AcDbEntity
  8
PDF_Layer 1
 62
     7
420
 16777215
370
   106
100
AcDbPolyline
 90
        2
 70
     0
 43
0.0
 10
5.722826388888888
 20
1.104763888888888
 10
5.607187499999999
 20
1.104763888888888
  0
LWPOLYLINE
  5
132
330
2
100
AcDbEntity
  8
PDF_Layer 1
 62
     7
420
 16777215
370
   106
100
AcDbPolyline
 90
        3
 70
     0
 43
0.0
 10
5.607184722222221
 20
1.104763888888888
 10
5.49782361111111
 20
1.104763888888888
 10
5.395629166666665
 20
1.104763888888888
  0
LWPOLYLINE
  5
134
330
2
100
AcDbEntity
  8
PDF_Layer 1
 62
     7
420
 16777215
370
   106
100
AcDbPolyline
 90
        2
 70
     0
 43
0.0
 10
5.39562361111111
 20
1.104763888888888
 10
5.30149861111111
 20
1.104763888888888
  0
LWPOLYLINE
  5
135
330
2
100
AcDbEntity
  8
PDF_Layer 1
 62
     7
420
 16777215
370
   106
100
AcDbPolyline
 90
        2
 70
     0
 43
0.0
 10
5.301493055555554
 20
1.104763888888888
 10
5.216326388888887
 20
1.104763888888888
  0
LWPOLYLINE
  5
136
330
2
100
AcDbEntity
  8
PDF_Layer 1
 62
     7
420
 16777215
370
   106
100
AcDbPolyline
 90
        2
 70
     0
 43
0.0
 10
5.216329166666666
 20
1.104763888888888
 10
5.139231944444444
 20
1.104763888888888
  0
LWPOLYLINE
  5
137
330
2
100
AcDbEntity
  8
PDF_Layer 1
 62
     7
420
 16777215
370
   106
100
AcDbPolyline
 90
        2
 70
     0
 43
0.0
 10
5.139234722222221
 20
1.104763888888888
 10
5.072012499999999
 20
1.104763888888888
  0
LWPOLYLINE
  5
138
330
2
100
AcDbEntity
  8
PDF_Layer 1
 62
     7
420
 16777215
370
   106
100
AcDbPolyline
 90
        2
 70
     0
 43
0.0
 10
5.072008333333333
 20
1.104763888888888
 10
5.014633333333333
 20
1.104763888888888
  0
LWPOLYLINE
  5
139
330
2
100
AcDbEntity
  8
PDF_Layer 1
 62
     7
420
 16777215
370
   106
100
AcDbPolyline
 90
        2
 70
     0
 43
0.0
 10
5.014627777777777
 20
1.104763888888888
 10
4.967113888888888
 20
1.104763888888888
  0
LWPOLYLINE
  5
13A
330
2
100
AcDbEntity
  8
PDF_Layer 1
 62
     7
420
 16777215
370
   106
100
AcDbPolyline
 90
        2
 70
     0
 43
0.0
 10
4.967115277777777
 20
1.104763888888888
 10
4.929476388888888
 20
1.104763888888888
  0
LWPOLYLINE
  5
13B
330
2
100
AcDbEntity
  8
PDF_Layer 1
 62
     7
420
 16777215
370
   106
100
AcDbPolyline
 90
        2
 70
     0
 43
0.0
 10
4.929477777777777
 20
1.104763888888888
 10
4.902574999999999
 20
1.104763888888888
  0
LWPOLYLINE
  5
13C
330
2
100
AcDbEntity
  8
PDF_Layer 1
 62
     7
420
 16777215
370
   106
100
AcDbPolyline
 90
        2
 70
     0
 43
0.0
 10
4.902568055555555
 20
1.104763888888888
 10
4.886429166666666
 20
1.104763888888888
  0
LWPOLYLINE
  5
13D
330
2
100
AcDbEntity
  8
PDF_Layer 1
 62
     7
420
 16777215
370
   106
100
AcDbPolyline
 90
       24
 70
     0
 43
0.0
 10
4.886427777777777
 20
1.104763888888888
 10
4.881066666666666
 20
1.104763888888888
 42
0.9962572933692749
 10
4.881062499999998
 20
0.6260583333333333
 10
4.886427777777777
 20
0.6260583333333333
 10
4.902568055555555
 20
0.6260583333333333
 10
4.929477777777777
 20
0.6260583333333333
 10
4.967115277777777
 20
0.6260583333333333
 10
5.014627777777777
 20
0.6260583333333333
 10
5.072008333333333
 20
0.6260583333333333
 10
5.139234722222221
 20
0.6260583333333333
 10
5.216329166666666
 20
0.6260583333333333
 10
5.301493055555554
 20
0.6260583333333333
 10
5.39562361111111
 20
0.6260583333333333
 10
5.49782361111111
 20
0.6260583333333333
 10
5.607184722222221
 20
0.6260583333333333
 10
5.722826388888888
 20
0.6260583333333333
 10
5.844740277777776
 20
0.6260583333333333
 10
5.972038888888888
 20
0.6260583333333333
 10
6.103820833333331
 20
0.6260583333333333
 10
6.240077777777777
 20
0.6260583333333333
 10
6.379022222222221
 20
0.6260583333333333
 10
6.520663888888888
 20
0.6260583333333333
 10
6.664083333333333
 20
0.6260583333333333
 10
6.807541666666666
 20
0.6260583333333333
  0
LWPOLYLINE
  5
153
330
2
100
AcDbEntity
  8
PDF_Layer 1
 62
     7
420
 16777215
370
   106
100
AcDbPolyline
 90
        2
 70
     0
 43
0.0
 10
12.27048055555555
 20
1.104763888888888
 10
12.15574444444444
 20
1.104763888888888
  0
LWPOLYLINE
  5
154
330
2
100
AcDbEntity
  8
PDF_Layer 1
 62
     7
420
 16777215
370
   106
100
AcDbPolyline
 90
        2
 70
     0
 43
0.0
 10
12.15574861111111
 20
1.104763888888888
 10
12.03562361111111
 20
1.104763888888888
  0
LWPOLYLINE
  5
155
330
2
100
AcDbEntity
  8
PDF_Layer 1
 62
     7
420
 16777215
370
   106
100
AcDbPolyline
 90
        2
 70
     0
 43
0.0
 10
12.03561805555555
 20
1.104763888888888
 10
11.91279861111111
 20
1.104763888888888
  0
LWPOLYLINE
  5
156
330
2
100
AcDbEntity
  8
PDF_Layer 1
 62
     7
420
 16777215
370
   106
100
AcDbPolyline
 90
        2
 70
     0
 43
0.0
 10
11.91280138888889
 20
1.104763888888888
 10
11.78639861111111
 20
1.104763888888888
  0
LWPOLYLINE
  5
158
330
2
100
AcDbEntity
  8
PDF_Layer 1
 62
     7
420
 16777215
370
   106
100
AcDbPolyline
 90
        3
 70
     0
 43
0.0
 10
11.65908472222222
 20
0.6260583333333333
 10
11.78640416666666
 20
0.6260583333333333
 10
11.91280694444444
 20
0.6260583333333333
  0
LWPOLYLINE
  5
15A
330
2
100
AcDbEntity
  8
PDF_Layer 1
 62
     7
420
 16777215
370
   106
100
AcDbPolyline
 90
        2
 70
     0
 43
0.0
 10
11.91280138888889
 20
0.6260583333333333
 10
12.03562083333333
 20
0.6260583333333333
  0
LWPOLYLINE
  5
15B
330
2
100
AcDbEntity
  8
PDF_Layer 1
 62
     7
420
 16777215
370
   106
100
AcDbPolyline
 90
        2
 70
     0
 43
0.0
 10
12.03561805555555
 20
0.6260583333333333
 10
12.15574305555555
 20
0.6260583333333333
  0
LWPOLYLINE
  5
15C
330
2
100
AcDbEntity
  8
PDF_Layer 1
 62
     7
420
 16777215
370
   106
100
AcDbPolyline
 90
        2
 70
     0
 43
0.0
 10
12.15574861111111
 20
0.6260583333333333
 10
12.27048472222222
 20
0.6260583333333333
  0
LWPOLYLINE
  5
15D
330
2
100
AcDbEntity
  8
PDF_Layer 1
 62
     7
420
 16777215
370
   106
100
AcDbPolyline
 90
        2
 70
     0
 43
0.0
 10
8.06165972222222
 20
3.791408333333332
 10
8.067048611111109
 20
3.791408333333332
  0
LWPOLYLINE
  5
15E
330
2
100
AcDbEntity
  8
PDF_Layer 1
 62
     7
420
 16777215
370
   106
100
AcDbPolyline
 90
        2
 70
     0
 43
0.0
 10
8.067043055555553
 20
3.791408333333332
 10
8.083181944444442
 20
3.791408333333332
  0
LWPOLYLINE
  5
15F
330
2
100
AcDbEntity
  8
PDF_Layer 1
 62
     7
420
 16777215
370
   106
100
AcDbPolyline
 90
        3
 70
     0
 43
0.0
 10
8.083177777777779
 20
3.791408333333332
 10
8.110066666666666
 20
3.791408333333332
 10
8.146816666666666
 20
3.791408333333332
  0
LWPOLYLINE
  5
161
330
2
100
AcDbEntity
  8
PDF_Layer 1
 62
     7
420
 16777215
370
   106
100
AcDbPolyline
 90
        2
 70
     0
 43
0.0
 10
8.146823611111111
 20
3.791408333333332
 10
8.19432361111111
 20
3.791408333333332
  0
LWPOLYLINE
  5
162
330
2
100
AcDbEntity
  8
PDF_Layer 1
 62
     7
420
 16777215
370
   106
100
AcDbPolyline
 90
        2
 70
     0
 43
0.0
 10
8.19432222222222
 20
3.791408333333332
 10
8.251711111111109
 20
3.791408333333332
  0
LWPOLYLINE
  5
163
330
2
100
AcDbEntity
  8
PDF_Layer 1
 62
     7
420
 16777215
370
   106
100
AcDbPolyline
 90
        2
 70
     0
 43
0.0
 10
8.251708333333333
 20
3.791408333333332
 10
8.318027777777777
 20
3.791408333333332
  0
LWPOLYLINE
  5
164
330
2
100
AcDbEntity
  8
PDF_Layer 1
 62
     7
420
 16777215
370
   106
100
AcDbPolyline
 90
        2
 70
     0
 43
0.0
 10
8.318033333333334
 20
3.791408333333332
 10
8.392436111111111
 20
3.791408333333332
  0
LWPOLYLINE
  5
165
330
2
100
AcDbEntity
  8
PDF_Layer 1
 62
     7
420
 16777215
370
   106
100
AcDbPolyline
 90
        2
 70
     0
 43
0.0
 10
8.392443055555554
 20
3.791408333333332
 10
8.474929166666665
 20
3.791408333333332
  0
LWPOLYLINE
  5
166
330
2
100
AcDbEntity
  8
PDF_Layer 1
 62
     7
420
 16777215
370
   106
100
AcDbPolyline
 90
        2
 70
     0
 43
0.0
 10
8.474934722222222
 20
3.791408333333332
 10
8.564573611111111
 20
3.791408333333332
  0
LWPOLYLINE
  5
167
330
2
100
AcDbEntity
  8
PDF_Layer 1
 62
     7
420
 16777215
370
   106
100
AcDbPolyline
 90
        2
 70
     0
 43
0.0
 10
8.564574999999999
 20
3.791408333333332
 10
8.660477777777776
 20
3.791408333333332
  0
LWPOLYLINE
  5
168
330
2
100
AcDbEntity
  8
PDF_Layer 1
 62
     7
420
 16777215
370
   106
100
AcDbPolyline
 90
        3
 70
     0
 43
0.0
 10
8.660481944444445
 20
3.791408333333332
 10
8.761759722222221
 20
3.791408333333332
 10
8.867565277777776
 20
3.791408333333332
  0
LWPOLYLINE
  5
16A
330
2
100
AcDbEntity
  8
PDF_Layer 1
 62
     7
420
 16777215
370
   106
100
AcDbPolyline
 90
        3
 70
     0
 43
0.0
 10
8.762663888888887
 20
3.791408333333332
 10
8.867566666666665
 20
3.791408333333332
 10
8.976927777777776
 20
3.791408333333332
  0
LWPOLYLINE
  5
16B
330
2
100
AcDbEntity
  8
PDF_Layer 1
 62
     7
420
 16777215
370
   106
100
AcDbPolyline
 90
        3
 70
     0
 43
0.0
 10
8.867568055555555
 20
3.791408333333332
 10
8.976929166666666
 20
3.791408333333332
 10
9.088095833333333
 20
3.791408333333332
  0
LWPOLYLINE
  5
16C
330
2
100
AcDbEntity
  8
PDF_Layer 1
 62
     7
420
 16777215
370
   106
100
AcDbPolyline
 90
        2
 70
     0
 43
0.0
 10
9.088094444444442
 20
3.791408333333332
 10
9.201941666666664
 20
3.791408333333332
  0
LWPOLYLINE
  5
16D
330
2
100
AcDbEntity
  8
PDF_Layer 1
 62
     7
420
 16777215
370
   106
100
AcDbPolyline
 90
        3
 70
     0
 43
0.0
 10
9.088986111111109
 20
3.791408333333332
 10
9.201944444444443
 20
3.791408333333332
 10
9.315791666666665
 20
3.791408333333332
  0
LWPOLYLINE
  5
16E
330
2
100
AcDbEntity
  8
PDF_Layer 1
 62
     7
420
 16777215
370
   106
100
AcDbPolyline
 90
        3
 70
     0
 43
0.0
 10
9.201948611111109
 20
3.791408333333332
 10
9.315795833333332
 20
3.791408333333332
 10
9.429643055555555
 20
3.791408333333332
  0
LWPOLYLINE
  5
16F
330
2
100
AcDbEntity
  8
PDF_Layer 1
 62
     7
420
 16777215
370
   106
100
AcDbPolyline
 90
        2
 70
     0
 43
0.0
 10
9.42964722222222
 20
3.791408333333332
 10
9.540786111111108
 20
3.791408333333332
  0
LWPOLYLINE
  5
170
330
2
100
AcDbEntity
  8
PDF_Layer 1
 62
     7
420
 16777215
370
   106
100
AcDbPolyline
 90
        4
 70
     0
 43
0.0
 10
9.650173611111108
 20
3.791408333333332
 10
9.54078472222222
 20
3.791408333333332
 10
9.650173611111108
 20
3.791408333333332
 10
9.755951388888886
 20
3.791408333333332
  0
LWPOLYLINE
  5
172
330
2
100
AcDbEntity
  8
PDF_Layer 1
 62
     7
420
 16777215
370
   106
100
AcDbPolyline
 90
        3
 70
     0
 43
0.0
 10
9.755954166666667
 20
3.791408333333332
 10
9.857259722222222
 20
3.791408333333332
 10
9.95314861111111
 20
3.791408333333332
  0
LWPOLYLINE
  5
174
330
2
100
AcDbEntity
  8
PDF_Layer 1
 62
     7
420
 16777215
370
   106
100
AcDbPolyline
 90
        3
 70
     0
 43
0.0
 10
9.953152777777775
 20
3.791408333333332
 10
10.04280555555555
 20
3.791408333333332
 10
10.12527777777777
 20
3.791408333333332
  0
LWPOLYLINE
  5
176
330
2
100
AcDbEntity
  8
PDF_Layer 1
 62
     7
420
 16777215
370
   106
100
AcDbPolyline
 90
        2
 70
     0
 43
0.0
 10
10.12528472222222
 20
3.791408333333332
 10
10.20059027777777
 20
3.791408333333332
  0
LWPOLYLINE
  5
177
330
2
100
AcDbEntity
  8
PDF_Layer 1
 62
     7
420
 16777215
370
   106
100
AcDbPolyline
 90
        2
 70
     0
 43
0.0
 10
10.20058888888889
 20
3.791408333333332
 10
10.26603333333333
 20
3.791408333333332
  0
LWPOLYLINE
  5
178
330
2
100
AcDbEntity
  8
PDF_Layer 1
 62
     7
420
 16777215
370
   106
100
AcDbPolyline
 90
        2
 70
     0
 43
0.0
 10
10.26603194444444
 20
3.791408333333332
 10
10.32339305555555
 20
3.791408333333332
  0
LWPOLYLINE
  5
179
330
2
100
AcDbEntity
  8
PDF_Layer 1
 62
     7
420
 16777215
370
   106
100
AcDbPolyline
 90
        2
 70
     0
 43
0.0
 10
10.32339166666667
 20
3.791408333333332
 10
10.37089166666667
 20
3.791408333333332
  0
LWPOLYLINE
  5
17A
330
2
100
AcDbEntity
  8
PDF_Layer 1
 62
     7
420
 16777215
370
   106
100
AcDbPolyline
 90
        2
 70
     0
 43
0.0
 10
10.37089027777778
 20
3.791408333333332
 10
10.40764027777777
 20
3.791408333333332
  0
LWPOLYLINE
  5
17B
330
2
100
AcDbEntity
  8
PDF_Layer 1
 62
     7
420
 16777215
370
   106
100
AcDbPolyline
 90
        2
 70
     0
 43
0.0
 10
10.40764722222222
 20
3.791408333333332
 10
10.43455
 20
3.791408333333332
  0
LWPOLYLINE
  5
17C
330
2
100
AcDbEntity
  8
PDF_Layer 1
 62
     7
420
 16777215
370
   106
100
AcDbPolyline
 90
        2
 70
     0
 43
0.0
 10
10.43455694444444
 20
3.791408333333332
 10
10.45069583333333
 20
3.791408333333332
  0
LWPOLYLINE
  5
17D
330
2
100
AcDbEntity
  8
PDF_Layer 1
 62
     7
420
 16777215
370
   106
100
AcDbPolyline
 90
        2
 70
     0
 43
0.0
 10
10.45069722222222
 20
3.791408333333332
 10
10.45607222222222
 20
3.791408333333332
  0
LWPOLYLINE
  5
17E
330
2
100
AcDbEntity
  8
PDF_Layer 1
 62
     7
420
 16777215
370
   106
100
AcDbPolyline
 90
        2
 70
     0
 43
0.0
 10
10.45429166666666
 20
3.791408333333332
 10
10.44890277777777
 20
3.791408333333332
  0
LWPOLYLINE
  5
17F
330
2
100
AcDbEntity
  8
PDF_Layer 1
 62
     7
420
 16777215
370
   106
100
AcDbPolyline
 90
        2
 70
     0
 43
0.0
 10
10.44890694444444
 20
3.791408333333332
 10
10.43276805555555
 20
3.791408333333332
  0
LWPOLYLINE
  5
180
330
2
100
AcDbEntity
  8
PDF_Layer 1
 62
     7
420
 16777215
370
   106
100
AcDbPolyline
 90
        2
 70
     0
 43
0.0
 10
10.43276666666666
 20
3.791408333333332
 10
10.40586388888889
 20
3.791408333333332
  0
LWPOLYLINE
  5
181
330
2
100
AcDbEntity
  8
PDF_Layer 1
 62
     7
420
 16777215
370
   106
100
AcDbPolyline
 90
        3
 70
     0
 43
0.0
 10
10.40587083333333
 20
3.791408333333332
 10
10.36821805555555
 20
3.791408333333332
 10
10.32160694444444
 20
3.791408333333332
  0
LWPOLYLINE
  5
183
330
2
100
AcDbEntity
  8
PDF_Layer 1
 62
     7
420
 16777215
370
   106
100
AcDbPolyline
 90
        2
 70
     0
 43
0.0
 10
10.32160138888889
 20
3.791408333333332
 10
10.26422638888889
 20
3.791408333333332
  0
LWPOLYLINE
  5
184
330
2
100
AcDbEntity
  8
PDF_Layer 1
 62
     7
420
 16777215
370
   106
100
AcDbPolyline
 90
        2
 70
     0
 43
0.0
 10
10.26422777777778
 20
3.791408333333332
 10
10.19879722222222
 20
3.791408333333332
  0
LWPOLYLINE
  5
185
330
2
100
AcDbEntity
  8
PDF_Layer 1
 62
     7
420
 16777215
370
   106
100
AcDbPolyline
 90
        2
 70
     0
 43
0.0
 10
10.19879861111111
 20
3.791408333333332
 10
10.12438194444444
 20
3.791408333333332
  0
LWPOLYLINE
  5
186
330
2
100
AcDbEntity
  8
PDF_Layer 1
 62
     7
420
 16777215
370
   106
100
AcDbPolyline
 90
        2
 70
     0
 43
0.0
 10
10.12437638888888
 20
3.791408333333332
 10
10.04191805555555
 20
3.791408333333332
  0
LWPOLYLINE
  5
187
330
2
100
AcDbEntity
  8
PDF_Layer 1
 62
     7
420
 16777215
370
   106
100
AcDbPolyline
 90
        2
 70
     0
 43
0.0
 10
10.041925
 20
3.791408333333332
 10
9.952258333333332
 20
3.791408333333332
  0
LWPOLYLINE
  5
188
330
2
100
AcDbEntity
  8
PDF_Layer 1
 62
     7
420
 16777215
370
   106
100
AcDbPolyline
 90
        2
 70
     0
 43
0.0
 10
9.952256944444442
 20
3.791408333333332
 10
9.856354166666665
 20
3.791408333333332
  0
LWPOLYLINE
  5
189
330
2
100
AcDbEntity
  8
PDF_Layer 1
 62
     7
420
 16777215
370
   106
100
AcDbPolyline
 90
        2
 70
     0
 43
0.0
 10
9.856349999999997
 20
3.791408333333332
 10
9.755044444444441
 20
3.791408333333332
  0
LWPOLYLINE
  5
18A
330
2
100
AcDbEntity
  8
PDF_Layer 1
 62
     7
420
 16777215
370
   106
100
AcDbPolyline
 90
        2
 70
     0
 43
0.0
 10
9.755045833333332
 20
3.791408333333332
 10
9.650170833333332
 20
3.791408333333332
  0
LWPOLYLINE
  5
18C
330
2
100
AcDbEntity
  8
PDF_Layer 1
 62
     7
420
 16777215
370
   106
100
AcDbPolyline
 90
        2
 70
     0
 43
0.0
 10
9.54078472222222
 20
3.791408333333332
 10
9.428743055555553
 20
3.791408333333332
  0
LWPOLYLINE
  5
18D
330
2
100
AcDbEntity
  8
PDF_Layer 1
 62
     7
420
 16777215
370
   106
100
AcDbPolyline
 90
        2
 70
     0
 43
0.0
 10
9.428737499999998
 20
3.791408333333332
 10
9.315793055555554
 20
3.791408333333332
  0
LWPOLYLINE
  5
190
330
2
100
AcDbEntity
  8
PDF_Layer 1
 62
     7
420
 16777215
370
   106
100
AcDbPolyline
 90
        2
 70
     0
 43
0.0
 10
9.088988888888886
 20
3.791408333333332
 10
8.976933333333331
 20
3.791408333333332
  0
LWPOLYLINE
  5
193
330
2
100
AcDbEntity
  8
PDF_Layer 1
 62
     7
420
 16777215
370
   106
100
AcDbPolyline
 90
        3
 70
     0
 43
0.0
 10
8.762668055555554
 20
3.791408333333332
 10
8.661376388888887
 20
3.791408333333332
 10
8.56545972222222
 20
3.791408333333332
  0
LWPOLYLINE
  5
195
330
2
100
AcDbEntity
  8
PDF_Layer 1
 62
     7
420
 16777215
370
   106
100
AcDbPolyline
 90
        2
 70
     0
 43
0.0
 10
8.565456944444443
 20
3.791408333333332
 10
8.475818055555555
 20
3.791408333333332
  0
LWPOLYLINE
  5
196
330
2
100
AcDbEntity
  8
PDF_Layer 1
 62
     7
420
 16777215
370
   106
100
AcDbPolyline
 90
        2
 70
     0
 43
0.0
 10
8.475816666666666
 20
3.791408333333332
 10
8.394247222222222
 20
3.791408333333332
  0
LWPOLYLINE
  5
197
330
2
100
AcDbEntity
  8
PDF_Layer 1
 62
     7
420
 16777215
370
   106
100
AcDbPolyline
 90
        2
 70
     0
 43
0.0
 10
8.394245833333332
 20
3.791408333333332
 10
8.318940277777777
 20
3.791408333333332
  0
LWPOLYLINE
  5
198
330
2
100
AcDbEntity
  8
PDF_Layer 1
 62
     7
420
 16777215
370
   106
100
AcDbPolyline
 90
        2
 70
     0
 43
0.0
 10
8.318943055555553
 20
3.791408333333332
 10
8.25348472222222
 20
3.791408333333332
  0
LWPOLYLINE
  5
199
330
2
100
AcDbEntity
  8
PDF_Layer 1
 62
     7
420
 16777215
370
   106
100
AcDbPolyline
 90
        2
 70
     0
 43
0.0
 10
8.25348611111111
 20
3.791408333333332
 10
8.196124999999998
 20
3.791408333333332
  0
LWPOLYLINE
  5
19A
330
2
100
AcDbEntity
  8
PDF_Layer 1
 62
     7
420
 16777215
370
   106
100
AcDbPolyline
 90
        2
 70
     0
 43
0.0
 10
8.196119444444443
 20
3.791408333333332
 10
8.149508333333331
 20
3.791408333333332
  0
LWPOLYLINE
  5
19B
330
2
100
AcDbEntity
  8
PDF_Layer 1
 62
     7
420
 16777215
370
   106
100
AcDbPolyline
 90
        2
 70
     0
 43
0.0
 10
8.149502777777776
 20
3.791408333333332
 10
8.111849999999998
 20
3.791408333333332
  0
LWPOLYLINE
  5
19C
330
2
100
AcDbEntity
  8
PDF_Layer 1
 62
     7
420
 16777215
370
   106
100
AcDbPolyline
 90
        2
 70
     0
 43
0.0
 10
8.111843055555555
 20
3.791408333333332
 10
8.084968055555554
 20
3.791408333333332
  0
LWPOLYLINE
  5
19D
330
2
100
AcDbEntity
  8
PDF_Layer 1
 62
     7
420
 16777215
370
   106
100
AcDbPolyline
 90
        2
 70
     0
 43
0.0
 10
8.084975
 20
3.791408333333332
 10
8.06883611111111
 20
3.791408333333332
  0
LWPOLYLINE
  5
19E
330
2
100
AcDbEntity
  8
PDF_Layer 1
 62
     7
420
 16777215
370
   106
100
AcDbPolyline
 90
        2
 70
     0
 43
0.0
 10
8.068840277777775
 20
3.791408333333332
 10
8.063423611111108
 20
3.791408333333332
  0
LWPOLYLINE
  5
19F
330
2
100
AcDbEntity
  8
PDF_Layer 1
 62
     7
420
 16777215
370
   106
100
AcDbPolyline
 90
        2
 70
     0
 43
0.0
 10
13.32109861111111
 20
0.6260583333333333
 10
13.29600138888889
 20
0.6341416666666666
  0
LWPOLYLINE
  5
1A0
330
2
100
AcDbEntity
  8
PDF_Layer 1
 62
     7
420
 16777215
370
   106
100
AcDbPolyline
 90
        2
 70
     0
 43
0.0
 10
13.29600694444444
 20
0.6341416666666666
 10
13.2726875
 20
0.6529611111111111
  0
LWPOLYLINE
  5
1A1
330
2
100
AcDbEntity
  8
PDF_Layer 1
 62
     7
420
 16777215
370
   106
100
AcDbPolyline
 90
        2
 70
     0
 43
0.0
 10
13.27269166666666
 20
0.6529680555555555
 10
13.25210833333333
 20
0.6816347222222222
  0
LWPOLYLINE
  5
1A2
330
2
100
AcDbEntity
  8
PDF_Layer 1
 62
     7
420
 16777215
370
   106
100
AcDbPolyline
 90
        3
 70
     0
 43
0.0
 10
13.25210277777778
 20
0.6816402777777779
 10
13.23417222222222
 20
0.7192791666666667
 10
13.22160277777777
 20
0.7641125
  0
LWPOLYLINE
  5
1A4
330
2
100
AcDbEntity
  8
PDF_Layer 1
 62
     7
420
 16777215
370
   106
100
AcDbPolyline
 90
        2
 70
     0
 43
0.0
 10
13.22159861111111
 20
0.7641055555555555
 10
13.21355694444444
 20
0.8134249999999999
  0
LWPOLYLINE
  5
1A5
330
2
100
AcDbEntity
  8
PDF_Layer 1
 62
     7
420
 16777215
370
   106
100
AcDbPolyline
 90
        2
 70
     0
 43
0.0
 10
13.21355555555555
 20
0.8134222222222222
 10
13.210875
 20
0.8654222222222221
  0
LWPOLYLINE
  5
1A6
330
2
100
AcDbEntity
  8
PDF_Layer 1
 62
     7
420
 16777215
370
   106
100
AcDbPolyline
 90
        2
 70
     0
 43
0.0
 10
13.21086944444444
 20
0.865423611111111
 10
13.21355
 20
0.9173819444444443
  0
LWPOLYLINE
  5
1A7
330
2
100
AcDbEntity
  8
PDF_Layer 1
 62
     7
420
 16777215
370
   106
100
AcDbPolyline
 90
        2
 70
     0
 43
0.0
 10
13.21355555555555
 20
0.917386111111111
 10
13.22159722222222
 20
0.9667055555555554
  0
LWPOLYLINE
  5
1A8
330
2
100
AcDbEntity
  8
PDF_Layer 1
 62
     7
420
 16777215
370
   106
100
AcDbPolyline
 90
        2
 70
     0
 43
0.0
 10
13.22159861111111
 20
0.9667013888888886
 10
13.23416805555555
 20
1.011534722222221
  0
LWPOLYLINE
  5
1A9
330
2
100
AcDbEntity
  8
PDF_Layer 1
 62
     7
420
 16777215
370
   106
100
AcDbPolyline
 90
        2
 70
     0
 43
0.0
 10
13.23417222222222
 20
1.011529166666666
 10
13.25210277777777
 20
1.049168055555555
  0
LWPOLYLINE
  5
1AA
330
2
100
AcDbEntity
  8
PDF_Layer 1
 62
     7
420
 16777215
370
   106
100
AcDbPolyline
 90
        2
 70
     0
 43
0.0
 10
13.25210277777778
 20
1.049166666666666
 10
13.27268611111111
 20
1.078763888888889
  0
LWPOLYLINE
  5
1AB
330
2
100
AcDbEntity
  8
PDF_Layer 1
 62
     7
420
 16777215
370
   106
100
AcDbPolyline
 90
        2
 70
     0
 43
0.0
 10
13.27269166666666
 20
1.078762499999999
 10
13.29601111111111
 20
1.096720833333333
  0
LWPOLYLINE
  5
1AC
330
2
100
AcDbEntity
  8
PDF_Layer 1
 62
     7
420
 16777215
370
   106
100
AcDbPolyline
 90
        2
 70
     0
 43
0.0
 10
13.29600694444444
 20
1.096720833333333
 10
13.32110416666666
 20
1.1047625
  0
LWPOLYLINE
  5
1AD
330
2
100
AcDbEntity
  8
PDF_Layer 1
 62
     7
420
 16777215
370
   106
100
AcDbPolyline
 90
        2
 70
     0
 43
0.0
 10
13.33007777777777
 20
1.104763888888888
 10
13.33275833333333
 20
1.104763888888888
  0
LWPOLYLINE
  5
1AE
330
2
100
AcDbEntity
  8
PDF_Layer 1
 62
     7
420
 16777215
370
   106
100
AcDbPolyline
 90
        2
 70
     0
 43
0.0
 10
13.33276388888888
 20
1.104763888888888
 10
13.33545833333333
 20
1.103861111111111
  0
LWPOLYLINE
  5
1AF
330
2
100
AcDbEntity
  8
PDF_Layer 1
 62
     7
420
 16777215
370
   106
100
AcDbPolyline
 90
        2
 70
     0
 43
0.0
 10
13.3354625
 20
0.6269666666666666
 10
13.33276805555555
 20
0.6269666666666666
  0
LWPOLYLINE
  5
1B0
330
2
100
AcDbEntity
  8
PDF_Layer 1
 62
     7
420
 16777215
370
   106
100
AcDbPolyline
 90
        2
 70
     0
 43
0.0
 10
13.33276388888888
 20
0.6269666666666666
 10
13.33008333333333
 20
0.6260638888888888
  0
LWPOLYLINE
  5
1B1
330
2
100
AcDbEntity
  8
PDF_Layer 1
 62
     7
420
 16777215
370
   106
100
AcDbPolyline
 90
        2
 70
     0
 43
0.0
 10
13.26464861111111
 20
0.6744652777777778
 10
13.24671805555555
 20
0.7067291666666666
  0
LWPOLYLINE
  5
1B2
330
2
100
AcDbEntity
  8
PDF_Layer 1
 62
     7
420
 16777215
370
   106
100
AcDbPolyline
 90
        2
 70
     0
 43
0.0
 10
13.24671805555555
 20
0.7067333333333333
 10
13.23148194444444
 20
0.7461916666666666
  0
LWPOLYLINE
  5
1B3
330
2
100
AcDbEntity
  8
PDF_Layer 1
 62
     7
420
 16777215
370
   106
100
AcDbPolyline
 90
        2
 70
     0
 43
0.0
 10
13.23148611111111
 20
0.7461888888888889
 10
13.22159722222222
 20
0.7918833333333334
  0
LWPOLYLINE
  5
1B4
330
2
100
AcDbEntity
  8
PDF_Layer 1
 62
     7
420
 16777215
370
   106
100
AcDbPolyline
 90
        2
 70
     0
 43
0.0
 10
13.22159861111111
 20
0.7918833333333333
 10
13.2162375
 20
0.8402861111111111
  0
LWPOLYLINE
  5
1B5
330
2
100
AcDbEntity
  8
PDF_Layer 1
 62
     7
420
 16777215
370
   106
100
AcDbPolyline
 90
        2
 70
     0
 43
0.0
 10
13.21624027777777
 20
0.8402916666666666
 10
13.21624027777777
 20
0.8905138888888886
  0
LWPOLYLINE
  5
1B6
330
2
100
AcDbEntity
  8
PDF_Layer 1
 62
     7
420
 16777215
370
   106
100
AcDbPolyline
 90
        2
 70
     0
 43
0.0
 10
13.21624027777777
 20
0.8905166666666668
 10
13.22160138888889
 20
0.9397944444444444
  0
LWPOLYLINE
  5
1B7
330
2
100
AcDbEntity
  8
PDF_Layer 1
 62
     7
420
 16777215
370
   106
100
AcDbPolyline
 90
        2
 70
     0
 43
0.0
 10
13.22159861111111
 20
0.9397916666666665
 10
13.2314875
 20
0.9855277777777775
  0
LWPOLYLINE
  5
1B8
330
2
100
AcDbEntity
  8
PDF_Layer 1
 62
     7
420
 16777215
370
   106
100
AcDbPolyline
 90
        2
 70
     0
 43
0.0
 10
13.23148611111111
 20
0.9855277777777777
 10
13.24672222222222
 20
1.02498611111111
  0
LWPOLYLINE
  5
1B9
330
2
100
AcDbEntity
  8
PDF_Layer 1
 62
     7
420
 16777215
370
   106
100
AcDbPolyline
 90
        2
 70
     0
 43
0.0
 10
13.24671805555555
 20
1.024983333333333
 10
13.26464861111111
 20
1.057247222222222
  0
LWPOLYLINE
  5
1BA
330
2
100
AcDbEntity
  8
PDF_Layer 1
 62
     7
420
 16777215
370
   106
100
AcDbPolyline
 90
        2
 70
     0
 43
0.0
 10
13.33455416666666
 20
1.104763888888888
 10
13.31037361111111
 20
1.099388888888888
  0
LWPOLYLINE
  5
1BB
330
2
100
AcDbEntity
  8
PDF_Layer 1
 62
     7
420
 16777215
370
   106
100
AcDbPolyline
 90
        2
 70
     0
 43
0.0
 10
13.31037083333333
 20
1.099393055555555
 10
13.28794027777777
 20
1.084115277777777
  0
LWPOLYLINE
  5
1BC
330
2
100
AcDbEntity
  8
PDF_Layer 1
 62
     7
420
 16777215
370
   106
100
AcDbPolyline
 90
        2
 70
     0
 43
0.0
 10
13.28793611111111
 20
1.084119444444444
 10
13.26643611111111
 20
1.059022222222222
  0
LWPOLYLINE
  5
1BD
330
2
100
AcDbEntity
  8
PDF_Layer 1
 62
     7
420
 16777215
370
   106
100
AcDbPolyline
 90
        2
 70
     0
 43
0.0
 10
13.26643888888889
 20
1.059027777777777
 10
13.24850833333333
 20
1.025847222222222
  0
LWPOLYLINE
  5
1BE
330
2
100
AcDbEntity
  8
PDF_Layer 1
 62
     7
420
 16777215
370
   106
100
AcDbPolyline
 90
        2
 70
     0
 43
0.0
 10
13.24850833333333
 20
1.025851388888888
 10
13.23507777777777
 20
0.9855319444444445
  0
LWPOLYLINE
  5
1BF
330
2
100
AcDbEntity
  8
PDF_Layer 1
 62
     7
420
 16777215
370
   106
100
AcDbPolyline
 90
        2
 70
     0
 43
0.0
 10
13.23508055555555
 20
0.9855277777777777
 10
13.22519166666666
 20
0.9397916666666665
  0
LWPOLYLINE
  5
1C0
330
2
100
AcDbEntity
  8
PDF_Layer 1
 62
     7
420
 16777215
370
   106
100
AcDbPolyline
 90
        2
 70
     0
 43
0.0
 10
13.22519305555555
 20
0.9397916666666665
 10
13.21981805555555
 20
0.8905138888888886
  0
LWPOLYLINE
  5
1C1
330
2
100
AcDbEntity
  8
PDF_Layer 1
 62
     7
420
 16777215
370
   106
100
AcDbPolyline
 90
        2
 70
     0
 43
0.0
 10
13.21982083333333
 20
0.8905166666666668
 10
13.21982083333333
 20
0.8402944444444445
  0
LWPOLYLINE
  5
1C2
330
2
100
AcDbEntity
  8
PDF_Layer 1
 62
     7
420
 16777215
370
   106
100
AcDbPolyline
 90
        2
 70
     0
 43
0.0
 10
13.21982083333333
 20
0.8402916666666666
 10
13.22519583333333
 20
0.7918888888888888
  0
LWPOLYLINE
  5
1C3
330
2
100
AcDbEntity
  8
PDF_Layer 1
 62
     7
420
 16777215
370
   106
100
AcDbPolyline
 90
        2
 70
     0
 43
0.0
 10
13.22519305555555
 20
0.7918833333333333
 10
13.23508194444444
 20
0.7461888888888888
  0
LWPOLYLINE
  5
1C4
330
2
100
AcDbEntity
  8
PDF_Layer 1
 62
     7
420
 16777215
370
   106
100
AcDbPolyline
 90
        2
 70
     0
 43
0.0
 10
13.23508055555555
 20
0.7461888888888889
 10
13.24851111111111
 20
0.7058277777777779
  0
LWPOLYLINE
  5
1C5
330
2
100
AcDbEntity
  8
PDF_Layer 1
 62
     7
420
 16777215
370
   106
100
AcDbPolyline
 90
        2
 70
     0
 43
0.0
 10
13.24850833333333
 20
0.7058236111111111
 10
13.26643888888888
 20
0.6717819444444445
  0
LWPOLYLINE
  5
1C6
330
2
100
AcDbEntity
  8
PDF_Layer 1
 62
     7
420
 16777215
370
   106
100
AcDbPolyline
 90
        2
 70
     0
 43
0.0
 10
13.26643888888889
 20
0.6717805555555555
 10
13.28793888888889
 20
0.6466833333333333
  0
LWPOLYLINE
  5
1C7
330
2
100
AcDbEntity
  8
PDF_Layer 1
 62
     7
420
 16777215
370
   106
100
AcDbPolyline
 90
        2
 70
     0
 43
0.0
 10
13.28793611111111
 20
0.6466875
 10
13.31036666666666
 20
0.6314097222222222
  0
LWPOLYLINE
  5
1C8
330
2
100
AcDbEntity
  8
PDF_Layer 1
 62
     7
420
 16777215
370
   106
100
AcDbPolyline
 90
        2
 70
     0
 43
0.0
 10
13.31037083333333
 20
0.6314152777777778
 10
13.33455138888888
 20
0.6260541666666666
  0
LWPOLYLINE
  5
1CA
330
2
100
AcDbEntity
  8
PDF_Layer 1
 62
     7
420
 16777215
370
   106
100
AcDbPolyline
 90
       20
 70
     0
 43
0.0
 10
13.4017875
 20
1.095798611111111
 10
13.43138472222222
 20
1.067993055555555
 42
-0.3330392838540209
 10
13.43138333333333
 20
0.6636958333333335
 10
13.40897638888889
 20
0.6404222222222221
 10
13.38476527777778
 20
0.6278208333333334
 10
13.35967361111111
 20
0.6269666666666666
 10
13.33455416666666
 20
0.637736111111111
 10
13.31214722222222
 20
0.658325
 10
13.29153055555555
 20
0.6896972222222222
 10
13.27539027777777
 20
0.7282444444444444
 10
13.26374027777778
 20
0.7739666666666667
 10
13.25657777777778
 20
0.8241513888888889
 10
13.2547875
 20
0.8761527777777777
 10
13.25836805555555
 20
0.9281541666666665
 10
13.26733333333333
 20
0.9765763888888889
 10
13.28167083333333
 20
1.019572222222222
 10
13.29960138888889
 20
1.0554875
 10
13.32109861111111
 20
1.082343055555555
 10
13.34442777777778
 20
1.099393055555555
 10
13.369525
 20
1.104768055555555
  0
LWPOLYLINE
  5
1DC
330
2
100
AcDbEntity
  8
PDF_Layer 1
 62
     7
420
 16777215
370
   106
100
AcDbPolyline
 90
       43
 70
     0
 43
0.0
 10
10.45606805555555
 20
3.791408333333332
 10
10.46054027777777
 20
3.79231111111111
 10
10.46504027777777
 20
3.793227777777777
 10
10.46862361111111
 20
3.795005555555554
 10
10.47219305555555
 20
3.797672222222221
 10
10.47579027777777
 20
3.800366666666665
 10
10.47848888888888
 20
3.803955555555555
 42
0.157269017185193
 10
10.51793055555555
 20
3.98323611111111
 10
10.51254583333333
 20
3.98323611111111
 10
10.49640555555555
 20
3.98323611111111
 10
10.47041805555555
 20
3.98323611111111
 10
10.43276666666666
 20
3.98323611111111
 10
10.38614861111111
 20
3.98323611111111
 10
10.32967083333333
 20
3.98323611111111
 10
10.26331944444444
 20
3.98323611111111
 10
10.18984583333333
 20
3.98323611111111
 10
10.10735416666666
 20
3.98323611111111
 10
10.01771388888889
 20
3.98323611111111
 10
9.921780555555553
 20
3.98323611111111
 10
9.820475
 20
3.98323611111111
 10
9.713812499999999
 20
3.98323611111111
 10
9.603556944444441
 20
3.98323611111111
 10
9.490599999999998
 20
3.98323611111111
 10
9.37495972222222
 20
3.98323611111111
 10
9.259318055555555
 20
3.98323611111111
 10
9.142781944444445
 20
3.98323611111111
 10
9.027140277777776
 20
3.98323611111111
 10
8.914156944444444
 20
3.98323611111111
 10
8.803927777777776
 20
3.98323611111111
 10
8.697238888888888
 20
3.98323611111111
 10
8.595933333333331
 20
3.98323611111111
 10
8.500027777777777
 20
3.98323611111111
 10
8.41037361111111
 20
3.98323611111111
 10
8.328783333333333
 20
3.98323611111111
 10
8.254394444444443
 20
3.98323611111111
 10
8.188049999999998
 20
3.98323611111111
 10
8.131591666666666
 20
3.98323611111111
 10
8.084975
 20
3.98323611111111
 10
8.048204166666668
 20
3.98323611111111
 10
8.021315277777777
 20
3.98323611111111
 10
8.005174999999997
 20
3.98323611111111
 10
7.999813888888886
 20
3.98323611111111
 42
0.1587295729977716
 10
8.040129166666671
 20
3.803958333333336
  0
LWPOLYLINE
  5
215
330
2
100
AcDbEntity
  8
PDF_Layer 1
 62
     7
420
 16777215
370
   106
100
AcDbPolyline
 90
       52
 70
     0
 43
0.0
 10
10.45338333333333
 20
3.791408333333332
 10
10.44891111111111
 20
3.791408333333332
 10
10.44441111111111
 20
3.789630555555554
 10
10.439925
 20
3.78781111111111
 10
10.43632777777777
 20
3.785130555555554
 10
10.433675
 20
3.781547222222221
 10
10.43185555555555
 20
3.777088888888888
 10
10.43007777777777
 20
3.773491666666665
 10
10.4291763888889
 20
3.768999999999999
 42
-0.1462139867514957
 10
10.37808055555555
 20
3.635444444444444
 10
10.37538611111111
 20
3.631847222222222
 10
10.37180277777777
 20
3.629166666666666
 10
10.36731666666666
 20
3.627361111111111
 10
10.36283055555555
 20
3.625583333333333
 10
10.35834444444444
 20
3.625583333333333
 10
10.34848333333333
 20
3.625583333333333
 10
10.32070555555555
 20
3.625583333333333
 10
10.27410277777778
 20
3.625583333333333
 10
10.21043611111111
 20
3.625583333333333
 10
10.13065555555555
 20
3.625583333333333
 10
10.03654027777777
 20
3.625583333333333
 10
9.92805972222222
 20
3.625583333333333
 10
9.808825
 20
3.625583333333333
 10
9.679741666666664
 20
3.625583333333333
 10
9.54348472222222
 20
3.625583333333333
 10
9.402749999999999
 20
3.625583333333333
 10
9.259318055555555
 20
3.625583333333333
 10
9.1149625
 20
3.625583333333333
 10
8.974256944444443
 20
3.625583333333333
 10
8.837998611111109
 20
3.625583333333333
 10
8.708902777777776
 20
3.625583333333333
 10
8.589668055555552
 20
3.625583333333333
 10
8.48117361111111
 20
3.625583333333333
 10
8.387058333333332
 20
3.625583333333333
 10
8.307284722222222
 20
3.625583333333333
 10
8.243645833333332
 20
3.625583333333333
 10
8.197027777777778
 20
3.625583333333333
 10
8.159370833333333
 20
3.625583333333333
 10
8.154884722222222
 20
3.625583333333333
 10
8.150412499999999
 20
3.627361111111111
 10
8.145940277777777
 20
3.629166666666666
 10
8.142343055555555
 20
3.631847222222222
 10
8.1396625
 20
3.635444444444444
 42
-0.1354538216295624
 10
8.088541666666666
 20
3.769002777777777
 10
8.087638888888887
 20
3.773488888888888
 10
8.08586111111111
 20
3.777086111111111
 10
8.084069444444443
 20
3.781544444444444
 10
8.081388888888888
 20
3.785127777777777
 10
8.077791666666666
 20
3.787808333333333
 10
8.073319444444443
 20
3.789627777777777
 10
8.06884722222222
 20
3.791405555555555
 10
8.064333333333332
 20
3.791405555555555
  0
LWPOLYLINE
  5
22C
330
2
100
AcDbEntity
  8
PDF_Layer 1
 62
     7
420
 16777215
370
   106
100
AcDbPolyline
 90
       37
 70
     0
 43
0.0
 10
9.699470833333331
 20
1.463326388888887
 42
-0.2204653484938138
 10
9.706641666666666
 20
1.151356944444444
 10
9.704836111111109
 20
1.147759722222222
 10
9.702155555555554
 20
1.144218055555555
 10
9.69858611111111
 20
1.141537499999999
 10
9.695877777777777
 20
1.139718055555555
 10
9.691405555555554
 20
1.137940277777777
 10
9.687808333333332
 20
1.136162499999999
 10
9.68333611111111
 20
1.136162499999999
 10
9.677951388888887
 20
1.136162499999999
 10
9.662719444444444
 20
1.136162499999999
 10
9.637599999999997
 20
1.136162499999999
 10
9.60264722222222
 20
1.136162499999999
 10
9.558743055555554
 20
1.136162499999999
 10
9.508504166666666
 20
1.136162499999999
 10
9.452054166666664
 20
1.136162499999999
 10
9.390204166666666
 20
1.136162499999999
 10
9.325656944444443
 20
1.136162499999999
 10
9.259318055555555
 20
1.136162499999999
 10
9.192084722222221
 20
1.136162499999999
 10
9.12753611111111
 20
1.136162499999999
 10
9.066569444444445
 20
1.136162499999999
 10
9.009209722222221
 20
1.136162499999999
 10
8.958998611111109
 20
1.136162499999999
 10
8.915066666666666
 20
1.136162499999999
 10
8.88102222222222
 20
1.136162499999999
 10
8.85502083333333
 20
1.136162499999999
 10
8.839762499999997
 20
1.136162499999999
 10
8.834380555555556
 20
1.136159722222222
 10
8.829922222222222
 20
1.136159722222222
 10
8.826311111111111
 20
1.1379375
 10
8.821852777777777
 20
1.139715277777777
 10
8.819144444444445
 20
1.141534722222222
 10
8.815561111111112
 20
1.144215277777777
 10
8.812880555555556
 20
1.147756944444444
 10
8.811088888888889
 20
1.151354166666666
 42
-0.2176936460606146
 10
8.818251388888887
 20
1.463324999999999
  0
LWPOLYLINE
  5
241
330
2
100
AcDbEntity
  8
PDF_Layer 1
 62
     7
420
 16777215
370
   106
100
AcDbPolyline
 90
        2
 70
     0
 43
0.0
 10
9.568576388888887
 20
0.5498722222222222
 10
9.552451388888886
 20
0.5498722222222222
  0
LWPOLYLINE
  5
242
330
2
100
AcDbEntity
  8
PDF_Layer 1
 62
     7
420
 16777215
370
   106
100
AcDbPolyline
 90
        2
 70
     0
 43
0.0
 10
9.55245
 20
0.5498722222222222
 10
9.526463888888889
 20
0.5498722222222222
  0
LWPOLYLINE
  5
243
330
2
100
AcDbEntity
  8
PDF_Layer 1
 62
     7
420
 16777215
370
   106
100
AcDbPolyline
 90
        2
 70
     0
 43
0.0
 10
9.526462499999999
 20
0.5498722222222222
 10
9.491476388888887
 20
0.5498722222222222
  0
LWPOLYLINE
  5
244
330
2
100
AcDbEntity
  8
PDF_Layer 1
 62
     7
420
 16777215
370
   106
100
AcDbPolyline
 90
        2
 70
     0
 43
0.0
 10
9.491481944444444
 20
0.5498722222222222
 10
9.448454166666666
 20
0.5498722222222222
  0
LWPOLYLINE
  5
245
330
2
100
AcDbEntity
  8
PDF_Layer 1
 62
     7
420
 16777215
370
   106
100
AcDbPolyline
 90
        2
 70
     0
 43
0.0
 10
9.448459722222223
 20
0.5498722222222222
 10
9.399154166666667
 20
0.5498722222222222
  0
LWPOLYLINE
  5
246
330
2
100
AcDbEntity
  8
PDF_Layer 1
 62
     7
420
 16777215
370
   106
100
AcDbPolyline
 90
        2
 70
     0
 43
0.0
 10
9.399156944444444
 20
0.5498722222222222
 10
9.345365277777776
 20
0.5498722222222222
  0
LWPOLYLINE
  5
247
330
2
100
AcDbEntity
  8
PDF_Layer 1
 62
     7
420
 16777215
370
   106
100
AcDbPolyline
 90
        2
 70
     0
 43
0.0
 10
9.345363888888885
 20
0.5498722222222222
 10
9.287988888888884
 20
0.5498722222222222
  0
LWPOLYLINE
  5
248
330
2
100
AcDbEntity
  8
PDF_Layer 1
 62
     7
420
 16777215
370
   106
100
AcDbPolyline
 90
        2
 70
     0
 43
0.0
 10
9.287991666666666
 20
0.5498722222222222
 10
9.229727777777778
 20
0.5498722222222222
  0
LWPOLYLINE
  5
249
330
2
100
AcDbEntity
  8
PDF_Layer 1
 62
     7
420
 16777215
370
   106
100
AcDbPolyline
 90
        2
 70
     0
 43
0.0
 10
9.229722222222221
 20
0.5498722222222222
 10
9.172347222222221
 20
0.5498722222222222
  0
LWPOLYLINE
  5
24A
330
2
100
AcDbEntity
  8
PDF_Layer 1
 62
     7
420
 16777215
370
   106
100
AcDbPolyline
 90
        2
 70
     0
 43
0.0
 10
9.172349999999998
 20
0.5498722222222222
 10
9.118586111111108
 20
0.5498722222222222
  0
LWPOLYLINE
  5
24B
330
2
100
AcDbEntity
  8
PDF_Layer 1
 62
     7
420
 16777215
370
   106
100
AcDbPolyline
 90
        2
 70
     0
 43
0.0
 10
9.118584722222221
 20
0.5498722222222222
 10
9.069251388888888
 20
0.5498722222222222
  0
LWPOLYLINE
  5
24C
330
2
100
AcDbEntity
  8
PDF_Layer 1
 62
     7
420
 16777215
370
   106
100
AcDbPolyline
 90
        2
 70
     0
 43
0.0
 10
9.069254166666667
 20
0.5498722222222222
 10
9.026226388888888
 20
0.5498722222222222
  0
LWPOLYLINE
  5
24D
330
2
100
AcDbEntity
  8
PDF_Layer 1
 62
     7
420
 16777215
370
   106
100
AcDbPolyline
 90
        2
 70
     0
 43
0.0
 10
9.026231944444445
 20
0.5498722222222222
 10
8.991273611111111
 20
0.5498722222222222
  0
LWPOLYLINE
  5
24E
330
2
100
AcDbEntity
  8
PDF_Layer 1
 62
     7
420
 16777215
370
   106
100
AcDbPolyline
 90
        2
 70
     0
 43
0.0
 10
8.991279166666664
 20
0.5498722222222222
 10
8.965279166666665
 20
0.5498722222222222
  0
LWPOLYLINE
  5
24F
330
2
100
AcDbEntity
  8
PDF_Layer 1
 62
     7
420
 16777215
370
   106
100
AcDbPolyline
 90
        2
 70
     0
 43
0.0
 10
8.965277777777776
 20
0.5498722222222222
 10
8.949138888888887
 20
0.5498722222222222
  0
LWPOLYLINE
  5
250
330
2
100
AcDbEntity
  8
PDF_Layer 1
 62
     7
420
 16777215
370
   106
100
AcDbPolyline
 90
        2
 70
     0
 43
0.0
 10
8.949137499999997
 20
0.5498722222222222
 10
8.943762499999996
 20
0.5498722222222222
  0
LWPOLYLINE
  5
252
330
2
100
AcDbEntity
  8
PDF_Layer 1
 62
     7
420
 16777215
370
   106
100
AcDbPolyline
 90
        2
 70
     0
 43
0.0
 10
13.32109861111111
 20
1.104763888888888
 10
13.32559861111111
 20
1.103861111111111
  0
LWPOLYLINE
  5
253
330
2
100
AcDbEntity
  8
PDF_Layer 1
 62
     7
420
 16777215
370
   106
100
AcDbPolyline
 90
        2
 70
     0
 43
0.0
 10
13.32560277777777
 20
0.6269666666666666
 10
13.30139444444444
 20
0.6287305555555555
  0
LWPOLYLINE
  5
254
330
2
100
AcDbEntity
  8
PDF_Layer 1
 62
     7
420
 16777215
370
   106
100
AcDbPolyline
 90
        2
 70
     0
 43
0.0
 10
13.30139166666666
 20
0.6287305555555556
 10
13.27719722222222
 20
0.6404250000000001
  0
LWPOLYLINE
  5
255
330
2
100
AcDbEntity
  8
PDF_Layer 1
 62
     7
420
 16777215
370
   106
100
AcDbPolyline
 90
        2
 70
     0
 43
0.0
 10
13.27719444444444
 20
0.6404222222222221
 10
13.25479166666666
 20
0.6636999999999999
  0
LWPOLYLINE
  5
256
330
2
100
AcDbEntity
  8
PDF_Layer 1
 62
     7
420
 16777215
370
   106
100
AcDbPolyline
 90
        2
 70
     0
 43
0.0
 10
13.2547875
 20
0.6636958333333335
 10
13.23596805555555
 20
0.6950986111111112
  0
LWPOLYLINE
  5
257
330
2
100
AcDbEntity
  8
PDF_Layer 1
 62
     7
420
 16777215
370
   106
100
AcDbPolyline
 90
        2
 70
     0
 43
0.0
 10
13.2359625
 20
0.6950958333333334
 10
13.2207125
 20
0.7354152777777779
  0
LWPOLYLINE
  5
258
330
2
100
AcDbEntity
  8
PDF_Layer 1
 62
     7
420
 16777215
370
   106
100
AcDbPolyline
 90
        2
 70
     0
 43
0.0
 10
13.22071666666666
 20
0.7354194444444443
 10
13.20904999999999
 20
0.7811555555555554
  0
LWPOLYLINE
  5
259
330
2
100
AcDbEntity
  8
PDF_Layer 1
 62
     7
420
 16777215
370
   106
100
AcDbPolyline
 90
        2
 70
     0
 43
0.0
 10
13.20905277777777
 20
0.7811555555555555
 10
13.20280277777778
 20
0.8304333333333332
  0
LWPOLYLINE
  5
25A
330
2
100
AcDbEntity
  8
PDF_Layer 1
 62
     7
420
 16777215
370
   106
100
AcDbPolyline
 90
        2
 70
     0
 43
0.0
 10
13.2028
 20
0.8304305555555554
 10
13.20189722222222
 20
0.8815694444444444
  0
LWPOLYLINE
  5
25B
330
2
100
AcDbEntity
  8
PDF_Layer 1
 62
     7
420
 16777215
370
   106
100
AcDbPolyline
 90
        2
 70
     0
 43
0.0
 10
13.20189027777777
 20
0.8815652777777778
 10
13.2063625
 20
0.9326624999999999
  0
LWPOLYLINE
  5
25C
330
2
100
AcDbEntity
  8
PDF_Layer 1
 62
     7
420
 16777215
370
   106
100
AcDbPolyline
 90
        2
 70
     0
 43
0.0
 10
13.20636666666666
 20
0.9326583333333331
 10
13.21533888888889
 20
0.9801583333333333
  0
LWPOLYLINE
  5
25D
330
2
100
AcDbEntity
  8
PDF_Layer 1
 62
     7
420
 16777215
370
   106
100
AcDbPolyline
 90
        2
 70
     0
 43
0.0
 10
13.21534583333333
 20
0.9801569444444442
 10
13.22969305555555
 20
1.022295833333333
  0
LWPOLYLINE
  5
25E
330
2
100
AcDbEntity
  8
PDF_Layer 1
 62
     7
420
 16777215
370
   106
100
AcDbPolyline
 90
        2
 70
     0
 43
0.0
 10
13.22969583333333
 20
1.02229861111111
 10
13.24762638888889
 20
1.057256944444444
  0
LWPOLYLINE
  5
25F
330
2
100
AcDbEntity
  8
PDF_Layer 1
 62
     7
420
 16777215
370
   106
100
AcDbPolyline
 90
        2
 70
     0
 43
0.0
 10
13.24762638888889
 20
1.057251388888888
 10
13.26912638888888
 20
1.083251388888888
  0
LWPOLYLINE
  5
260
330
2
100
AcDbEntity
  8
PDF_Layer 1
 62
     7
420
 16777215
370
   106
100
AcDbPolyline
 90
        2
 70
     0
 43
0.0
 10
13.269125
 20
1.083251388888889
 10
13.29243055555555
 20
1.099390277777777
  0
LWPOLYLINE
  5
261
330
2
100
AcDbEntity
  8
PDF_Layer 1
 62
     7
420
 16777215
370
   106
100
AcDbPolyline
 90
        2
 70
     0
 43
0.0
 10
13.29242638888889
 20
1.099393055555555
 10
13.31662083333333
 20
1.104768055555555
  0
LWPOLYLINE
  5
262
330
2
100
AcDbEntity
  8
PDF_Layer 1
 62
     7
420
 16777215
370
   106
100
AcDbPolyline
 90
        2
 70
     0
 43
0.0
 10
13.21534583333333
 20
0.865423611111111
 10
13.21802638888889
 20
0.8170208333333331
  0
LWPOLYLINE
  5
263
330
2
100
AcDbEntity
  8
PDF_Layer 1
 62
     7
420
 16777215
370
   106
100
AcDbPolyline
 90
        2
 70
     0
 43
0.0
 10
13.21803055555555
 20
0.8170166666666666
 10
13.22519722222222
 20
0.7703777777777777
  0
LWPOLYLINE
  5
264
330
2
100
AcDbEntity
  8
PDF_Layer 1
 62
     7
420
 16777215
370
   106
100
AcDbPolyline
 90
        2
 70
     0
 43
0.0
 10
13.22519305555555
 20
0.7703722222222221
 10
13.23774861111111
 20
0.7282472222222222
  0
LWPOLYLINE
  5
265
330
2
100
AcDbEntity
  8
PDF_Layer 1
 62
     7
420
 16777215
370
   106
100
AcDbPolyline
 90
        2
 70
     0
 43
0.0
 10
13.23775277777778
 20
0.7282444444444444
 10
13.25387777777778
 20
0.692425
  0
LWPOLYLINE
  5
266
330
2
100
AcDbEntity
  8
PDF_Layer 1
 62
     7
420
 16777215
370
   106
100
AcDbPolyline
 90
        2
 70
     0
 43
0.0
 10
13.25387916666667
 20
0.692423611111111
 10
13.27268472222222
 20
0.6646041666666666
  0
LWPOLYLINE
  5
268
330
2
100
AcDbEntity
  8
PDF_Layer 1
 62
     7
420
 16777215
370
   106
100
AcDbPolyline
 90
       12
 70
     0
 43
0.0
 10
9.045056944444443
 20
11.05174444444444
 10
9.045056944444443
 20
11.05354166666666
 10
6.807543055555554
 20
11.05354166666666
 42
0.9991763005368545
 10
6.807543055555555
 20
6.720112499999999
 10
11.65908472222222
 20
6.720112499999999
 42
0.1254248903015154
 10
12.38521388888889
 20
6.906574999999999
 10
13.43138333333333
 20
7.48029861111111
 10
13.43406388888888
 20
7.482090277777777
 10
13.43585555555555
 20
7.484784722222221
 10
13.43674444444444
 20
7.487479166666665
 10
13.43674444444444
 20
7.49104861111111
 10
13.43585555555555
 20
7.493743055555555
  0
LWPOLYLINE
  5
26D
330
2
100
AcDbEntity
  8
PDF_Layer 1
 62
     7
420
 16777215
370
   106
100
AcDbPolyline
 90
       40
 70
     0
 43
0.0
 10
9.045056944444443
 20
10.58380555555555
 10
9.045056944444443
 20
10.57752361111111
 10
9.045056944444443
 20
10.57484305555555
 10
6.807543055555556
 20
10.57484305555555
 42
0.9994816393700183
 10
6.807543055555553
 20
7.198818055555554
 10
11.65908472222222
 20
7.198818055555554
 42
0.1263568870779589
 10
12.15575138888889
 20
7.326112500000001
 10
13.2018875
 20
7.899830555555555
 10
13.20458194444444
 20
7.900747222222221
 10
13.20816527777777
 20
7.900747222222221
 10
13.21087361111111
 20
7.899830555555555
 10
13.21355416666666
 20
7.898038888888887
 10
13.21534583333333
 20
7.895358333333332
 10
13.21803194444444
 20
7.890866666666665
 10
13.22610138888889
 20
7.875630555555554
 10
13.23955
 20
7.852331944444443
 10
13.25657777777778
 20
7.820054166666666
 10
13.27807222222222
 20
7.782415277777777
 10
13.30139166666666
 20
7.739373611111111
 10
13.32560416666666
 20
7.69453888888889
 10
13.3498125
 20
7.649733333333334
 10
13.37310694444444
 20
7.607599999999999
 10
13.39371805555555
 20
7.569044444444443
 10
13.41164444444444
 20
7.537669444444444
 10
13.42508888888889
 20
7.513474999999999
 10
13.43316388888889
 20
7.499122222222221
 10
13.43585833333333
 20
7.493747222222221
 10
13.43765
 20
7.491052777777777
 10
13.44033055555555
 20
7.48926111111111
 10
13.44305277777777
 20
7.488372222222221
 10
13.44662222222222
 20
7.488372222222221
 10
13.44931388888888
 20
7.489265277777776
 10
13.48427222222222
 20
7.508987499999999
 42
0.4227352349313582
 10
13.2547875
 20
7.928520833333331
 10
13.21982083333333
 20
7.909701388888889
 10
13.21712638888888
 20
7.907909722222222
 10
13.21534861111111
 20
7.905229166666666
 10
13.21443194444444
 20
7.901631944444444
 10
13.21443194444444
 20
7.8989375
 10
13.21534861111111
 20
7.895354166666667
  0
LWPOLYLINE
  5
270
330
2
100
AcDbEntity
  8
PDF_Layer 1
 62
     7
420
 16777215
370
   106
100
AcDbPolyline
 90
        3
 70
     0
 43
0.0
 10
13.43585416666666
 20
7.493743055555554
 10
13.43315972222222
 20
7.499118055555554
 10
13.42509027777778
 20
7.513479166666665
  0
LWPOLYLINE
  5
272
330
2
100
AcDbEntity
  8
PDF_Layer 1
 62
     7
420
 16777215
370
   106
100
AcDbPolyline
 90
        3
 70
     0
 43
0.0
 10
13.42509305555555
 20
7.513470833333332
 10
13.41164861111111
 20
7.537665277777777
 10
13.39371805555555
 20
7.569040277777776
  0
LWPOLYLINE
  5
274
330
2
100
AcDbEntity
  8
PDF_Layer 1
 62
     7
420
 16777215
370
   106
100
AcDbPolyline
 90
        3
 70
     0
 43
0.0
 10
13.3937125
 20
7.569049999999998
 10
13.37310138888889
 20
7.607605555555553
 10
13.34980972222222
 20
7.649730555555554
  0
LWPOLYLINE
  5
276
330
2
100
AcDbEntity
  8
PDF_Layer 1
 62
     7
420
 16777215
370
   106
100
AcDbPolyline
 90
        3
 70
     0
 43
0.0
 10
13.34981111111111
 20
7.649733333333332
 10
13.32560277777777
 20
7.694538888888888
 10
13.30139444444444
 20
7.739372222222221
  0
LWPOLYLINE
  5
278
330
2
100
AcDbEntity
  8
PDF_Layer 1
 62
     7
420
 16777215
370
   106
100
AcDbPolyline
 90
        3
 70
     0
 43
0.0
 10
13.30139583333333
 20
7.739368055555554
 10
13.27807638888889
 20
7.782409722222221
 10
13.25657638888889
 20
7.82004861111111
  0
LWPOLYLINE
  5
27A
330
2
100
AcDbEntity
  8
PDF_Layer 1
 62
     7
420
 16777215
370
   106
100
AcDbPolyline
 90
        3
 70
     0
 43
0.0
 10
13.25658333333333
 20
7.820058333333331
 10
13.23955555555555
 20
7.852336111111108
 10
13.22609722222222
 20
7.875627777777775
  0
LWPOLYLINE
  5
27C
330
2
100
AcDbEntity
  8
PDF_Layer 1
 62
     7
420
 16777215
370
   106
100
AcDbPolyline
 90
        3
 70
     0
 43
0.0
 10
13.2261
 20
7.875633333333331
 10
13.21803055555555
 20
7.890869444444442
 10
13.21535
 20
7.895355555555553
  0
LWPOLYLINE
  5
27D
330
2
100
AcDbEntity
  8
PDF_Layer 1
 62
     7
420
 16777215
370
   106
100
AcDbPolyline
 90
        2
 70
     0
 43
0.0
 10
13.48426666666666
 20
7.508986111111109
 10
13.48247499999999
 20
7.513472222222221
  0
LWPOLYLINE
  5
27E
330
2
100
AcDbEntity
  8
PDF_Layer 1
 62
     7
420
 16777215
370
   106
100
AcDbPolyline
 90
        2
 70
     0
 43
0.0
 10
13.48247638888889
 20
7.513474999999999
 10
13.47440694444444
 20
7.526919444444444
  0
LWPOLYLINE
  5
27F
330
2
100
AcDbEntity
  8
PDF_Layer 1
 62
     7
420
 16777215
370
   106
100
AcDbPolyline
 90
        2
 70
     0
 43
0.0
 10
13.47440555555555
 20
7.526916666666665
 10
13.46275277777777
 20
7.549319444444443
  0
LWPOLYLINE
  5
280
330
2
100
AcDbEntity
  8
PDF_Layer 1
 62
     7
420
 16777215
370
   106
100
AcDbPolyline
 90
        2
 70
     0
 43
0.0
 10
13.46275555555555
 20
7.549316666666666
 10
13.44663055555555
 20
7.578913888888887
  0
LWPOLYLINE
  5
281
330
2
100
AcDbEntity
  8
PDF_Layer 1
 62
     7
420
 16777215
370
   106
100
AcDbPolyline
 90
        2
 70
     0
 43
0.0
 10
13.44662777777777
 20
7.578911111111111
 10
13.42690555555555
 20
7.613869444444444
  0
LWPOLYLINE
  5
282
330
2
100
AcDbEntity
  8
PDF_Layer 1
 62
     7
420
 16777215
370
   106
100
AcDbPolyline
 90
        2
 70
     0
 43
0.0
 10
13.42690694444444
 20
7.613863888888888
 10
13.40537916666666
 20
7.654211111111111
  0
LWPOLYLINE
  5
283
330
2
100
AcDbEntity
  8
PDF_Layer 1
 62
     7
420
 16777215
370
   106
100
AcDbPolyline
 90
        2
 70
     0
 43
0.0
 10
13.40538194444444
 20
7.654208333333333
 10
13.38207638888889
 20
7.697236111111111
  0
LWPOLYLINE
  5
284
330
2
100
AcDbEntity
  8
PDF_Layer 1
 62
     7
420
 16777215
370
   106
100
AcDbPolyline
 90
        2
 70
     0
 43
0.0
 10
13.38208055555555
 20
7.697231944444445
 10
13.35788611111111
 20
7.74117638888889
  0
LWPOLYLINE
  5
285
330
2
100
AcDbEntity
  8
PDF_Layer 1
 62
     7
420
 16777215
370
   106
100
AcDbPolyline
 90
        2
 70
     0
 43
0.0
 10
13.35788333333333
 20
7.741170833333332
 10
13.33455
 20
7.78419861111111
  0
LWPOLYLINE
  5
286
330
2
100
AcDbEntity
  8
PDF_Layer 1
 62
     7
420
 16777215
370
   106
100
AcDbPolyline
 90
        2
 70
     0
 43
0.0
 10
13.33455416666666
 20
7.784193055555554
 10
13.31215138888889
 20
7.823637499999998
  0
LWPOLYLINE
  5
287
330
2
100
AcDbEntity
  8
PDF_Layer 1
 62
     7
420
 16777215
370
   106
100
AcDbPolyline
 90
        2
 70
     0
 43
0.0
 10
13.31214722222222
 20
7.82363611111111
 10
13.292425
 20
7.859497222222221
  0
LWPOLYLINE
  5
288
330
2
100
AcDbEntity
  8
PDF_Layer 1
 62
     7
420
 16777215
370
   106
100
AcDbPolyline
 90
        2
 70
     0
 43
0.0
 10
13.29242638888889
 20
7.859490277777778
 10
13.2762875
 20
7.8890875
  0
LWPOLYLINE
  5
289
330
2
100
AcDbEntity
  8
PDF_Layer 1
 62
     7
420
 16777215
370
   106
100
AcDbPolyline
 90
        2
 70
     0
 43
0.0
 10
13.27628611111111
 20
7.88908611111111
 10
13.26464722222222
 20
7.910599999999999
  0
LWPOLYLINE
  5
28A
330
2
100
AcDbEntity
  8
PDF_Layer 1
 62
     7
420
 16777215
370
   106
100
AcDbPolyline
 90
        2
 70
     0
 43
0.0
 10
13.26464861111111
 20
7.910597222222222
 10
13.25745416666667
 20
7.924041666666666
  0
LWPOLYLINE
  5
28B
330
2
100
AcDbEntity
  8
PDF_Layer 1
 62
     7
420
 16777215
370
   106
100
AcDbPolyline
 90
        2
 70
     0
 43
0.0
 10
13.25745972222222
 20
7.924044444444442
 10
13.25479305555555
 20
7.928516666666665
  0
LWPOLYLINE
  5
28E
330
2
100
AcDbEntity
  8
PDF_Layer 1
 62
     7
420
 16777215
370
   106
100
AcDbPolyline
 90
        2
 70
     0
 43
0.0
 10
9.045056944444443
 20
11.04547083333333
 10
9.045056944444443
 20
11.05174861111111
  0
LWPOLYLINE
  5
2A7
330
2
100
AcDbEntity
  8
PDF_Layer 1
 62
     7
420
 16777215
370
   106
100
AcDbPolyline
 90
        7
 70
     0
 43
0.0
 10
8.039245833333332
 20
3.803955555555555
 10
8.041926388888887
 20
3.800358333333333
 10
8.045523611111109
 20
3.797677777777778
 10
8.049106944444442
 20
3.794997222222222
 10
8.052704166666664
 20
3.793233333333333
 10
8.057176388888887
 20
3.792316666666667
 10
8.061662499999998
 20
3.791413888888889
  0
LWPOLYLINE
  5
2AF
330
2
100
AcDbEntity
  8
PDF_Layer 1
 62
     7
420
 16777215
370
   106
100
AcDbPolyline
 90
       42
 70
     0
 43
0.0
 10
10.34400833333333
 20
3.625583333333333
 10
10.33953611111111
 20
3.624680555555555
 10
10.33505
 20
3.623763888888889
 10
10.33057777777778
 20
3.621986111111111
 10
10.32698055555555
 20
3.619305555555555
 10
10.32428611111111
 20
3.615722222222222
 10
10.32160138888889
 20
3.612127777777777
 42
0.0702618539893096
 10
10.11810972222222
 20
3.050956944444444
 42
0.04666848706926
 10
9.947779166666677
 20
1.58706111111111
 42
-0.4041530481371593
 10
9.822279166666666
 20
1.463324999999999
 10
9.816894444444443
 20
1.463324999999999
 10
9.800754166666665
 20
1.463324999999999
 10
9.775662499999997
 20
1.463324999999999
 10
9.739813888888887
 20
1.463324999999999
 10
9.695881944444444
 20
1.463324999999999
 10
9.642998611111112
 20
1.463324999999999
 10
9.583834722222221
 20
1.463324999999999
 10
9.518391666666664
 20
1.463324999999999
 10
9.447577777777777
 20
1.463324999999999
 10
9.373155555555552
 20
1.463324999999999
 10
9.296956944444444
 20
1.463324999999999
 10
9.220770833333332
 20
1.463324999999999
 10
9.144558333333332
 20
1.463324999999999
 10
9.070149999999999
 20
1.463324999999999
 10
9.000230555555553
 20
1.463324999999999
 10
8.933891666666665
 20
1.463324999999999
 10
8.874729166666666
 20
1.463324999999999
 10
8.821858333333334
 20
1.463324999999999
 10
8.7779
 20
1.463324999999999
 10
8.742079166666666
 20
1.463324999999999
 10
8.71695972222222
 20
1.463324999999999
 10
8.700833333333331
 20
1.463324999999999
 10
8.69544722222222
 20
1.463327777777773
 42
-0.4106260659968023
 10
8.569933333333331
 20
1.587063888888889
 42
0.0466808219720798
 10
8.399630555555557
 20
3.050956944444444
 42
0.0709089307477662
 10
8.196119444444443
 20
3.612127777777777
 10
8.193438888888888
 20
3.615724999999999
 10
8.190758333333333
 20
3.619308333333333
 10
8.187161111111109
 20
3.621988888888888
 10
8.182688888888888
 20
3.623766666666666
 10
8.178188888888888
 20
3.624669444444443
 10
8.173702777777776
 20
3.62558611111111
  0
CIRCLE
  5
2C5
330
2
100
AcDbEntity
  8
PDF_Layer 1
 62
     7
420
 16777215
370
   106
100
AcDbCircle
 10
9.258688984386637
 20
10.81417446112049
 30
0.0
 40
1.111319349152204
  0
CIRCLE
  5
2C6
330
2
100
AcDbEntity
  8
PDF_Layer 1
 62
     7
420
 16777215
370
   106
100
AcDbCircle
 10
9.258812805799673
 20
10.81440283491299
 30
0.0
 40
1.069963603113099
  0
CIRCLE
  5
2C7
330
2
100
AcDbEntity
  8
PDF_Layer 1
 62
     7
420
 16777215
370
   106
100
AcDbCircle
 10
9.25865424301077
 20
10.81442439675125
 30
0.0
 40
0.6873360727696958
  0
CIRCLE
  5
2CA
330
2
100
AcDbEntity
  8
PDF_Layer 1
 62
     7
420
 16777215
370
   106
100
AcDbCircle
 10
9.259086682073748
 20
10.81406635504254
 30
0.0
 40
0.3148744556584913
  0
LWPOLYLINE
  5
2CB
330
2
100
AcDbEntity
  8
PDF_Layer 1
 62
     7
420
 16777215
370
    25
100
AcDbPolyline
 90
        2
 70
     0
 43
0.0
 10
11.09578472222222
 20
11.9076
 10
10.41165972222222
 20
11.500725
  0
LWPOLYLINE
  5
2CC
330
2
100
AcDbEntity
  8
PDF_Layer 1
 62
     7
420
 16777215
370
    25
100
AcDbPolyline
 90
        2
 70
     0
 43
0.0
 10
8.103827777777777
 20
10.1273875
 10
7.916438888888888
 20
10.01544305555555
  0
LWPOLYLINE
  5
2CD
330
2
100
AcDbEntity
  8
PDF_Layer 1
 62
     7
420
 16777215
370
    25
100
AcDbPolyline
 90
        2
 70
     0
 43
0.0
 10
8.175502777777776
 20
10.16964444444444
 10
10.342225
 20
11.45872777777778
  0
LWPOLYLINE
  5
2CE
330
2
100
AcDbEntity
  8
PDF_Layer 1
 62
     7
420
 16777215
370
    25
100
AcDbPolyline
 90
        2
 70
     0
 43
0.0
 10
4.642605555555555
 20
8.83663611111111
 10
4.642605555555555
 20
5.469594444444442
  0
LWPOLYLINE
  5
2CF
330
2
100
AcDbEntity
  8
PDF_Layer 1
 62
     7
420
 16777215
370
    25
100
AcDbPolyline
 90
        2
 70
     0
 43
0.0
 10
13.499525
 20
7.55648472222222
 10
13.499525
 20
5.469595833333332
  0
LWPOLYLINE
  5
2D0
330
2
100
AcDbEntity
  8
PDF_Layer 1
 62
     7
420
 16777215
370
    25
100
AcDbPolyline
 90
        2
 70
     0
 43
0.0
 10
4.704793055555555
 20
5.536851388888888
 10
13.43733472222222
 20
5.536851388888888
  0
LWPOLYLINE
  5
2D1
330
2
100
AcDbEntity
  8
PDF_Layer 1
 62
     7
420
 16777215
370
    25
100
AcDbPolyline
 90
        2
 70
     0
 43
0.0
 10
6.757337499999998
 20
6.720112499999999
 10
4.008823611111109
 20
6.720112499999999
  0
LWPOLYLINE
  5
2D2
330
2
100
AcDbEntity
  8
PDF_Layer 1
 62
     7
420
 16777215
370
    25
100
AcDbPolyline
 90
        2
 70
     0
 43
0.0
 10
6.757337499999998
 20
11.05354166666666
 10
4.008823611111109
 20
11.05354166666666
  0
LWPOLYLINE
  5
2D3
330
2
100
AcDbEntity
  8
PDF_Layer 1
 62
     7
420
 16777215
370
    25
100
AcDbPolyline
 90
        2
 70
     0
 43
0.0
 10
4.049194444444444
 20
6.787827777777777
 10
4.049194444444444
 20
10.99135555555555
  0
LWPOLYLINE
  5
2D4
330
2
100
AcDbEntity
  8
PDF_Layer 1
 62
     7
420
 16777215
370
    25
100
AcDbPolyline
 90
        2
 70
     0
 43
0.0
 10
7.963059722222221
 20
3.98323611111111
 10
4.038406944444443
 20
3.98323611111111
  0
LWPOLYLINE
  5
2D5
330
2
100
AcDbEntity
  8
PDF_Layer 1
 62
     7
420
 16777215
370
    25
100
AcDbPolyline
 90
        2
 70
     0
 43
0.0
 10
9.208224999999998
 20
0.4808625000000001
 10
4.038405555555555
 20
0.4808625000000001
  0
LWPOLYLINE
  5
2D6
330
2
100
AcDbEntity
  8
PDF_Layer 1
 62
     7
420
 16777215
370
    25
100
AcDbPolyline
 90
        2
 70
     0
 43
0.0
 10
4.078790277777778
 20
3.921047222222222
 10
4.078790277777778
 20
0.5430472222222225
  0
LWPOLYLINE
  5
2D7
330
2
100
AcDbEntity
  8
PDF_Layer 1
 62
     7
420
 16777215
370
    25
100
AcDbPolyline
 90
        2
 70
     0
 43
0.0
 10
9.247654166666665
 20
12.07548055555555
 10
3.190626388888888
 20
12.07459166666666
  0
LWPOLYLINE
  5
2D8
330
2
100
AcDbEntity
  8
PDF_Layer 1
 62
     7
420
 16777215
370
    25
100
AcDbPolyline
 90
        2
 70
     0
 43
0.0
 10
4.6608
 20
6.720112499999999
 10
3.190619444444444
 20
6.720112499999999
  0
LWPOLYLINE
  5
2D9
330
2
100
AcDbEntity
  8
PDF_Layer 1
 62
     7
420
 16777215
370
    25
100
AcDbPolyline
 90
        2
 70
     0
 43
0.0
 10
3.231024999999999
 20
12.01240416666667
 10
3.231024999999999
 20
6.787834722222221
  0
MTEXT
  5
2DA
330
2
100
AcDbEntity
  8
PDF_Text
 62
     7
420
 16777215
100
AcDbMText
 10
10.47785366111111
 20
11.60488729722222
 30
0.0
 40
0.2386065402877146
 41
0.0
 46
0.0
 71
     7
 72
     5
  1
Ø50
  7
PDF Arial
 11
0.8605591648191472
 21
0.5093504921424655
 31
0.0
 73
     1
 44
1.0
  0
MTEXT
  5
2DB
330
2
100
AcDbEntity
  8
PDF_Text
 62
     7
420
 16777215
100
AcDbMText
 10
8.841030555555553
 20
5.58877361111111
 30
0.0
 40
0.2386065402877146
 41
0.0
 46
0.0
 71
     7
 72
     5
  1
176
  7
PDF Arial
 73
     1
 44
1.0
  0
MTEXT
  5
2DC
330
2
100
AcDbEntity
  8
PDF_Text
 62
     7
420
 16777215
100
AcDbMText
 10
3.195512499999999
 20
9.054851388888888
 30
0.0
 40
0.2386065402877146
 41
0.0
 46
0.0
 71
     7
 72
     5
  1
106
  7
PDF Arial
 11
0.0000000000000001
 21
1.0
 31
0.0
 73
     1
 44
1.0
  0
MTEXT
  5
2DD
330
2
100
AcDbEntity
  8
PDF_Text
 62
     7
420
 16777215
100
AcDbMText
 10
4.0295125
 20
2.008518055555555
 30
0.0
 40
0.2386065402877146
 41
0.0
 46
0.0
 71
     7
 72
     5
  1
70
  7
PDF Arial
 11
0.0000000000000001
 21
1.0
 31
0.0
 73
     1
 44
1.0
  0
MTEXT
  5
2DE
330
2
100
AcDbEntity
  8
PDF_Text
 62
     7
420
 16777215
100
AcDbMText
 10
4.001179166666666
 20
8.665518055555555
 30
0.0
 40
0.2386065402877146
 41
0.0
 46
0.0
 71
     7
 72
     5
  1
86
  7
PDF Arial
 11
0.0000000000000001
 21
1.0
 31
0.0
 73
     1
 44
1.0
  0
LWPOLYLINE
  5
2DF
330
2
100
AcDbEntity
  8
PDF_Layer 1
 62
     7
420
 16777215
370
   106
100
AcDbPolyline
 90
        3
 70
     0
 43
0.0
 10
8.844265277777777
 20
10.57484305555555
 42
0.2670264719908348
 10
9.259318055555555
 20
10.33547638888889
 42
1.731163522543597
 10
8.844262500000015
 20
11.05354583333332
  0
LWPOLYLINE
  5
2E0
330
2
100
AcDbEntity
  8
PDF_Layer 1
 62
     7
420
 16777215
370
   106
100
AcDbPolyline
 90
        3
 70
     0
 43
0.0
 10
8.021315277777777
 20
10.57484305555555
 42
0.3595686277069819
 10
9.259318055555555
 20
9.553791666666667
 42
2.121454391472417
 10
8.021318055555548
 20
11.05354166666667
  0
LWPOLYLINE
  5
2E1
330
2
100
AcDbEntity
  8
PDF_Layer 1
 62
     7
420
 16777215
370
   106
100
AcDbPolyline
 90
        3
 70
     0
 43
0.0
 10
8.889091666666665
 20
10.57484305555555
 42
0.2582039422331555
 10
9.259313888888888
 20
10.3740375
 42
1.681624934374948
 10
8.889095833333328
 20
11.0535375
  0
VIEWPORT
  5
4A
330
C
100
AcDbEntity
 67
     1
  8
0
100
AcDbViewport
 10
17.24759499286355
 20
11.49745669559334
 30
0.0
 40
36.33732196730226
 41
27.12504315869042
 68
     1
 69
     1
 12
17.24759499286355
 22
11.49745669559334
 13
0.0
 23
0.0
 14
0.5
 24
0.5
 15
0.5
 25
0.5
 16
0.0
 26
0.0
 36
1.0
 17
0.0
 27
0.0
 37
0.0
 42
50.0
 43
0.0
 44
0.0
 45
27.12504315869042
 50
0.0
 51
0.0
 72
  1000
 90
    32864
  1

281
     0
 71
     1
 74
     0
110
0.0
120
0.0
130
0.0
111
1.0
121
0.0
131
0.0
112
0.0
122
1.0
132
0.0
 79
     0
146
0.0
170
     0
 61
     5
348
88
292
     1
282
     1
141
0.0
142
0.0
 63
   250
421
  3355443
  0
ENDSEC
  0
SECTION
  2
OBJECTS
  0
DICTIONARY
  5
7
330
0
100
AcDbDictionary
281
     1
  3
ACAD_CIP_PREVIOUS_PRODUCT_INFO
350
CD
  3
ACAD_COLOR
350
55
  3
ACAD_DETAILVIEWSTYLE
350
C5
  3
ACAD_GROUP
350
1F
  3
ACAD_LAYOUT
350
B
  3
ACAD_MATERIAL
350
54
  3
ACAD_MLEADERSTYLE
350
C1
  3
ACAD_MLINESTYLE
350
20
  3
ACAD_PLOTSETTINGS
350
21
  3
ACAD_PLOTSTYLENAME
350
6
  3
ACAD_SCALELIST
350
AF
  3
ACAD_SECTIONVIEWSTYLE
350
C3
  3
ACAD_TABLESTYLE
350
93
  3
ACAD_VISUALSTYLE
350
82
  3
ACDB_RECOMPOSE_DATA
350
307
  3
AcDbVariableDictionary
350
9B
  0
DICTIONARY
  5
2E3
330
4
100
AcDbDictionary
280
     1
281
     1
  3
ADSK_XREC_LAYER_RECONCILED
360
2E4
  0
DICTIONARY
  5
2E5
330
25
100
AcDbDictionary
280
     1
281
     1
  3
ADSK_XREC_LAYER_RECONCILED
360
2E6
  0
DICTIONARY
  5
2E7
330
CE
100
AcDbDictionary
280
     1
281
     1
  3
ADSK_XREC_LAYER_RECONCILED
360
2E8
  0
DICTIONARY
  5
2E9
330
DB
100
AcDbDictionary
280
     1
281
     1
  3
ADSK_XREC_LAYER_RECONCILED
360
2EA
  0
XRECORD
  5
CD
102
{ACAD_REACTORS
330
7
102
}
330
7
100
AcDbXrecord
280
     1
300
ACD
300
2017
300
ACD_F_S
  0
DICTIONARY
  5
55
102
{ACAD_REACTORS
330
7
102
}
330
7
100
AcDbDictionary
281
     1
  0
DICTIONARY
  5
C5
102
{ACAD_REACTORS
330
7
102
}
330
7
100
AcDbDictionary
281
     1
  3
Imperial24
350
C6
  0
DICTIONARY
  5
1F
102
{ACAD_REACTORS
330
7
102
}
330
7
100
AcDbDictionary
281
     1
  0
DICTIONARY
  5
B
102
{ACAD_REACTORS
330
7
102
}
330
7
100
AcDbDictionary
281
     1
  3
Generic 24in x 36in Title Block
350
F
  3
Model
350
A
  0
DICTIONARY
  5
54
102
{ACAD_REACTORS
330
7
102
}
330
7
100
AcDbDictionary
281
     1
  3
ByBlock
350
80
  3
ByLayer
350
7F
  3
Global
350
81
  0
DICTIONARY
  5
C1
102
{ACAD_REACTORS
330
7
102
}
330
7
100
AcDbDictionary
281
     1
  3
Standard
350
C2
  0
DICTIONARY
  5
20
102
{ACAD_REACTORS
330
7
102
}
330
7
100
AcDbDictionary
281
     1
  3
Standard
350
22
  0
DICTIONARY
  5
21
102
{ACAD_REACTORS
330
7
102
}
330
7
100
AcDbDictionary
281
     1
  0
ACDBDICTIONARYWDFLT
  5
6
102
{ACAD_REACTORS
330
7
102
}
330
7
100
AcDbDictionary
281
     1
  3
Normal
350
5
100
AcDbDictionaryWithDefault
340
5
  0
DICTIONARY
  5
AF
102
{ACAD_REACTORS
330
7
102
}
330
7
100
AcDbDictionary
281
     1
  3
A0
350
B0
  3
A1
350
B1
  3
A2
350
B2
  3
A3
350
B3
  3
A4
350
B4
  3
A5
350
B5
  3
A6
350
B6
  3
A7
350
B7
  3
A8
350
B8
  3
A9
350
B9
  3
B0
350
BA
  3
B1
350
BB
  3
B2
350
BC
  3
B3
350
BD
  3
B4
350
BE
  3
B5
350
BF
  3
B6
350
C0
  0
DICTIONARY
  5
C3
102
{ACAD_REACTORS
330
7
102
}
330
7
100
AcDbDictionary
281
     1
  3
Imperial24
350
C4
  0
DICTIONARY
  5
93
102
{ACAD_REACTORS
330
7
102
}
330
7
100
AcDbDictionary
281
     1
  3
Standard
350
94
  0
DICTIONARY
  5
82
102
{ACAD_REACTORS
330
7
102
}
330
7
100
AcDbDictionary
281
     1
  3
2dWireframe
350
88
  3
3D Hidden
350
8A
  3
3dWireframe
350
89
  3
Basic
350
87
  3
Brighten
350
8E
  3
ColorChange
350
92
  3
Conceptual
350
8B
  3
Dim
350
8D
  3
EdgeColorOff
350
AE
  3
Facepattern
350
91
  3
Flat
350
83
  3
FlatWithEdges
350
84
  3
Gouraud
350
85
  3
GouraudWithEdges
350
86
  3
Hidden
350
A6
  3
JitterOff
350
AC
  3
Linepattern
350
90
  3
OverhangOff
350
AD
  3
Realistic
350
8C
  3
Shaded
350
AB
  3
Shaded with edges
350
AA
  3
Shades of Gray
350
A7
  3
Sketchy
350
A8
  3
Thicken
350
8F
  3
Wireframe
350
A5
  3
X-Ray
350
A9
  0
XRECORD
  5
307
102
{ACAD_REACTORS
330
7
102
}
330
7
100
AcDbXrecord
280
     1
 90
        1
330
94
330
C4
330
C6
  0
DICTIONARY
  5
9B
102
{ACAD_REACTORS
330
7
102
}
330
7
100
AcDbDictionary
281
     1
  3
CANNOSCALE
350
2FD
  3
CMLEADERSTYLE
350
2F9
  3
CTABLESTYLE
350
9C
  3
CVIEWDETAILSTYLE
350
2FA
  3
CVIEWSECTIONSTYLE
350
2FB
  3
LAYEREVAL
350
2FF
  3
LAYERNOTIFY
350
300
  3
LIGHTINGUNITS
350
2FE
  3
MSLTSCALE
350
2FC
  0
XRECORD
  5
2E4
102
{ACAD_REACTORS
330
2E3
102
}
330
2E3
100
AcDbXrecord
280
     1
290
     1
  0
XRECORD
  5
2E6
102
{ACAD_REACTORS
330
2E5
102
}
330
2E5
100
AcDbXrecord
280
     1
290
     1
  0
XRECORD
  5
2E8
102
{ACAD_REACTORS
330
2E7
102
}
330
2E7
100
AcDbXrecord
280
     1
290
     1
  0
XRECORD
  5
2EA
102
{ACAD_REACTORS
330
2E9
102
}
330
2E9
100
AcDbXrecord
280
     1
290
     1
  0
ACDBDETAILVIEWSTYLE
  5
C6
102
{ACAD_XDICTIONARY
360
305
102
}
102
{ACAD_REACTORS
330
C5
102
}
330
C5
100
AcDbModelDocViewStyle
 70
     0
  3
Imperial24
290
     0
100
AcDbDetailViewStyle
 70
     0
 71
     0
 90
        3
 71
     1
340
12
 62
   256
 40
0.24
340
0
 62
   256
 40
0.24
300

 40
0.36
280
     3
 71
     2
340
8
 90
       25
 62
   256
 71
     3
340
12
 62
   256
 40
0.24
 90
        1
 40
0.75
 90
        1
300
%<\AcVar ViewType \f "%tc1">% %<\AcVar ViewDetailId>%\PSCALE %<\AcVar ViewScale \f "%sn">%
 71
     4
340
8
 90
       25
 62
   256
340
8
 90
       25
 62
   256
280
     0
  0
LAYOUT
  5
F
102
{ACAD_REACTORS
330
B
102
}
330
B
100
AcDbPlotSettings
  1

  2
none_device
  4
ARCH_D_(24.00_x_36.00_Inches)
  6

 40
6.4
 41
19.1
 42
6.4
 43
19.1
 44
609.5999755859375
 45
914.4000244140626
 46
6.095999999999999
 47
-0.254
 48
0.0
 49
0.0
140
0.0
141
0.0
142
1.0
143
1.0
 70
   692
 72
     0
 73
     1
 74
     1
  7

 75
    16
147
1.0
 76
     0
 77
     2
 78
   300
148
0.2650993882970653
149
0.268587724897764
100
AcDbLayout
  1
Generic 24in x 36in Title Block
 70
     1
 71
     1
 10
-0.7524054877282309
 20
-0.5025428238148726
 11
35.24759547345533
 21
23.49745621500156
 12
0.0
 22
0.0
 32
0.0
 14
1.000000000000000E+20
 24
1.000000000000000E+20
 34
1.000000000000000E+20
 15
-1.000000000000000E+20
 25
-1.000000000000000E+20
 35
-1.000000000000000E+20
146
0.0
 13
0.0
 23
0.0
 33
0.0
 16
1.0
 26
0.0
 36
0.0
 17
0.0
 27
1.0
 37
0.0
 76
     0
330
C
331
4A
  0
LAYOUT
  5
A
102
{ACAD_REACTORS
330
B
102
}
330
B
100
AcDbPlotSettings
  1

  2
none_device
  4
Letter_(8.50_x_11.00_Inches)
  6

 40
6.349999904632568
 41
6.349999904632568
 42
6.350006103515625
 43
6.350006103515625
 44
215.8999938964844
 45
279.3999938964844
 46
20.37045378159827
 47
10.87052656611426
 48
0.0
 49
0.0
140
0.0
141
0.0
142
1.0
143
3.59932905303845
 70
 11956
 72
     0
 73
     1
 74
     1
  7

 75
     0
147
0.2778295580271631
 76
     0
 77
     2
 78
   300
148
5.106903281790129
149
0.2718425107115592
100
AcDbLayout
  1
Model
 70
     1
 71
     0
 10
0.0
 20
0.0
 11
12.0
 21
9.0
 12
0.0
 22
0.0
 32
0.0
 14
0.0
 24
0.0
 34
0.0
 15
0.0
 25
0.0
 35
0.0
146
0.0
 13
0.0
 23
0.0
 33
0.0
 16
1.0
 26
0.0
 36
0.0
 17
0.0
 27
1.0
 37
0.0
 76
     0
330
2
331
7D
  0
MATERIAL
  5
80
102
{ACAD_REACTORS
330
54
102
}
330
54
100
AcDbMaterial
  1
ByBlock
 73
     1
 78
     1
172
     1
176
     1
270
     1
274
     1
 94
       63
  0
MATERIAL
  5
7F
102
{ACAD_REACTORS
330
54
102
}
330
54
100
AcDbMaterial
  1
ByLayer
 73
     1
 78
     1
172
     1
176
     1
270
     1
274
     1
 94
       63
  0
MATERIAL
  5
81
102
{ACAD_REACTORS
330
54
102
}
330
54
100
AcDbMaterial
  1
Global
 73
     1
 78
     1
172
     1
176
     1
270
     1
274
     1
 94
       63
  0
MLEADERSTYLE
  5
C2
102
{ACAD_REACTORS
330
C1
102
}
330
C1
100
AcDbMLeaderStyle
179
     2
170
     2
171
     1
172
     0
 90
        2
 40
0.0
 41
0.0
173
     1
 91
-1056964608
340
15
 92
       -2
290
     1
 42
0.09
291
     1
 43
0.36
  3
Standard
 44
0.18
300

342
12
174
     1
178
     6
175
     1
176
     0
 93
-1056964608
 45
0.18
292
     0
297
     0
 46
0.18
 94
-1056964608
 47
1.0
 49
1.0
140
1.0
293
     1
141
0.0
294
     1
177
     0
142
1.0
295
     1
296
     0
143
0.125
271
     0
272
     9
273
     9
298
     1
  0
MLINESTYLE
  5
22
102
{ACAD_REACTORS
330
20
102
}
330
20
100
AcDbMlineStyle
  2
STANDARD
 70
     0
  3

 62
   256
 51
90.0
 52
90.0
 71
     2
 49
0.5
 62
   256
  6
BYLAYER
 49
-0.5
 62
   256
  6
BYLAYER
  0
ACDBPLACEHOLDER
  5
5
102
{ACAD_REACTORS
330
6
102
}
330
6
  0
SCALE
  5
B0
102
{ACAD_REACTORS
330
AF
102
}
330
AF
100
AcDbScale
 70
     0
300
1:1
140
1.0
141
1.0
290
     1
  0
SCALE
  5
B1
102
{ACAD_REACTORS
330
AF
102
}
330
AF
100
AcDbScale
 70
     0
300
1/128" = 1'-0"
140
0.0078125
141
12.0
290
     0
  0
SCALE
  5
B2
102
{ACAD_REACTORS
330
AF
102
}
330
AF
100
AcDbScale
 70
     0
300
1/64" = 1'-0"
140
0.015625
141
12.0
290
     0
  0
SCALE
  5
B3
102
{ACAD_REACTORS
330
AF
102
}
330
AF
100
AcDbScale
 70
     0
300
1/32" = 1'-0"
140
0.03125
141
12.0
290
     0
  0
SCALE
  5
B4
102
{ACAD_REACTORS
330
AF
102
}
330
AF
100
AcDbScale
 70
     0
300
1/16" = 1'-0"
140
0.0625
141
12.0
290
     0
  0
SCALE
  5
B5
102
{ACAD_REACTORS
330
AF
102
}
330
AF
100
AcDbScale
 70
     0
300
3/32" = 1'-0"
140
0.09375
141
12.0
290
     0
  0
SCALE
  5
B6
102
{ACAD_REACTORS
330
AF
102
}
330
AF
100
AcDbScale
 70
     0
300
1/8" = 1'-0"
140
0.125
141
12.0
290
     0
  0
SCALE
  5
B7
102
{ACAD_REACTORS
330
AF
102
}
330
AF
100
AcDbScale
 70
     0
300
3/16" = 1'-0"
140
0.1875
141
12.0
290
     0
  0
SCALE
  5
B8
102
{ACAD_REACTORS
330
AF
102
}
330
AF
100
AcDbScale
 70
     0
300
1/4" = 1'-0"
140
0.25
141
12.0
290
     0
  0
SCALE
  5
B9
102
{ACAD_REACTORS
330
AF
102
}
330
AF
100
AcDbScale
 70
     0
300
3/8" = 1'-0"
140
0.375
141
12.0
290
     0
  0
SCALE
  5
BA
102
{ACAD_REACTORS
330
AF
102
}
330
AF
100
AcDbScale
 70
     0
300
1/2" = 1'-0"
140
0.5
141
12.0
290
     0
  0
SCALE
  5
BB
102
{ACAD_REACTORS
330
AF
102
}
330
AF
100
AcDbScale
 70
     0
300
3/4" = 1'-0"
140
0.75
141
12.0
290
     0
  0
SCALE
  5
BC
102
{ACAD_REACTORS
330
AF
102
}
330
AF
100
AcDbScale
 70
     0
300
1" = 1'-0"
140
1.0
141
12.0
290
     0
  0
SCALE
  5
BD
102
{ACAD_REACTORS
330
AF
102
}
330
AF
100
AcDbScale
 70
     0
300
1-1/2" = 1'-0"
140
1.5
141
12.0
290
     0
  0
SCALE
  5
BE
102
{ACAD_REACTORS
330
AF
102
}
330
AF
100
AcDbScale
 70
     0
300
3" = 1'-0"
140
3.0
141
12.0
290
     0
  0
SCALE
  5
BF
102
{ACAD_REACTORS
330
AF
102
}
330
AF
100
AcDbScale
 70
     0
300
6" = 1'-0"
140
6.0
141
12.0
290
     0
  0
SCALE
  5
C0
102
{ACAD_REACTORS
330
AF
102
}
330
AF
100
AcDbScale
 70
     0
300
1'-0" = 1'-0"
140
12.0
141
12.0
290
     0
  0
ACDBSECTIONVIEWSTYLE
  5
C4
102
{ACAD_XDICTIONARY
360
303
102
}
102
{ACAD_REACTORS
330
C3
102
}
330
C3
100
AcDbModelDocViewStyle
 70
     0
  3
Imperial24
290
     0
100
AcDbSectionViewStyle
 70
     0
 71
     0
 90
       78
 71
     1
340
12
 62
   256
 40
0.24
340
0
340
0
 62
   256
 40
0.24
300
I, O, Q, S, X, Z
 40
0.48
 90
        3
 40
0.18
 90
        1
 71
     2
340
8
 90
       25
 62
   256
340
8
 90
       50
 62
   256
 40
0.24
 40
0.0
 40
0.24
 71
     3
340
12
 62
   256
 40
0.24
 90
        1
 40
0.75
 90
        1
300
%<\AcVar ViewType \f "%tc1">% %<\AcVar ViewSectionStartId>%-%<\AcVar ViewSectionEndId>%\PSCALE %<\AcVar ViewScale \f "%sn">%
 71
     4
 62
   256
 62
   257
300
ANSI31
 40
1.0
 90
        0
290
     0
290
     0
 90
        6
 40
0.0
 40
1.570796326794896
 40
0.2617993877991494
 40
1.308996938995747
 40
-0.2617993877991494
 40
1.832595714594046
  0
TABLESTYLE
  5
94
102
{ACAD_XDICTIONARY
360
301
102
}
102
{ACAD_REACTORS
330
93
102
}
330
93
100
AcDbTableStyle
280
     0
  3
Standard
 70
     0
 71
     0
 40
0.06
 41
0.06
280
     0
281
     0
  7
Standard
140
0.18
170
     2
 62
     0
 63
     7
283
     0
 90
      512
 91
        0
  1

274
    -2
284
     1
 64
     0
275
    -2
285
     1
 65
     0
276
    -2
286
     1
 66
     0
277
    -2
287
     1
 67
     0
278
    -2
288
     1
 68
     0
279
    -2
289
     1
 69
     0
  7
Standard
140
0.25
170
     5
 62
     0
 63
     7
283
     0
 90
      512
 91
        0
  1

274
    -2
284
     1
 64
     0
275
    -2
285
     1
 65
     0
276
    -2
286
     1
 66
     0
277
    -2
287
     1
 67
     0
278
    -2
288
     1
 68
     0
279
    -2
289
     1
 69
     0
  7
Standard
140
0.18
170
     5
 62
     0
 63
     7
283
     0
 90
      512
 91
        0
  1

274
    -2
284
     1
 64
     0
275
    -2
285
     1
 65
     0
276
    -2
286
     1
 66
     0
277
    -2
287
     1
 67
     0
278
    -2
288
     1
 68
     0
279
    -2
289
     1
 69
     0
  0
VISUALSTYLE
  5
88
102
{ACAD_REACTORS
330
82
102
}
330
82
100
AcDbVisualStyle
  2
2dWireframe
 70
     4
177
     3
291
     0
 70
    58
 90
        0
176
     1
 90
        2
176
     1
 90
        1
176
     1
 90
        0
176
     1
 40
0.6
176
     1
 40
30.0
176
     1
 62
     7
420
 16777215
176
     1
 90
        1
176
     1
 90
        4
176
     1
 62
     7
176
     1
 62
   257
176
     1
 90
        1
176
     1
 90
        1
176
     1
 40
1.0
176
     1
 90
        0
176
     1
 62
   257
176
     1
 40
1.0
176
     1
 90
        1
176
     1
 90
        6
176
     1
 90
        2
176
     1
 62
     7
176
     1
 90
        5
176
     1
 90
        0
176
     1
 90
        0
176
     1
290
     0
176
     1
 90
        1
176
     1
 40
0.0
176
     1
 90
        0
176
     1
290
     1
176
     1
290
     1
176
     1
290
     0
176
     1
290
     0
176
     1
290
     0
176
     1
290
     0
176
     1
290
     0
176
     1
290
     0
176
     1
290
     0
176
     1
 90
       50
176
     1
 40
0.0
176
     1
 40
1.0
176
     1
 90
        0
176
     1
 62
    18
420
        0
176
     1
 90
       50
176
     1
 90
        3
176
     1
 62
     5
420
      255
176
     1
290
     0
176
     1
 90
       50
176
     1
 90
       50
176
     1
 90
       50
176
     1
290
     0
176
     1
 90
       50
176
     1
 62
   256
176
     0
 40
1.0
176
     0
 90
        2
176
     1
  1
strokes_ogs.tif
176
     1
290
     0
176
     1
 40
1.0
176
     1
 40
1.0
176
     1
  0
VISUALSTYLE
  5
8A
102
{ACAD_REACTORS
330
82
102
}
330
82
100
AcDbVisualStyle
  2
3D Hidden
 70
     6
177
     3
291
     0
 70
    58
 90
        1
176
     1
 90
        2
176
     1
 90
        2
176
     1
 90
        0
176
     1
 40
0.6
176
     1
 40
30.0
176
     1
 62
     7
420
 16777215
176
     1
 90
        2
176
     1
 90
       10
176
     1
 62
     7
176
     1
 62
   257
176
     1
 90
        2
176
     1
 90
        2
176
     1
 40
40.0
176
     1
 90
        0
176
     1
 62
   257
176
     1
 40
1.0
176
     1
 90
        1
176
     1
 90
        6
176
     1
 90
        2
176
     1
 62
     7
176
     1
 90
        3
176
     1
 90
        0
176
     1
 90
        0
176
     1
290
     0
176
     1
 90
        1
176
     1
 40
0.0
176
     1
 90
        0
176
     1
290
     0
176
     1
290
     1
176
     1
290
     1
176
     1
290
     0
176
     1
290
     0
176
     1
290
     0
176
     1
290
     0
176
     1
290
     0
176
     1
290
     0
176
     1
 90
       50
176
     1
 40
0.0
176
     1
 40
1.0
176
     1
 90
        0
176
     1
 62
    18
420
        0
176
     1
 90
       50
176
     1
 90
        3
176
     1
 62
     5
420
      255
176
     1
290
     0
176
     1
 90
       50
176
     1
 90
       50
176
     1
 90
       50
176
     1
290
     0
176
     1
 90
       50
176
     1
 62
   256
176
     0
 40
1.0
176
     0
 90
        2
176
     1
  1
strokes_ogs.tif
176
     1
290
     0
176
     1
 40
1.0
176
     1
 40
1.0
176
     1
  0
VISUALSTYLE
  5
89
102
{ACAD_REACTORS
330
82
102
}
330
82
100
AcDbVisualStyle
  2
3dWireframe
 70
     5
177
     3
291
     0
 70
    58
 90
        0
176
     1
 90
        2
176
     1
 90
        1
176
     1
 90
        0
176
     1
 40
0.6
176
     1
 40
30.0
176
     1
 62
     7
420
 16777215
176
     1
 90
        1
176
     1
 90
        4
176
     1
 62
     7
176
     1
 62
   257
176
     1
 90
        1
176
     1
 90
        1
176
     1
 40
1.0
176
     1
 90
        0
176
     1
 62
   257
176
     1
 40
1.0
176
     1
 90
        1
176
     1
 90
        6
176
     1
 90
        2
176
     1
 62
     7
176
     1
 90
        5
176
     1
 90
        0
176
     1
 90
        0
176
     1
290
     0
176
     1
 90
        1
176
     1
 40
0.0
176
     1
 90
        0
176
     1
290
     0
176
     1
290
     1
176
     1
290
     1
176
     1
290
     0
176
     1
290
     0
176
     1
290
     0
176
     1
290
     0
176
     1
290
     0
176
     1
290
     0
176
     1
 90
       50
176
     1
 40
0.0
176
     1
 40
1.0
176
     1
 90
        0
176
     1
 62
    18
420
        0
176
     1
 90
       50
176
     1
 90
        3
176
     1
 62
     5
420
      255
176
     1
290
     0
176
     1
 90
       50
176
     1
 90
       50
176
     1
 90
       50
176
     1
290
     0
176
     1
 90
       50
176
     1
 62
   256
176
     0
 40
1.0
176
     0
 90
        2
176
     1
  1
strokes_ogs.tif
176
     1
290
     0
176
     1
 40
1.0
176
     1
 40
1.0
176
     1
  0
VISUALSTYLE
  5
87
102
{ACAD_REACTORS
330
82
102
}
330
82
100
AcDbVisualStyle
  2
Basic
 70
     7
177
     3
291
     1
 70
    58
 90
        1
176
     1
 90
        0
176
     1
 90
        1
176
     1
 90
        0
176
     1
 40
0.6
176
     1
 40
30.0
176
     1
 62
     7
420
 16777215
176
     1
 90
        0
176
     1
 90
        4
176
     1
 62
     7
176
     1
 62
   257
176
     1
 90
        1
176
     1
 90
        1
176
     1
 40
1.0
176
     1
 90
        8
176
     1
 62
     7
176
     1
 40
1.0
176
     1
 90
        1
176
     1
 90
        6
176
     1
 90
        2
176
     1
 62
     7
176
     1
 90
        5
176
     1
 90
        0
176
     1
 90
        0
176
     1
290
     0
176
     1
 90
        1
176
     1
 40
0.0
176
     1
 90
        0
176
     1
290
     0
176
     1
290
     1
176
     1
290
     1
176
     1
290
     0
176
     1
290
     0
176
     1
290
     0
176
     1
290
     0
176
     1
290
     0
176
     1
290
     0
176
     1
 90
       50
176
     1
 40
0.0
176
     1
 40
1.0
176
     1
 90
        0
176
     1
 62
    18
420
        0
176
     1
 90
       50
176
     1
 90
        3
176
     1
 62
     5
420
      255
176
     1
290
     0
176
     1
 90
       50
176
     1
 90
       50
176
     1
 90
       50
176
     1
290
     0
176
     1
 90
       50
176
     1
 62
   256
176
     0
 40
1.0
176
     0
 90
        2
176
     1
  1
strokes_ogs.tif
176
     1
290
     0
176
     1
 40
1.0
176
     1
 40
1.0
176
     1
  0
VISUALSTYLE
  5
8E
102
{ACAD_REACTORS
330
82
102
}
330
82
100
AcDbVisualStyle
  2
Brighten
 70
    12
177
     3
291
     1
 70
    58
 90
        2
176
     1
 90
        2
176
     1
 90
        1
176
     1
 90
        0
176
     1
 40
0.6
176
     1
 40
30.0
176
     1
 62
     7
420
 16777215
176
     1
 90
        1
176
     1
 90
        4
176
     1
 62
     7
176
     1
 62
   257
176
     1
 90
        1
176
     1
 90
        1
176
     1
 40
1.0
176
     1
 90
        8
176
     1
 62
     7
176
     1
 40
1.0
176
     1
 90
        1
176
     1
 90
        6
176
     1
 90
        2
176
     1
 62
     7
176
     1
 90
        5
176
     1
 90
        0
176
     1
 90
        0
176
     1
290
     0
176
     1
 90
        1
176
     1
 40
50.0
176
     1
 90
        0
176
     1
290
     0
176
     1
290
     1
176
     1
290
     1
176
     1
290
     0
176
     1
290
     0
176
     1
290
     0
176
     1
290
     0
176
     1
290
     0
176
     1
290
     0
176
     1
 90
       50
176
     1
 40
0.0
176
     1
 40
1.0
176
     1
 90
        0
176
     1
 62
    18
420
        0
176
     1
 90
       50
176
     1
 90
        3
176
     1
 62
     5
420
      255
176
     1
290
     0
176
     1
 90
       50
176
     1
 90
       50
176
     1
 90
       50
176
     1
290
     0
176
     1
 90
       50
176
     1
 62
   256
176
     0
 40
1.0
176
     0
 90
        2
176
     1
  1
strokes_ogs.tif
176
     1
290
     0
176
     1
 40
1.0
176
     1
 40
1.0
176
     1
  0
VISUALSTYLE
  5
92
102
{ACAD_REACTORS
330
82
102
}
330
82
100
AcDbVisualStyle
  2
ColorChange
 70
    16
177
     3
291
     1
 70
    58
 90
        2
176
     1
 90
        2
176
     1
 90
        3
176
     1
 90
        0
176
     1
 40
0.6
176
     1
 40
30.0
176
     1
 62
     8
420
  8421504
176
     1
 90
        1
176
     1
 90
        4
176
     1
 62
     7
176
     1
 62
   257
176
     1
 90
        1
176
     1
 90
        1
176
     1
 40
1.0
176
     1
 90
        8
176
     1
 62
     8
420
  8421504
176
     1
 40
1.0
176
     1
 90
        1
176
     1
 90
        6
176
     1
 90
        2
176
     1
 62
     7
176
     1
 90
        5
176
     1
 90
        0
176
     1
 90
        0
176
     1
290
     0
176
     1
 90
        1
176
     1
 40
0.0
176
     1
 90
        0
176
     1
290
     0
176
     1
290
     1
176
     1
290
     1
176
     1
290
     0
176
     1
290
     0
176
     1
290
     0
176
     1
290
     0
176
     1
290
     0
176
     1
290
     0
176
     1
 90
       50
176
     1
 40
0.0
176
     1
 40
1.0
176
     1
 90
        0
176
     1
 62
    18
420
        0
176
     1
 90
       50
176
     1
 90
        3
176
     1
 62
     5
420
      255
176
     1
290
     0
176
     1
 90
       50
176
     1
 90
       50
176
     1
 90
       50
176
     1
290
     0
176
     1
 90
       50
176
     1
 62
   256
176
     0
 40
1.0
176
     0
 90
        2
176
     1
  1
strokes_ogs.tif
176
     1
290
     0
176
     1
 40
1.0
176
     1
 40
1.0
176
     1
  0
VISUALSTYLE
  5
8B
102
{ACAD_REACTORS
330
82
102
}
330
82
100
AcDbVisualStyle
  2
Conceptual
 70
     9
177
     3
291
     0
 70
    58
 90
        3
176
     1
 90
        2
176
     1
 90
        1
176
     1
 90
        0
176
     1
 40
0.6
176
     1
 40
30.0
176
     1
 62
     7
420
 16777215
176
     1
 90
        2
176
     1
 90
        2
176
     1
 62
     7
176
     1
 62
   257
176
     1
 90
        1
176
     1
 90
        1
176
     1
 40
40.0
176
     1
 90
        8
176
     1
 62
     7
176
     1
 40
1.0
176
     1
 90
        1
176
     1
 90
        6
176
     1
 90
        2
176
     1
 62
     7
176
     1
 90
        5
176
     1
 90
        0
176
     1
 90
        0
176
     1
290
     0
176
     1
 90
        1
176
     1
 40
0.0
176
     1
 90
        0
176
     1
290
     0
176
     1
290
     1
176
     1
290
     1
176
     1
290
     0
176
     1
290
     0
176
     1
290
     0
176
     1
290
     0
176
     1
290
     0
176
     1
290
     0
176
     1
 90
       50
176
     1
 40
0.0
176
     1
 40
1.0
176
     1
 90
        0
176
     1
 62
    18
420
        0
176
     1
 90
       50
176
     1
 90
        3
176
     1
 62
     5
420
      255
176
     1
290
     0
176
     1
 90
       50
176
     1
 90
       50
176
     1
 90
       50
176
     1
290
     0
176
     1
 90
       50
176
     1
 62
   256
176
     0
 40
1.0
176
     0
 90
        2
176
     1
  1
strokes_ogs.tif
176
     1
290
     0
176
     1
 40
1.0
176
     1
 40
1.0
176
     1
  0
VISUALSTYLE
  5
8D
102
{ACAD_REACTORS
330
82
102
}
330
82
100
AcDbVisualStyle
  2
Dim
 70
    11
177
     3
291
     1
 70
    58
 90
        2
176
     1
 90
        2
176
     1
 90
        1
176
     1
 90
        0
176
     1
 40
0.6
176
     1
 40
30.0
176
     1
 62
     7
420
 16777215
176
     1
 90
        1
176
     1
 90
        4
176
     1
 62
     7
176
     1
 62
   257
176
     1
 90
        1
176
     1
 90
        1
176
     1
 40
1.0
176
     1
 90
        8
176
     1
 62
     7
176
     1
 40
1.0
176
     1
 90
        1
176
     1
 90
        6
176
     1
 90
        2
176
     1
 62
     7
176
     1
 90
        5
176
     1
 90
        0
176
     1
 90
        0
176
     1
290
     0
176
     1
 90
        1
176
     1
 40
-50.0
176
     1
 90
        0
176
     1
290
     0
176
     1
290
     1
176
     1
290
     1
176
     1
290
     0
176
     1
290
     0
176
     1
290
     0
176
     1
290
     0
176
     1
290
     0
176
     1
290
     0
176
     1
 90
       50
176
     1
 40
0.0
176
     1
 40
1.0
176
     1
 90
        0
176
     1
 62
    18
420
        0
176
     1
 90
       50
176
     1
 90
        3
176
     1
 62
     5
420
      255
176
     1
290
     0
176
     1
 90
       50
176
     1
 90
       50
176
     1
 90
       50
176
     1
290
     0
176
     1
 90
       50
176
     1
 62
   256
176
     0
 40
1.0
176
     0
 90
        2
176
     1
  1
strokes_ogs.tif
176
     1
290
     0
176
     1
 40
1.0
176
     1
 40
1.0
176
     1
  0
VISUALSTYLE
  5
AE
102
{ACAD_REACTORS
330
82
102
}
330
82
100
AcDbVisualStyle
  2
EdgeColorOff
 70
    22
177
     3
291
     1
 70
    58
 90
        2
176
     0
 90
        2
176
     0
 90
        0
176
     0
 90
        0
176
     0
 40
0.6
176
     0
 40
30.0
176
     0
 62
     7
420
 16777215
176
     0
 90
        1
176
     0
 90
        4
176
     0
 62
     7
176
     0
 62
   257
176
     0
 90
        1
176
     0
 90
        1
176
     0
 40
1.0
176
     0
 90
        8
176
     2
 62
     7
176
     0
 40
1.0
176
     0
 90
        1
176
     0
 90
        6
176
     0
 90
        2
176
     0
 62
     7
176
     0
 90
        5
176
     0
 90
        0
176
     0
 90
        0
176
     0
290
     0
176
     0
 90
        1
176
     0
 40
0.0
176
     0
 90
        0
176
     0
290
     0
176
     0
290
     1
176
     0
290
     1
176
     0
290
     0
176
     0
290
     0
176
     0
290
     0
176
     0
290
     0
176
     0
290
     0
176
     0
290
     0
176
     0
 90
       50
176
     0
 40
0.0
176
     0
 40
1.0
176
     0
 90
        0
176
     0
 62
    18
420
        0
176
     0
 90
       50
176
     0
 90
        3
176
     0
 62
     5
420
      255
176
     0
290
     0
176
     0
 90
       50
176
     0
 90
       50
176
     0
 90
       50
176
     0
290
     0
176
     0
 90
       50
176
     0
 62
   256
176
     0
 40
1.0
176
     0
 90
        2
176
     0
  1
strokes_ogs.tif
176
     0
290
     0
176
     0
 40
1.0
176
     0
 40
1.0
176
     0
  0
VISUALSTYLE
  5
91
102
{ACAD_REACTORS
330
82
102
}
330
82
100
AcDbVisualStyle
  2
Facepattern
 70
    15
177
     3
291
     1
 70
    58
 90
        2
176
     1
 90
        2
176
     1
 90
        1
176
     1
 90
        0
176
     1
 40
0.6
176
     1
 40
30.0
176
     1
 62
     7
420
 16777215
176
     1
 90
        1
176
     1
 90
        4
176
     1
 62
     7
176
     1
 62
   257
176
     1
 90
        1
176
     1
 90
        1
176
     1
 40
1.0
176
     1
 90
        8
176
     1
 62
     7
176
     1
 40
1.0
176
     1
 90
        1
176
     1
 90
        6
176
     1
 90
        2
176
     1
 62
     7
176
     1
 90
        5
176
     1
 90
        0
176
     1
 90
        0
176
     1
290
     0
176
     1
 90
        1
176
     1
 40
0.0
176
     1
 90
        0
176
     1
290
     0
176
     1
290
     1
176
     1
290
     1
176
     1
290
     0
176
     1
290
     0
176
     1
290
     0
176
     1
290
     0
176
     1
290
     0
176
     1
290
     0
176
     1
 90
       50
176
     1
 40
0.0
176
     1
 40
1.0
176
     1
 90
        0
176
     1
 62
    18
420
        0
176
     1
 90
       50
176
     1
 90
        3
176
     1
 62
     5
420
      255
176
     1
290
     0
176
     1
 90
       50
176
     1
 90
       50
176
     1
 90
       50
176
     1
290
     0
176
     1
 90
       50
176
     1
 62
   256
176
     0
 40
1.0
176
     0
 90
        2
176
     1
  1
strokes_ogs.tif
176
     1
290
     0
176
     1
 40
1.0
176
     1
 40
1.0
176
     1
  0
VISUALSTYLE
  5
83
102
{ACAD_REACTORS
330
82
102
}
330
82
100
AcDbVisualStyle
  2
Flat
 70
     0
177
     3
291
     1
 70
    58
 90
        2
176
     1
 90
        1
176
     1
 90
        1
176
     1
 90
        2
176
     1
 40
0.6
176
     1
 40
30.0
176
     1
 62
     7
420
 16777215
176
     1
 90
        0
176
     1
 90
        4
176
     1
 62
     7
176
     1
 62
   257
176
     1
 90
        1
176
     1
 90
        1
176
     1
 40
1.0
176
     1
 90
        8
176
     1
 62
     7
176
     1
 40
1.0
176
     1
 90
        1
176
     1
 90
        6
176
     1
 90
        2
176
     1
 62
     7
176
     1
 90
        5
176
     1
 90
        0
176
     1
 90
        0
176
     1
290
     0
176
     1
 90
        1
176
     1
 40
0.0
176
     1
 90
        0
176
     1
290
     0
176
     1
290
     1
176
     1
290
     1
176
     1
290
     0
176
     1
290
     0
176
     1
290
     0
176
     1
290
     0
176
     1
290
     0
176
     1
290
     0
176
     1
 90
       50
176
     1
 40
0.0
176
     1
 40
1.0
176
     1
 90
        0
176
     1
 62
    18
420
        0
176
     1
 90
       50
176
     1
 90
        3
176
     1
 62
     5
420
      255
176
     1
290
     0
176
     1
 90
       50
176
     1
 90
       50
176
     1
 90
       50
176
     1
290
     0
176
     1
 90
       50
176
     1
 62
   256
176
     0
 40
1.0
176
     0
 90
        2
176
     1
  1
strokes_ogs.tif
176
     1
290
     0
176
     1
 40
1.0
176
     1
 40
1.0
176
     1
  0
VISUALSTYLE
  5
84
102
{ACAD_REACTORS
330
82
102
}
330
82
100
AcDbVisualStyle
  2
FlatWithEdges
 70
     1
177
     3
291
     1
 70
    58
 90
        2
176
     1
 90
        1
176
     1
 90
        1
176
     1
 90
        2
176
     1
 40
0.6
176
     1
 40
30.0
176
     1
 62
     7
420
 16777215
176
     1
 90
        1
176
     1
 90
        4
176
     1
 62
     7
176
     1
 62
   257
176
     1
 90
        1
176
     1
 90
        1
176
     1
 40
1.0
176
     1
 90
        0
176
     1
 62
   257
176
     1
 40
1.0
176
     1
 90
        1
176
     1
 90
        6
176
     1
 90
        2
176
     1
 62
     7
176
     1
 90
        5
176
     1
 90
        0
176
     1
 90
        0
176
     1
290
     0
176
     1
 90
        1
176
     1
 40
0.0
176
     1
 90
        0
176
     1
290
     0
176
     1
290
     1
176
     1
290
     1
176
     1
290
     0
176
     1
290
     0
176
     1
290
     0
176
     1
290
     0
176
     1
290
     0
176
     1
290
     0
176
     1
 90
       50
176
     1
 40
0.0
176
     1
 40
1.0
176
     1
 90
        0
176
     1
 62
    18
420
        0
176
     1
 90
       50
176
     1
 90
        3
176
     1
 62
     5
420
      255
176
     1
290
     0
176
     1
 90
       50
176
     1
 90
       50
176
     1
 90
       50
176
     1
290
     0
176
     1
 90
       50
176
     1
 62
   256
176
     0
 40
1.0
176
     0
 90
        2
176
     1
  1
strokes_ogs.tif
176
     1
290
     0
176
     1
 40
1.0
176
     1
 40
1.0
176
     1
  0
VISUALSTYLE
  5
85
102
{ACAD_REACTORS
330
82
102
}
330
82
100
AcDbVisualStyle
  2
Gouraud
 70
     2
177
     3
291
     1
 70
    58
 90
        2
176
     1
 90
        2
176
     1
 90
        1
176
     1
 90
        2
176
     1
 40
0.6
176
     1
 40
30.0
176
     1
 62
     7
420
 16777215
176
     1
 90
        0
176
     1
 90
        4
176
     1
 62
     7
176
     1
 62
   257
176
     1
 90
        1
176
     1
 90
        1
176
     1
 40
1.0
176
     1
 90
        0
176
     1
 62
     7
176
     1
 40
1.0
176
     1
 90
        1
176
     1
 90
        6
176
     1
 90
        2
176
     1
 62
     7
176
     1
 90
        5
176
     1
 90
        0
176
     1
 90
        0
176
     1
290
     0
176
     1
 90
        1
176
     1
 40
0.0
176
     1
 90
        0
176
     1
290
     0
176
     1
290
     1
176
     1
290
     1
176
     1
290
     0
176
     1
290
     0
176
     1
290
     0
176
     1
290
     0
176
     1
290
     0
176
     1
290
     0
176
     1
 90
       50
176
     1
 40
0.0
176
     1
 40
1.0
176
     1
 90
        0
176
     1
 62
    18
420
        0
176
     1
 90
       50
176
     1
 90
        3
176
     1
 62
     5
420
      255
176
     1
290
     0
176
     1
 90
       50
176
     1
 90
       50
176
     1
 90
       50
176
     1
290
     0
176
     1
 90
       50
176
     1
 62
   256
176
     0
 40
1.0
176
     0
 90
        2
176
     1
  1
strokes_ogs.tif
176
     1
290
     0
176
     1
 40
1.0
176
     1
 40
1.0
176
     1
  0
VISUALSTYLE
  5
86
102
{ACAD_REACTORS
330
82
102
}
330
82
100
AcDbVisualStyle
  2
GouraudWithEdges
 70
     3
177
     3
291
     1
 70
    58
 90
        2
176
     1
 90
        2
176
     1
 90
        1
176
     1
 90
        2
176
     1
 40
0.6
176
     1
 40
30.0
176
     1
 62
     7
420
 16777215
176
     1
 90
        1
176
     1
 90
        4
176
     1
 62
     7
176
     1
 62
   257
176
     1
 90
        1
176
     1
 90
        1
176
     1
 40
1.0
176
     1
 90
        0
176
     1
 62
   257
176
     1
 40
1.0
176
     1
 90
        1
176
     1
 90
        6
176
     1
 90
        2
176
     1
 62
     7
176
     1
 90
        5
176
     1
 90
        0
176
     1
 90
        0
176
     1
290
     0
176
     1
 90
        1
176
     1
 40
0.0
176
     1
 90
        0
176
     1
290
     0
176
     1
290
     1
176
     1
290
     1
176
     1
290
     0
176
     1
290
     0
176
     1
290
     0
176
     1
290
     0
176
     1
290
     0
176
     1
290
     0
176
     1
 90
       50
176
     1
 40
0.0
176
     1
 40
1.0
176
     1
 90
        0
176
     1
 62
    18
420
        0
176
     1
 90
       50
176
     1
 90
        3
176
     1
 62
     5
420
      255
176
     1
290
     0
176
     1
 90
       50
176
     1
 90
       50
176
     1
 90
       50
176
     1
290
     0
176
     1
 90
       50
176
     1
 62
   256
176
     0
 40
1.0
176
     0
 90
        2
176
     1
  1
strokes_ogs.tif
176
     1
290
     0
176
     1
 40
1.0
176
     1
 40
1.0
176
     1
  0
VISUALSTYLE
  5
A6
102
{ACAD_REACTORS
330
82
102
}
330
82
100
AcDbVisualStyle
  2
Hidden
 70
     6
177
     3
291
     0
 70
    58
 90
        1
176
     1
 90
        2
176
     1
 90
        2
176
     1
 90
        0
176
     1
 40
0.6
176
     1
 40
30.0
176
     1
 62
     7
420
 16777215
176
     1
 90
        2
176
     1
 90
        2
176
     1
 62
     7
176
     1
 62
   257
176
     1
 90
        2
176
     1
 90
        1
176
     1
 40
40.0
176
     1
 90
        0
176
     1
 62
   257
176
     1
 40
1.0
176
     1
 90
        1
176
     1
 90
        6
176
     1
 90
        2
176
     1
 62
     7
176
     1
 90
        3
176
     1
 90
        0
176
     1
 90
        0
176
     1
290
     0
176
     1
 90
        1
176
     1
 40
0.0
176
     1
 90
        0
176
     1
290
     0
176
     1
290
     1
176
     1
290
     1
176
     1
290
     0
176
     1
290
     0
176
     1
290
     0
176
     1
290
     0
176
     1
290
     0
176
     1
290
     0
176
     1
 90
       50
176
     1
 40
0.0
176
     1
 40
1.0
176
     1
 90
        0
176
     1
 62
    18
420
        0
176
     1
 90
       50
176
     1
 90
        3
176
     1
 62
     5
420
      255
176
     1
290
     0
176
     1
 90
       50
176
     1
 90
       50
176
     1
 90
       50
176
     1
290
     0
176
     1
 90
       50
176
     1
 62
   256
176
     0
 40
1.0
176
     0
 90
        2
176
     1
  1
strokes_ogs.tif
176
     1
290
     0
176
     1
 40
1.0
176
     1
 40
1.0
176
     1
  0
VISUALSTYLE
  5
AC
102
{ACAD_REACTORS
330
82
102
}
330
82
100
AcDbVisualStyle
  2
JitterOff
 70
    20
177
     3
291
     1
 70
    58
 90
        2
176
     0
 90
        2
176
     0
 90
        0
176
     0
 90
        0
176
     0
 40
0.6
176
     0
 40
30.0
176
     0
 62
     7
420
 16777215
176
     0
 90
        1
176
     0
 90
        4
176
     0
 62
     7
176
     0
 62
   257
176
     0
 90
        1
176
     0
 90
        1
176
     0
 40
1.0
176
     0
 90
       10
176
     2
 62
     7
176
     0
 40
1.0
176
     0
 90
        1
176
     0
 90
        6
176
     0
 90
        2
176
     0
 62
     7
176
     0
 90
        5
176
     0
 90
        0
176
     0
 90
        0
176
     0
290
     0
176
     0
 90
        1
176
     0
 40
0.0
176
     0
 90
        0
176
     0
290
     0
176
     0
290
     1
176
     0
290
     1
176
     0
290
     0
176
     0
290
     0
176
     0
290
     0
176
     0
290
     0
176
     0
290
     0
176
     0
290
     0
176
     0
 90
       50
176
     0
 40
0.0
176
     0
 40
1.0
176
     0
 90
        0
176
     0
 62
    18
420
        0
176
     0
 90
       50
176
     0
 90
        3
176
     0
 62
     5
420
      255
176
     0
290
     0
176
     0
 90
       50
176
     0
 90
       50
176
     0
 90
       50
176
     0
290
     0
176
     0
 90
       50
176
     0
 62
   256
176
     0
 40
1.0
176
     0
 90
        2
176
     0
  1
strokes_ogs.tif
176
     0
290
     0
176
     0
 40
1.0
176
     0
 40
1.0
176
     0
  0
VISUALSTYLE
  5
90
102
{ACAD_REACTORS
330
82
102
}
330
82
100
AcDbVisualStyle
  2
Linepattern
 70
    14
177
     3
291
     1
 70
    58
 90
        2
176
     1
 90
        2
176
     1
 90
        1
176
     1
 90
        0
176
     1
 40
0.6
176
     1
 40
30.0
176
     1
 62
     7
420
 16777215
176
     1
 90
        1
176
     1
 90
        4
176
     1
 62
     7
176
     1
 62
   257
176
     1
 90
        7
176
     1
 90
        7
176
     1
 40
1.0
176
     1
 90
        8
176
     1
 62
     7
176
     1
 40
1.0
176
     1
 90
        1
176
     1
 90
        6
176
     1
 90
        2
176
     1
 62
     7
176
     1
 90
        5
176
     1
 90
        0
176
     1
 90
        0
176
     1
290
     0
176
     1
 90
        1
176
     1
 40
0.0
176
     1
 90
        0
176
     1
290
     0
176
     1
290
     1
176
     1
290
     1
176
     1
290
     0
176
     1
290
     0
176
     1
290
     0
176
     1
290
     0
176
     1
290
     0
176
     1
290
     0
176
     1
 90
       50
176
     1
 40
0.0
176
     1
 40
1.0
176
     1
 90
        0
176
     1
 62
    18
420
        0
176
     1
 90
       50
176
     1
 90
        3
176
     1
 62
     5
420
      255
176
     1
290
     0
176
     1
 90
       50
176
     1
 90
       50
176
     1
 90
       50
176
     1
290
     0
176
     1
 90
       50
176
     1
 62
   256
176
     0
 40
1.0
176
     0
 90
        2
176
     1
  1
strokes_ogs.tif
176
     1
290
     0
176
     1
 40
1.0
176
     1
 40
1.0
176
     1
  0
VISUALSTYLE
  5
AD
102
{ACAD_REACTORS
330
82
102
}
330
82
100
AcDbVisualStyle
  2
OverhangOff
 70
    21
177
     3
291
     1
 70
    58
 90
        2
176
     0
 90
        2
176
     0
 90
        0
176
     0
 90
        0
176
     0
 40
0.6
176
     0
 40
30.0
176
     0
 62
     7
420
 16777215
176
     0
 90
        1
176
     0
 90
        4
176
     0
 62
     7
176
     0
 62
   257
176
     0
 90
        1
176
     0
 90
        1
176
     0
 40
1.0
176
     0
 90
        9
176
     2
 62
     7
176
     0
 40
1.0
176
     0
 90
        1
176
     0
 90
        6
176
     0
 90
        2
176
     0
 62
     7
176
     0
 90
        5
176
     0
 90
        0
176
     0
 90
        0
176
     0
290
     0
176
     0
 90
        1
176
     0
 40
0.0
176
     0
 90
        0
176
     0
290
     0
176
     0
290
     1
176
     0
290
     1
176
     0
290
     0
176
     0
290
     0
176
     0
290
     0
176
     0
290
     0
176
     0
290
     0
176
     0
290
     0
176
     0
 90
       50
176
     0
 40
0.0
176
     0
 40
1.0
176
     0
 90
        0
176
     0
 62
    18
420
        0
176
     0
 90
       50
176
     0
 90
        3
176
     0
 62
     5
420
      255
176
     0
290
     0
176
     0
 90
       50
176
     0
 90
       50
176
     0
 90
       50
176
     0
290
     0
176
     0
 90
       50
176
     0
 62
   256
176
     0
 40
1.0
176
     0
 90
        2
176
     0
  1
strokes_ogs.tif
176
     0
290
     0
176
     0
 40
1.0
176
     0
 40
1.0
176
     0
  0
VISUALSTYLE
  5
8C
102
{ACAD_REACTORS
330
82
102
}
330
82
100
AcDbVisualStyle
  2
Realistic
 70
     8
177
     3
291
     0
 70
    58
 90
        2
176
     1
 90
        2
176
     1
 90
        1
176
     1
 90
        0
176
     1
 40
0.6
176
     1
 40
30.0
176
     1
 62
     7
420
 16777215
176
     1
 90
        1
176
     1
 90
        0
176
     1
 62
     7
176
     1
 62
   257
176
     1
 90
        1
176
     1
 90
        1
176
     1
 40
1.0
176
     1
 90
        8
176
     1
 62
     7
176
     1
 40
1.0
176
     1
 90
        1
176
     1
 90
        6
176
     1
 90
        2
176
     1
 62
     7
176
     1
 90
        5
176
     1
 90
        0
176
     1
 90
        0
176
     1
290
     0
176
     1
 90
       13
176
     1
 40
0.0
176
     1
 90
        0
176
     1
290
     0
176
     1
290
     1
176
     1
290
     1
176
     1
290
     0
176
     1
290
     0
176
     1
290
     0
176
     1
290
     0
176
     1
290
     0
176
     1
290
     0
176
     1
 90
       50
176
     1
 40
0.0
176
     1
 40
1.0
176
     1
 90
        0
176
     1
 62
    18
420
        0
176
     1
 90
       50
176
     1
 90
        3
176
     1
 62
     5
420
      255
176
     1
290
     0
176
     1
 90
       50
176
     1
 90
       50
176
     1
 90
       50
176
     1
290
     0
176
     1
 90
       50
176
     1
 62
   256
176
     0
 40
1.0
176
     0
 90
        2
176
     1
  1
strokes_ogs.tif
176
     1
290
     0
176
     1
 40
1.0
176
     1
 40
1.0
176
     1
  0
VISUALSTYLE
  5
AB
102
{ACAD_REACTORS
330
82
102
}
330
82
100
AcDbVisualStyle
  2
Shaded
 70
    27
177
     3
291
     0
 70
    58
 90
        2
176
     1
 90
        2
176
     1
 90
        1
176
     1
 90
        2
176
     1
 40
0.6
176
     1
 40
30.0
176
     1
 62
     7
420
 16777215
176
     1
 90
        0
176
     1
 90
        4
176
     1
 62
     7
176
     1
 62
   257
176
     1
 90
        1
176
     1
 90
        1
176
     1
 40
1.0
176
     1
 90
        8
176
     1
 62
   257
176
     1
 40
1.0
176
     1
 90
        1
176
     1
 90
        6
176
     1
 90
        2
176
     1
 62
     8
420
  7895160
176
     1
 90
        3
176
     1
 90
        0
176
     1
 90
        0
176
     1
290
     0
176
     1
 90
        5
176
     1
 40
0.0
176
     1
 90
        0
176
     1
290
     0
176
     1
290
     1
176
     1
290
     1
176
     1
290
     0
176
     1
290
     0
176
     1
290
     0
176
     1
290
     0
176
     1
290
     0
176
     1
290
     0
176
     1
 90
       50
176
     1
 40
0.0
176
     1
 40
1.0
176
     1
 90
        0
176
     1
 62
    18
420
        0
176
     1
 90
       50
176
     1
 90
        3
176
     1
 62
     5
420
      255
176
     1
290
     0
176
     1
 90
       50
176
     1
 90
       50
176
     1
 90
       50
176
     1
290
     0
176
     1
 90
       50
176
     1
 62
   256
176
     0
 40
1.0
176
     0
 90
        2
176
     1
  1
strokes_ogs.tif
176
     1
290
     0
176
     1
 40
1.0
176
     1
 40
1.0
176
     1
  0
VISUALSTYLE
  5
AA
102
{ACAD_REACTORS
330
82
102
}
330
82
100
AcDbVisualStyle
  2
Shaded with edges
 70
    26
177
     3
291
     0
 70
    58
 90
        2
176
     1
 90
        2
176
     1
 90
        1
176
     1
 90
        2
176
     1
 40
0.6
176
     1
 40
30.0
176
     1
 62
     7
420
 16777215
176
     1
 90
        1
176
     1
 90
        2
176
     1
 62
     7
176
     1
 62
   257
176
     1
 90
        2
176
     1
 90
        1
176
     1
 40
1.0
176
     1
 90
        8
176
     1
 62
   257
176
     1
 40
1.0
176
     1
 90
        1
176
     1
 90
        6
176
     1
 90
        2
176
     1
 62
     7
176
     1
 90
        3
176
     1
 90
        0
176
     1
 90
        0
176
     1
290
     0
176
     1
 90
        5
176
     1
 40
0.0
176
     1
 90
        0
176
     1
290
     0
176
     1
290
     1
176
     1
290
     1
176
     1
290
     0
176
     1
290
     0
176
     1
290
     0
176
     1
290
     0
176
     1
290
     0
176
     1
290
     0
176
     1
 90
       50
176
     1
 40
0.0
176
     1
 40
1.0
176
     1
 90
        0
176
     1
 62
    18
420
        0
176
     1
 90
       50
176
     1
 90
        3
176
     1
 62
     5
420
      255
176
     1
290
     0
176
     1
 90
       50
176
     1
 90
       50
176
     1
 90
       50
176
     1
290
     0
176
     1
 90
       50
176
     1
 62
   256
176
     0
 40
1.0
176
     0
 90
        2
176
     1
  1
strokes_ogs.tif
176
     1
290
     0
176
     1
 40
1.0
176
     1
 40
1.0
176
     1
  0
VISUALSTYLE
  5
A7
102
{ACAD_REACTORS
330
82
102
}
330
82
100
AcDbVisualStyle
  2
Shades of Gray
 70
    23
177
     3
291
     0
 70
    58
 90
        2
176
     1
 90
        2
176
     1
 90
        3
176
     1
 90
        0
176
     1
 40
0.6
176
     1
 40
30.0
176
     1
 62
     7
420
 16777215
176
     1
 90
        2
176
     1
 90
        2
176
     1
 62
     7
176
     1
 62
     7
176
     1
 90
        1
176
     1
 90
        1
176
     1
 40
40.0
176
     1
 90
        8
176
     1
 62
     7
176
     1
 40
1.0
176
     1
 90
        1
176
     1
 90
        6
176
     1
 90
        2
176
     1
 62
     7
176
     1
 90
        3
176
     1
 90
        0
176
     1
 90
        0
176
     1
290
     0
176
     1
 90
        1
176
     1
 40
0.0
176
     1
 90
        0
176
     1
290
     0
176
     1
290
     1
176
     1
290
     1
176
     1
290
     0
176
     1
290
     0
176
     1
290
     0
176
     1
290
     0
176
     1
290
     0
176
     1
290
     0
176
     1
 90
       50
176
     1
 40
0.0
176
     1
 40
1.0
176
     1
 90
        0
176
     1
 62
    18
420
        0
176
     1
 90
       50
176
     1
 90
        3
176
     1
 62
     5
420
      255
176
     1
290
     0
176
     1
 90
       50
176
     1
 90
       50
176
     1
 90
       50
176
     1
290
     0
176
     1
 90
       50
176
     1
 62
   256
176
     0
 40
1.0
176
     0
 90
        2
176
     1
  1
strokes_ogs.tif
176
     1
290
     0
176
     1
 40
1.0
176
     1
 40
1.0
176
     1
  0
VISUALSTYLE
  5
A8
102
{ACAD_REACTORS
330
82
102
}
330
82
100
AcDbVisualStyle
  2
Sketchy
 70
    24
177
     3
291
     0
 70
    58
 90
        1
176
     1
 90
        2
176
     1
 90
        2
176
     1
 90
        0
176
     1
 40
0.6
176
     1
 40
30.0
176
     1
 62
     7
420
 16777215
176
     1
 90
        2
176
     1
 90
        2
176
     1
 62
     7
176
     1
 62
     7
176
     1
 90
        1
176
     1
 90
        1
176
     1
 40
40.0
176
     1
 90
       11
176
     1
 62
     7
176
     1
 40
1.0
176
     1
 90
        1
176
     1
 90
        6
176
     1
 90
        2
176
     1
 62
     7
176
     1
 90
        6
176
     1
 90
        0
176
     1
 90
        0
176
     1
290
     0
176
     1
 90
        1
176
     1
 40
0.0
176
     1
 90
        0
176
     1
290
     0
176
     1
290
     1
176
     1
290
     1
176
     1
290
     0
176
     1
290
     0
176
     1
290
     0
176
     1
290
     0
176
     1
290
     0
176
     1
290
     0
176
     1
 90
       50
176
     1
 40
0.0
176
     1
 40
1.0
176
     1
 90
        0
176
     1
 62
    18
420
        0
176
     1
 90
       50
176
     1
 90
        3
176
     1
 62
     5
420
      255
176
     1
290
     0
176
     1
 90
       50
176
     1
 90
       50
176
     1
 90
       50
176
     1
290
     0
176
     1
 90
       50
176
     1
 62
   256
176
     0
 40
1.0
176
     0
 90
        2
176
     1
  1
strokes_ogs.tif
176
     1
290
     0
176
     1
 40
1.0
176
     1
 40
1.0
176
     1
  0
VISUALSTYLE
  5
8F
102
{ACAD_REACTORS
330
82
102
}
330
82
100
AcDbVisualStyle
  2
Thicken
 70
    13
177
     3
291
     1
 70
    58
 90
        2
176
     1
 90
        2
176
     1
 90
        1
176
     1
 90
        0
176
     1
 40
0.6
176
     1
 40
30.0
176
     1
 62
     7
420
 16777215
176
     1
 90
        1
176
     1
 90
        4
176
     1
 62
     7
176
     1
 62
   257
176
     1
 90
        1
176
     1
 90
        1
176
     1
 40
1.0
176
     1
 90
       12
176
     1
 62
     7
176
     1
 40
1.0
176
     1
 90
        1
176
     1
 90
        6
176
     1
 90
        2
176
     1
 62
     7
176
     1
 90
        5
176
     1
 90
        0
176
     1
 90
        0
176
     1
290
     0
176
     1
 90
        1
176
     1
 40
0.0
176
     1
 90
        0
176
     1
290
     0
176
     1
290
     1
176
     1
290
     1
176
     1
290
     0
176
     1
290
     0
176
     1
290
     0
176
     1
290
     0
176
     1
290
     0
176
     1
290
     0
176
     1
 90
       50
176
     1
 40
0.0
176
     1
 40
1.0
176
     1
 90
        0
176
     1
 62
    18
420
        0
176
     1
 90
       50
176
     1
 90
        3
176
     1
 62
     5
420
      255
176
     1
290
     0
176
     1
 90
       50
176
     1
 90
       50
176
     1
 90
       50
176
     1
290
     0
176
     1
 90
       50
176
     1
 62
   256
176
     0
 40
1.0
176
     0
 90
        2
176
     1
  1
strokes_ogs.tif
176
     1
290
     0
176
     1
 40
1.0
176
     1
 40
1.0
176
     1
  0
VISUALSTYLE
  5
A5
102
{ACAD_REACTORS
330
82
102
}
330
82
100
AcDbVisualStyle
  2
Wireframe
 70
     5
177
     3
291
     0
 70
    58
 90
        0
176
     1
 90
        2
176
     1
 90
        0
176
     1
 90
        0
176
     1
 40
0.6
176
     1
 40
30.0
176
     1
 62
     7
420
 16777215
176
     1
 90
        1
176
     1
 90
        4
176
     1
 62
     7
176
     1
 62
   257
176
     1
 90
        1
176
     1
 90
        1
176
     1
 40
1.0
176
     1
 90
        0
176
     1
 62
   257
176
     1
 40
1.0
176
     1
 90
        1
176
     1
 90
        6
176
     1
 90
        2
176
     1
 62
     7
176
     1
 90
        3
176
     1
 90
        0
176
     1
 90
        0
176
     1
290
     0
176
     1
 90
        1
176
     1
 40
0.0
176
     1
 90
        0
176
     1
290
     0
176
     1
290
     1
176
     1
290
     1
176
     1
290
     0
176
     1
290
     0
176
     1
290
     0
176
     1
290
     0
176
     1
290
     0
176
     1
290
     0
176
     1
 90
       50
176
     1
 40
0.0
176
     1
 40
1.0
176
     1
 90
        0
176
     1
 62
    18
420
        0
176
     1
 90
       50
176
     1
 90
        3
176
     1
 62
     5
420
      255
176
     1
290
     0
176
     1
 90
       50
176
     1
 90
       50
176
     1
 90
       50
176
     1
290
     0
176
     1
 90
       50
176
     1
 62
   256
176
     0
 40
1.0
176
     0
 90
        2
176
     1
  1
strokes_ogs.tif
176
     1
290
     0
176
     1
 40
1.0
176
     1
 40
1.0
176
     1
  0
VISUALSTYLE
  5
A9
102
{ACAD_REACTORS
330
82
102
}
330
82
100
AcDbVisualStyle
  2
X-Ray
 70
    25
177
     3
291
     0
 70
    58
 90
        2
176
     1
 90
        2
176
     1
 90
        1
176
     1
 90
        1
176
     1
 40
0.5
176
     1
 40
30.0
176
     1
 62
     7
420
 16777215
176
     1
 90
        1
176
     1
 90
        0
176
     1
 62
     7
176
     1
 62
   257
176
     1
 90
        1
176
     1
 90
        1
176
     1
 40
1.0
176
     1
 90
        8
176
     1
 62
     7
176
     1
 40
1.0
176
     1
 90
        1
176
     1
 90
        6
176
     1
 90
        2
176
     1
 62
     7
176
     1
 90
        3
176
     1
 90
        0
176
     1
 90
        0
176
     1
290
     0
176
     1
 90
       13
176
     1
 40
0.0
176
     1
 90
        0
176
     1
290
     0
176
     1
290
     1
176
     1
290
     1
176
     1
290
     0
176
     1
290
     0
176
     1
290
     0
176
     1
290
     0
176
     1
290
     0
176
     1
290
     0
176
     1
 90
       50
176
     1
 40
0.0
176
     1
 40
1.0
176
     1
 90
        0
176
     1
 62
    18
420
        0
176
     1
 90
       50
176
     1
 90
        3
176
     1
 62
     5
420
      255
176
     1
290
     0
176
     1
 90
       50
176
     1
 90
       50
176
     1
 90
       50
176
     1
290
     0
176
     1
 90
       50
176
     1
 62
   256
176
     0
 40
1.0
176
     0
 90
        2
176
     1
  1
strokes_ogs.tif
176
     1
290
     0
176
     1
 40
1.0
176
     1
 40
1.0
176
     1
  0
DICTIONARYVAR
  5
2FD
102
{ACAD_REACTORS
330
9B
102
}
330
9B
100
DictionaryVariables
280
     0
  1
1:1
  0
DICTIONARYVAR
  5
2F9
102
{ACAD_REACTORS
330
9B
102
}
330
9B
100
DictionaryVariables
280
     0
  1
STANDARD
  0
DICTIONARYVAR
  5
9C
102
{ACAD_REACTORS
330
9B
102
}
330
9B
100
DictionaryVariables
280
     0
  1
STANDARD
  0
DICTIONARYVAR
  5
2FA
102
{ACAD_REACTORS
330
9B
102
}
330
9B
100
DictionaryVariables
280
     0
  1
Imperial24
  0
DICTIONARYVAR
  5
2FB
102
{ACAD_REACTORS
330
9B
102
}
330
9B
100
DictionaryVariables
280
     0
  1
Imperial24
  0
DICTIONARYVAR
  5
2FF
102
{ACAD_REACTORS
330
9B
102
}
330
9B
100
DictionaryVariables
280
     0
  1
1
  0
DICTIONARYVAR
  5
300
102
{ACAD_REACTORS
330
9B
102
}
330
9B
100
DictionaryVariables
280
     0
  1
15
  0
DICTIONARYVAR
  5
2FE
102
{ACAD_REACTORS
330
9B
102
}
330
9B
100
DictionaryVariables
280
     0
  1
0
  0
DICTIONARYVAR
  5
2FC
102
{ACAD_REACTORS
330
9B
102
}
330
9B
100
DictionaryVariables
280
     0
  1
0
  0
DICTIONARY
  5
305
330
C6
100
AcDbDictionary
280
     1
281
     1
  3
ACAD_XREC_ROUNDTRIP
360
306
  0
DICTIONARY
  5
303
330
C4
100
AcDbDictionary
280
     1
281
     1
  3
ACAD_XREC_ROUNDTRIP
360
304
  0
DICTIONARY
  5
301
330
94
100
AcDbDictionary
280
     1
281
     1
  3
ACAD_ROUNDTRIP_2008_TABLESTYLE_CELLSTYLEMAP
360
302
  0
XRECORD
  5
306
102
{ACAD_REACTORS
330
305
102
}
330
305
100
AcDbXrecord
280
     1
102
DISPLAYNAME
  1
Imperial24
102
FLAGS
 90
        0
  0
XRECORD
  5
304
102
{ACAD_REACTORS
330
303
102
}
330
303
100
AcDbXrecord
280
     1
102
DISPLAYNAME
  1
Imperial24
102
FLAGS
 90
        0
  0
CELLSTYLEMAP
  5
302
102
{ACAD_REACTORS
330
301
102
}
330
301
100
AcDbCellStyleMap
 90
        3
300
CELLSTYLE
  1
TABLEFORMAT_BEGIN
 90
        5
170
     1
 91
        0
 92
    32768
 62
   257
 93
        1
300
CONTENTFORMAT
  1
CONTENTFORMAT_BEGIN
 90
        0
 91
        0
 92
      512
 93
        0
300

 40
0.0
140
1.0
 94
        5
 62
     0
340
12
144
0.25
309
CONTENTFORMAT_END
171
     0
 94
        6
 95
        1
302
GRIDFORMAT
  1
GRIDFORMAT_BEGIN
 90
        0
 91
        1
 62
     0
 92
       -2
340
0
 93
        0
 40
0.045
309
GRIDFORMAT_END
 95
        2
302
GRIDFORMAT
  1
GRIDFORMAT_BEGIN
 90
        0
 91
        1
 62
     0
 92
       -2
340
0
 93
        0
 40
0.045
309
GRIDFORMAT_END
 95
        4
302
GRIDFORMAT
  1
GRIDFORMAT_BEGIN
 90
        0
 91
        1
 62
     0
 92
       -2
340
0
 93
        0
 40
0.045
309
GRIDFORMAT_END
 95
        8
302
GRIDFORMAT
  1
GRIDFORMAT_BEGIN
 90
        0
 91
        1
 62
     0
 92
       -2
340
0
 93
        0
 40
0.045
309
GRIDFORMAT_END
 95
       16
302
GRIDFORMAT
  1
GRIDFORMAT_BEGIN
 90
        0
 91
        1
 62
     0
 92
       -2
340
0
 93
        0
 40
0.045
309
GRIDFORMAT_END
 95
       32
302
GRIDFORMAT
  1
GRIDFORMAT_BEGIN
 90
        0
 91
        1
 62
     0
 92
       -2
340
0
 93
        0
 40
0.045
309
GRIDFORMAT_END
309
TABLEFORMAT_END
  1
CELLSTYLE_BEGIN
 90
        1
 91
        1
300
_TITLE
309
CELLSTYLE_END
300
CELLSTYLE
  1
TABLEFORMAT_BEGIN
 90
        5
170
     1
 91
        0
 92
        0
 62
   257
 93
        1
300
CONTENTFORMAT
  1
CONTENTFORMAT_BEGIN
 90
        0
 91
        0
 92
      512
 93
        0
300

 40
0.0
140
1.0
 94
        5
 62
     0
340
12
144
0.18
309
CONTENTFORMAT_END
171
     0
 94
        6
 95
        1
302
GRIDFORMAT
  1
GRIDFORMAT_BEGIN
 90
        0
 91
        1
 62
     0
 92
       -2
340
0
 93
        0
 40
0.045
309
GRIDFORMAT_END
 95
        2
302
GRIDFORMAT
  1
GRIDFORMAT_BEGIN
 90
        0
 91
        1
 62
     0
 92
       -2
340
0
 93
        0
 40
0.045
309
GRIDFORMAT_END
 95
        4
302
GRIDFORMAT
  1
GRIDFORMAT_BEGIN
 90
        0
 91
        1
 62
     0
 92
       -2
340
0
 93
        0
 40
0.045
309
GRIDFORMAT_END
 95
        8
302
GRIDFORMAT
  1
GRIDFORMAT_BEGIN
 90
        0
 91
        1
 62
     0
 92
       -2
340
0
 93
        0
 40
0.045
309
GRIDFORMAT_END
 95
       16
302
GRIDFORMAT
  1
GRIDFORMAT_BEGIN
 90
        0
 91
        1
 62
     0
 92
       -2
340
0
 93
        0
 40
0.045
309
GRIDFORMAT_END
 95
       32
302
GRIDFORMAT
  1
GRIDFORMAT_BEGIN
 90
        0
 91
        1
 62
     0
 92
       -2
340
0
 93
        0
 40
0.045
309
GRIDFORMAT_END
309
TABLEFORMAT_END
  1
CELLSTYLE_BEGIN
 90
        2
 91
        1
300
_HEADER
309
CELLSTYLE_END
300
CELLSTYLE
  1
TABLEFORMAT_BEGIN
 90
        5
170
     1
 91
        0
 92
        0
 62
   257
 93
        1
300
CONTENTFORMAT
  1
CONTENTFORMAT_BEGIN
 90
        0
 91
        0
 92
      512
 93
        0
300

 40
0.0
140
1.0
 94
        2
 62
     0
340
12
144
0.18
309
CONTENTFORMAT_END
171
     0
 94
        6
 95
        1
302
GRIDFORMAT
  1
GRIDFORMAT_BEGIN
 90
        0
 91
        1
 62
     0
 92
       -2
340
0
 93
        0
 40
0.045
309
GRIDFORMAT_END
 95
        2
302
GRIDFORMAT
  1
GRIDFORMAT_BEGIN
 90
        0
 91
        1
 62
     0
 92
       -2
340
0
 93
        0
 40
0.045
309
GRIDFORMAT_END
 95
        4
302
GRIDFORMAT
  1
GRIDFORMAT_BEGIN
 90
        0
 91
        1
 62
     0
 92
       -2
340
0
 93
        0
 40
0.045
309
GRIDFORMAT_END
 95
        8
302
GRIDFORMAT
  1
GRIDFORMAT_BEGIN
 90
        0
 91
        1
 62
     0
 92
       -2
340
0
 93
        0
 40
0.045
309
GRIDFORMAT_END
 95
       16
302
GRIDFORMAT
  1
GRIDFORMAT_BEGIN
 90
        0
 91
        1
 62
     0
 92
       -2
340
0
 93
        0
 40
0.045
309
GRIDFORMAT_END
 95
       32
302
GRIDFORMAT
  1
GRIDFORMAT_BEGIN
 90
        0
 91
        1
 62
     0
 92
       -2
340
0
 93
        0
 40
0.045
309
GRIDFORMAT_END
309
TABLEFORMAT_END
  1
CELLSTYLE_BEGIN
 90
        3
 91
        2
300
_DATA
309
CELLSTYLE_END
  0
ENDSEC
  0
EOF
