  0
SECTION
  2
HEADER
  9
$ACADVER
  1
AC1009
  9
$ANGBASE
 50
       0.000000
  9
$ANGDIR
 70
     0
  9
$ATTDIA
 70
     0
  9
$ATTMODE
 70
     0
  9
$ATTREQ
 70
     0
  9
$AUNITS
 70
     0
  9
$AUPREC
 70
     1
  9
$BLIPMODE
 70
     1
  9
$CECOLOR
 62
   256
  9
$CELTYPE
  6
BYLAYER
  9
$CHAMFERA
 40
       0.000000
  9
$CHAMFERB
 40
       0.000000
  9
$CLAYER
  8
0
  9
$COORDS
 70
     1
  9
$DIMALT
 70
     0
  9
$DIMALTD
 70
     2
  9
$DIMALTF
 40
      25.400000
  9
$DIMAPOST
  1

  9
$DIMASO
 70
     0
  9
$DIMASZ
 40
       3.500000
  9
$DIMBLK
  1

  9
$DIMBLK1
  1

  9
$DIMBLK2
  1

  9
$DIMCEN
 40
       1.500000
  9
$DIMCLRD
 70
     0
  9
$DIMCLRE
 70
     0
  9
$DIMCLRT
 70
     0
  9
$DIMDLE
 40
       0.000000
  9
$DIMDLI
 40
       7.000000
  9
$DIMEXE
 40
       1.800000
  9
$DIMEXO
 40
       0.100000
  9
$DIMGAP
 40
       0.090000
  9
$DIMLFAC
 40
       1.000000
  9
$DIMLIM
 70
     0
  9
$DIMPOST
  1

  9
$DIMRND
 40
       0.000000
  9
$DIMSAH
 70
     0
  9
$DIMSCALE
 40
       1.000000
  9
$DIMSE1
 70
     0
  9
$DIMSE2
 70
     0
  9
$DIMSHO
 70
     1
  9
$DIMSOXD
 70
     0
  9
$DIMSTYLE
  2
*UNNAMED
  9
$DIMTAD
 70
     1
  9
$DIMTFAC
 40
       1.000000
  9
$DIMTIH
 70
     0
  9
$DIMTIX
 70
     0
  9
$DIMTM
 40
       0.000000
  9
$DIMTOFL
 70
     0
  9
$DIMTOH
 70
     0
  9
$DIMTOL
 70
     0
  9
$DIMTP
 40
       0.000000
  9
$DIMTSZ
 40
       0.000000
  9
$DIMTVP
 40
       0.000000
  9
$DIMTXT
 40
       3.500000
  9
$DIMZIN
 70
     0
  9
$DRAGMODE
 70
     2
  9
$DWGCODEPAGE
  3
iso8859-1
  9
$ELEVATION
 40
       0.000000
  9
$EXTMAX
 10
    3353.310791
 20
    2339.339111
 30
       0.000000
  9
$EXTMIN
 10
       0.000000
 20
       0.000000
 30
       0.000000
  9
$FILLETRAD
 40
       0.000000
  9
$FILLMODE
 70
     1
  9
$HANDLING
 70
     0
  9
$HANDSEED
  5
0
  9
$INSBASE
 10
       0.000000
 20
       0.000000
 30
       0.000000
  9
$LIMCHECK
 70
     0
  9
$LIMMAX
 10
    3353.310791
 20
    2339.339111
  9
$LIMMIN
 10
       0.000000
 20
       0.000000
  9
$LTSCALE
 40
       1.000000
  9
$LUNITS
 70
     2
  9
$LUPREC
 70
     2
  9
$MAXACTVP
 70
    16
  9
$MENU
  1
ACAD
  9
$MIRRTEXT
 70
     0
  9
$ORTHOMODE
 70
     0
  9
$OSMODE
 70
     0
  9
$PDMODE
 70
     0
  9
$PDSIZE
 40
       0.000000
  9
$PELEVATION
 40
       0.000000
  9
$PEXTMAX
 10
    3353.310791
 20
    2339.339111
 30
       0.000000
  9
$PEXTMIN
 10
       0.000000
 20
       0.000000
 30
       0.000000
  9
$PINSBASE
 10
       0.000000
 20
       0.000000
 30
       0.000000
  9
$PLIMCHECK
 70
     0
  9
$PLIMMAX
 10
    3353.310791
 20
    2339.339111
  9
$PLIMMIN
 10
       0.000000
 20
       0.000000
  9
$PLINEGEN
 70
     0
  9
$PLINEWID
 40
       0.000000
  9
$PSLTSCALE
 70
     1
  9
$PUCSNAME
  2

  9
$PUCSORG
 10
       0.000000
 20
       0.000000
 30
       0.000000
  9
$PUCSXDIR
 10
       1.000000
 20
       0.000000
 30
       0.000000
  9
$PUCSYDIR
 10
       0.000000
 20
       1.000000
 30
       0.000000
  9
$QTEXTMODE
 70
     0
  9
$REGENMODE
 70
     1
  9
$SHADEDGE
 70
     3
  9
$SHADEDIF
 70
    70
  9
$SKETCHINC
 40
       1.000000
  9
$SKPOLY
 70
     0
  9
$SPLFRAME
 70
     0
  9
$SPLINESEGS
 70
     8
  9
$SPLINETYPE
 70
     6
  9
$SURFTAB1
 70
     6
  9
$SURFTAB2
 70
     6
  9
$SURFTYPE
 70
     6
  9
$SURFU
 70
     6
  9
$SURFV
 70
     6
  9
$TDCREATE
 40
2454510.4166666665
  9
$TDINDWG
 40
       0.000000
  9
$TDUPDATE
 40
2454510.4166666665
  9
$TDUSRTIMER
 40
       0.000000
  9
$TEXTSIZE
 40
       3.500000
  9
$TEXTSTYLE
  7
STANDARD
  9
$THICKNESS
 40
       0.000000
  9
$TILEMODE
 70
     1
  9
$TRACEWID
 40
       1.000000
  9
$TREEDEPTH
 70
 -3020
  9
$UCSNAME
  2

  9
$UCSORG
 10
       0.000000
 20
       0.000000
 30
       0.000000
  9
$UCSXDIR
 10
       1.000000
 20
       0.000000
 30
       0.000000
  9
$UCSYDIR
 10
       0.000000
 20
       1.000000
 30
       0.000000
  9
$UNITMODE
 70
     0
  9
$USERI1
 70
     0
  9
$USERI2
 70
     0
  9
$USERI3
 70
     0
  9
$USERI4
 70
     0
  9
$USERI5
 70
     0
  9
$USERR1
 40
       0.000000
  9
$USERR2
 40
       0.000000
  9
$USERR3
 40
       0.000000
  9
$USERR4
 40
       0.000000
  9
$USERR5
 40
       0.000000
  9
$USRTIMER
 70
     0
  9
$VISRETAIN
 70
     0
  9
$WORLDVIEW
 70
     1
  0
ENDSEC
  0
SECTION
  2
TABLES
  0
TABLE
  2
LTYPE
 70
   137
  0
LTYPE
  2
AUSGEZOGEN
 70
     0
  3
________________________________
 72
    65
 73
     2
 40
16.
 49
16.
 49
0.
  0
LTYPE
  2
VERDECKTE_KANTE
 70
     0
  3
_________________________
 72
    65
 73
     2
 40
5.
 49
3.906
 49
-1.094
  0
LTYPE
  2
HILFSLINIE
 70
     0
  3
________________________________
 72
    65
 73
     2
 40
16.
 49
16.
 49
0.
  0
LTYPE
  2
BRUCHLINIE
 70
     0
  3
________________________________
 72
    65
 73
     2
 40
16.
 49
16.
 49
0.
  0
LTYPE
  2
MITTELLINIE
 70
     0
  3
________________________   __
 72
    65
 73
     4
 40
13.
 49
9.75
 49
-1.22
 49
0.81
 49
-1.22
  0
LTYPE
  2
SCHNITTLINIE
 70
     0
  3
________________________   __
 72
    65
 73
     4
 40
13.
 49
9.75
 49
-1.22
 49
0.81
 49
-1.22
  0
LTYPE
  2
SCHWERLINIE
 70
     0
  3
_____________________  __  __
 72
    65
 73
     6
 40
15.
 49
9.84
 49
-0.94
 49
0.94
 49
-0.94
 49
0.94
 49
-1.41
  0
LTYPE
  2
ENTWURFSLINIE
 70
     0
  3
__      __      __      __
 72
    65
 73
     8
 40
16.
 49
1.
 49
-3.
 49
1.
 49
-3.
 49
1.
 49
-3.
 49
1.
 49
-3.
  0
LTYPE
  2
SONDERLINIE1
 70
     0
  3
________________________________
 72
    65
 73
     2
 40
16.
 49
16.
 49
0.
  0
LTYPE
  2
SONDERLINIE2
 70
     0
  3
_____________________  __  __
 72
    65
 73
     6
 40
15.
 49
9.84
 49
-0.94
 49
0.94
 49
-0.94
 49
0.94
 49
-1.41
  0
LTYPE
  2
SONDERLINIE3
 70
     0
  3
__________________  __  __  __
 72
    65
 73
     8
 40
16.
 49
9.
 49
-1.
 49
1.
 49
-1.
 49
1.
 49
-1.
 49
1.
 49
-1.
  0
LTYPE
  2
SONDERLINIE4
 70
     0
  3
__________________  __  __  __
 72
    65
 73
     8
 40
16.
 49
9.
 49
-1.
 49
1.
 49
-1.
 49
1.
 49
-1.
 49
1.
 49
-1.
  0
LTYPE
  2
SONDERLINIE5
 70
     0
  3
______________  __  __  __  __
 72
    65
 73
    10
 40
16.
 49
7.
 49
-1.
 49
1.
 49
-1.
 49
1.
 49
-1.
 49
1.
 49
-1.
 49
1.
 49
-1.
  0
LTYPE
  2
SONDERLINIE6
 70
     0
  3
______________  __  __  __  __
 72
    65
 73
    10
 40
16.
 49
7.
 49
-1.
 49
1.
 49
-1.
 49
1.
 49
-1.
 49
1.
 49
-1.
 49
1.
 49
-1.
  0
LTYPE
  2
SONDERLINIE7
 70
     0
  3
__________  __  __  __  __  __
 72
    65
 73
    12
 40
16.
 49
5.
 49
-1.
 49
1.
 49
-1.
 49
1.
 49
-1.
 49
1.
 49
-1.
 49
1.
 49
-1.
 49
1.
 49
-1.
  0
LTYPE
  2
SONDERLINIE8
 70
     0
  3
__________  __  __  __  __  __
 72
    65
 73
    12
 40
16.
 49
5.
 49
-1.
 49
1.
 49
-1.
 49
1.
 49
-1.
 49
1.
 49
-1.
 49
1.
 49
-1.
 49
1.
 49
-1.
  0
LTYPE
  2
HEIZUNG-VORLAUF
 70
     0
  3
 
 72
    65
 73
     2
 40
16.
 49
16.
 49
0.
  0
LTYPE
  2
HEIZUNG-RUECKLAUF
 70
     0
  3
 
 72
    65
 73
     2
 40
5.
 49
4.063
 49
-0.938
  0
LTYPE
  2
TRINKWASSER-KALT
 70
     0
  3
 
 72
    65
 73
     2
 40
16.
 49
16.
 49
0.
  0
LTYPE
  2
TRINKWASSER-WARM
 70
     0
  3
 
 72
    65
 73
     2
 40
5.
 49
4.063
 49
-0.938
  0
LTYPE
  2
TRINKWASSER-ZIRKULATION
 70
     0
  3
 
 72
    65
 73
     4
 40
13.
 49
9.34
 49
-1.22
 49
1.22
 49
-1.22
  0
LTYPE
  2
SANITAER-SCHMUTZWASSER
 70
     0
  3
 
 72
    65
 73
     2
 40
16.
 49
16.
 49
0.
  0
LTYPE
  2
SANITAER-REGENWASSER
 70
     0
  3
 
 72
    65
 73
     2
 40
5.
 49
4.063
 49
-0.938
  0
LTYPE
  2
SANITAER-MISCHWASSER
 70
     0
  3
 
 72
    65
 73
     4
 40
13.
 49
9.34
 49
-1.22
 49
1.22
 49
-1.22
  0
LTYPE
  2
SANITAER-ENTLUEFTUNG
 70
     0
  3
 
 72
    65
 73
     2
 40
5.
 49
4.063
 49
-0.938
  0
LTYPE
  2
SPRINKLER
 70
     0
  3
 
 72
    65
 73
     2
 40
16.
 49
16.
 49
0.
  0
LTYPE
  2
WERKWASSER
 70
     0
  3
 
 72
    65
 73
     2
 40
16.
 49
16.
 49
0.
  0
LTYPE
  2
KUEHLWASSER-VL
 70
     0
  3
 
 72
    65
 73
     2
 40
16.
 49
16.
 49
0.
  0
LTYPE
  2
KUEHLWASSER-RL-D
 70
     0
  3
 
 72
    65
 73
     2
 40
5.
 49
4.063
 49
-0.938
  0
LTYPE
  2
KUEHLWASSER-RL-DI
 70
     0
  3
 
 72
    65
 73
     2
 40
5.
 49
4.063
 49
-0.938
  0
LTYPE
  2
KALTWASSER-KAELTEANL--VL
 70
     0
  3
 
 72
    65
 73
     2
 40
16.
 49
16.
 49
0.
  0
LTYPE
  2
KALTWASSER-KAELTEANL--RL
 70
     0
  3
 
 72
    65
 73
     2
 40
5.
 49
4.063
 49
-0.938
  0
LTYPE
  2
SCHLEIFEMULSION
 70
     0
  3
 
 72
    65
 73
     2
 40
16.
 49
16.
 49
0.
  0
LTYPE
  2
BOHREMULSION
 70
     0
  3
 
 72
    65
 73
     2
 40
16.
 49
16.
 49
0.
  0
LTYPE
  2
SCHNEIDEMULSION
 70
     0
  3
 
 72
    65
 73
     2
 40
16.
 49
16.
 49
0.
  0
LTYPE
  2
DRUCKLUFT-HAUPTNETZ
 70
     0
  3
 
 72
    65
 73
     2
 40
16.
 49
16.
 49
0.
  0
LTYPE
  2
DRUCKLUFT-HOCHDRUCKNETZ
 70
     0
  3
 
 72
    65
 73
     2
 40
16.
 49
16.
 49
0.
  0
LTYPE
  2
DRUCKLUFT-NIEDERDRUCKNETZ
 70
     0
  3
 
 72
    65
 73
     2
 40
16.
 49
16.
 49
0.
  0
LTYPE
  2
MISCHWASSER-DRUCK
 70
     0
  3
 
 72
    65
 73
     2
 40
16.
 49
16.
 49
0.
  0
LTYPE
  2
MISCHWASSER-KANAL
 70
     0
  3
 
 72
    65
 73
     2
 40
16.
 49
16.
 49
0.
  0
LTYPE
  2
OELHALTIGES-ABWASSER-DRUCK
 70
     0
  3
 
 72
    65
 73
     2
 40
16.
 49
16.
 49
0.
  0
LTYPE
  2
OELHALTIGES-ABWASSER-KANAL
 70
     0
  3
 
 72
    65
 73
     2
 40
16.
 49
16.
 49
0.
  0
LTYPE
  2
REGENWASSER-DRUCK
 70
     0
  3
 
 72
    65
 73
     2
 40
16.
 49
16.
 49
0.
  0
LTYPE
  2
REGENWASSER-KANAL
 70
     0
  3
 
 72
    65
 73
     2
 40
16.
 49
16.
 49
0.
  0
LTYPE
  2
SCHMUTZWASSER-DRUCK
 70
     0
  3
 
 72
    65
 73
     2
 40
16.
 49
16.
 49
0.
  0
LTYPE
  2
SCHMUTZWASSER-KANAL
 70
     0
  3
 
 72
    65
 73
     2
 40
16.
 49
16.
 49
0.
  0
LTYPE
  2
ALTEMULSION
 70
     0
  3
 
 72
    65
 73
     2
 40
16.
 49
16.
 49
0.
  0
LTYPE
  2
ALTWASCHWASSER
 70
     0
  3
 
 72
    65
 73
     2
 40
16.
 49
16.
 49
0.
  0
LTYPE
  2
CHROMHALTIGES-SPUELWASSER
 70
     0
  3
 
 72
    65
 73
     2
 40
16.
 49
16.
 49
0.
  0
LTYPE
  2
CYANIDHALTIGES-SPUELWASSER
 70
     0
  3
 
 72
    65
 73
     2
 40
16.
 49
16.
 49
0.
  0
LTYPE
  2
GEKLAERTES-ABWASSER
 70
     0
  3
 
 72
    65
 73
     2
 40
16.
 49
16.
 49
0.
  0
LTYPE
  2
NITRITHALTIGES-SPUELWASSER
 70
     0
  3
 
 72
    65
 73
     2
 40
16.
 49
16.
 49
0.
  0
LTYPE
  2
SAURES-ALKALISCHES-ELUAT
 70
     0
  3
 
 72
    65
 73
     2
 40
16.
 49
16.
 49
0.
  0
LTYPE
  2
SAURES-ALKALISCHES-SPUELWASSER
 70
     0
  3
 
 72
    65
 73
     2
 40
16.
 49
16.
 49
0.
  0
LTYPE
  2
AMIDASULFONSAEURE
 70
     0
  3
 
 72
    65
 73
     2
 40
16.
 49
16.
 49
0.
  0
LTYPE
  2
CHROMHALTIGES-KONZENTRAT
 70
     0
  3
 
 72
    65
 73
     2
 40
16.
 49
16.
 49
0.
  0
LTYPE
  2
CYANIDHALTIGES-KONZENTRAT
 70
     0
  3
 
 72
    65
 73
     2
 40
16.
 49
16.
 49
0.
  0
LTYPE
  2
ELEKTROLYT
 70
     0
  3
 
 72
    65
 73
     2
 40
16.
 49
16.
 49
0.
  0
LTYPE
  2
NATRIUMBISULFIT
 70
     0
  3
 
 72
    65
 73
     2
 40
16.
 49
16.
 49
0.
  0
LTYPE
  2
NATRIUMHYPOCHLORIT
 70
     0
  3
 
 72
    65
 73
     2
 40
16.
 49
16.
 49
0.
  0
LTYPE
  2
NATRONLAUGE
 70
     0
  3
 
 72
    65
 73
     2
 40
16.
 49
16.
 49
0.
  0
LTYPE
  2
NITRITHALTIGES-KONZENTRAT
 70
     0
  3
 
 72
    65
 73
     2
 40
16.
 49
16.
 49
0.
  0
LTYPE
  2
PHOSPHORSAEURE
 70
     0
  3
 
 72
    65
 73
     2
 40
16.
 49
16.
 49
0.
  0
LTYPE
  2
SALPETERSAEURE
 70
     0
  3
 
 72
    65
 73
     2
 40
16.
 49
16.
 49
0.
  0
LTYPE
  2
SALZSAEURE
 70
     0
  3
 
 72
    65
 73
     2
 40
16.
 49
16.
 49
0.
  0
LTYPE
  2
SCHWEFELSAEURE
 70
     0
  3
 
 72
    65
 73
     2
 40
16.
 49
16.
 49
0.
  0
LTYPE
  2
BETRIEBSWAERME-RL
 70
     0
  3
 
 72
    65
 73
     2
 40
5.
 49
4.063
 49
-0.938
  0
LTYPE
  2
BETRIEBSWAERME-VL
 70
     0
  3
 
 72
    65
 73
     2
 40
16.
 49
16.
 49
0.
  0
LTYPE
  2
WARMWASSER-VL
 70
     0
  3
 
 72
    65
 73
     2
 40
16.
 49
16.
 49
0.
  0
LTYPE
  2
WARMWASSER-ZIRKULATION
 70
     0
  3
 
 72
    65
 73
     4
 40
13.
 49
9.34
 49
-1.22
 49
1.22
 49
-1.22
  0
LTYPE
  2
ROHWASSER
 70
     0
  3
 
 72
    65
 73
     2
 40
16.
 49
16.
 49
0.
  0
LTYPE
  2
ARGON
 70
     0
  3
 
 72
    65
 73
     2
 40
16.
 49
16.
 49
0.
  0
LTYPE
  2
CORGON
 70
     0
  3
 
 72
    65
 73
     2
 40
16.
 49
16.
 49
0.
  0
LTYPE
  2
KOHLENDIOXID
 70
     0
  3
 
 72
    65
 73
     2
 40
16.
 49
16.
 49
0.
  0
LTYPE
  2
STICKSTOFF
 70
     0
  3
 
 72
    65
 73
     2
 40
16.
 49
16.
 49
0.
  0
LTYPE
  2
AZETYLEN
 70
     0
  3
 
 72
    65
 73
     2
 40
16.
 49
16.
 49
0.
  0
LTYPE
  2
ERDGAS
 70
     0
  3
 
 72
    65
 73
     2
 40
16.
 49
16.
 49
0.
  0
LTYPE
  2
SAUERSTOFF--TECHNISCH-REIN
 70
     0
  3
 
 72
    65
 73
     2
 40
16.
 49
16.
 49
0.
  0
LTYPE
  2
TRAEGERGAS
 70
     0
  3
 
 72
    65
 73
     2
 40
16.
 49
16.
 49
0.
  0
LTYPE
  2
WASSERSTOFF
 70
     0
  3
 
 72
    65
 73
     2
 40
16.
 49
16.
 49
0.
  0
LTYPE
  2
KRAFTSTOFF-GK-A-I-D
 70
     0
  3
 
 72
    65
 73
     2
 40
16.
 49
16.
 49
0.
  0
LTYPE
  2
KRAFTSTOFF-SONDER-D
 70
     0
  3
 
 72
    65
 73
     2
 40
16.
 49
16.
 49
0.
  0
LTYPE
  2
ACHSOEL
 70
     0
  3
 
 72
    65
 73
     2
 40
16.
 49
16.
 49
0.
  0
LTYPE
  2
ALTOEL
 70
     0
  3
 
 72
    65
 73
     2
 40
16.
 49
16.
 49
0.
  0
LTYPE
  2
BOHROEL
 70
     0
  3
 
 72
    65
 73
     2
 40
16.
 49
16.
 49
0.
  0
LTYPE
  2
ERODIEROEL
 70
     0
  3
 
 72
    65
 73
     2
 40
16.
 49
16.
 49
0.
  0
LTYPE
  2
FETT
 70
     0
  3
 
 72
    65
 73
     2
 40
16.
 49
16.
 49
0.
  0
LTYPE
  2
GETRIEBEOEL
 70
     0
  3
 
 72
    65
 73
     2
 40
16.
 49
16.
 49
0.
  0
LTYPE
  2
HAERTEOEL
 70
     0
  3
 
 72
    65
 73
     2
 40
16.
 49
16.
 49
0.
  0
LTYPE
  2
HONOEL
 70
     0
  3
 
 72
    65
 73
     2
 40
16.
 49
16.
 49
0.
  0
LTYPE
  2
HYDRAULIKOEL
 70
     0
  3
 
 72
    65
 73
     2
 40
16.
 49
16.
 49
0.
  0
LTYPE
  2
MOTOROEL
 70
     0
  3
 
 72
    65
 73
     2
 40
16.
 49
16.
 49
0.
  0
LTYPE
  2
NORMALSPUELOEL
 70
     0
  3
 
 72
    65
 73
     2
 40
16.
 49
16.
 49
0.
  0
LTYPE
  2
RAEUMOEL
 70
     0
  3
 
 72
    65
 73
     2
 40
16.
 49
16.
 49
0.
  0
LTYPE
  2
SCHLEIFOEL
 70
     0
  3
 
 72
    65
 73
     2
 40
16.
 49
16.
 49
0.
  0
LTYPE
  2
SCHNEIDOEL
 70
     0
  3
 
 72
    65
 73
     2
 40
16.
 49
16.
 49
0.
  0
LTYPE
  2
SONDERSPUELOEL
 70
     0
  3
 
 72
    65
 73
     2
 40
16.
 49
16.
 49
0.
  0
LTYPE
  2
ZIEHOEL
 70
     0
  3
 
 72
    65
 73
     2
 40
16.
 49
16.
 49
0.
  0
LTYPE
  2
MONTAGEOEL
 70
     0
  3
 
 72
    65
 73
     2
 40
16.
 49
16.
 49
0.
  0
LTYPE
  2
MONTAGE-GLEITOEL
 70
     0
  3
 
 72
    65
 73
     2
 40
16.
 49
16.
 49
0.
  0
LTYPE
  2
SPUELOEL
 70
     0
  3
 
 72
    65
 73
     2
 40
16.
 49
16.
 49
0.
  0
LTYPE
  2
TIEFBOHROEL
 70
     0
  3
 
 72
    65
 73
     2
 40
16.
 49
16.
 49
0.
  0
LTYPE
  2
AMIN
 70
     0
  3
 
 72
    65
 73
     2
 40
16.
 49
16.
 49
0.
  0
LTYPE
  2
HAERTER
 70
     0
  3
 
 72
    65
 73
     2
 40
16.
 49
16.
 49
0.
  0
LTYPE
  2
HARZ
 70
     0
  3
 
 72
    65
 73
     2
 40
16.
 49
16.
 49
0.
  0
LTYPE
  2
LOESEMITTEL
 70
     0
  3
 
 72
    65
 73
     2
 40
16.
 49
16.
 49
0.
  0
LTYPE
  2
LACK
 70
     0
  3
 
 72
    65
 73
     2
 40
16.
 49
16.
 49
0.
  0
LTYPE
  2
WASCHWASSER
 70
     0
  3
 
 72
    65
 73
     2
 40
16.
 49
16.
 49
0.
  0
LTYPE
  2
GLEITSCHLEIFWASSER
 70
     0
  3
 
 72
    65
 73
     2
 40
16.
 49
16.
 49
0.
  0
LTYPE
  2
VERDUENNUNG
 70
     0
  3
 
 72
    65
 73
     2
 40
16.
 49
16.
 49
0.
  0
LTYPE
  2
KUEHLDECKEN-VORLAUF
 70
     0
  3
 
 72
    65
 73
     2
 40
16.
 49
16.
 49
0.
  0
LTYPE
  2
KUEHLDECKEN-RUECKLAUF
 70
     0
  3
 
 72
    65
 73
     2
 40
5.
 49
4.063
 49
-0.938
  0
LTYPE
  2
KONDENSAT
 70
     0
  3
 
 72
    65
 73
     2
 40
16.
 49
16.
 49
0.
  0
LTYPE
  2
KONDENSAT-REINDAMPF
 70
     0
  3
 
 72
    65
 73
     2
 40
16.
 49
16.
 49
0.
  0
LTYPE
  2
KONDENSAT-HOCHDRUCK
 70
     0
  3
 
 72
    65
 73
     2
 40
16.
 49
16.
 49
0.
  0
LTYPE
  2
DAMPF
 70
     0
  3
 
 72
    65
 73
     2
 40
16.
 49
16.
 49
0.
  0
LTYPE
  2
REINDAMPF
 70
     0
  3
 
 72
    65
 73
     2
 40
16.
 49
16.
 49
0.
  0
LTYPE
  2
DAMPF-HOCHDRUCK
 70
     0
  3
 
 72
    65
 73
     2
 40
16.
 49
16.
 49
0.
  0
LTYPE
  2
KLIMA-ZENTRALE
 70
     0
  3
 
 72
    65
 73
     2
 40
16.
 49
16.
 49
0.
  0
LTYPE
  2
KLIMA-AUSSENLUFT
 70
     0
  3
 
 72
    65
 73
     4
 40
13.
 49
9.34
 49
-1.22
 49
1.22
 49
-1.22
  0
LTYPE
  2
KLIMA-ZULUFT-I
 70
     0
  3
 
 72
    65
 73
     2
 40
16.
 49
16.
 49
0.
  0
LTYPE
  2
KLIMA-ZULUFT-II
 70
     0
  3
 
 72
    65
 73
     2
 40
16.
 49
16.
 49
0.
  0
LTYPE
  2
KLIMA-ZULUFT-III
 70
     0
  3
 
 72
    65
 73
     2
 40
16.
 49
16.
 49
0.
  0
LTYPE
  2
KLIMA-ZULUFT-IV
 70
     0
  3
 
 72
    65
 73
     2
 40
16.
 49
16.
 49
0.
  0
LTYPE
  2
KLIMA-UMLUFT
 70
     0
  3
 
 72
    65
 73
     2
 40
5.
 49
4.063
 49
-0.938
  0
LTYPE
  2
KLIMA-MISCHLUFT
 70
     0
  3
 
 72
    65
 73
     6
 40
11.
 49
3.78
 49
-1.03
 49
3.78
 49
-1.03
 49
0.34
 49
-1.03
  0
LTYPE
  2
KLIMA-ABLUFT
 70
     0
  3
 
 72
    65
 73
     2
 40
5.
 49
4.063
 49
-0.938
  0
LTYPE
  2
KLIMA-FORTLUFT
 70
     0
  3
 
 72
    65
 73
     2
 40
5.
 49
4.063
 49
-0.938
  0
LTYPE
  2
ENTRAUCHUNG
 70
     0
  3
 
 72
    65
 73
     2
 40
5.
 49
4.063
 49
-0.938
  0
LTYPE
  2
ELEKTRO-ZENTRALE
 70
     0
  3
 
 72
    65
 73
     2
 40
16.
 49
16.
 49
0.
  0
LTYPE
  2
STROMSCHIENEN
 70
     0
  3
 
 72
    65
 73
     2
 40
16.
 49
16.
 49
0.
  0
LTYPE
  2
ELEKTRO-LEITUNGSFUEHRUNG
 70
     0
  3
 
 72
    65
 73
     2
 40
16.
 49
16.
 49
0.
  0
LTYPE
  2
ELEKTRO-KABELTRAEGER
 70
     0
  3
 
 72
    65
 73
     2
 40
16.
 49
16.
 49
0.
  0
LTYPE
  2
INNENWAND
 70
     0
  3
 
 72
    65
 73
     2
 40
16.
 49
16.
 49
0.
  0
LTYPE
  2
AUSSENWAND
 70
     0
  3
 
 72
    65
 73
     2
 40
16.
 49
16.
 49
0.
  0
LTYPE
  2
ERDBERUEHREND
 70
     0
  3
 
 72
    65
 73
     2
 40
16.
 49
16.
 49
0.
  0
LTYPE
  2
REINWASSER
 70
     0
  3
 
 72
    65
 73
     2
 40
16.
 49
16.
 49
0.
  0
ENDTAB
  0
TABLE
  2
LAYER
 70
   152
  0
LAYER
  2
PUNKT
 62
     8
  6
HILFSLINIE
 70
    64
  0
LAYER
  2
SICHTBARE_KANTE
 62
     7
  6
AUSGEZOGEN
 70
    64
  0
LAYER
  2
VERDECKTE_KANTE
 62
     8
  6
VERDECKTE_KANTE
 70
    64
  0
LAYER
  2
HILFSLINIE
 62
     8
  6
HILFSLINIE
 70
    64
  0
LAYER
  2
BRUCHLINIE
 62
     8
  6
BRUCHLINIE
 70
    64
  0
LAYER
  2
MITTELLINIE
 62
     8
  6
MITTELLINIE
 70
    64
  0
LAYER
  2
SCHNITTLINIE
 62
     7
  6
SCHNITTLINIE
 70
    64
  0
LAYER
  2
SCHWERLINIE
 62
     8
  6
SCHWERLINIE
 70
    64
  0
LAYER
  2
ENTWURFSLINIE
 62
     7
  6
ENTWURFSLINIE
 70
    64
  0
LAYER
  2
SONDERLINIE1
 62
     8
  6
SONDERLINIE1
 70
    64
  0
LAYER
  2
SONDERLINIE2
 62
     8
  6
SONDERLINIE2
 70
    64
  0
LAYER
  2
SONDERLINIE3
 62
     8
  6
SONDERLINIE3
 70
    64
  0
LAYER
  2
SONDERLINIE4
 62
     8
  6
SONDERLINIE4
 70
    64
  0
LAYER
  2
SONDERLINIE5
 62
     8
  6
SONDERLINIE5
 70
    64
  0
LAYER
  2
SONDERLINIE6
 62
     8
  6
SONDERLINIE6
 70
    64
  0
LAYER
  2
SONDERLINIE7
 62
     8
  6
SONDERLINIE7
 70
    64
  0
LAYER
  2
SONDERLINIE8
 62
     8
  6
SONDERLINIE8
 70
    64
  0
LAYER
  2
TEXT
 62
     7
  6
HILFSLINIE
 70
    64
  0
LAYER
  2
SCHRAFFUR
 62
     8
  6
HILFSLINIE
 70
    64
  0
LAYER
  2
SYMBOLE
 62
     7
  6
AUSGEZOGEN
 70
    64
  0
LAYER
  2
FERTIGUNGSBEMASSUNG
 62
     8
  6
HILFSLINIE
 70
    64
  0
LAYER
  2
TOPOLOGIEBEMASSUNG
 62
     8
  6
HILFSLINIE
 70
    64
  0
LAYER
  2
OBERFLAECHENZEICHEN
 62
     8
  6
HILFSLINIE
 70
    64
  0
LAYER
  2
FORM-LAGE-TOLERANZEN
 62
     8
  6
HILFSLINIE
 70
    64
  0
LAYER
  2
SCHWEISSZEICHEN
 62
     8
  6
HILFSLINIE
 70
    64
  0
LAYER
  2
FUNKTIONSBEMASSUNG
 62
     8
  6
HILFSLINIE
 70
    64
  0
LAYER
  2
PRUEFBEMASSUNG
 62
     8
  6
HILFSLINIE
 70
    64
  0
LAYER
  2
MONTAGEBEMASSUNG
 62
     8
  6
HILFSLINIE
 70
    64
  0
LAYER
  2
BG_FORM-LAGE-TOLERANZEN
 62
     8
  6
HILFSLINIE
 70
    64
  0
LAYER
  2
BG_SCHWEISSZEICHEN
 62
     8
  6
HILFSLINIE
 70
    64
  0
LAYER
  2
HEIZUNG-VORLAUF
 62
     8
  6
HEIZUNG-VORLAUF
 70
    64
  0
LAYER
  2
HEIZUNG-RUECKLAUF
 62
     8
  6
HEIZUNG-RUECKLAUF
 70
    64
  0
LAYER
  2
TRINKWASSER-KALT
 62
     8
  6
TRINKWASSER-KALT
 70
    64
  0
LAYER
  2
TRINKWASSER-WARM
 62
     8
  6
TRINKWASSER-WARM
 70
    64
  0
LAYER
  2
TRINKWASSER-ZIRKULATION
 62
     8
  6
TRINKWASSER-ZIRKULATION
 70
    64
  0
LAYER
  2
SANITAER-SCHMUTZWASSER
 62
     8
  6
SANITAER-SCHMUTZWASSER
 70
    64
  0
LAYER
  2
SANITAER-REGENWASSER
 62
     8
  6
SANITAER-REGENWASSER
 70
    64
  0
LAYER
  2
SANITAER-MISCHWASSER
 62
     8
  6
SANITAER-MISCHWASSER
 70
    64
  0
LAYER
  2
SANITAER-ENTLUEFTUNG
 62
     8
  6
SANITAER-ENTLUEFTUNG
 70
    64
  0
LAYER
  2
SPRINKLER
 62
     8
  6
SPRINKLER
 70
    64
  0
LAYER
  2
WERKWASSER
 62
     8
  6
WERKWASSER
 70
    64
  0
LAYER
  2
KUEHLWASSER-VL
 62
     8
  6
KUEHLWASSER-VL
 70
    64
  0
LAYER
  2
KUEHLWASSER-RL-D
 62
     8
  6
KUEHLWASSER-RL-D
 70
    64
  0
LAYER
  2
KUEHLWASSER-RL-DI
 62
     8
  6
KUEHLWASSER-RL-DI
 70
    64
  0
LAYER
  2
KALTWASSER-KAELTEANL--VL
 62
     8
  6
KALTWASSER-KAELTEANL--VL
 70
    64
  0
LAYER
  2
KALTWASSER-KAELTEANL--RL
 62
     8
  6
KALTWASSER-KAELTEANL--RL
 70
    64
  0
LAYER
  2
SCHLEIFEMULSION
 62
     8
  6
SCHLEIFEMULSION
 70
    64
  0
LAYER
  2
BOHREMULSION
 62
     8
  6
BOHREMULSION
 70
    64
  0
LAYER
  2
SCHNEIDEMULSION
 62
     8
  6
SCHNEIDEMULSION
 70
    64
  0
LAYER
  2
DRUCKLUFT-HAUPTNETZ
 62
     8
  6
DRUCKLUFT-HAUPTNETZ
 70
    64
  0
LAYER
  2
DRUCKLUFT-HOCHDRUCKNETZ
 62
     8
  6
DRUCKLUFT-HOCHDRUCKNETZ
 70
    64
  0
LAYER
  2
DRUCKLUFT-NIEDERDRUCKNETZ
 62
     8
  6
DRUCKLUFT-NIEDERDRUCKNETZ
 70
    64
  0
LAYER
  2
MISCHWASSER-DRUCK
 62
     8
  6
MISCHWASSER-DRUCK
 70
    64
  0
LAYER
  2
MISCHWASSER-KANAL
 62
     8
  6
MISCHWASSER-KANAL
 70
    64
  0
LAYER
  2
OELHALTIGES-ABWASSER-DRUCK
 62
     8
  6
OELHALTIGES-ABWASSER-DRUCK
 70
    64
  0
LAYER
  2
OELHALTIGES-ABWASSER-KANAL
 62
     8
  6
OELHALTIGES-ABWASSER-KANAL
 70
    64
  0
LAYER
  2
REGENWASSER-DRUCK
 62
     8
  6
REGENWASSER-DRUCK
 70
    64
  0
LAYER
  2
REGENWASSER-KANAL
 62
     8
  6
REGENWASSER-KANAL
 70
    64
  0
LAYER
  2
SCHMUTZWASSER-DRUCK
 62
     8
  6
SCHMUTZWASSER-DRUCK
 70
    64
  0
LAYER
  2
SCHMUTZWASSER-KANAL
 62
     8
  6
SCHMUTZWASSER-KANAL
 70
    64
  0
LAYER
  2
ALTEMULSION
 62
     8
  6
ALTEMULSION
 70
    64
  0
LAYER
  2
ALTWASCHWASSER
 62
     8
  6
ALTWASCHWASSER
 70
    64
  0
LAYER
  2
CHROMHALTIGES-SPUELWASSER
 62
     8
  6
CHROMHALTIGES-SPUELWASSER
 70
    64
  0
LAYER
  2
CYANIDHALTIGES-SPUELWASSER
 62
     8
  6
CYANIDHALTIGES-SPUELWASSER
 70
    64
  0
LAYER
  2
GEKLAERTES-ABWASSER
 62
     8
  6
GEKLAERTES-ABWASSER
 70
    64
  0
LAYER
  2
NITRITHALTIGES-SPUELWASSER
 62
     8
  6
NITRITHALTIGES-SPUELWASSER
 70
    64
  0
LAYER
  2
SAURES-ALKALISCHES-ELUAT
 62
     8
  6
SAURES-ALKALISCHES-ELUAT
 70
    64
  0
LAYER
  2
SAURES-ALKALISCHES-SPUELWASSER
 62
     8
  6
SAURES-ALKALISCHES-SPUELWASSER
 70
    64
  0
LAYER
  2
AMIDASULFONSAEURE
 62
     8
  6
AMIDASULFONSAEURE
 70
    64
  0
LAYER
  2
CHROMHALTIGES-KONZENTRAT
 62
     8
  6
CHROMHALTIGES-KONZENTRAT
 70
    64
  0
LAYER
  2
CYANIDHALTIGES-KONZENTRAT
 62
     8
  6
CYANIDHALTIGES-KONZENTRAT
 70
    64
  0
LAYER
  2
ELEKTROLYT
 62
     8
  6
ELEKTROLYT
 70
    64
  0
LAYER
  2
NATRIUMBISULFIT
 62
     8
  6
NATRIUMBISULFIT
 70
    64
  0
LAYER
  2
NATRIUMHYPOCHLORIT
 62
     8
  6
NATRIUMHYPOCHLORIT
 70
    64
  0
LAYER
  2
NATRONLAUGE
 62
     8
  6
NATRONLAUGE
 70
    64
  0
LAYER
  2
NITRITHALTIGES-KONZENTRAT
 62
     8
  6
NITRITHALTIGES-KONZENTRAT
 70
    64
  0
LAYER
  2
PHOSPHORSAEURE
 62
     8
  6
PHOSPHORSAEURE
 70
    64
  0
LAYER
  2
SALPETERSAEURE
 62
     8
  6
SALPETERSAEURE
 70
    64
  0
LAYER
  2
SALZSAEURE
 62
     8
  6
SALZSAEURE
 70
    64
  0
LAYER
  2
SCHWEFELSAEURE
 62
     8
  6
SCHWEFELSAEURE
 70
    64
  0
LAYER
  2
BETRIEBSWAERME-RL
 62
     8
  6
BETRIEBSWAERME-RL
 70
    64
  0
LAYER
  2
BETRIEBSWAERME-VL
 62
     8
  6
BETRIEBSWAERME-VL
 70
    64
  0
LAYER
  2
WARMWASSER-VL
 62
     8
  6
WARMWASSER-VL
 70
    64
  0
LAYER
  2
WARMWASSER-ZIRKULATION
 62
     8
  6
WARMWASSER-ZIRKULATION
 70
    64
  0
LAYER
  2
ROHWASSER
 62
     8
  6
ROHWASSER
 70
    64
  0
LAYER
  2
ARGON
 62
     8
  6
ARGON
 70
    64
  0
LAYER
  2
CORGON
 62
     8
  6
CORGON
 70
    64
  0
LAYER
  2
KOHLENDIOXID
 62
     8
  6
KOHLENDIOXID
 70
    64
  0
LAYER
  2
STICKSTOFF
 62
     8
  6
STICKSTOFF
 70
    64
  0
LAYER
  2
AZETYLEN
 62
     8
  6
AZETYLEN
 70
    64
  0
LAYER
  2
ERDGAS
 62
     8
  6
ERDGAS
 70
    64
  0
LAYER
  2
SAUERSTOFF--TECHNISCH-REIN
 62
     8
  6
SAUERSTOFF--TECHNISCH-REIN
 70
    64
  0
LAYER
  2
TRAEGERGAS
 62
     8
  6
TRAEGERGAS
 70
    64
  0
LAYER
  2
WASSERSTOFF
 62
     8
  6
WASSERSTOFF
 70
    64
  0
LAYER
  2
KRAFTSTOFF-GK-A-I-D
 62
     8
  6
KRAFTSTOFF-GK-A-I-D
 70
    64
  0
LAYER
  2
KRAFTSTOFF-SONDER-D
 62
     8
  6
KRAFTSTOFF-SONDER-D
 70
    64
  0
LAYER
  2
ACHSOEL
 62
     8
  6
ACHSOEL
 70
    64
  0
LAYER
  2
ALTOEL
 62
     8
  6
ALTOEL
 70
    64
  0
LAYER
  2
BOHROEL
 62
     8
  6
BOHROEL
 70
    64
  0
LAYER
  2
ERODIEROEL
 62
     8
  6
ERODIEROEL
 70
    64
  0
LAYER
  2
FETT
 62
     8
  6
FETT
 70
    64
  0
LAYER
  2
GETRIEBEOEL
 62
     8
  6
GETRIEBEOEL
 70
    64
  0
LAYER
  2
HAERTEOEL
 62
     8
  6
HAERTEOEL
 70
    64
  0
LAYER
  2
HONOEL
 62
     8
  6
HONOEL
 70
    64
  0
LAYER
  2
HYDRAULIKOEL
 62
     8
  6
HYDRAULIKOEL
 70
    64
  0
LAYER
  2
MOTOROEL
 62
     8
  6
MOTOROEL
 70
    64
  0
LAYER
  2
NORMALSPUELOEL
 62
     8
  6
NORMALSPUELOEL
 70
    64
  0
LAYER
  2
RAEUMOEL
 62
     8
  6
RAEUMOEL
 70
    64
  0
LAYER
  2
SCHLEIFOEL
 62
     8
  6
SCHLEIFOEL
 70
    64
  0
LAYER
  2
SCHNEIDOEL
 62
     8
  6
SCHNEIDOEL
 70
    64
  0
LAYER
  2
SONDERSPUELOEL
 62
     8
  6
SONDERSPUELOEL
 70
    64
  0
LAYER
  2
ZIEHOEL
 62
     8
  6
ZIEHOEL
 70
    64
  0
LAYER
  2
MONTAGEOEL
 62
     8
  6
MONTAGEOEL
 70
    64
  0
LAYER
  2
MONTAGE-GLEITOEL
 62
     8
  6
MONTAGE-GLEITOEL
 70
    64
  0
LAYER
  2
SPUELOEL
 62
     8
  6
SPUELOEL
 70
    64
  0
LAYER
  2
TIEFBOHROEL
 62
     8
  6
TIEFBOHROEL
 70
    64
  0
LAYER
  2
AMIN
 62
     8
  6
AMIN
 70
    64
  0
LAYER
  2
HAERTER
 62
     8
  6
HAERTER
 70
    64
  0
LAYER
  2
HARZ
 62
     8
  6
HARZ
 70
    64
  0
LAYER
  2
LOESEMITTEL
 62
     8
  6
LOESEMITTEL
 70
    64
  0
LAYER
  2
LACK
 62
     8
  6
LACK
 70
    64
  0
LAYER
  2
WASCHWASSER
 62
     8
  6
WASCHWASSER
 70
    64
  0
LAYER
  2
GLEITSCHLEIFWASSER
 62
     8
  6
GLEITSCHLEIFWASSER
 70
    64
  0
LAYER
  2
VERDUENNUNG
 62
     8
  6
VERDUENNUNG
 70
    64
  0
LAYER
  2
KUEHLDECKEN-VORLAUF
 62
     8
  6
KUEHLDECKEN-VORLAUF
 70
    64
  0
LAYER
  2
KUEHLDECKEN-RUECKLAUF
 62
     8
  6
KUEHLDECKEN-RUECKLAUF
 70
    64
  0
LAYER
  2
KONDENSAT
 62
     8
  6
KONDENSAT
 70
    64
  0
LAYER
  2
KONDENSAT-REINDAMPF
 62
     8
  6
KONDENSAT-REINDAMPF
 70
    64
  0
LAYER
  2
KONDENSAT-HOCHDRUCK
 62
     8
  6
KONDENSAT-HOCHDRUCK
 70
    64
  0
LAYER
  2
DAMPF
 62
     8
  6
DAMPF
 70
    64
  0
LAYER
  2
REINDAMPF
 62
     8
  6
REINDAMPF
 70
    64
  0
LAYER
  2
DAMPF-HOCHDRUCK
 62
     8
  6
DAMPF-HOCHDRUCK
 70
    64
  0
LAYER
  2
KLIMA-ZENTRALE
 62
     8
  6
KLIMA-ZENTRALE
 70
    64
  0
LAYER
  2
KLIMA-AUSSENLUFT
 62
     8
  6
KLIMA-AUSSENLUFT
 70
    64
  0
LAYER
  2
KLIMA-ZULUFT-I
 62
     8
  6
KLIMA-ZULUFT-I
 70
    64
  0
LAYER
  2
KLIMA-ZULUFT-II
 62
     8
  6
KLIMA-ZULUFT-II
 70
    64
  0
LAYER
  2
KLIMA-ZULUFT-III
 62
     8
  6
KLIMA-ZULUFT-III
 70
    64
  0
LAYER
  2
KLIMA-ZULUFT-IV
 62
     8
  6
KLIMA-ZULUFT-IV
 70
    64
  0
LAYER
  2
KLIMA-UMLUFT
 62
     8
  6
KLIMA-UMLUFT
 70
    64
  0
LAYER
  2
KLIMA-MISCHLUFT
 62
     8
  6
KLIMA-MISCHLUFT
 70
    64
  0
LAYER
  2
KLIMA-ABLUFT
 62
     8
  6
KLIMA-ABLUFT
 70
    64
  0
LAYER
  2
KLIMA-FORTLUFT
 62
     8
  6
KLIMA-FORTLUFT
 70
    64
  0
LAYER
  2
ENTRAUCHUNG
 62
     8
  6
ENTRAUCHUNG
 70
    64
  0
LAYER
  2
ELEKTRO-ZENTRALE
 62
     8
  6
ELEKTRO-ZENTRALE
 70
    64
  0
LAYER
  2
STROMSCHIENEN
 62
     8
  6
STROMSCHIENEN
 70
    64
  0
LAYER
  2
ELEKTRO-LEITUNGSFUEHRUNG
 62
     8
  6
ELEKTRO-LEITUNGSFUEHRUNG
 70
    64
  0
LAYER
  2
ELEKTRO-KABELTRAEGER
 62
     8
  6
ELEKTRO-KABELTRAEGER
 70
    64
  0
LAYER
  2
INNENWAND
 62
     8
  6
INNENWAND
 70
    64
  0
LAYER
  2
AUSSENWAND
 62
     8
  6
AUSSENWAND
 70
    64
  0
LAYER
  2
ERDBERUEHREND
 62
     8
  6
ERDBERUEHREND
 70
    64
  0
LAYER
  2
REINWASSER
 62
     8
  6
REINWASSER
 70
    64
  0
LAYER
  2
0
 62
     7
  6
AUSGEZOGEN
 70
    64
  0
ENDTAB
  0
TABLE
  2
STYLE
 70
    23
  0
STYLE
  2
STANDARD
 70
     0
 40
     0
 41
       1.000000
 50
       0.000000
 71
     0
 42
       3.500000
  3
isocp
  4

  0
STYLE
  2
DIN-6776
 70
     0
 40
     0
 41
       1.000000
 50
       0.000000
 71
     0
 42
       3.500000
  3
isocp
  4

  0
STYLE
  2
ROMAN
 70
     0
 40
     0
 41
       1.000000
 50
       0.000000
 71
     0
 42
       3.500000
  3
romans.shx
  4

  0
STYLE
  2
SCRIPT
 70
     0
 40
     0
 41
       1.000000
 50
       0.000000
 71
     0
 42
       3.500000
  3
scripts.shx
  4

  0
STYLE
  2
GRIECHISCH
 70
     0
 40
     0
 41
       1.000000
 50
       0.000000
 71
     0
 42
       3.500000
  3
greeks.shx
  4

  0
STYLE
  2
KYRILLISCH
 70
     0
 40
     0
 41
       1.000000
 50
       0.000000
 71
     0
 42
       3.500000
  3
cyrillic.shx
  4

  0
STYLE
  2
MATH--FORMELZEICHEN
 70
     0
 40
     0
 41
       1.000000
 50
       0.000000
 71
     0
 42
       3.500000
  3
symath.shx
  4

  0
STYLE
  2
DOPPELLINIE
 70
     0
 40
     0
 41
       1.000000
 50
       0.000000
 71
     0
 42
       3.500000
  3
swissko.ttf
  4

  0
STYLE
  2
SERIFENSCHRIFT
 70
     0
 40
     0
 41
       1.000000
 50
       0.000000
 71
     0
 42
       3.500000
  3
romanc__.ttf
  4

  0
STYLE
  2
ARIAL
 70
     0
 40
     0
 41
       1.000000
 50
       0.000000
 71
     0
 42
       3.500000
  3
arial.ttf
  4

  0
STYLE
  2
ARIAL-FETT
 70
     0
 40
     0
 41
       1.000000
 50
       0.000000
 71
     0
 42
       3.500000
  3
arialbd.ttf
  4

  0
STYLE
  2
TIMES-NEW-ROMAN
 70
     0
 40
     0
 41
       1.000000
 50
       0.000000
 71
     0
 42
       3.500000
  3
times.ttf
  4

  0
STYLE
  2
TIMES-NEW-ROMAN-FETT
 70
     0
 40
     0
 41
       1.000000
 50
       0.000000
 71
     0
 42
       3.500000
  3
timesbd.ttf
  4

  0
STYLE
  2
DIN-6776-OSTEUROPA
 70
     0
 40
     0
 41
       1.000000
 50
       0.000000
 71
     0
 42
       3.500000
  3
txt
  4

  0
STYLE
  2
DIN-6776-KYRILLISCH
 70
     0
 40
     0
 41
       1.000000
 50
       0.000000
 71
     0
 42
       3.500000
  3
txt
  4

  0
STYLE
  2
ARIAL-OSTEUROPA
 70
     0
 40
     0
 41
       1.000000
 50
       0.000000
 71
     0
 42
       3.500000
  3
arial.ttf
  4

  0
STYLE
  2
ARIAL-KYRILLISCH
 70
     0
 40
     0
 41
       1.000000
 50
       0.000000
 71
     0
 42
       3.500000
  3
arial.ttf
  4

  0
STYLE
  2
ARIAL-FETT-OSTEUROPA
 70
     0
 40
     0
 41
       1.000000
 50
       0.000000
 71
     0
 42
       3.500000
  3
arialbd.ttf
  4

  0
STYLE
  2
ARIAL-FETT-KYRILLISCH
 70
     0
 40
     0
 41
       1.000000
 50
       0.000000
 71
     0
 42
       3.500000
  3
arialbd.ttf
  4

  0
STYLE
  2
TIMES-N-R-OSTEUROPA
 70
     0
 40
     0
 41
       1.000000
 50
       0.000000
 71
     0
 42
       3.500000
  3
times.ttf
  4

  0
STYLE
  2
TIMES-N-R-KYRILLISCH
 70
     0
 40
     0
 41
       1.000000
 50
       0.000000
 71
     0
 42
       3.500000
  3
times.ttf
  4

  0
STYLE
  2
TIMES-N-R-FETT-OSTEUROPA
 70
     0
 40
     0
 41
       1.000000
 50
       0.000000
 71
     0
 42
       3.500000
  3
timesbd.ttf
  4

  0
STYLE
  2
TIMES-N-R-FETT-KYRILLISCH
 70
     0
 40
     0
 41
       1.000000
 50
       0.000000
 71
     0
 42
       3.500000
  3
timesbd.ttf
  4

  0
ENDTAB
  0
TABLE
  2
VIEW
 70
     0
  0
ENDTAB
  0
TABLE
  2
VPORT
 70
     2
  0
VPORT
  2
*ACTIVE
 70
     0
 10
       0.000000
 20
       0.000000
 11
       1.000000
 21
       1.000000
 12
    1676.655396
 22
    1169.669556
 13
       0.000000
 23
       0.000000
 14
       1.000000
 24
       1.000000
 15
       0.000000
 25
       0.000000
 16
       0.000000
 26
       0.000000
 36
       1.000000
 17
       0.000000
 27
       0.000000
 37
       0.000000
 40
    2339.339111
 41
       1.433444
 42
      50.000000
 43
       0.000000
 44
       0.000000
 50
       0.000000
 51
       0.000000
 71
     0
 72
   100
 73
     1
 74
     1
 75
     0
 76
     0
 77
     0
 78
     0
  0
ENDTAB
  0
TABLE
  2
DIMSTYLE
 70
     1
  0
DIMSTYLE
  2
STDBEM
 70
     0
  3

  4

  5

  6

  7

 40
       1.000000
 41
       3.500000
 42
       0.100000
 43
       7.000000
 44
       1.800000
 45
       0.000000
 46
       0.000000
 47
       0.000000
 48
       0.000000
140
       3.500000
141
       1.500000
142
       0.000000
143
      25.400000
144
       1.000000
145
       0.000000
146
       1.000000
147
       0.090000
 71
     0
 72
     0
 73
     0
 74
     0
 75
     0
 76
     0
 77
     1
 78
     0
170
     0
171
     2
172
     0
173
     0
174
     0
175
     0
176
     0
177
     0
178
     0
  0
ENDTAB
  0
ENDSEC
  0
SECTION
  2
BLOCKS
  0
ENDSEC
  0
SECTION
  2
ENTITIES
  0
LINE
  8
HILFSLINIE
 10
    2133.434082
 20
     987.686951
 11
    3320.434082
 21
     987.686951
  0
LINE
  8
HILFSLINIE
 10
      38.876068
 20
     392.669556
 11
      38.876068
 21
    1146.669312
  0
LINE
  8
HILFSLINIE
 10
      55.876068
 20
    1163.669312
 11
    1809.875488
 21
    1163.669312
  0
LINE
  8
HILFSLINIE
 10
    1826.875488
 20
    1146.669312
 11
    1826.875488
 21
     392.669556
  0
LINE
  8
HILFSLINIE
 10
    1809.875488
 20
     375.669556
 11
      55.876068
 21
     375.669556
  0
LINE
  8
HILFSLINIE
 10
     316.431396
 20
     943.780701
 11
     316.431030
 21
     595.558167
  0
LINE
  8
HILFSLINIE
 10
     417.456024
 20
    1033.003296
 11
     467.456024
 21
    1033.003296
  0
LINE
  8
HILFSLINIE
 10
     417.455536
 20
     506.335571
 11
     467.455536
 21
     506.335571
  0
LINE
  8
HILFSLINIE
 10
    1470.265015
 20
     506.735962
 11
    1520.265015
 21
     506.735962
  0
LINE
  8
HILFSLINIE
 10
    1470.265503
 20
    1032.602905
 11
    1520.265503
 21
    1032.602905
  0
LINE
  8
HILFSLINIE
 10
    1625.875610
 20
     917.169434
 11
    1625.874146
 21
     622.169495
  0
LINE
  8
HILFSLINIE
 10
    1707.527954
 20
     932.987732
 11
    1707.527222
 21
     606.349182
  0
LINE
  8
HILFSLINIE
 10
    1707.527222
 20
     606.349182
 11
    1707.268433
 21
     599.874573
  0
LINE
  8
HILFSLINIE
 10
    1707.268921
 20
     939.464294
 11
    1707.527954
 21
     932.987732
  0
LINE
  8
HILFSLINIE
 10
    1520.265503
 20
    1032.602905
 11
    1610.611450
 21
    1032.016968
  0
LINE
  8
HILFSLINIE
 10
    1610.610718
 20
     507.321899
 11
    1520.265015
 21
     506.735962
  0
LINE
  8
HILFSLINIE
 10
    1575.875610
 20
     967.169373
 11
    1529.801636
 21
     967.169373
  0
LINE
  8
HILFSLINIE
 10
    1529.801392
 20
     572.169495
 11
    1575.875610
 21
     572.169495
  0
LINE
  8
HILFSLINIE
 10
    1453.336304
 20
     967.169373
 11
     435.875702
 21
     967.169373
  0
LINE
  8
HILFSLINIE
 10
     415.875702
 20
     592.169495
 11
     415.875702
 21
     947.169373
  0
LINE
  8
HILFSLINIE
 10
     435.875702
 20
     572.169495
 11
    1453.336304
 21
     572.169495
  0
ARC
  8
HILFSLINIE
 10
      55.876068
 20
    1146.669312
 40
      16.999994
 50
      90.000000
 51
     180.000000
  0
ARC
  8
HILFSLINIE
 10
    1809.875488
 20
    1146.669312
 40
      16.999994
 50
       0.000000
 51
      90.000000
  0
ARC
  8
HILFSLINIE
 10
    1809.875488
 20
     392.669556
 40
      16.999994
 50
     270.000000
 51
       0.000000
  0
ARC
  8
HILFSLINIE
 10
      55.876068
 20
     392.669556
 40
      16.999994
 50
     180.000000
 51
     270.000000
  0
ARC
  8
HILFSLINIE
 10
     932.878235
 20
  -88894.750000
 40
   90028.687500
 50
      89.466469
 51
      90.541039
  0
ARC
  8
HILFSLINIE
 10
  -13257.193359
 20
     769.669434
 40
   15037.547852
 50
     358.626343
 51
       1.354571
  0
ARC
  8
HILFSLINIE
 10
   15164.033203
 20
     769.698730
 40
   15090.417969
 50
     178.650711
 51
     181.368515
  0
ARC
  8
HILFSLINIE
 10
     932.878235
 20
   90429.085938
 40
   90028.687500
 50
     269.459015
 51
     270.533447
  0
ARC
  8
HILFSLINIE
 10
    1771.153198
 20
    1125.032593
 40
       4.999999
 50
       1.343017
 51
      89.465660
  0
ARC
  8
HILFSLINIE
 10
    1771.034058
 20
     409.306274
 40
       4.999999
 50
     270.534332
 51
     358.612213
  0
ARC
  8
HILFSLINIE
 10
      82.918289
 20
     409.415649
 40
       4.999999
 50
     181.365402
 51
     269.458649
  0
ARC
  8
HILFSLINIE
 10
      82.798172
 20
    1124.921265
 40
       4.999999
 50
      90.541328
 51
     178.657013
  0
ARC
  8
HILFSLINIE
 10
     402.191376
 20
     596.214417
 40
      85.762848
 50
     180.438416
 51
     201.292206
  0
ARC
  8
HILFSLINIE
 10
     401.917206
 20
     596.444885
 40
      85.591820
 50
     201.502548
 51
     226.370880
  0
ARC
  8
HILFSLINIE
 10
     401.917694
 20
     942.892029
 40
      85.591751
 50
     133.627472
 51
     158.496017
  0
ARC
  8
HILFSLINIE
 10
     402.193085
 20
     943.122498
 40
      85.764206
 50
     158.706741
 51
     179.560272
  0
ARC
  8
HILFSLINIE
 10
    1610.054321
 20
     603.898010
 40
      96.578995
 50
     270.330078
 51
     302.625397
  0
ARC
  8
HILFSLINIE
 10
    1606.754517
 20
     606.499573
 40
     100.731865
 50
     314.750885
 51
     356.229004
  0
ARC
  8
HILFSLINIE
 10
    1606.754272
 20
     932.839294
 40
     100.732811
 50
       3.770956
 51
      45.248547
  0
ARC
  8
HILFSLINIE
 10
    1610.055054
 20
     935.440857
 40
      96.579002
 50
      57.376095
 51
      89.669914
  0
ARC
  8
HILFSLINIE
 10
     435.875702
 20
     947.169373
 40
      20.000019
 50
      90.000000
 51
     180.000000
  0
ARC
  8
HILFSLINIE
 10
     435.875702
 20
     592.169495
 40
      20.000019
 50
     180.000000
 51
     270.000000
  0
ARC
  8
HILFSLINIE
 10
    1575.874634
 20
     917.163574
 40
      50.000820
 50
       0.006714
 51
      89.998878
  0
ARC
  8
HILFSLINIE
 10
    1575.874634
 20
     622.175354
 40
      49.999619
 50
     270.001099
 51
     359.993286
  0
CIRCLE
  8
HILFSLINIE
 10
    1522.875610
 20
     769.669434
 40
      44.999985
  0
POLYLINE
  8
HILFSLINIE
 66
     1
 10
       0.000000
 20
       0.000000
 30
       0.000000
  0
VERTEX
  8
HILFSLINIE
 10
     417.455536
 20
     506.335571
 30
       0.000000
  0
VERTEX
  8
HILFSLINIE
 10
     407.257294
 20
     506.796509
 30
       0.000000
  0
VERTEX
  8
HILFSLINIE
 10
     397.124512
 20
     508.095337
 30
       0.000000
  0
VERTEX
  8
HILFSLINIE
 10
     387.154297
 20
     510.251587
 30
       0.000000
  0
VERTEX
  8
HILFSLINIE
 10
     377.418213
 20
     513.292603
 30
       0.000000
  0
VERTEX
  8
HILFSLINIE
 10
     368.011475
 20
     517.235901
 30
       0.000000
  0
VERTEX
  8
HILFSLINIE
 10
     359.040283
 20
     522.087463
 30
       0.000000
  0
VERTEX
  8
HILFSLINIE
 10
     350.613281
 20
     527.849182
 30
       0.000000
  0
VERTEX
  8
HILFSLINIE
 10
     342.860840
 20
     534.491760
 30
       0.000000
  0
SEQEND
  8
HILFSLINIE
  0
POLYLINE
  8
HILFSLINIE
 66
     1
 10
       0.000000
 20
       0.000000
 30
       0.000000
  0
VERTEX
  8
HILFSLINIE
 10
     342.861328
 20
    1004.847168
 30
       0.000000
  0
VERTEX
  8
HILFSLINIE
 10
     350.613525
 20
    1011.489746
 30
       0.000000
  0
VERTEX
  8
HILFSLINIE
 10
     359.040283
 20
    1017.251465
 30
       0.000000
  0
VERTEX
  8
HILFSLINIE
 10
     368.011475
 20
    1022.103027
 30
       0.000000
  0
VERTEX
  8
HILFSLINIE
 10
     377.418457
 20
    1026.046387
 30
       0.000000
  0
VERTEX
  8
HILFSLINIE
 10
     387.154541
 20
    1029.087280
 30
       0.000000
  0
VERTEX
  8
HILFSLINIE
 10
     397.125000
 20
    1031.243530
 30
       0.000000
  0
VERTEX
  8
HILFSLINIE
 10
     407.257538
 20
    1032.542358
 30
       0.000000
  0
VERTEX
  8
HILFSLINIE
 10
     417.456024
 20
    1033.003296
 30
       0.000000
  0
SEQEND
  8
HILFSLINIE
  0
POLYLINE
  8
HILFSLINIE
 66
     1
 10
       0.000000
 20
       0.000000
 30
       0.000000
  0
VERTEX
  8
HILFSLINIE
 10
    1677.672241
 20
     534.962463
 30
       0.000000
  0
VERTEX
  8
HILFSLINIE
 10
    1670.217651
 20
     528.358948
 30
       0.000000
  0
VERTEX
  8
HILFSLINIE
 10
    1662.122681
 20
     522.558167
 30
       0.000000
  0
SEQEND
  8
HILFSLINIE
  0
POLYLINE
  8
HILFSLINIE
 66
     1
 10
       0.000000
 20
       0.000000
 30
       0.000000
  0
VERTEX
  8
HILFSLINIE
 10
    1662.123169
 20
    1016.780762
 30
       0.000000
  0
VERTEX
  8
HILFSLINIE
 10
    1670.218140
 20
    1010.979980
 30
       0.000000
  0
VERTEX
  8
HILFSLINIE
 10
    1677.672729
 20
    1004.376465
 30
       0.000000
  0
SEQEND
  8
HILFSLINIE
  0
POLYLINE
  8
HILFSLINIE
 66
     1
 10
       0.000000
 20
       0.000000
 30
       0.000000
  0
VERTEX
  8
HILFSLINIE
 10
     467.456024
 20
    1033.003296
 30
       0.000000
  0
VERTEX
  8
HILFSLINIE
 10
     801.725220
 20
    1034.110718
 30
       0.000000
  0
VERTEX
  8
HILFSLINIE
 10
    1135.997070
 20
    1033.977905
 30
       0.000000
  0
VERTEX
  8
HILFSLINIE
 10
    1470.265503
 20
    1032.602905
 30
       0.000000
  0
SEQEND
  8
HILFSLINIE
  0
POLYLINE
  8
HILFSLINIE
 66
     1
 10
       0.000000
 20
       0.000000
 30
       0.000000
  0
VERTEX
  8
HILFSLINIE
 10
    1470.265015
 20
     506.735962
 30
       0.000000
  0
VERTEX
  8
HILFSLINIE
 10
    1135.996582
 20
     505.360962
 30
       0.000000
  0
VERTEX
  8
HILFSLINIE
 10
     801.724976
 20
     505.228149
 30
       0.000000
  0
VERTEX
  8
HILFSLINIE
 10
     467.455536
 20
     506.335571
 30
       0.000000
  0
SEQEND
  8
HILFSLINIE
  0
POLYLINE
  8
HILFSLINIE
 66
     1
 10
       0.000000
 20
       0.000000
 30
       0.000000
  0
VERTEX
  8
HILFSLINIE
 10
    1453.336304
 20
     572.169495
 30
       0.000000
  0
VERTEX
  8
HILFSLINIE
 10
    1491.563354
 20
     572.169495
 30
       0.000000
  0
VERTEX
  8
HILFSLINIE
 10
    1529.801392
 20
     572.169495
 30
       0.000000
  0
SEQEND
  8
HILFSLINIE
  0
POLYLINE
  8
HILFSLINIE
 66
     1
 10
       0.000000
 20
       0.000000
 30
       0.000000
  0
VERTEX
  8
HILFSLINIE
 10
    1529.801636
 20
     967.169373
 30
       0.000000
  0
VERTEX
  8
HILFSLINIE
 10
    1491.563354
 20
     967.169373
 30
       0.000000
  0
VERTEX
  8
HILFSLINIE
 10
    1453.336304
 20
     967.169373
 30
       0.000000
  0
SEQEND
  8
HILFSLINIE
  0
POLYLINE
  8
HILFSLINIE
 66
     1
 10
       0.000000
 20
       0.000000
 30
       0.000000
  0
VERTEX
  8
HILFSLINIE
 10
    1679.025024
 20
    1945.985474
 30
       0.000000
  0
VERTEX
  8
HILFSLINIE
 10
    1336.218018
 20
    1945.985474
 30
       0.000000
  0
VERTEX
  8
HILFSLINIE
 10
     993.485107
 20
    1945.985474
 30
       0.000000
  0
VERTEX
  8
HILFSLINIE
 10
     650.853699
 20
    1945.985474
 30
       0.000000
  0
VERTEX
  8
HILFSLINIE
 10
     308.228271
 20
    1945.985474
 30
       0.000000
  0
SEQEND
  8
HILFSLINIE
  0
POLYLINE
  8
HILFSLINIE
 66
     1
 10
       0.000000
 20
       0.000000
 30
       0.000000
  0
VERTEX
  8
HILFSLINIE
 10
    2494.555908
 20
    1649.669189
 30
       0.000000
  0
VERTEX
  8
HILFSLINIE
 10
    2632.875244
 20
    1649.669189
 30
       0.000000
  0
VERTEX
  8
HILFSLINIE
 10
    2771.194824
 20
    1649.669189
 30
       0.000000
  0
SEQEND
  8
HILFSLINIE
  0
POLYLINE
  8
HILFSLINIE
 66
     1
 10
       0.000000
 20
       0.000000
 30
       0.000000
  0
VERTEX
  8
HILFSLINIE
 10
    2389.670654
 20
    1940.536255
 30
       0.000000
  0
VERTEX
  8
HILFSLINIE
 10
    2511.275635
 20
    1940.538208
 30
       0.000000
  0
VERTEX
  8
HILFSLINIE
 10
    2632.875000
 20
    1940.538208
 30
       0.000000
  0
VERTEX
  8
HILFSLINIE
 10
    2754.474121
 20
    1940.538208
 30
       0.000000
  0
VERTEX
  8
HILFSLINIE
 10
    2876.079834
 20
    1940.536255
 30
       0.000000
  0
SEQEND
  8
HILFSLINIE
  0
LINE
  8
MITTELLINIE
 10
      32.876068
 20
     769.669434
 11
    1832.875488
 21
     769.669434
  0
LINE
  8
MITTELLINIE
 10
     932.875793
 20
     369.669556
 11
     932.875793
 21
    1169.669312
  0
LINE
  8
MITTELLINIE
 10
    1522.875610
 20
     831.011230
 11
    1522.875610
 21
     708.327698
  0
LINE
  8
MITTELLINIE
 10
    1736.875610
 20
     795.669434
 11
    1736.875610
 21
     743.669434
  0
LINE
  8
MITTELLINIE
 10
    1522.875610
 20
    1969.669067
 11
    1522.875610
 21
    1549.839111
  0
LINE
  8
MITTELLINIE
 10
     932.875793
 20
    1580.272705
 11
     932.875793
 21
    1969.669067
  0
LINE
  8
MITTELLINIE
 10
    2632.875244
 20
    1969.669067
 11
    2632.875244
 21
    1543.669189
  0
LINE
  8
MITTELLINIE
 10
    2580.375244
 20
    1904.669067
 11
    2685.375244
 21
    1904.669067
  0
LINE
  8
SICHTBARE_KANTE
 10
      55.876068
 20
    1169.669312
 11
    1809.875488
 21
    1169.669312
  0
LINE
  8
SICHTBARE_KANTE
 10
    1832.875488
 20
    1146.669312
 11
    1832.875488
 21
     392.669556
  0
LINE
  8
SICHTBARE_KANTE
 10
    1809.875488
 20
     369.669556
 11
      55.876068
 21
     369.669556
  0
LINE
  8
SICHTBARE_KANTE
 10
      32.876068
 20
     392.669556
 11
      32.876068
 21
    1146.669312
  0
LINE
  8
SICHTBARE_KANTE
 10
      38.875336
 20
    1969.669067
 11
    1826.875488
 21
    1969.669067
  0
LINE
  8
SICHTBARE_KANTE
 10
      32.875824
 20
    1963.669067
 11
      32.875824
 21
    1943.669067
  0
LINE
  8
SICHTBARE_KANTE
 10
    1832.875488
 20
    1943.669067
 11
    1832.875488
 21
    1963.669067
  0
LINE
  8
SICHTBARE_KANTE
 10
    1493.682739
 20
    1549.839111
 11
    1552.067993
 21
    1549.839111
  0
LINE
  8
SICHTBARE_KANTE
 10
    3032.875244
 20
    1943.669067
 11
    3032.875244
 21
    1963.669067
  0
LINE
  8
SICHTBARE_KANTE
 10
    3026.875732
 20
    1969.669067
 11
    2238.875000
 21
    1969.669067
  0
LINE
  8
SICHTBARE_KANTE
 10
    2232.875488
 20
    1943.669067
 11
    2232.875488
 21
    1963.669067
  0
LINE
  8
SICHTBARE_KANTE
 10
    2238.875488
 20
    1937.669067
 11
    3026.875244
 21
    1937.669067
  0
LINE
  8
SICHTBARE_KANTE
 10
    1592.756470
 20
    1559.358643
 11
    1628.441040
 21
    1560.602783
  0
LINE
  8
SICHTBARE_KANTE
 10
     413.285614
 20
    1595.665283
 11
    1452.980591
 21
    1559.358643
  0
LINE
  8
SICHTBARE_KANTE
 10
      38.875824
 20
    1937.669067
 11
    1826.875488
 21
    1937.669067
  0
LINE
  8
SICHTBARE_KANTE
 10
    1478.800171
 20
    1558.620361
 11
    1566.950562
 21
    1558.620361
  0
LINE
  8
SICHTBARE_KANTE
 10
    2603.769775
 20
    1547.085205
 11
    2661.980713
 21
    1547.085205
  0
ARC
  8
SICHTBARE_KANTE
 10
    1809.875488
 20
    1146.669312
 40
      22.999992
 50
       0.000000
 51
      90.000000
  0
ARC
  8
SICHTBARE_KANTE
 10
      55.876068
 20
    1146.669312
 40
      22.999992
 50
      90.000000
 51
     180.000000
  0
ARC
  8
SICHTBARE_KANTE
 10
      55.876068
 20
     392.669556
 40
      22.999992
 50
     180.000000
 51
     270.000000
  0
ARC
  8
SICHTBARE_KANTE
 10
    1809.875488
 20
     392.669556
 40
      22.999992
 50
     270.000000
 51
       0.000000
  0
ARC
  8
SICHTBARE_KANTE
 10
  -13257.119141
 20
     769.669434
 40
   14999.995117
 50
     359.008545
 51
       0.991423
  0
ARC
  8
SICHTBARE_KANTE
 10
     932.875793
 20
  -88890.304688
 40
   89999.976562
 50
      89.532104
 51
      90.467728
  0
ARC
  8
SICHTBARE_KANTE
 10
   15132.871094
 20
     769.669434
 40
   14999.995117
 50
     178.911240
 51
     181.088760
  0
ARC
  8
SICHTBARE_KANTE
 10
     932.875793
 20
   90429.640625
 40
   89999.976562
 50
     269.532257
 51
     270.467896
  0
ARC
  8
SICHTBARE_KANTE
 10
    1660.641968
 20
    1027.827515
 40
      79.999977
 50
       0.990416
 51
      70.421074
  0
ARC
  8
SICHTBARE_KANTE
 10
    1667.344116
 20
    1046.671265
 40
      59.999981
 50
      70.421074
 51
      89.532082
  0
ARC
  8
SICHTBARE_KANTE
 10
     198.755905
 20
    1036.673218
 40
      69.999977
 50
      90.467705
 51
     136.653183
  0
ARC
  8
SICHTBARE_KANTE
 10
     180.575974
 20
    1053.833374
 40
      44.999985
 50
     136.653137
 51
     178.910706
  0
ARC
  8
SICHTBARE_KANTE
 10
    1660.641968
 20
     511.511353
 40
      79.999977
 50
     289.578918
 51
     359.009583
  0
ARC
  8
SICHTBARE_KANTE
 10
    1667.344116
 20
     492.667603
 40
      59.999981
 50
     270.467926
 51
     289.578918
  0
ARC
  8
SICHTBARE_KANTE
 10
     198.755905
 20
     502.665649
 40
      69.999977
 50
     223.346817
 51
     269.532288
  0
ARC
  8
SICHTBARE_KANTE
 10
     180.575974
 20
     485.505493
 40
      44.999985
 50
     181.089279
 51
     223.346848
  0
ARC
  8
SICHTBARE_KANTE
 10
      38.875336
 20
    1943.669067
 40
       5.999502
 50
     180.000000
 51
     270.004669
  0
ARC
  8
SICHTBARE_KANTE
 10
      38.875336
 20
    1963.669067
 40
       5.999502
 50
      88.201935
 51
     180.000000
  0
ARC
  8
SICHTBARE_KANTE
 10
    1826.875977
 20
    1963.669067
 40
       5.999502
 50
       0.000000
 51
      90.004662
  0
ARC
  8
SICHTBARE_KANTE
 10
    1826.875977
 20
    1943.669067
 40
       5.999502
 50
     269.995331
 51
       0.000000
  0
ARC
  8
SICHTBARE_KANTE
 10
    3026.875732
 20
    1963.669067
 40
       5.999502
 50
       0.000000
 51
      93.153961
  0
ARC
  8
SICHTBARE_KANTE
 10
    3026.875732
 20
    1943.669067
 40
       5.999502
 50
     269.995331
 51
       0.000000
  0
ARC
  8
SICHTBARE_KANTE
 10
    2238.875000
 20
    1963.669067
 40
       5.999502
 50
      86.848358
 51
     180.000000
  0
ARC
  8
SICHTBARE_KANTE
 10
    2238.875000
 20
    1943.669067
 40
       5.999502
 50
     180.000000
 51
     270.004669
  0
ARC
  8
SICHTBARE_KANTE
 10
    2829.695557
 20
    1628.069580
 40
      62.749958
 50
     275.687073
 51
     345.116943
  0
ARC
  8
SICHTBARE_KANTE
 10
    2676.954590
 20
    1549.370361
 40
       6.499998
 50
      91.280632
 51
     150.792175
  0
ARC
  8
SICHTBARE_KANTE
 10
    2661.980713
 20
    1557.741455
 40
      10.654858
 50
     270.000000
 51
     330.793121
  0
ARC
  8
SICHTBARE_KANTE
 10
    2631.020264
 20
    3604.106201
 40
    2048.749268
 50
     270.051880
 51
     275.741333
  0
ARC
  8
SICHTBARE_KANTE
 10
    1623.983765
 20
    1688.276611
 40
     127.749924
 50
     271.999481
 51
     287.675293
  0
ARC
  8
SICHTBARE_KANTE
 10
    1645.237183
 20
    1621.581299
 40
      57.749977
 50
     287.675171
 51
     329.840973
  0
ARC
  8
SICHTBARE_KANTE
 10
    1620.162231
 20
    1636.149658
 40
      86.750046
 50
     329.841980
 51
     343.319397
  0
ARC
  8
SICHTBARE_KANTE
 10
    1509.043335
 20
    1669.444580
 40
     202.749939
 50
     343.319763
 51
     352.476990
  0
ARC
  8
SICHTBARE_KANTE
 10
      74.251060
 20
    1868.510864
 40
      97.249924
 50
      28.903160
 51
      45.327614
  0
ARC
  8
SICHTBARE_KANTE
 10
    7603.026855
 20
    6025.130859
 40
    8502.747070
 50
     208.902985
 51
     210.998093
  0
ARC
  8
SICHTBARE_KANTE
 10
     432.682220
 20
    1717.077393
 40
     137.749954
 50
     210.998428
 51
     217.157013
  0
ARC
  8
SICHTBARE_KANTE
 10
     392.833130
 20
    1686.876221
 40
      87.749969
 50
     217.156235
 51
     254.998383
  0
ARC
  8
SICHTBARE_KANTE
 10
     420.012421
 20
    1788.298096
 40
     192.749832
 50
     254.997971
 51
     268.000000
  0
ARC
  8
SICHTBARE_KANTE
 10
    1566.950562
 20
    1549.370361
 40
       9.249997
 50
      91.255226
 51
     151.084183
  0
ARC
  8
SICHTBARE_KANTE
 10
    1478.800171
 20
    1549.370361
 40
       9.249997
 50
      28.915804
 51
      88.744774
  0
ARC
  8
SICHTBARE_KANTE
 10
    1493.682739
 20
    1557.589111
 40
       7.750794
 50
     208.902267
 51
     270.000000
  0
ARC
  8
SICHTBARE_KANTE
 10
    1552.067993
 20
    1557.589111
 40
       7.750794
 50
     270.000000
 51
     331.097717
  0
ARC
  8
SICHTBARE_KANTE
 10
    1522.875366
 20
    3560.887451
 40
    2002.749390
 50
     268.000000
 51
     268.744781
  0
ARC
  8
SICHTBARE_KANTE
 10
    1522.875366
 20
    3560.887451
 40
    2002.749390
 50
     271.255219
 51
     271.999603
  0
ARC
  8
SICHTBARE_KANTE
 10
   -5430.702148
 20
    2585.905273
 40
    7202.748047
 50
     352.477051
 51
     354.836456
  0
ARC
  8
SICHTBARE_KANTE
 10
    2436.054932
 20
    1628.069580
 40
      62.749958
 50
     194.883163
 51
     264.312897
  0
ARC
  8
SICHTBARE_KANTE
 10
    9336.554688
 20
    3461.826904
 40
    7202.748047
 50
     192.216583
 51
     194.881989
  0
ARC
  8
SICHTBARE_KANTE
 10
    2588.795898
 20
    1549.370361
 40
       6.499998
 50
      29.207817
 51
      88.719368
  0
ARC
  8
SICHTBARE_KANTE
 10
    2603.769775
 20
    1557.741455
 40
      10.654858
 50
     209.206848
 51
     270.000000
  0
ARC
  8
SICHTBARE_KANTE
 10
    2634.730225
 20
    3604.106201
 40
    2048.749268
 50
     264.258636
 51
     269.948120
  0
ARC
  8
SICHTBARE_KANTE
 10
   -4070.804443
 20
    3461.826904
 40
    7202.748047
 50
     345.118011
 51
     347.783386
  0
CIRCLE
  8
SICHTBARE_KANTE
 10
    1522.875610
 20
     769.669434
 40
      25.999992
  0
CIRCLE
  8
SICHTBARE_KANTE
 10
    2632.875244
 20
    1904.669067
 40
      25.999992
  0
POLYLINE
  8
SICHTBARE_KANTE
 66
     1
 10
       0.000000
 20
       0.000000
 30
       0.000000
  0
VERTEX
  8
SICHTBARE_KANTE
 10
    1736.875610
 20
     795.669434
 30
       0.000000
  0
VERTEX
  8
SICHTBARE_KANTE
 10
    1736.687134
 20
     795.618652
 30
       0.000000
  0
VERTEX
  8
SICHTBARE_KANTE
 10
    1736.499634
 20
     795.464355
 30
       0.000000
  0
VERTEX
  8
SICHTBARE_KANTE
 10
    1736.313599
 20
     795.208496
 30
       0.000000
  0
VERTEX
  8
SICHTBARE_KANTE
 10
    1736.129517
 20
     794.853027
 30
       0.000000
  0
VERTEX
  8
SICHTBARE_KANTE
 10
    1735.948608
 20
     794.395996
 30
       0.000000
  0
VERTEX
  8
SICHTBARE_KANTE
 10
    1735.771118
 20
     793.843262
 30
       0.000000
  0
VERTEX
  8
SICHTBARE_KANTE
 10
    1735.598267
 20
     793.194824
 30
       0.000000
  0
VERTEX
  8
SICHTBARE_KANTE
 10
    1735.430298
 20
     792.452637
 30
       0.000000
  0
VERTEX
  8
SICHTBARE_KANTE
 10
    1735.268188
 20
     791.622559
 30
       0.000000
  0
VERTEX
  8
SICHTBARE_KANTE
 10
    1735.112183
 20
     790.704590
 30
       0.000000
  0
VERTEX
  8
SICHTBARE_KANTE
 10
    1734.963257
 20
     789.702637
 30
       0.000000
  0
VERTEX
  8
SICHTBARE_KANTE
 10
    1734.821899
 20
     788.622559
 30
       0.000000
  0
VERTEX
  8
SICHTBARE_KANTE
 10
    1734.688599
 20
     787.468262
 30
       0.000000
  0
VERTEX
  8
SICHTBARE_KANTE
 10
    1734.564087
 20
     786.241699
 30
       0.000000
  0
VERTEX
  8
SICHTBARE_KANTE
 10
    1734.448608
 20
     784.952637
 30
       0.000000
  0
VERTEX
  8
SICHTBARE_KANTE
 10
    1734.342651
 20
     783.601074
 30
       0.000000
  0
VERTEX
  8
SICHTBARE_KANTE
 10
    1734.246704
 20
     782.194824
 30
       0.000000
  0
VERTEX
  8
SICHTBARE_KANTE
 10
    1734.161255
 20
     780.739746
 30
       0.000000
  0
VERTEX
  8
SICHTBARE_KANTE
 10
    1734.086304
 20
     779.239746
 30
       0.000000
  0
VERTEX
  8
SICHTBARE_KANTE
 10
    1734.022583
 20
     777.704590
 30
       0.000000
  0
VERTEX
  8
SICHTBARE_KANTE
 10
    1733.969849
 20
     776.136230
 30
       0.000000
  0
VERTEX
  8
SICHTBARE_KANTE
 10
    1733.928833
 20
     774.540527
 30
       0.000000
  0
VERTEX
  8
SICHTBARE_KANTE
 10
    1733.899292
 20
     772.927246
 30
       0.000000
  0
VERTEX
  8
SICHTBARE_KANTE
 10
    1733.881470
 20
     771.302246
 30
       0.000000
  0
VERTEX
  8
SICHTBARE_KANTE
 10
    1733.875610
 20
     769.669434
 30
       0.000000
  0
VERTEX
  8
SICHTBARE_KANTE
 10
    1733.881470
 20
     768.036621
 30
       0.000000
  0
VERTEX
  8
SICHTBARE_KANTE
 10
    1733.899292
 20
     766.411621
 30
       0.000000
  0
VERTEX
  8
SICHTBARE_KANTE
 10
    1733.928833
 20
     764.798340
 30
       0.000000
  0
VERTEX
  8
SICHTBARE_KANTE
 10
    1733.969849
 20
     763.202637
 30
       0.000000
  0
VERTEX
  8
SICHTBARE_KANTE
 10
    1734.022583
 20
     761.634277
 30
       0.000000
  0
VERTEX
  8
SICHTBARE_KANTE
 10
    1734.086304
 20
     760.099121
 30
       0.000000
  0
VERTEX
  8
SICHTBARE_KANTE
 10
    1734.161255
 20
     758.599121
 30
       0.000000
  0
VERTEX
  8
SICHTBARE_KANTE
 10
    1734.246704
 20
     757.144043
 30
       0.000000
  0
VERTEX
  8
SICHTBARE_KANTE
 10
    1734.342651
 20
     755.737793
 30
       0.000000
  0
VERTEX
  8
SICHTBARE_KANTE
 10
    1734.448608
 20
     754.386230
 30
       0.000000
  0
VERTEX
  8
SICHTBARE_KANTE
 10
    1734.564087
 20
     753.097168
 30
       0.000000
  0
VERTEX
  8
SICHTBARE_KANTE
 10
    1734.688599
 20
     751.870605
 30
       0.000000
  0
VERTEX
  8
SICHTBARE_KANTE
 10
    1734.821899
 20
     750.716309
 30
       0.000000
  0
VERTEX
  8
SICHTBARE_KANTE
 10
    1734.963257
 20
     749.636230
 30
       0.000000
  0
VERTEX
  8
SICHTBARE_KANTE
 10
    1735.112183
 20
     748.634277
 30
       0.000000
  0
VERTEX
  8
SICHTBARE_KANTE
 10
    1735.268188
 20
     747.716309
 30
       0.000000
  0
VERTEX
  8
SICHTBARE_KANTE
 10
    1735.430298
 20
     746.886230
 30
       0.000000
  0
VERTEX
  8
SICHTBARE_KANTE
 10
    1735.598267
 20
     746.144043
 30
       0.000000
  0
VERTEX
  8
SICHTBARE_KANTE
 10
    1735.771118
 20
     745.495605
 30
       0.000000
  0
VERTEX
  8
SICHTBARE_KANTE
 10
    1735.948608
 20
     744.942871
 30
       0.000000
  0
VERTEX
  8
SICHTBARE_KANTE
 10
    1736.129517
 20
     744.485840
 30
       0.000000
  0
VERTEX
  8
SICHTBARE_KANTE
 10
    1736.313599
 20
     744.130371
 30
       0.000000
  0
SEQEND
  8
SICHTBARE_KANTE
  0
POLYLINE
  8
SICHTBARE_KANTE
 66
     1
 10
       0.000000
 20
       0.000000
 30
       0.000000
  0
VERTEX
  8
SICHTBARE_KANTE
 10
    1736.313599
 20
     744.130371
 30
       0.000000
  0
VERTEX
  8
SICHTBARE_KANTE
 10
    1736.499634
 20
     743.874512
 30
       0.000000
  0
VERTEX
  8
SICHTBARE_KANTE
 10
    1736.687134
 20
     743.720215
 30
       0.000000
  0
VERTEX
  8
SICHTBARE_KANTE
 10
    1736.875610
 20
     743.669434
 30
       0.000000
  0
VERTEX
  8
SICHTBARE_KANTE
 10
    1737.064087
 20
     743.720215
 30
       0.000000
  0
VERTEX
  8
SICHTBARE_KANTE
 10
    1737.251587
 20
     743.874512
 30
       0.000000
  0
VERTEX
  8
SICHTBARE_KANTE
 10
    1737.437622
 20
     744.130371
 30
       0.000000
  0
VERTEX
  8
SICHTBARE_KANTE
 10
    1737.621704
 20
     744.485840
 30
       0.000000
  0
VERTEX
  8
SICHTBARE_KANTE
 10
    1737.802612
 20
     744.942871
 30
       0.000000
  0
VERTEX
  8
SICHTBARE_KANTE
 10
    1737.980103
 20
     745.495605
 30
       0.000000
  0
VERTEX
  8
SICHTBARE_KANTE
 10
    1738.152954
 20
     746.144043
 30
       0.000000
  0
VERTEX
  8
SICHTBARE_KANTE
 10
    1738.320923
 20
     746.886230
 30
       0.000000
  0
VERTEX
  8
SICHTBARE_KANTE
 10
    1738.483032
 20
     747.716309
 30
       0.000000
  0
VERTEX
  8
SICHTBARE_KANTE
 10
    1738.639038
 20
     748.634277
 30
       0.000000
  0
VERTEX
  8
SICHTBARE_KANTE
 10
    1738.787964
 20
     749.636230
 30
       0.000000
  0
VERTEX
  8
SICHTBARE_KANTE
 10
    1738.929321
 20
     750.716309
 30
       0.000000
  0
VERTEX
  8
SICHTBARE_KANTE
 10
    1739.062622
 20
     751.870605
 30
       0.000000
  0
VERTEX
  8
SICHTBARE_KANTE
 10
    1739.187134
 20
     753.097168
 30
       0.000000
  0
VERTEX
  8
SICHTBARE_KANTE
 10
    1739.302612
 20
     754.386230
 30
       0.000000
  0
VERTEX
  8
SICHTBARE_KANTE
 10
    1739.408569
 20
     755.737793
 30
       0.000000
  0
VERTEX
  8
SICHTBARE_KANTE
 10
    1739.504517
 20
     757.144043
 30
       0.000000
  0
VERTEX
  8
SICHTBARE_KANTE
 10
    1739.589966
 20
     758.599121
 30
       0.000000
  0
VERTEX
  8
SICHTBARE_KANTE
 10
    1739.664917
 20
     760.099121
 30
       0.000000
  0
VERTEX
  8
SICHTBARE_KANTE
 10
    1739.728638
 20
     761.634277
 30
       0.000000
  0
VERTEX
  8
SICHTBARE_KANTE
 10
    1739.781372
 20
     763.202637
 30
       0.000000
  0
VERTEX
  8
SICHTBARE_KANTE
 10
    1739.822388
 20
     764.798340
 30
       0.000000
  0
VERTEX
  8
SICHTBARE_KANTE
 10
    1739.851929
 20
     766.411621
 30
       0.000000
  0
VERTEX
  8
SICHTBARE_KANTE
 10
    1739.869751
 20
     768.036621
 30
       0.000000
  0
VERTEX
  8
SICHTBARE_KANTE
 10
    1739.875610
 20
     769.669434
 30
       0.000000
  0
VERTEX
  8
SICHTBARE_KANTE
 10
    1739.869751
 20
     771.302246
 30
       0.000000
  0
VERTEX
  8
SICHTBARE_KANTE
 10
    1739.851929
 20
     772.927246
 30
       0.000000
  0
VERTEX
  8
SICHTBARE_KANTE
 10
    1739.822388
 20
     774.540527
 30
       0.000000
  0
VERTEX
  8
SICHTBARE_KANTE
 10
    1739.781372
 20
     776.136230
 30
       0.000000
  0
VERTEX
  8
SICHTBARE_KANTE
 10
    1739.728638
 20
     777.704590
 30
       0.000000
  0
VERTEX
  8
SICHTBARE_KANTE
 10
    1739.664917
 20
     779.239746
 30
       0.000000
  0
VERTEX
  8
SICHTBARE_KANTE
 10
    1739.589966
 20
     780.739746
 30
       0.000000
  0
VERTEX
  8
SICHTBARE_KANTE
 10
    1739.504517
 20
     782.194824
 30
       0.000000
  0
VERTEX
  8
SICHTBARE_KANTE
 10
    1739.408569
 20
     783.601074
 30
       0.000000
  0
VERTEX
  8
SICHTBARE_KANTE
 10
    1739.302612
 20
     784.952637
 30
       0.000000
  0
VERTEX
  8
SICHTBARE_KANTE
 10
    1739.187134
 20
     786.241699
 30
       0.000000
  0
VERTEX
  8
SICHTBARE_KANTE
 10
    1739.062622
 20
     787.468262
 30
       0.000000
  0
VERTEX
  8
SICHTBARE_KANTE
 10
    1738.929321
 20
     788.622559
 30
       0.000000
  0
VERTEX
  8
SICHTBARE_KANTE
 10
    1738.787964
 20
     789.702637
 30
       0.000000
  0
VERTEX
  8
SICHTBARE_KANTE
 10
    1738.639038
 20
     790.704590
 30
       0.000000
  0
VERTEX
  8
SICHTBARE_KANTE
 10
    1738.483032
 20
     791.622559
 30
       0.000000
  0
VERTEX
  8
SICHTBARE_KANTE
 10
    1738.320923
 20
     792.452637
 30
       0.000000
  0
VERTEX
  8
SICHTBARE_KANTE
 10
    1738.152954
 20
     793.194824
 30
       0.000000
  0
VERTEX
  8
SICHTBARE_KANTE
 10
    1737.980103
 20
     793.843262
 30
       0.000000
  0
SEQEND
  8
SICHTBARE_KANTE
  0
POLYLINE
  8
SICHTBARE_KANTE
 66
     1
 10
       0.000000
 20
       0.000000
 30
       0.000000
  0
VERTEX
  8
SICHTBARE_KANTE
 10
    1737.980103
 20
     793.843262
 30
       0.000000
  0
VERTEX
  8
SICHTBARE_KANTE
 10
    1737.802612
 20
     794.395996
 30
       0.000000
  0
VERTEX
  8
SICHTBARE_KANTE
 10
    1737.621704
 20
     794.853027
 30
       0.000000
  0
VERTEX
  8
SICHTBARE_KANTE
 10
    1737.437622
 20
     795.208496
 30
       0.000000
  0
VERTEX
  8
SICHTBARE_KANTE
 10
    1737.251587
 20
     795.464355
 30
       0.000000
  0
VERTEX
  8
SICHTBARE_KANTE
 10
    1737.064087
 20
     795.618652
 30
       0.000000
  0
VERTEX
  8
SICHTBARE_KANTE
 10
    1736.875610
 20
     795.669434
 30
       0.000000
  0
SEQEND
  8
SICHTBARE_KANTE
  0
TEXT
  8
TEXT
  6
AUSGEZOGEN
 10
    3115.772217
 20
    1052.350952
 40
      66.666649
 50
       0.000000
 51
       0.000000
 41
       0.919239
  1
Tiefe
  7
DIN-6776
 72
     5
 11
    3282.605469
 21
    1052.350952
  0
TEXT
  8
TEXT
  6
AUSGEZOGEN
 10
    2782.439697
 20
    1052.350952
 40
      66.666649
 50
       0.000000
 51
       0.000000
 41
       0.919239
  1
Breite
  7
DIN-6776
 72
     5
 11
    2981.209717
 21
    1052.350952
  0
TEXT
  8
TEXT
  6
AUSGEZOGEN
 10
    2449.106689
 20
    1052.352905
 40
      66.666649
 50
       0.000000
 51
       0.000000
 41
       0.919239
  1
Laenge
  7
DIN-6776
 72
     5
 11
    2691.773438
 21
    1052.352905
  0
TEXT
  8
TEXT
  6
AUSGEZOGEN
 10
    2115.773926
 20
    1052.352905
 40
      66.666649
 50
       0.000000
 51
       0.000000
 41
       0.919239
  1
Modell
  7
DIN-6776
 72
     5
 11
    2323.773926
 21
    1052.352905
  0
TEXT
  8
TEXT
  6
AUSGEZOGEN
 10
    2149.025879
 20
     848.272949
 40
      66.666649
 50
       0.000000
 51
       0.000000
 41
       0.919239
  1
653
  7
DIN-6776
 72
     5
 11
    2261.692627
 21
     848.272949
  0
TEXT
  8
TEXT
  6
AUSGEZOGEN
 10
    2449.105713
 20
     852.353027
 40
      66.666649
 50
       0.000000
 51
       0.000000
 41
       0.919239
  1
1800
  7
DIN-6776
 72
     5
 11
    2594.272461
 21
     852.353027
  0
TEXT
  8
TEXT
  6
AUSGEZOGEN
 10
    2782.438721
 20
     852.351074
 40
      66.666649
 50
       0.000000
 51
       0.000000
 41
       0.919239
  1
800
  7
DIN-6776
 72
     5
 11
    2895.105469
 21
     852.351074
  0
TEXT
  8
TEXT
  6
AUSGEZOGEN
 10
    3115.772217
 20
     852.351074
 40
      66.666649
 50
       0.000000
 51
       0.000000
 41
       0.919239
  1
410
  7
DIN-6776
 72
     5
 11
    3217.605469
 21
     852.351074
  0
TEXT
  8
TEXT
  6
AUSGEZOGEN
 10
    2586.088135
 20
    1222.360718
 40
      99.999977
 50
       0.000000
 51
       0.000000
 41
       0.754247
  1
PURO
  7
DIN-6776
 72
     5
 11
    2799.421387
 21
    1222.360718
  0
ENDSEC
  0
EOF
