999
Erzeugt mit innoplus bad 
0
SECTION
2
HEADER
9
$ACADVER
1
AC1009
9
$DWGCODEPAGE
3
ISO8859-1
0
ENDSEC
0
SECTION
2
TABLES
0
TABLE
2
LAYER
70
1
0
LAYER
2
0
70
0
62
7
6
CONTINUOUS
0
ENDTAB
0
ENDSEC
0
SECTION
2
ENTITIES
0
LINE
8
0
6
CONTINUOUS
10
191.250000
20
77.500000
30
0.0
11
191.250000
21
69.750000
31
0.0
0
LINE
8
0
6
CONTINUOUS
10
192.250000
20
77.500000
30
0.0
11
191.250000
21
77.500000
31
0.0
0
LINE
8
0
6
CONTINUOUS
10
192.250000
20
77.500000
30
0.0
11
192.250000
21
69.750000
31
0.0
0
LINE
8
0
6
CONTINUOUS
10
219.750000
20
77.500000
30
0.0
11
192.250000
21
77.500000
31
0.0
0
LINE
8
0
6
CONTINUOUS
10
220.750000
20
69.750000
30
0.0
11
220.750000
21
77.500000
31
0.0
0
LINE
8
0
6
CONTINUOUS
10
219.750000
20
77.500000
30
0.0
11
219.750000
21
69.750000
31
0.0
0
LINE
8
0
6
CONTINUOUS
10
220.750000
20
77.500000
30
0.0
11
219.750000
21
77.500000
31
0.0
0
LINE
8
0
6
CONTINUOUS
10
192.250000
20
68.750000
30
0.0
11
192.664214
21
68.750000
31
0.0
0
LINE
8
0
6
CONTINUOUS
10
191.250000
20
69.750000
30
0.0
11
192.250000
21
68.750000
31
0.0
0
LINE
8
0
6
CONTINUOUS
10
192.250000
20
69.750000
30
0.0
11
191.250000
21
69.750000
31
0.0
0
LINE
8
0
6
CONTINUOUS
10
192.664214
20
68.750000
30
0.0
11
219.335786
21
68.750000
31
0.0
0
LINE
8
0
6
CONTINUOUS
10
219.750000
20
69.750000
30
0.0
11
192.250000
21
69.750000
31
0.0
0
LINE
8
0
6
CONTINUOUS
10
219.750000
20
68.750000
30
0.0
11
220.750000
21
69.750000
31
0.0
0
LINE
8
0
6
CONTINUOUS
10
219.335786
20
68.750000
30
0.0
11
219.750000
21
68.750000
31
0.0
0
LINE
8
0
6
CONTINUOUS
10
220.750000
20
69.750000
30
0.0
11
219.750000
21
69.750000
31
0.0
0
LINE
8
0
6
CONTINUOUS
10
-220.750000
20
77.500000
30
0.0
11
-220.750000
21
69.750000
31
0.0
0
LINE
8
0
6
CONTINUOUS
10
-219.750000
20
77.500000
30
0.0
11
-220.750000
21
77.500000
31
0.0
0
LINE
8
0
6
CONTINUOUS
10
-219.750000
20
77.500000
30
0.0
11
-219.750000
21
69.750000
31
0.0
0
LINE
8
0
6
CONTINUOUS
10
-192.250000
20
77.500000
30
0.0
11
-219.750000
21
77.500000
31
0.0
0
LINE
8
0
6
CONTINUOUS
10
-191.250000
20
69.750000
30
0.0
11
-191.250000
21
77.500000
31
0.0
0
LINE
8
0
6
CONTINUOUS
10
-192.250000
20
77.500000
30
0.0
11
-192.250000
21
69.750000
31
0.0
0
LINE
8
0
6
CONTINUOUS
10
-191.250000
20
77.500000
30
0.0
11
-192.250000
21
77.500000
31
0.0
0
LINE
8
0
6
CONTINUOUS
10
-219.750000
20
68.750000
30
0.0
11
-219.335786
21
68.750000
31
0.0
0
LINE
8
0
6
CONTINUOUS
10
-220.750000
20
69.750000
30
0.0
11
-219.750000
21
68.750000
31
0.0
0
LINE
8
0
6
CONTINUOUS
10
-219.750000
20
69.750000
30
0.0
11
-220.750000
21
69.750000
31
0.0
0
LINE
8
0
6
CONTINUOUS
10
-219.335786
20
68.750000
30
0.0
11
-192.664214
21
68.750000
31
0.0
0
LINE
8
0
6
CONTINUOUS
10
-192.250000
20
69.750000
30
0.0
11
-219.750000
21
69.750000
31
0.0
0
LINE
8
0
6
CONTINUOUS
10
-192.250000
20
68.750000
30
0.0
11
-191.250000
21
69.750000
31
0.0
0
LINE
8
0
6
CONTINUOUS
10
-192.664214
20
68.750000
30
0.0
11
-192.250000
21
68.750000
31
0.0
0
LINE
8
0
6
CONTINUOUS
10
-191.250000
20
69.750000
30
0.0
11
-192.250000
21
69.750000
31
0.0
0
LINE
8
0
6
CONTINUOUS
10
225.000000
20
-76.500000
30
0.0
11
225.000000
21
-76.085786
31
0.0
0
LINE
8
0
6
CONTINUOUS
10
224.000000
20
-77.500000
30
0.0
11
225.000000
21
-76.500000
31
0.0
0
LINE
8
0
6
CONTINUOUS
10
225.000000
20
-76.085786
30
0.0
11
225.000000
21
56.598491
31
0.0
0
LINE
8
0
6
CONTINUOUS
10
224.000000
20
56.500000
30
0.0
11
224.000000
21
-76.500000
31
0.0
0
LINE
8
0
6
CONTINUOUS
10
225.000000
20
56.598491
30
0.0
11
225.000000
21
60.334332
31
0.0
0
LINE
8
0
6
CONTINUOUS
10
224.000000
20
59.944151
30
0.0
11
224.000000
21
56.500000
31
0.0
0
LINE
8
0
6
CONTINUOUS
10
225.000000
20
60.334332
30
0.0
11
225.000000
21
63.584921
31
0.0
0
LINE
8
0
6
CONTINUOUS
10
224.000000
20
62.863961
30
0.0
11
224.000000
21
59.944151
31
0.0
0
LINE
8
0
6
CONTINUOUS
10
225.000000
20
63.584921
30
0.0
11
225.000000
21
65.756895
31
0.0
0
LINE
8
0
6
CONTINUOUS
10
224.000000
20
64.814916
30
0.0
11
224.000000
21
62.863961
31
0.0
0
LINE
8
0
6
CONTINUOUS
10
225.000000
20
66.500000
30
0.0
11
224.000000
21
65.500000
31
0.0
0
LINE
8
0
6
CONTINUOUS
10
225.000000
20
65.756895
30
0.0
11
225.000000
21
66.500000
31
0.0
0
LINE
8
0
6
CONTINUOUS
10
224.000000
20
65.500000
30
0.0
11
224.000000
21
64.814916
31
0.0
0
LINE
8
0
6
CONTINUOUS
10
225.000000
20
66.500000
30
0.0
11
225.000000
21
66.914214
31
0.0
0
LINE
8
0
6
CONTINUOUS
10
224.000000
20
65.500000
30
0.0
11
225.000000
21
66.500000
31
0.0
0
LINE
8
0
6
CONTINUOUS
10
225.000000
20
76.500000
30
0.0
11
224.000000
21
77.500000
31
0.0
0
LINE
8
0
6
CONTINUOUS
10
225.000000
20
66.914214
30
0.0
11
225.000000
21
76.500000
31
0.0
0
LINE
8
0
6
CONTINUOUS
10
224.000000
20
77.500000
30
0.0
11
-224.000000
21
77.500000
31
0.0
0
LINE
8
0
6
CONTINUOUS
10
224.000000
20
66.500000
30
0.0
11
224.000000
21
77.500000
31
0.0
0
LINE
8
0
6
CONTINUOUS
10
224.000000
20
66.500000
30
0.0
11
-224.000000
21
66.500000
31
0.0
0
LINE
8
0
6
CONTINUOUS
10
224.000000
20
65.500000
30
0.0
11
224.000000
21
66.500000
31
0.0
0
LINE
8
0
6
CONTINUOUS
10
-224.000000
20
65.500000
30
0.0
11
224.000000
21
65.500000
31
0.0
0
LINE
8
0
6
CONTINUOUS
10
224.000000
20
-76.500000
30
0.0
11
-224.000000
21
-76.500000
31
0.0
0
LINE
8
0
6
CONTINUOUS
10
224.000000
20
-77.500000
30
0.0
11
224.000000
21
-76.500000
31
0.0
0
LINE
8
0
6
CONTINUOUS
10
-224.000000
20
-77.500000
30
0.0
11
224.000000
21
-77.500000
31
0.0
0
LINE
8
0
6
CONTINUOUS
10
-225.000000
20
-76.500000
30
0.0
11
-224.000000
21
-77.500000
31
0.0
0
LINE
8
0
6
CONTINUOUS
10
-225.000000
20
-76.085786
30
0.0
11
-225.000000
21
-76.500000
31
0.0
0
LINE
8
0
6
CONTINUOUS
10
-224.000000
20
-77.500000
30
0.0
11
-224.000000
21
-76.500000
31
0.0
0
LINE
8
0
6
CONTINUOUS
10
-225.000000
20
56.598491
30
0.0
11
-225.000000
21
-76.085786
31
0.0
0
LINE
8
0
6
CONTINUOUS
10
-224.000000
20
-76.500000
30
0.0
11
-224.000000
21
56.500000
31
0.0
0
LINE
8
0
6
CONTINUOUS
10
-225.000000
20
60.334331
30
0.0
11
-225.000000
21
56.598491
31
0.0
0
LINE
8
0
6
CONTINUOUS
10
-224.000000
20
56.500000
30
0.0
11
-224.000000
21
59.944151
31
0.0
0
LINE
8
0
6
CONTINUOUS
10
-225.000000
20
63.584921
30
0.0
11
-225.000000
21
60.334331
31
0.0
0
LINE
8
0
6
CONTINUOUS
10
-224.000000
20
59.944151
30
0.0
11
-224.000000
21
62.863961
31
0.0
0
LINE
8
0
6
CONTINUOUS
10
-225.000000
20
65.756895
30
0.0
11
-225.000000
21
63.584921
31
0.0
0
LINE
8
0
6
CONTINUOUS
10
-224.000000
20
62.863961
30
0.0
11
-224.000000
21
64.814916
31
0.0
0
LINE
8
0
6
CONTINUOUS
10
-225.000000
20
66.500000
30
0.0
11
-225.000000
21
65.756895
31
0.0
0
LINE
8
0
6
CONTINUOUS
10
-224.000000
20
65.500000
30
0.0
11
-225.000000
21
66.500000
31
0.0
0
LINE
8
0
6
CONTINUOUS
10
-224.000000
20
64.814916
30
0.0
11
-224.000000
21
65.500000
31
0.0
0
LINE
8
0
6
CONTINUOUS
10
-225.000000
20
66.500000
30
0.0
11
-224.000000
21
65.500000
31
0.0
0
LINE
8
0
6
CONTINUOUS
10
-225.000000
20
66.914214
30
0.0
11
-225.000000
21
66.500000
31
0.0
0
LINE
8
0
6
CONTINUOUS
10
-224.000000
20
65.500000
30
0.0
11
-224.000000
21
66.500000
31
0.0
0
LINE
8
0
6
CONTINUOUS
10
-225.000000
20
76.500000
30
0.0
11
-225.000000
21
66.914214
31
0.0
0
LINE
8
0
6
CONTINUOUS
10
-224.000000
20
77.500000
30
0.0
11
-225.000000
21
76.500000
31
0.0
0
LINE
8
0
6
CONTINUOUS
10
-224.000000
20
66.500000
30
0.0
11
-224.000000
21
77.500000
31
0.0
0
LINE
8
0
6
CONTINUOUS
10
224.000000
20
65.500000
30
0.0
11
-224.000000
21
65.500000
31
0.0
0
LINE
8
0
6
CONTINUOUS
10
224.000000
20
64.814916
30
0.0
11
224.000000
21
65.500000
31
0.0
0
LINE
8
0
6
CONTINUOUS
10
-224.000000
20
65.500000
30
0.0
11
-224.000000
21
64.814916
31
0.0
0
LINE
8
0
6
CONTINUOUS
10
224.000000
20
62.863961
30
0.0
11
224.000000
21
64.814916
31
0.0
0
LINE
8
0
6
CONTINUOUS
10
-224.000000
20
64.814916
30
0.0
11
-224.000000
21
62.863961
31
0.0
0
LINE
8
0
6
CONTINUOUS
10
224.000000
20
59.944151
30
0.0
11
224.000000
21
62.863961
31
0.0
0
LINE
8
0
6
CONTINUOUS
10
-224.000000
20
62.863961
30
0.0
11
-224.000000
21
59.944151
31
0.0
0
LINE
8
0
6
CONTINUOUS
10
224.000000
20
56.500000
30
0.0
11
224.000000
21
59.944151
31
0.0
0
LINE
8
0
6
CONTINUOUS
10
-224.000000
20
59.944151
30
0.0
11
-224.000000
21
56.500000
31
0.0
0
LINE
8
0
6
CONTINUOUS
10
224.000000
20
-76.500000
30
0.0
11
224.000000
21
56.500000
31
0.0
0
LINE
8
0
6
CONTINUOUS
10
-224.000000
20
-76.500000
30
0.0
11
224.000000
21
-76.500000
31
0.0
0
LINE
8
0
6
CONTINUOUS
10
-224.000000
20
56.500000
30
0.0
11
-224.000000
21
-76.500000
31
0.0
0
ENDSEC
0
EOF
