  0
SECTION
  2
HEADER
  9
$ACADVER
  1
AC1015
  9
$ACADMAINTVER
 70
     6
  9
$DWGCODEPAGE
  3
ANSI_1252
  9
$INSBASE
 10
0.0
 20
0.0
 30
0.0
  9
$EXTMIN
 10
0.0
 20
0.0
 30
0.0
  9
$EXTMAX
 10
1400.0
 20
1000.0
 30
0.0
  9
$LIMMIN
 10
0.0
 20
0.0
  9
$LIMMAX
 10
1400.0
 20
1000.0
  9
$ORTHOMODE
 70
     0
  9
$REGENMODE
 70
     1
  9
$FILLMODE
 70
     1
  9
$QTEXTMODE
 70
     0
  9
$MIRRTEXT
 70
     1
  9
$LTSCALE
 40
1.0
  9
$ATTMODE
 70
     1
  9
$TEXTSIZE
 40
3.5
  9
$TRACEWID
 40
1.0
  9
$TEXTSTYLE
  7
Standard
  9
$CLAYER
  8
0
  9
$CELTYPE
  6
ByLayer
  9
$CECOLOR
 62
   256
  9
$CELTSCALE
 40
1.0
  9
$DISPSILH
 70
     0
  9
$DIMSCALE
 40
1.0
  9
$DIMASZ
 40
6.0
  9
$DIMEXO
 40
1.0
  9
$DIMDLI
 40
3.75
  9
$DIMRND
 40
0.0
  9
$DIMDLE
 40
0.0
  9
$DIMEXE
 40
1.0
  9
$DIMTP
 40
0.0
  9
$DIMTM
 40
0.0
  9
$DIMTXT
 40
3.5
  9
$DIMCEN
 40
2.5
  9
$DIMTSZ
 40
0.0
  9
$DIMTOL
 70
     0
  9
$DIMLIM
 70
     0
  9
$DIMTIH
 70
     1
  9
$DIMTOH
 70
     1
  9
$DIMSE1
 70
     0
  9
$DIMSE2
 70
     0
  9
$DIMTAD
 70
     1
  9
$DIMZIN
 70
     0
  9
$DIMBLK
  1

  9
$DIMASO
 70
     1
  9
$DIMSHO
 70
     1
  9
$DIMPOST
  1

  9
$DIMAPOST
  1

  9
$DIMALT
 70
     0
  9
$DIMALTD
 70
     3
  9
$DIMALTF
 40
0.0393700787
  9
$DIMLFAC
 40
1.0
  9
$DIMTOFL
 70
     1
  9
$DIMTVP
 40
0.0
  9
$DIMTIX
 70
     0
  9
$DIMSOXD
 70
     0
  9
$DIMSAH
 70
     0
  9
$DIMBLK1
  1

  9
$DIMBLK2
  1

  9
$DIMSTYLE
  2
ISO-25
  9
$DIMCLRD
 70
     0
  9
$DIMCLRE
 70
     0
  9
$DIMCLRT
 70
     0
  9
$DIMTFAC
 40
1.0
  9
$DIMGAP
 40
1.524
  9
$DIMJUST
 70
     0
  9
$DIMSD1
 70
     0
  9
$DIMSD2
 70
     0
  9
$DIMTOLJ
 70
     0
  9
$DIMTZIN
 70
     0
  9
$DIMALTZ
 70
     0
  9
$DIMALTTZ
 70
     0
  9
$DIMUPT
 70
     0
  9
$DIMDEC
 70
     3
  9
$DIMTDEC
 70
     3
  9
$DIMALTU
 70
     2
  9
$DIMALTTD
 70
     3
  9
$DIMTXSTY
  7
Standard
  9
$DIMAUNIT
 70
     0
  9
$DIMADEC
 70
     2
  9
$DIMALTRND
 40
0.0
  9
$DIMAZIN
 70
     0
  9
$DIMDSEP
 70
    44
  9
$DIMATFIT
 70
     3
  9
$DIMFRAC
 70
     0
  9
$DIMLDRBLK
  1

  9
$DIMLUNIT
 70
     2
  9
$DIMLWD
 70
    -2
  9
$DIMLWE
 70
    -2
  9
$DIMTMOVE
 70
     0
  9
$LUNITS
 70
     2
  9
$LUPREC
 70
     2
  9
$SKETCHINC
 40
1.0
  9
$FILLETRAD
 40
10.0
  9
$AUNITS
 70
     0
  9
$AUPREC
 70
     2
  9
$MENU
  1
.
  9
$ELEVATION
 40
0.0
  9
$PELEVATION
 40
0.0
  9
$THICKNESS
 40
0.0
  9
$LIMCHECK
 70
     0
  9
$CHAMFERA
 40
0.0
  9
$CHAMFERB
 40
0.0
  9
$CHAMFERC
 40
0.0
  9
$CHAMFERD
 40
0.0
  9
$SKPOLY
 70
     0
  9
$TDCREATE
 40
2457232.393307917
  9
$TDUCREATE
 40
2457232.309974583
  9
$TDUPDATE
 40
2457232.393308113
  9
$TDUUPDATE
 40
2457232.30997478
  9
$TDINDWG
 40
0.0000000116
  9
$TDUSRTIMER
 40
0.0000000116
  9
$USRTIMER
 70
     1
  9
$ANGBASE
 50
0.0
  9
$ANGDIR
 70
     0
  9
$PDMODE
 70
     0
  9
$PDSIZE
 40
-1.0
  9
$PLINEWID
 40
0.0
  9
$SPLFRAME
 70
     0
  9
$SPLINETYPE
 70
     6
  9
$SPLINESEGS
 70
     8
  9
$HANDSEED
  5
130
  9
$SURFTAB1
 70
     6
  9
$SURFTAB2
 70
     6
  9
$SURFTYPE
 70
     6
  9
$SURFU
 70
     6
  9
$SURFV
 70
     6
  9
$UCSBASE
  2

  9
$UCSNAME
  2

  9
$UCSORG
 10
0.0
 20
0.0
 30
0.0
  9
$UCSXDIR
 10
1.0
 20
0.0
 30
0.0
  9
$UCSYDIR
 10
0.0
 20
1.0
 30
0.0
  9
$UCSORTHOREF
  2

  9
$UCSORTHOVIEW
 70
     0
  9
$UCSORGTOP
 10
0.0
 20
0.0
 30
0.0
  9
$UCSORGBOTTOM
 10
0.0
 20
0.0
 30
0.0
  9
$UCSORGLEFT
 10
0.0
 20
0.0
 30
0.0
  9
$UCSORGRIGHT
 10
0.0
 20
0.0
 30
0.0
  9
$UCSORGFRONT
 10
0.0
 20
0.0
 30
0.0
  9
$UCSORGBACK
 10
0.0
 20
0.0
 30
0.0
  9
$PUCSBASE
  2

  9
$PUCSNAME
  2

  9
$PUCSORG
 10
0.0
 20
0.0
 30
0.0
  9
$PUCSXDIR
 10
1.0
 20
0.0
 30
0.0
  9
$PUCSYDIR
 10
0.0
 20
1.0
 30
0.0
  9
$PUCSORTHOREF
  2

  9
$PUCSORTHOVIEW
 70
     0
  9
$PUCSORGTOP
 10
0.0
 20
0.0
 30
0.0
  9
$PUCSORGBOTTOM
 10
0.0
 20
0.0
 30
0.0
  9
$PUCSORGLEFT
 10
0.0
 20
0.0
 30
0.0
  9
$PUCSORGRIGHT
 10
0.0
 20
0.0
 30
0.0
  9
$PUCSORGFRONT
 10
0.0
 20
0.0
 30
0.0
  9
$PUCSORGBACK
 10
0.0
 20
0.0
 30
0.0
  9
$USERI1
 70
     0
  9
$USERI2
 70
     0
  9
$USERI3
 70
     0
  9
$USERI4
 70
     0
  9
$USERI5
 70
     0
  9
$USERR1
 40
0.0
  9
$USERR2
 40
0.0
  9
$USERR3
 40
0.0
  9
$USERR4
 40
0.0
  9
$USERR5
 40
0.0
  9
$WORLDVIEW
 70
     1
  9
$SHADEDGE
 70
     3
  9
$SHADEDIF
 70
    70
  9
$TILEMODE
 70
     1
  9
$MAXACTVP
 70
    64
  9
$PINSBASE
 10
0.0
 20
0.0
 30
0.0
  9
$PLIMCHECK
 70
     0
  9
$PEXTMIN
 10
1.0000000000E+20
 20
1.0000000000E+20
 30
1.0000000000E+20
  9
$PEXTMAX
 10
-1.0000000000E+20
 20
-1.0000000000E+20
 30
-1.0000000000E+20
  9
$PLIMMIN
 10
0.0
 20
0.0
  9
$PLIMMAX
 10
420.0
 20
297.0
  9
$UNITMODE
 70
     0
  9
$VISRETAIN
 70
     1
  9
$PLINEGEN
 70
     0
  9
$PSLTSCALE
 70
     1
  9
$TREEDEPTH
 70
  3020
  9
$CMLSTYLE
  2
Standard
  9
$CMLJUST
 70
     0
  9
$CMLSCALE
 40
20.0
  9
$PROXYGRAPHICS
 70
     1
  9
$MEASUREMENT
 70
     1
  9
$CELWEIGHT
370
    -1
  9
$ENDCAPS
280
     0
  9
$JOINSTYLE
280
     0
  9
$LWDISPLAY
290
     1
  9
$INSUNITS
 70
     4
  9
$HYPERLINKBASE
  1

  9
$STYLESHEET
  1

  9
$XEDIT
290
     1
  9
$CEPSNTYPE
380
     0
  9
$PSTYLEMODE
290
     1
  9
$FINGERPRINTGUID
  2
{6923577F-743E-40D7-84F7-A2AEB27BCCE0}
  9
$VERSIONGUID
  2
{FAEB1C32-E019-11D5-929B-00C0DF256EC4}
  9
$EXTNAMES
290
     1
  9
$PSVPSCALE
 40
0.0
  9
$OLESTARTUP
290
     0
  0
ENDSEC
  0
SECTION
  2
CLASSES
  0
CLASS
  1
ACDBDICTIONARYWDFLT
  2
AcDbDictionaryWithDefault
  3
ObjectDBX Classes
 90
        0
280
     0
281
     0
  0
CLASS
  1
VISUALSTYLE
  2
AcDbVisualStyle
  3
ObjectDBX Classes
 90
     4095
280
     0
281
     0
  0
CLASS
  1
MATERIAL
  2
AcDbMaterial
  3
ObjectDBX Classes
 90
     1153
280
     0
281
     0
  0
CLASS
  1
SCALE
  2
AcDbScale
  3
ObjectDBX Classes
 90
     1153
280
     0
281
     0
  0
CLASS
  1
SUN
  2
AcDbSun
  3
SCENEOE
 90
     1153
280
     0
281
     0
  0
CLASS
  1
ACDBPLACEHOLDER
  2
AcDbPlaceHolder
  3
ObjectDBX Classes
 90
        0
280
     0
281
     0
  0
CLASS
  1
LAYOUT
  2
AcDbLayout
  3
ObjectDBX Classes
 90
        0
280
     0
281
     0
  0
ENDSEC
  0
SECTION
  2
TABLES
  0
TABLE
  2
VPORT
  5
8
330
0
100
AcDbSymbolTable
 70
     1
  0
VPORT
  5
29
330
8
100
AcDbSymbolTableRecord
100
AcDbViewportTableRecord
  2
*Active
 70
     0
 10
0.0
 20
0.0
 11
1.0
 21
1.0
 12
700.0
 22
500.0
 13
0.0
 23
0.0
 14
10.0
 24
10.0
 15
10.0
 25
10.0
 16
0.0
 26
0.0
 36
1.0
 17
0.0
 27
0.0
 37
0.0
 40
1000.0
 41
1.4
 42
50.0
 43
0.0
 44
0.0
 50
0.0
 51
0.0
 71
     0
 72
  2000
 73
     1
 74
     3
 75
     0
 76
     0
 77
     0
 78
     0
281
     0
 65
     1
110
0.0
120
0.0
130
0.0
111
1.0
121
0.0
131
0.0
112
0.0
122
1.0
132
0.0
 79
     0
146
0.0
  0
ENDTAB
  0
TABLE
  2
LTYPE
  5
5
330
0
100
AcDbSymbolTable
 70
     6
  0
LTYPE
  5
14
330
5
100
AcDbSymbolTableRecord
100
AcDbLinetypeTableRecord
  2
ByBlock
 70
     0
  3

 72
    65
 73
     0
 40
0.0
  0
LTYPE
  5
15
330
5
100
AcDbSymbolTableRecord
100
AcDbLinetypeTableRecord
  2
ByLayer
 70
     0
  3

 72
    65
 73
     0
 40
0.0
  0
LTYPE
  5
16
330
5
100
AcDbSymbolTableRecord
100
AcDbLinetypeTableRecord
  2
Continuous
 70
     0
  3
Solid line
 72
    65
 73
     0
 40
0.0
  0
LTYPE
  5
6A
330
5
100
AcDbSymbolTableRecord
100
AcDbLinetypeTableRecord
  2
HIDDEN
 70
     0
  3
Hidden __ __ __ __ __ __ __ __ __ __ __ __ __ __
 72
    65
 73
     2
 40
1.905
 49
1.27
 74
     0
 49
-0.635
 74
     0
  0
LTYPE
  5
6B
330
5
100
AcDbSymbolTableRecord
100
AcDbLinetypeTableRecord
  2
PHANTOM
 70
     0
  3
Phantom ______  __  __  ______  __  __  ______
 72
    65
 73
     6
 40
12.7
 49
6.35
 74
     0
 49
-1.27
 74
     0
 49
1.27
 74
     0
 49
-1.27
 74
     0
 49
1.27
 74
     0
 49
-1.27
 74
     0
  0
LTYPE
  5
6C
330
5
100
AcDbSymbolTableRecord
100
AcDbLinetypeTableRecord
  2
CENTER
 70
     0
  3
Center ____ _ ____ _ ____ _ ____ _ ____ _ ____
 72
    65
 73
     4
 40
10.16
 49
6.35
 74
     0
 49
-1.27
 74
     0
 49
1.27
 74
     0
 49
-1.27
 74
     0
  0
LTYPE
  5
6D
330
5
100
AcDbSymbolTableRecord
100
AcDbLinetypeTableRecord
  2
CENTERX2
 70
     0
  3
Center (2x) ________  __  ________  __  _____
 72
    65
 73
     4
 40
20.32
 49
12.7
 74
     0
 49
-2.54
 74
     0
 49
2.54
 74
     0
 49
-2.54
 74
     0
  0
LTYPE
  5
6E
330
5
100
AcDbSymbolTableRecord
100
AcDbLinetypeTableRecord
  2
DOT2
 70
     0
  3
Dot (.5x) ........................................
 72
    65
 73
     2
 40
0.635
 49
0.0
 74
     0
 49
-0.635
 74
     0
  0
ENDTAB
  0
TABLE
  2
LAYER
  5
2
330
0
100
AcDbSymbolTable
 70
     1
  0
LAYER
  5
10
330
2
100
AcDbSymbolTableRecord
100
AcDbLayerTableRecord
  2
0
 70
     0
 62
     7
  6
Continuous
370
    -3
390
F
  0
ENDTAB
  0
TABLE
  2
STYLE
  5
3
330
0
100
AcDbSymbolTable
 70
     1
  0
STYLE
  5
11
330
3
100
AcDbSymbolTableRecord
100
AcDbTextStyleTableRecord
  2
Standard
 70
     0
 40
0.0
 41
1.0
 50
0.0
 71
     0
 42
3.5
  3
txt
  4

  0
ENDTAB
  0
TABLE
  2
VIEW
  5
6
330
0
100
AcDbSymbolTable
 70
     0
  0
ENDTAB
  0
TABLE
  2
UCS
  5
7
330
0
100
AcDbSymbolTable
 70
     0
  0
ENDTAB
  0
TABLE
  2
APPID
  5
9
330
0
100
AcDbSymbolTable
 70
     1
  0
APPID
  5
12
330
9
100
AcDbSymbolTableRecord
100
AcDbRegAppTableRecord
  2
ACAD
 70
     0
  0
ENDTAB
  0
TABLE
  2
DIMSTYLE
  5
A
330
0
100
AcDbSymbolTable
 70
     1
100
AcDbDimStyleTable
  0
DIMSTYLE
105
27
330
A
100
AcDbSymbolTableRecord
100
AcDbDimStyleTableRecord
  2
ISO-25
 70
     0
 41
2.5
 42
0.625
 43
3.75
 44
1.25
 73
     0
 74
     0
 77
     1
 78
     8
140
2.5
141
2.5
143
0.0393700787
147
0.625
171
     3
172
     1
178
     0
271
     2
272
     2
274
     3
278
    44
283
     0
284
     8
340
11
  0
ENDTAB
  0
TABLE
  2
BLOCK_RECORD
  5
1
330
0
100
AcDbSymbolTable
 70
     1
  0
BLOCK_RECORD
  5
1F
330
1
100
AcDbSymbolTableRecord
100
AcDbBlockTableRecord
  2
*Model_Space
340
22
  0
BLOCK_RECORD
  5
1B
330
1
100
AcDbSymbolTableRecord
100
AcDbBlockTableRecord
  2
*Paper_Space
340
1E
  0
BLOCK_RECORD
  5
23
330
1
100
AcDbSymbolTableRecord
100
AcDbBlockTableRecord
  2
*Paper_Space0
340
26
  0
ENDTAB
  0
ENDSEC
  0
SECTION
  2
BLOCKS
  0
BLOCK
  5
20
330
1F
100
AcDbEntity
  8
0
100
AcDbBlockBegin
  2
*Model_Space
 70
     0
 10
0.0
 20
0.0
 30
0.0
  3
*Model_Space
  1
*Model_Space
  0
ENDBLK
  5
21
330
1F
100
AcDbEntity
  8
0
100
AcDbBlockEnd
  0
BLOCK
  5
1C
330
1B
100
AcDbEntity
 67
     1
  8
0
100
AcDbBlockBegin
  2
*Paper_Space
 70
     0
 10
0.0
 20
0.0
 30
0.0
  3
*Paper_Space
  1
*Paper_Space
  0
ENDBLK
  5
1D
330
1B
100
AcDbEntity
 67
     1
  8
0
100
AcDbBlockEnd
  0
BLOCK
  5
24
330
23
100
AcDbEntity
  8
0
100
AcDbBlockBegin
  2
*Paper_Space0
 70
     0
 10
0.0
 20
0.0
 30
0.0
  3
*Paper_Space0
  1
*Paper_Space0
  0
ENDBLK
  5
25
330
23
100
AcDbEntity
  8
0
100
AcDbBlockEnd
  0
ENDSEC
  0
SECTION
  2
ENTITIES
  0
LINE
  5
6F
330
1F
100
AcDbEntity
  8
0
  6
Continuous
 62
     7
370
    15
100
AcDbLine
 10
93.7465351843
 20
768.3563285748
 30
0.0
 11
103.7443723347
 21
768.2952077608
 31
0.0
  0
LINE
  5
70
330
1F
100
AcDbEntity
  8
0
  6
Continuous
 62
     7
370
    15
100
AcDbLine
 10
817.7443723347
 20
768.2952077608
 30
0.0
 11
827.742209485
 21
768.3563285748
 31
0.0
  0
ARC
  5
71
330
1F
100
AcDbEntity
  8
0
  6
Continuous
 62
     7
370
    15
100
AcDbCircle
 10
425.7443723347
 20
722.6785102046
 30
0.0
 40
0.5000000000001137
100
AcDbArc
 50
90.0
 51
180.0
  0
ARC
  5
72
330
1F
100
AcDbEntity
  8
0
  6
Continuous
 62
     7
370
    15
100
AcDbCircle
 10
495.7443723347
 20
722.6785102046
 30
0.0
 40
0.5000000000001137
100
AcDbArc
 50
0.0
 51
90.0
  0
ARC
  5
73
330
1F
100
AcDbEntity
  8
0
  6
Continuous
 62
     7
370
    15
100
AcDbCircle
 10
425.7443723347
 20
705.6785102046
 30
0.0
 40
0.5000000000001137
100
AcDbArc
 50
180.0
 51
270.0
  0
ARC
  5
74
330
1F
100
AcDbEntity
  8
0
  6
Continuous
 62
     7
370
    15
100
AcDbCircle
 10
495.7443723347
 20
705.6785102046
 30
0.0
 40
0.5000000000001137
100
AcDbArc
 50
270.0
 51
0.0
  0
LINE
  5
75
330
1F
100
AcDbEntity
  8
0
  6
Continuous
 62
     7
370
    15
100
AcDbLine
 10
425.2443723347
 20
722.6785102046
 30
0.0
 11
425.2443723347
 21
705.6785102046
 31
0.0
  0
LINE
  5
76
330
1F
100
AcDbEntity
  8
0
  6
Continuous
 62
     7
370
    15
100
AcDbLine
 10
496.2443723347
 20
705.6785102046
 30
0.0
 11
496.2443723347
 21
722.6785102046
 31
0.0
  0
LINE
  5
77
330
1F
100
AcDbEntity
  8
0
  6
Continuous
 62
     7
370
    15
100
AcDbLine
 10
481.6993723347
 20
675.1810823239
 30
0.0
 11
481.6993723347
 21
705.1785102046
 31
0.0
  0
LINE
  5
78
330
1F
100
AcDbEntity
  8
0
  6
Continuous
 62
     7
370
    15
100
AcDbLine
 10
481.6993723347
 20
723.1785102046
 30
0.0
 11
481.6993723347
 21
752.8563417972
 31
0.0
  0
LINE
  5
79
330
1F
100
AcDbEntity
  8
0
  6
Continuous
 62
     7
370
    15
100
AcDbLine
 10
439.7893723347
 20
752.8563417972
 30
0.0
 11
439.7893723347
 21
723.1785102046
 31
0.0
  0
LINE
  5
7A
330
1F
100
AcDbEntity
  8
0
  6
Continuous
 62
     7
370
    15
100
AcDbLine
 10
439.7893723347
 20
705.1785102046
 30
0.0
 11
439.7893723347
 21
675.1810823239
 31
0.0
  0
LINE
  5
7B
330
1F
100
AcDbEntity
  8
0
  6
Continuous
 62
     7
370
    15
100
AcDbLine
 10
480.2193723347
 20
674.1810823239
 30
0.0
 11
480.2193723347
 21
675.1810823239
 31
0.0
  0
LINE
  5
7C
330
1F
100
AcDbEntity
  8
0
  6
Continuous
 62
     7
370
    15
100
AcDbLine
 10
441.2693723347
 20
675.1810823239
 30
0.0
 11
441.2693723347
 21
674.1810823239
 31
0.0
  0
LINE
  5
7D
330
1F
100
AcDbEntity
  8
0
  6
Continuous
 62
     7
370
    15
100
AcDbLine
 10
802.7443723347
 20
752.8563417972
 30
0.0
 11
118.7443723347
 21
752.8563417972
 31
0.0
  0
LINE
  5
7E
330
1F
100
AcDbEntity
  8
0
  6
Continuous
 62
     7
370
    15
100
AcDbLine
 10
118.7443723347
 20
752.8563417972
 30
0.0
 11
118.7443723347
 21
753.1063417972
 31
0.0
  0
LINE
  5
7F
330
1F
100
AcDbEntity
  8
0
  6
Continuous
 62
     7
370
    15
100
AcDbLine
 10
118.7443723347
 20
753.1063417972
 30
0.0
 11
802.7443723347
 21
753.1063417972
 31
0.0
  0
LINE
  5
80
330
1F
100
AcDbEntity
  8
0
  6
Continuous
 62
     7
370
    15
100
AcDbLine
 10
802.7443723347
 20
753.1063417972
 30
0.0
 11
802.7443723347
 21
752.8563417972
 31
0.0
  0
LINE
  5
81
330
1F
100
AcDbEntity
  8
0
  6
Continuous
 62
     7
370
    15
100
AcDbLine
 10
118.7443723347
 20
753.3563417972
 30
0.0
 11
118.7443723347
 21
753.1063417972
 31
0.0
  0
LINE
  5
82
330
1F
100
AcDbEntity
  8
0
  6
Continuous
 62
     7
370
    15
100
AcDbLine
 10
802.7443723347
 20
753.3563417972
 30
0.0
 11
802.7443723347
 21
753.1063417972
 31
0.0
  0
LINE
  5
83
330
1F
100
AcDbEntity
  8
0
  6
Continuous
 62
     7
370
    15
100
AcDbLine
 10
817.7443723347
 20
768.2959151909
 30
0.0
 11
817.7443723347
 21
753.3563417972
 31
0.0
  0
LINE
  5
84
330
1F
100
AcDbEntity
  8
0
  6
Continuous
 62
     7
370
    15
100
AcDbLine
 10
103.7443723347
 20
753.3563417972
 30
0.0
 11
817.7443723347
 21
753.3563417972
 31
0.0
  0
LINE
  5
85
330
1F
100
AcDbEntity
  8
0
  6
Continuous
 62
     7
370
    15
100
AcDbLine
 10
103.7443723347
 20
768.2959151909
 30
0.0
 11
103.7443723347
 21
753.3563417972
 31
0.0
  0
LINE
  5
86
330
1F
100
AcDbEntity
  8
0
  6
Continuous
 62
     7
370
    15
100
AcDbLine
 10
90.7443723347
 20
866.8563417972
 30
0.0
 11
90.7443723347
 21
868.3563417972
 31
0.0
  0
LINE
  5
87
330
1F
100
AcDbEntity
  8
0
  6
Continuous
 62
     7
370
    15
100
AcDbLine
 10
90.7443723347
 20
868.3563417972
 30
0.0
 11
830.7443723347
 21
868.3563417972
 31
0.0
  0
LINE
  5
88
330
1F
100
AcDbEntity
  8
0
  6
Continuous
 62
     7
370
    15
100
AcDbLine
 10
830.7443723347
 20
866.8563417972
 30
0.0
 11
830.7443723347
 21
868.3563417972
 31
0.0
  0
LINE
  5
89
330
1F
100
AcDbEntity
  8
0
  6
Continuous
 62
     7
370
    15
100
AcDbLine
 10
830.7443723347
 20
866.8563417972
 30
0.0
 11
90.7443723347
 21
866.8563417972
 31
0.0
  0
ARC
  5
8A
330
1F
100
AcDbEntity
  8
0
  6
Continuous
 62
     7
370
    15
100
AcDbCircle
 10
830.7443723347
 20
773.3563417972
 30
0.0
 40
5.000000000000114
100
AcDbArc
 50
270.0
 51
0.0
  0
LINE
  5
8B
330
1F
100
AcDbEntity
  8
0
  6
Continuous
 62
     7
370
    15
100
AcDbLine
 10
830.7443723347
 20
773.3563417972
 30
0.0
 11
830.7443723347
 21
768.3563417972
 31
0.0
  0
LINE
  5
8C
330
1F
100
AcDbEntity
  8
0
  6
Continuous
 62
     7
370
    15
100
AcDbLine
 10
830.7443723347
 20
773.3563417972
 30
0.0
 11
835.7443723347
 21
773.3563417972
 31
0.0
  0
LINE
  5
8D
330
1F
100
AcDbEntity
  8
0
  6
Continuous
 62
     7
370
    15
100
AcDbLine
 10
90.7443723347
 20
773.3563417972
 30
0.0
 11
830.7443723347
 21
773.3563417972
 31
0.0
  0
LINE
  5
8E
330
1F
100
AcDbEntity
  8
0
  6
Continuous
 62
     7
370
    15
100
AcDbLine
 10
90.7443723347
 20
866.8563417972
 30
0.0
 11
90.7443723347
 21
773.3563417972
 31
0.0
  0
LINE
  5
8F
330
1F
100
AcDbEntity
  8
0
  6
Continuous
 62
     7
370
    15
100
AcDbLine
 10
830.7443723347
 20
866.8563417972
 30
0.0
 11
830.7443723347
 21
773.3563417972
 31
0.0
  0
LINE
  5
90
330
1F
100
AcDbEntity
  8
0
  6
Continuous
 62
     7
370
    15
100
AcDbLine
 10
835.7443723347
 20
866.8563417972
 30
0.0
 11
830.7443723347
 21
866.8563417972
 31
0.0
  0
LINE
  5
91
330
1F
100
AcDbEntity
  8
0
  6
Continuous
 62
     7
370
    15
100
AcDbLine
 10
835.7443723347
 20
866.8563417972
 30
0.0
 11
835.7443723347
 21
773.3563417972
 31
0.0
  0
LINE
  5
92
330
1F
100
AcDbEntity
  8
0
  6
Continuous
 62
     7
370
    15
100
AcDbLine
 10
830.7443723347
 20
868.3563417972
 30
0.0
 11
834.2443723347
 21
868.3563417972
 31
0.0
  0
ARC
  5
93
330
1F
100
AcDbEntity
  8
0
  6
Continuous
 62
     7
370
    15
100
AcDbCircle
 10
834.2443723347
 20
866.8563417972
 30
0.0
 40
1.5
100
AcDbArc
 50
0.0
 51
90.0
  0
LINE
  5
94
330
1F
100
AcDbEntity
  8
0
  6
Continuous
 62
     7
370
    15
100
AcDbLine
 10
830.7443723347
 20
768.3563417972
 30
0.0
 11
90.7443723347
 21
768.3563417972
 31
0.0
  0
LINE
  5
95
330
1F
100
AcDbEntity
  8
0
  6
Continuous
 62
     7
370
    15
100
AcDbLine
 10
90.7443723347
 20
773.3563417972
 30
0.0
 11
90.7443723347
 21
768.3563417972
 31
0.0
  0
ARC
  5
96
330
1F
100
AcDbEntity
  8
0
  6
Continuous
 62
     7
370
    15
100
AcDbCircle
 10
87.2443723347
 20
866.8563417972
 30
0.0
 40
1.500000000000114
100
AcDbArc
 50
90.0
 51
180.0
  0
LINE
  5
97
330
1F
100
AcDbEntity
  8
0
  6
Continuous
 62
     7
370
    15
100
AcDbLine
 10
87.2443723347
 20
868.3563417972
 30
0.0
 11
90.7443723347
 21
868.3563417972
 31
0.0
  0
LINE
  5
98
330
1F
100
AcDbEntity
  8
0
  6
Continuous
 62
     7
370
    15
100
AcDbLine
 10
90.7443723347
 20
866.8563417972
 30
0.0
 11
85.7443723347
 21
866.8563417972
 31
0.0
  0
LINE
  5
99
330
1F
100
AcDbEntity
  8
0
  6
Continuous
 62
     7
370
    15
100
AcDbLine
 10
85.7443723347
 20
773.3563417972
 30
0.0
 11
90.7443723347
 21
773.3563417972
 31
0.0
  0
ARC
  5
9A
330
1F
100
AcDbEntity
  8
0
  6
Continuous
 62
     7
370
    15
100
AcDbCircle
 10
90.7443723347
 20
773.3563417972
 30
0.0
 40
5.0
100
AcDbArc
 50
180.0
 51
270.0
  0
LINE
  5
9B
330
1F
100
AcDbEntity
  8
0
  6
Continuous
 62
     7
370
    15
100
AcDbLine
 10
85.7443723347
 20
866.8563417972
 30
0.0
 11
85.7443723347
 21
773.3563417972
 31
0.0
  0
SPLINE
  5
9C
330
1F
100
AcDbEntity
  8
0
  6
Continuous
 62
     7
370
    15
100
AcDbSpline
210
0.0
220
0.0
230
1.0
 70
    24
 71
     3
 72
    34
 73
    30
 74
     0
 42
0.000000001
 43
0.00000001
 40
0.0
 40
0.0
 40
0.0
 40
0.0
 40
0.0266247109464786
 40
0.070096641766617
 40
0.1040860820975693
 40
0.1380704594465212
 40
0.1727831325950514
 40
0.2074906350284504
 40
0.2422033080292981
 40
0.2769108103146752
 40
0.3109002502378012
 40
0.344884627179457
 40
0.3883610434382288
 40
0.43064783139132
 40
0.4716604289929374
 40
0.512677569838176
 40
0.5549642989485061
 40
0.5984362297699749
 40
0.6324256700993914
 40
0.6664100474498903
 40
0.7011227205981916
 40
0.735830223031822
 40
0.7705428960322068
 40
0.8052503983180419
 40
0.8392398382407099
 40
0.8732242151828284
 40
0.9167006314416114
 40
0.9589851339870435
 40
1.0
 40
1.0
 40
1.0
 40
1.0
 10
495.680147148281
 20
723.1785102046113
 30
0.0
 10
495.6843716464178
 20
723.1785102046113
 30
0.0
 10
495.6954937627528
 20
723.1785102046113
 30
0.0
 10
495.1176816754577
 20
723.1785102046113
 30
0.0
 10
494.1421636657037
 20
723.1785102046113
 30
0.0
 10
492.881319793266
 20
723.1785102046113
 30
0.0
 10
491.2825756103776
 20
723.1785102046113
 30
0.0
 10
489.3439539376768
 20
723.1785102046113
 30
0.0
 10
487.1039170132277
 20
723.1785102046113
 30
0.0
 10
484.5985931610781
 20
723.1785102046113
 30
0.0
 10
481.8653796861919
 20
723.1785102046113
 30
0.0
 10
478.6620067088803
 20
723.1785102046113
 30
0.0
 10
474.9712368853785
 20
723.1785102046113
 30
0.0
 10
470.8368457299968
 20
723.1785102046113
 30
0.0
 10
466.6296647059736
 20
723.1785102046113
 30
0.0
 10
462.3342948628004
 20
723.1785102046113
 30
0.0
 10
457.9283542320519
 20
723.1785102046113
 30
0.0
 10
453.8080933358174
 20
723.1785102046113
 30
0.0
 10
450.0670017336595
 20
723.1785102046113
 30
0.0
 10
446.7300485274916
 20
723.1785102046113
 30
0.0
 10
443.5148928571813
 20
723.1785102046113
 30
0.0
 10
440.4618161122663
 20
723.1785102046113
 30
0.0
 10
437.6229876406589
 20
723.1785102046113
 30
0.0
 10
435.0497466699543
 20
723.1785102046113
 30
0.0
 10
432.7600999359577
 20
723.1785102046113
 30
0.0
 10
430.5869919506937
 20
723.1785102046113
 30
0.0
 10
428.66851290484
 20
723.1785102046113
 30
0.0
 10
427.1136037271215
 20
723.1785102046113
 30
0.0
 10
426.5284133092385
 20
723.1785102046113
 30
0.0
 10
426.2402777927643
 20
723.1785102046113
 30
0.0
  0
SPLINE
  5
9D
330
1F
100
AcDbEntity
  8
0
  6
Continuous
 62
     7
370
    15
100
AcDbSpline
210
0.0
220
0.0
230
1.0
 70
    24
 71
     3
 72
    34
 73
    30
 74
     0
 42
0.000000001
 43
0.00000001
 40
0.0
 40
0.0
 40
0.0
 40
0.0
 40
0.0410148660130496
 40
0.0832993685594407
 40
0.1267757848163369
 40
0.1607601617587312
 40
0.1947496016806593
 40
0.2294571039663241
 40
0.2641697769664249
 40
0.2988772794000737
 40
0.3335899525478891
 40
0.3675743298983551
 40
0.4015637702273567
 40
0.4450357010494472
 40
0.4873224301596997
 40
0.5283395710035526
 40
0.5693521686057235
 40
0.6116389565588334
 40
0.655115372816192
 40
0.689099749758407
 40
0.7230891896805114
 40
0.7577966919655604
 40
0.7925093649662753
 40
0.8272168673993101
 40
0.8619295405477413
 40
0.8959139178968653
 40
0.9299033582271998
 40
0.9733752890480026
 40
1.0
 40
1.0
 40
1.0
 40
1.0
 10
426.2402778346424
 20
705.1785102046111
 30
0.0
 10
426.5284133507618
 20
705.1785102046111
 30
0.0
 10
427.1136037679305
 20
705.1785102046111
 30
0.0
 10
428.6685129438171
 20
705.1785102046111
 30
0.0
 10
430.5869919873261
 20
705.1785102046111
 30
0.0
 10
432.7600999699504
 20
705.1785102046111
 30
0.0
 10
435.049746701152
 20
705.1785102046111
 30
0.0
 10
437.6229876687161
 20
705.1785102046111
 30
0.0
 10
440.4618161368925
 20
705.1785102046111
 30
0.0
 10
443.5148928781047
 20
705.1785102046111
 30
0.0
 10
446.7300485445151
 20
705.1785102046111
 30
0.0
 10
450.0670017466229
 20
705.1785102046111
 30
0.0
 10
453.8080933442741
 20
705.1785102046111
 30
0.0
 10
457.9283542355386
 20
705.1785102046111
 30
0.0
 10
462.3342948609408
 20
705.1785102046111
 30
0.0
 10
466.6296646988966
 20
705.1785102046111
 30
0.0
 10
470.8368457178139
 20
705.1785102046111
 30
0.0
 10
474.9712368681721
 20
705.1785102046111
 30
0.0
 10
478.6620066871934
 20
705.1785102046111
 30
0.0
 10
481.8653796605685
 20
705.1785102046111
 30
0.0
 10
484.5985931321453
 20
705.1785102046111
 30
0.0
 10
487.1039169812329
 20
705.1785102046111
 30
0.0
 10
489.3439539029606
 20
705.1785102046111
 30
0.0
 10
491.2825755733094
 20
705.1785102046111
 30
0.0
 10
492.881319754263
 20
705.1785102046111
 30
0.0
 10
494.1421636251834
 20
705.1785102046111
 30
0.0
 10
495.1176816337461
 20
705.1785102046111
 30
0.0
 10
495.6954937203682
 20
705.1785102046111
 30
0.0
 10
495.6843716040273
 20
705.1785102046111
 30
0.0
 10
495.6801471058879
 20
705.1785102046111
 30
0.0
  0
LINE
  5
9E
330
1F
100
AcDbEntity
  8
0
  6
Continuous
 62
     7
370
    15
100
AcDbLine
 10
439.7893723347
 20
675.1810823239
 30
0.0
 11
481.6993723347
 21
675.1810823239
 31
0.0
  0
LINE
  5
9F
330
1F
100
AcDbEntity
  8
0
  6
Continuous
 62
     7
370
    15
100
AcDbLine
 10
441.2693723347
 20
674.1810823239
 30
0.0
 11
480.2193723347
 21
674.1810823239
 31
0.0
  0
LINE
  5
A0
330
1F
100
AcDbEntity
  8
0
  6
Continuous
 62
     8
370
    15
100
AcDbLine
 10
807.2986898834
 20
768.2328784174
 30
0.0
 11
827.7443723347
 21
768.3563417972
 31
0.0
  0
LINE
  5
A1
330
1F
100
AcDbEntity
  8
0
  6
Continuous
 62
     8
370
    15
100
AcDbLine
 10
93.7443723347
 20
768.3563417972
 30
0.0
 11
114.1900547859
 21
768.2328784174
 31
0.0
  0
LINE
  5
A2
330
1F
100
AcDbEntity
  8
0
  6
Continuous
 62
     8
370
    15
100
AcDbLine
 10
496.2443723347
 20
722.6785102046
 30
0.0
 11
425.2443723347
 21
722.6785102046
 31
0.0
  0
LINE
  5
A3
330
1F
100
AcDbEntity
  8
0
  6
Continuous
 62
     8
370
    15
100
AcDbLine
 10
425.2443723347
 20
705.6785102046
 30
0.0
 11
496.2443723347
 21
705.6785102046
 31
0.0
  0
LINE
  5
A4
330
1F
100
AcDbEntity
  8
0
  6
Continuous
 62
     7
370
    15
100
AcDbLine
 10
941.1621636193
 20
768.3563108245
 30
0.0
 11
951.160000951
 21
768.2131266164
 31
0.0
  0
LINE
  5
A5
330
1F
100
AcDbEntity
  8
0
  6
Continuous
 62
     7
370
    15
100
AcDbLine
 10
1290.160000951
 20
768.2131266164
 30
0.0
 11
1300.1578382827
 21
768.3563108245
 31
0.0
  0
ARC
  5
A6
330
1F
100
AcDbEntity
  8
0
  6
Continuous
 62
     7
370
    15
100
AcDbCircle
 10
1085.660000951
 20
722.6785102046
 30
0.0
 40
0.5000000000002274
100
AcDbArc
 50
90.0
 51
180.0
  0
ARC
  5
A7
330
1F
100
AcDbEntity
  8
0
  6
Continuous
 62
     7
370
    15
100
AcDbCircle
 10
1155.660000951
 20
722.6785102046
 30
0.0
 40
0.5000000000002274
100
AcDbArc
 50
0.0
 51
90.0
  0
ARC
  5
A8
330
1F
100
AcDbEntity
  8
0
  6
Continuous
 62
     7
370
    15
100
AcDbCircle
 10
1085.660000951
 20
705.6785102046
 30
0.0
 40
0.5000000000002274
100
AcDbArc
 50
180.0
 51
270.0
  0
ARC
  5
A9
330
1F
100
AcDbEntity
  8
0
  6
Continuous
 62
     7
370
    15
100
AcDbCircle
 10
1155.660000951
 20
705.6785102046
 30
0.0
 40
0.5000000000002274
100
AcDbArc
 50
270.0
 51
0.0
  0
LINE
  5
AA
330
1F
100
AcDbEntity
  8
0
  6
Continuous
 62
     7
370
    15
100
AcDbLine
 10
1085.160000951
 20
722.6785102046
 30
0.0
 11
1085.160000951
 21
705.6785102046
 31
0.0
  0
LINE
  5
AB
330
1F
100
AcDbEntity
  8
0
  6
Continuous
 62
     7
370
    15
100
AcDbLine
 10
1156.160000951
 20
705.6785102046
 30
0.0
 11
1156.160000951
 21
722.6785102046
 31
0.0
  0
LINE
  5
AC
330
1F
100
AcDbEntity
  8
0
  6
Continuous
 62
     7
370
    15
100
AcDbLine
 10
1141.615000951
 20
675.1810823239
 30
0.0
 11
1141.615000951
 21
705.1785102046
 31
0.0
  0
LINE
  5
AD
330
1F
100
AcDbEntity
  8
0
  6
Continuous
 62
     7
370
    15
100
AcDbLine
 10
1141.615000951
 20
723.1785102046
 30
0.0
 11
1141.615000951
 21
752.8563417972
 31
0.0
  0
LINE
  5
AE
330
1F
100
AcDbEntity
  8
0
  6
Continuous
 62
     7
370
    15
100
AcDbLine
 10
1099.705000951
 20
752.8563417972
 30
0.0
 11
1099.705000951
 21
723.1785102046
 31
0.0
  0
LINE
  5
AF
330
1F
100
AcDbEntity
  8
0
  6
Continuous
 62
     7
370
    15
100
AcDbLine
 10
1099.705000951
 20
705.1785102046
 30
0.0
 11
1099.705000951
 21
675.1810823239
 31
0.0
  0
LINE
  5
B0
330
1F
100
AcDbEntity
  8
0
  6
Continuous
 62
     7
370
    15
100
AcDbLine
 10
1140.135000951
 20
674.1810823239
 30
0.0
 11
1140.135000951
 21
675.1810823239
 31
0.0
  0
LINE
  5
B1
330
1F
100
AcDbEntity
  8
0
  6
Continuous
 62
     7
370
    15
100
AcDbLine
 10
1101.185000951
 20
675.1810823239
 30
0.0
 11
1101.185000951
 21
674.1810823239
 31
0.0
  0
LINE
  5
B2
330
1F
100
AcDbEntity
  8
0
  6
Continuous
 62
     7
370
    15
100
AcDbLine
 10
1275.160000951
 20
753.3563417972
 30
0.0
 11
1275.160000951
 21
753.1063417972
 31
0.0
  0
ARC
  5
B3
330
1F
100
AcDbEntity
  8
0
  6
Continuous
 62
     7
370
    15
100
AcDbCircle
 10
1274.910000951
 20
753.1063417972
 30
0.0
 40
0.2500000000001137
100
AcDbArc
 50
270.0
 51
0.0
  0
LINE
  5
B4
330
1F
100
AcDbEntity
  8
0
  6
Continuous
 62
     7
370
    15
100
AcDbLine
 10
1274.910000951
 20
752.8563417972
 30
0.0
 11
1265.410000951
 21
752.8563417972
 31
0.0
  0
LINE
  5
B5
330
1F
100
AcDbEntity
  8
0
  6
Continuous
 62
     7
370
    15
100
AcDbLine
 10
1265.160000951
 20
753.1063417972
 30
0.0
 11
1265.160000951
 21
753.3563417972
 31
0.0
  0
ARC
  5
B6
330
1F
100
AcDbEntity
  8
0
  6
Continuous
 62
     7
370
    15
100
AcDbCircle
 10
1265.410000951
 20
753.1063417972
 30
0.0
 40
0.2500000000001137
100
AcDbArc
 50
180.0
 51
270.0
  0
LINE
  5
B7
330
1F
100
AcDbEntity
  8
0
  6
Continuous
 62
     7
370
    15
100
AcDbLine
 10
976.160000951
 20
753.3563417972
 30
0.0
 11
976.160000951
 21
753.1063417972
 31
0.0
  0
ARC
  5
B8
330
1F
100
AcDbEntity
  8
0
  6
Continuous
 62
     7
370
    15
100
AcDbCircle
 10
975.910000951
 20
753.1063417972
 30
0.0
 40
0.2500000000001137
100
AcDbArc
 50
270.0
 51
0.0
  0
LINE
  5
B9
330
1F
100
AcDbEntity
  8
0
  6
Continuous
 62
     7
370
    15
100
AcDbLine
 10
975.910000951
 20
752.8563417972
 30
0.0
 11
966.410000951
 21
752.8563417972
 31
0.0
  0
ARC
  5
BA
330
1F
100
AcDbEntity
  8
0
  6
Continuous
 62
     7
370
    15
100
AcDbCircle
 10
966.410000951
 20
753.1063417972
 30
0.0
 40
0.2500000000001137
100
AcDbArc
 50
180.0
 51
270.0
  0
LINE
  5
BB
330
1F
100
AcDbEntity
  8
0
  6
Continuous
 62
     7
370
    15
100
AcDbLine
 10
966.160000951
 20
753.1063417972
 30
0.0
 11
966.160000951
 21
753.3563417972
 31
0.0
  0
LINE
  5
BC
330
1F
100
AcDbEntity
  8
0
  6
Continuous
 62
     7
370
    15
100
AcDbLine
 10
951.160000951
 20
768.2959151909
 30
0.0
 11
951.160000951
 21
753.3563417972
 31
0.0
  0
LINE
  5
BD
330
1F
100
AcDbEntity
  8
0
  6
Continuous
 62
     7
370
    15
100
AcDbLine
 10
1290.160000951
 20
768.2959151909
 30
0.0
 11
1290.160000951
 21
753.3563417972
 31
0.0
  0
LINE
  5
BE
330
1F
100
AcDbEntity
  8
0
  6
Continuous
 62
     7
370
    15
100
AcDbLine
 10
933.160000951
 20
773.3563417972
 30
0.0
 11
938.160000951
 21
773.3563417972
 31
0.0
  0
LINE
  5
BF
330
1F
100
AcDbEntity
  8
0
  6
Continuous
 62
     7
370
    15
100
AcDbLine
 10
933.160000951
 20
866.8563417972
 30
0.0
 11
933.160000951
 21
773.3563417972
 31
0.0
  0
LINE
  5
C0
330
1F
100
AcDbEntity
  8
0
  6
Continuous
 62
     7
370
    15
100
AcDbLine
 10
938.160000951
 20
866.8563417972
 30
0.0
 11
933.160000951
 21
866.8563417972
 31
0.0
  0
LINE
  5
C1
330
1F
100
AcDbEntity
  8
0
  6
Continuous
 62
     7
370
    15
100
AcDbLine
 10
938.160000951
 20
866.8563417972
 30
0.0
 11
938.160000951
 21
773.3563417972
 31
0.0
  0
ARC
  5
C2
330
1F
100
AcDbEntity
  8
0
  6
Continuous
 62
     7
370
    15
100
AcDbCircle
 10
934.660000951
 20
866.8563417972
 30
0.0
 40
1.5
100
AcDbArc
 50
90.0
 51
180.0
  0
LINE
  5
C3
330
1F
100
AcDbEntity
  8
0
  6
Continuous
 62
     7
370
    15
100
AcDbLine
 10
934.660000951
 20
868.3563417972
 30
0.0
 11
938.160000951
 21
868.3563417972
 31
0.0
  0
LINE
  5
C4
330
1F
100
AcDbEntity
  8
0
  6
Continuous
 62
     7
370
    15
100
AcDbLine
 10
938.160000951
 20
866.8563417972
 30
0.0
 11
938.160000951
 21
868.3563417972
 31
0.0
  0
ARC
  5
C5
330
1F
100
AcDbEntity
  8
0
  6
Continuous
 62
     7
370
    15
100
AcDbCircle
 10
938.160000951
 20
773.3563417972
 30
0.0
 40
5.0
100
AcDbArc
 50
180.0
 51
270.0
  0
LINE
  5
C6
330
1F
100
AcDbEntity
  8
0
  6
Continuous
 62
     7
370
    15
100
AcDbLine
 10
938.160000951
 20
768.3563417972
 30
0.0
 11
938.160000951
 21
773.3563417972
 31
0.0
  0
LINE
  5
C7
330
1F
100
AcDbEntity
  8
0
  6
Continuous
 62
     7
370
    15
100
AcDbLine
 10
938.160000951
 20
868.3563417972
 30
0.0
 11
1303.160000951
 21
868.3563417972
 31
0.0
  0
LINE
  5
C8
330
1F
100
AcDbEntity
  8
0
  6
Continuous
 62
     7
370
    15
100
AcDbLine
 10
1303.160000951
 20
866.8563417972
 30
0.0
 11
1303.160000951
 21
868.3563417972
 31
0.0
  0
LINE
  5
C9
330
1F
100
AcDbEntity
  8
0
  6
Continuous
 62
     7
370
    15
100
AcDbLine
 10
1303.160000951
 20
866.8563417972
 30
0.0
 11
938.160000951
 21
866.8563417972
 31
0.0
  0
LINE
  5
CA
330
1F
100
AcDbEntity
  8
0
  6
Continuous
 62
     7
370
    15
100
AcDbLine
 10
938.160000951
 20
773.3563417972
 30
0.0
 11
1303.160000951
 21
773.3563417972
 31
0.0
  0
LINE
  5
CB
330
1F
100
AcDbEntity
  8
0
  6
Continuous
 62
     7
370
    15
100
AcDbLine
 10
1303.160000951
 20
866.8563417972
 30
0.0
 11
1303.160000951
 21
773.3563417972
 31
0.0
  0
LINE
  5
CC
330
1F
100
AcDbEntity
  8
0
  6
Continuous
 62
     7
370
    15
100
AcDbLine
 10
1303.160000951
 20
768.3563417972
 30
0.0
 11
938.160000951
 21
768.3563417972
 31
0.0
  0
LINE
  5
CD
330
1F
100
AcDbEntity
  8
0
  6
Continuous
 62
     7
370
    15
100
AcDbLine
 10
1303.160000951
 20
768.3563417972
 30
0.0
 11
1303.160000951
 21
773.3563417972
 31
0.0
  0
LINE
  5
CE
330
1F
100
AcDbEntity
  8
0
  6
Continuous
 62
     7
370
    15
100
AcDbLine
 10
1303.160000951
 20
773.3563417972
 30
0.0
 11
1308.160000951
 21
773.3563417972
 31
0.0
  0
LINE
  5
CF
330
1F
100
AcDbEntity
  8
0
  6
Continuous
 62
     7
370
    15
100
AcDbLine
 10
1308.160000951
 20
866.8563417972
 30
0.0
 11
1303.160000951
 21
866.8563417972
 31
0.0
  0
LINE
  5
D0
330
1F
100
AcDbEntity
  8
0
  6
Continuous
 62
     7
370
    15
100
AcDbLine
 10
1308.160000951
 20
866.8563417972
 30
0.0
 11
1308.160000951
 21
773.3563417972
 31
0.0
  0
LINE
  5
D1
330
1F
100
AcDbEntity
  8
0
  6
Continuous
 62
     7
370
    15
100
AcDbLine
 10
1303.160000951
 20
868.3563417972
 30
0.0
 11
1306.660000951
 21
868.3563417972
 31
0.0
  0
ARC
  5
D2
330
1F
100
AcDbEntity
  8
0
  6
Continuous
 62
     7
370
    15
100
AcDbCircle
 10
1306.660000951
 20
866.8563417972
 30
0.0
 40
1.500000000000114
100
AcDbArc
 50
0.0
 51
90.0
  0
ARC
  5
D3
330
1F
100
AcDbEntity
  8
0
  6
Continuous
 62
     7
370
    15
100
AcDbCircle
 10
1303.160000951
 20
773.3563417972
 30
0.0
 40
5.0
100
AcDbArc
 50
270.0
 51
0.0
  0
LINE
  5
D4
330
1F
100
AcDbEntity
  8
0
  6
Continuous
 62
     7
370
    15
100
AcDbLine
 10
1300.160000951
 20
768.3563417972
 30
0.0
 11
1300.1580581836
 21
768.3563178112
 31
0.0
  0
LINE
  5
D5
330
1F
100
AcDbEntity
  8
0
  6
Continuous
 62
     7
370
    15
100
AcDbLine
 10
941.160000951
 20
768.3563417972
 30
0.0
 11
941.1619437184
 21
768.3563178112
 31
0.0
  0
LINE
  5
D6
330
1F
100
AcDbEntity
  8
0
  6
Continuous
 62
     7
370
    15
100
AcDbLine
 10
976.160000951
 20
753.1063417972
 30
0.0
 11
1265.160000951
 21
753.1063417972
 31
0.0
  0
LINE
  5
D7
330
1F
100
AcDbEntity
  8
0
  6
Continuous
 62
     7
370
    15
100
AcDbLine
 10
1265.160000951
 20
753.1063417972
 30
0.0
 11
1265.160000951
 21
752.8563417972
 31
0.0
  0
LINE
  5
D8
330
1F
100
AcDbEntity
  8
0
  6
Continuous
 62
     7
370
    15
100
AcDbLine
 10
1265.160000951
 20
752.8563417972
 30
0.0
 11
976.160000951
 21
752.8563417972
 31
0.0
  0
LINE
  5
D9
330
1F
100
AcDbEntity
  8
0
  6
Continuous
 62
     7
370
    15
100
AcDbLine
 10
976.160000951
 20
752.8563417972
 30
0.0
 11
976.160000951
 21
753.1063417972
 31
0.0
  0
LINE
  5
DA
330
1F
100
AcDbEntity
  8
0
  6
Continuous
 62
     7
370
    15
100
AcDbLine
 10
951.160000951
 20
753.3563417972
 30
0.0
 11
1290.160000951
 21
753.3563417972
 31
0.0
  0
SPLINE
  5
DB
330
1F
100
AcDbEntity
  8
0
  6
Continuous
 62
     7
370
    15
100
AcDbSpline
210
0.0
220
0.0
230
1.0
 70
    24
 71
     3
 72
    23
 73
    19
 74
     0
 42
0.000000001
 43
0.00000001
 40
0.0
 40
0.0
 40
0.0
 40
0.0
 40
0.0701125238375303
 40
0.1423952144818088
 40
0.216703826029796
 40
0.2748035715583794
 40
0.3328946626942166
 40
0.3922306640201905
 40
0.4515578268001219
 40
0.510893827873655
 40
0.5702209904005656
 40
0.6283207352320322
 40
0.6864118256716594
 40
0.7607281043904103
 40
0.8330108956153793
 40
0.9031156534730796
 40
0.9732281773103221
 40
1.0
 40
1.0
 40
1.0
 40
1.0
 10
1126.530900597467
 20
723.1785102046113
 30
0.0
 10
1125.119811139795
 20
723.1785102046113
 30
0.0
 10
1122.253955298635
 20
723.1785102046113
 30
0.0
 10
1117.842845435952
 20
723.1785102046113
 30
0.0
 10
1113.723956476223
 20
723.1785102046113
 30
0.0
 10
1109.982574103046
 20
723.1785102046113
 30
0.0
 10
1106.64569289222
 20
723.1785102046113
 30
0.0
 10
1103.430515998602
 20
723.1785102046113
 30
0.0
 10
1100.377450732564
 20
723.1785102046113
 30
0.0
 10
1097.53859771432
 20
723.1785102046113
 30
0.0
 10
1094.965442843013
 20
723.1785102046113
 30
0.0
 10
1092.675482506065
 20
723.1785102046113
 30
0.0
 10
1090.503647672184
 20
723.1785102046113
 30
0.0
 10
1088.579121738007
 20
723.1785102046113
 30
0.0
 10
1087.046869376773
 20
723.1785102046113
 30
0.0
 10
1086.092067470591
 20
723.1785102046113
 30
0.0
 10
1085.645733238976
 20
723.1785102046113
 30
0.0
 10
1085.707232258536
 20
723.1785102046113
 30
0.0
 10
1085.724226137385
 20
723.1785102046113
 30
0.0
  0
SPLINE
  5
DC
330
1F
100
AcDbEntity
  8
0
  6
Continuous
 62
     7
370
    15
100
AcDbSpline
210
0.0
220
0.0
230
1.0
 70
    24
 71
     3
 72
    20
 73
    16
 74
     0
 42
0.000000001
 43
0.00000001
 40
0.0
 40
0.0
 40
0.0
 40
0.0
 40
0.0564488989704084
 40
0.1486167589725728
 40
0.220680132248978
 40
0.292732771152116
 40
0.3663295205620479
 40
0.439915307180659
 40
0.5135120562769827
 40
0.5870978425822426
 40
0.6591612149962721
 40
0.731213853033575
 40
0.8233912229229382
 40
0.9130415337608425
 40
1.0
 40
1.0
 40
1.0
 40
1.0
 10
1155.595775764613
 20
723.1785102046113
 30
0.0
 10
1155.600000262436
 20
723.1785102046113
 30
0.0
 10
1155.611122377945
 20
723.1785102046113
 30
0.0
 10
1155.033310299131
 20
723.1785102046113
 30
0.0
 10
1154.057792261474
 20
723.1785102046113
 30
0.0
 10
1152.796948487746
 20
723.1785102046113
 30
0.0
 10
1151.198203928039
 20
723.1785102046113
 30
0.0
 10
1149.259583667853
 20
723.1785102046113
 30
0.0
 10
1147.019541472446
 20
723.1785102046113
 30
0.0
 10
1144.51423715368
 20
723.1785102046113
 30
0.0
 10
1141.780952240958
 20
723.1785102046113
 30
0.0
 10
1138.577869368892
 20
723.1785102046113
 30
0.0
 10
1134.885800458459
 20
723.1785102046113
 30
0.0
 10
1130.756575668679
 20
723.1785102046113
 30
0.0
 10
1127.925073175191
 20
723.1785102046113
 30
0.0
 10
1126.530900597467
 20
723.1785102046113
 30
0.0
  0
SPLINE
  5
DD
330
1F
100
AcDbEntity
  8
0
  6
Continuous
 62
     7
370
    15
100
AcDbSpline
210
0.0
220
0.0
230
1.0
 70
    24
 71
     3
 72
    23
 73
    19
 74
     0
 42
0.000000001
 43
0.00000001
 40
0.0
 40
0.0
 40
0.0
 40
0.0
 40
0.0267718226788315
 40
0.096884346516655
 40
0.1669891043749357
 40
0.2392718956003103
 40
0.3135881743205338
 40
0.3716792647595365
 40
0.429779009592944
 40
0.4891061721193849
 40
0.5484421731947411
 40
0.6077693359753085
 40
0.6671053373020012
 40
0.7251964284396014
 40
0.7832961739677471
 40
0.8576047855180909
 40
0.9298874761624641
 40
0.9999999999999999
 40
0.9999999999999999
 40
0.9999999999999999
 40
0.9999999999999999
 10
1085.724226179777
 20
705.1785102046111
 30
0.0
 10
1085.707232300958
 20
705.1785102046111
 30
0.0
 10
1085.645733281491
 20
705.1785102046111
 30
0.0
 10
1086.092067512551
 20
705.1785102046111
 30
0.0
 10
1087.046869417567
 20
705.1785102046111
 30
0.0
 10
1088.579121776937
 20
705.1785102046111
 30
0.0
 10
1090.503647708765
 20
705.1785102046111
 30
0.0
 10
1092.675482540017
 20
705.1785102046111
 30
0.0
 10
1094.965442874165
 20
705.1785102046111
 30
0.0
 10
1097.538597742362
 20
705.1785102046111
 30
0.0
 10
1100.377450757163
 20
705.1785102046111
 30
0.0
 10
1103.430516019509
 20
705.1785102046111
 30
0.0
 10
1106.64569290925
 20
705.1785102046111
 30
0.0
 10
1109.982574116025
 20
705.1785102046111
 30
0.0
 10
1113.723956484694
 20
705.1785102046111
 30
0.0
 10
1117.842845439417
 20
705.1785102046111
 30
0.0
 10
1122.253955296746
 20
705.1785102046111
 30
0.0
 10
1125.119811134398
 20
705.1785102046111
 30
0.0
 10
1126.530900590342
 20
705.1785102046111
 30
0.0
  0
SPLINE
  5
DE
330
1F
100
AcDbEntity
  8
0
  6
Continuous
 62
     7
370
    15
100
AcDbSpline
210
0.0
220
0.0
230
1.0
 70
    24
 71
     3
 72
    20
 73
    16
 74
     0
 42
0.000000001
 43
0.00000001
 40
0.0
 40
0.0
 40
0.0
 40
0.0
 40
0.0869584662387068
 40
0.1766087770779754
 40
0.2687861469626509
 40
0.340838785000001
 40
0.4129021574119242
 40
0.4864879437162744
 40
0.5600846928114467
 40
0.633670479429548
 40
0.7072672288379006
 40
0.7793198677404319
 40
0.8513832410154202
 40
0.9435511010182153
 40
1.0
 40
1.0
 40
1.0
 40
1.0
 10
1126.530900590342
 20
705.1785102046111
 30
0.0
 10
1127.925073166387
 20
705.1785102046111
 30
0.0
 10
1130.756575656498
 20
705.1785102046111
 30
0.0
 10
1134.885800441247
 20
705.1785102046111
 30
0.0
 10
1138.577869347211
 20
705.1785102046111
 30
0.0
 10
1141.780952215325
 20
705.1785102046111
 30
0.0
 10
1144.514237124743
 20
705.1785102046111
 30
0.0
 10
1147.019541440463
 20
705.1785102046111
 30
0.0
 10
1149.259583633148
 20
705.1785102046111
 30
0.0
 10
1151.198203890971
 20
705.1785102046111
 30
0.0
 10
1152.796948448747
 20
705.1785102046111
 30
0.0
 10
1154.057792220948
 20
705.1785102046111
 30
0.0
 10
1155.033310257418
 20
705.1785102046111
 30
0.0
 10
1155.611122335565
 20
705.1785102046111
 30
0.0
 10
1155.600000220046
 20
705.1785102046111
 30
0.0
 10
1155.595775722219
 20
705.1785102046111
 30
0.0
  0
LINE
  5
DF
330
1F
100
AcDbEntity
  8
0
  6
Continuous
 62
     7
370
    15
100
AcDbLine
 10
1099.705000951
 20
675.1810823239
 30
0.0
 11
1141.615000951
 21
675.1810823239
 31
0.0
  0
LINE
  5
E0
330
1F
100
AcDbEntity
  8
0
  6
Continuous
 62
     7
370
    15
100
AcDbLine
 10
1101.185000951
 20
674.1810823239
 30
0.0
 11
1140.135000951
 21
674.1810823239
 31
0.0
  0
LINE
  5
E1
330
1F
100
AcDbEntity
  8
0
  6
Continuous
 62
     8
370
    15
100
AcDbLine
 10
1300.1580581836
 20
768.3563178112
 30
0.0
 11
1290.160000951
 21
768.2328784174
 31
0.0
  0
LINE
  5
E2
330
1F
100
AcDbEntity
  8
0
  6
Continuous
 62
     8
370
    15
100
AcDbLine
 10
941.1619437184
 20
768.3563178112
 30
0.0
 11
951.160000951
 21
768.2328784174
 31
0.0
  0
LINE
  5
E3
330
1F
100
AcDbEntity
  8
0
  6
Continuous
 62
     8
370
    15
100
AcDbLine
 10
1085.662990813
 20
722.6785102046
 30
0.0
 11
1085.160000951
 21
722.6785102046
 31
0.0
  0
LINE
  5
E4
330
1F
100
AcDbEntity
  8
0
  6
Continuous
 62
     8
370
    15
100
AcDbLine
 10
1156.160000951
 20
722.6785102046
 30
0.0
 11
1085.662990813
 21
722.6785102046
 31
0.0
  0
LINE
  5
E5
330
1F
100
AcDbEntity
  8
0
  6
Continuous
 62
     8
370
    15
100
AcDbLine
 10
1085.662990813
 20
705.6785102046
 30
0.0
 11
1156.160000951
 21
705.6785102046
 31
0.0
  0
LINE
  5
E6
330
1F
100
AcDbEntity
  8
0
  6
Continuous
 62
     8
370
    15
100
AcDbLine
 10
1085.160000951
 20
705.6785102046
 30
0.0
 11
1085.662990813
 21
705.6785102046
 31
0.0
  0
CIRCLE
  5
E7
330
1F
100
AcDbEntity
  8
0
  6
Continuous
 62
     7
370
    15
100
AcDbCircle
 10
460.7443723347
 20
325.991890735
 30
0.0
 40
39.8316601317988
  0
LWPOLYLINE
  5
E8
330
1F
100
AcDbEntity
  8
0
  6
Continuous
 62
     7
370
    15
100
AcDbPolyline
 90
        3
 70
   128
 43
0.0
 10
423.9499976857
 20
310.6884109284
 10
425.1954448988
 20
307.9836632221
 10
426.0387863401
 20
306.407590881
  0
LWPOLYLINE
  5
E9
330
1F
100
AcDbEntity
  8
0
  6
Continuous
 62
     7
370
    15
100
AcDbPolyline
 90
        3
 70
   128
 43
0.0
 10
495.7460949996
 20
306.9419062077
 10
497.0983140084
 20
309.6697148756
 10
498.3986104344
 20
312.9465523674
  0
LWPOLYLINE
  5
EA
330
1F
100
AcDbEntity
  8
0
  6
Continuous
 62
     7
370
    15
100
AcDbPolyline
 90
        3
 70
   128
 43
0.0
 10
496.9232050197
 20
342.6986129016
 10
495.4101412752
 20
345.646583909
 10
493.576928674
 20
348.5760830877
  0
LWPOLYLINE
  5
EB
330
1F
100
AcDbEntity
  8
0
  6
Continuous
 62
     7
370
    15
100
AcDbPolyline
 90
        3
 70
   128
 43
0.0
 10
425.1074051403
 20
343.825260276
 10
423.6653302768
 20
340.592135256
 10
422.6811622139
 20
337.7908116731
  0
LWPOLYLINE
  5
EC
330
1F
100
AcDbEntity
  8
0
  6
Continuous
 62
     7
370
    15
100
AcDbPolyline
 90
        3
 70
   128
 43
0.0
 10
421.1020972407
 20
330.0554514121
 10
421.0694739511
 20
329.723504093
 10
420.8943723347
 20
325.991890735
  0
CIRCLE
  5
ED
330
1F
100
AcDbEntity
  8
0
  6
Continuous
 62
     7
370
    15
100
AcDbCircle
 10
460.7443723347
 20
325.991890735
 30
0.0
 40
34.38729585188366
  0
ARC
  5
EE
330
1F
100
AcDbEntity
  8
0
  6
Continuous
 62
     7
370
    15
100
AcDbCircle
 10
90.7443723347
 20
508.491890735
 30
0.0
 40
2.0
100
AcDbArc
 50
90.0
 51
180.0
  0
LINE
  5
EF
330
1F
100
AcDbEntity
  8
0
  6
Continuous
 62
     7
370
    15
100
AcDbLine
 10
87.2443723347
 20
508.491890735
 30
0.0
 11
88.7443723347
 21
508.491890735
 31
0.0
  0
ARC
  5
F0
330
1F
100
AcDbEntity
  8
0
  6
Continuous
 62
     7
370
    15
100
AcDbCircle
 10
90.7443723347
 20
508.491890735
 30
0.0
 40
3.500000000000057
100
AcDbArc
 50
90.0
 51
180.0
  0
LINE
  5
F1
330
1F
100
AcDbEntity
  8
0
  6
Continuous
 62
     7
370
    15
100
AcDbLine
 10
90.7443723347
 20
510.491890735
 30
0.0
 11
90.7443723347
 21
511.991890735
 31
0.0
  0
LINE
  5
F2
330
1F
100
AcDbEntity
  8
0
  6
Continuous
 62
     7
370
    15
100
AcDbLine
 10
90.7443723347
 20
511.991890735
 30
0.0
 11
90.7443723347
 21
513.491890735
 31
0.0
  0
LINE
  5
F3
330
1F
100
AcDbEntity
  8
0
  6
Continuous
 62
     7
370
    15
100
AcDbLine
 10
85.7443723347
 20
508.491890735
 30
0.0
 11
87.2443723347
 21
508.491890735
 31
0.0
  0
ARC
  5
F4
330
1F
100
AcDbEntity
  8
0
  6
Continuous
 62
     7
370
    15
100
AcDbCircle
 10
90.7443723347
 20
508.491890735
 30
0.0
 40
5.000000000000114
100
AcDbArc
 50
90.0
 51
180.0
  0
LINE
  5
F5
330
1F
100
AcDbEntity
  8
0
  6
Continuous
 62
     7
370
    15
100
AcDbLine
 10
830.7443723347
 20
510.491890735
 30
0.0
 11
90.7443723347
 21
510.491890735
 31
0.0
  0
LINE
  5
F6
330
1F
100
AcDbEntity
  8
0
  6
Continuous
 62
     7
370
    15
100
AcDbLine
 10
830.7443723347
 20
511.991890735
 30
0.0
 11
90.7443723347
 21
511.991890735
 31
0.0
  0
LINE
  5
F7
330
1F
100
AcDbEntity
  8
0
  6
Continuous
 62
     7
370
    15
100
AcDbLine
 10
830.7443723347
 20
510.491890735
 30
0.0
 11
830.7443723347
 21
511.991890735
 31
0.0
  0
LINE
  5
F8
330
1F
100
AcDbEntity
  8
0
  6
Continuous
 62
     7
370
    15
100
AcDbLine
 10
90.7443723347
 20
513.491890735
 30
0.0
 11
830.7443723347
 21
513.491890735
 31
0.0
  0
LINE
  5
F9
330
1F
100
AcDbEntity
  8
0
  6
Continuous
 62
     7
370
    15
100
AcDbLine
 10
830.7443723347
 20
511.991890735
 30
0.0
 11
830.7443723347
 21
513.491890735
 31
0.0
  0
LINE
  5
FA
330
1F
100
AcDbEntity
  8
0
  6
Continuous
 62
     7
370
    15
100
AcDbLine
 10
87.2443723347
 20
508.491890735
 30
0.0
 11
87.2443723347
 21
143.491890735
 31
0.0
  0
LINE
  5
FB
330
1F
100
AcDbEntity
  8
0
  6
Continuous
 62
     7
370
    15
100
AcDbLine
 10
88.7443723347
 20
508.491890735
 30
0.0
 11
88.7443723347
 21
143.491890735
 31
0.0
  0
LINE
  5
FC
330
1F
100
AcDbEntity
  8
0
  6
Continuous
 62
     7
370
    15
100
AcDbLine
 10
87.2443723347
 20
143.491890735
 30
0.0
 11
88.7443723347
 21
143.491890735
 31
0.0
  0
LINE
  5
FD
330
1F
100
AcDbEntity
  8
0
  6
Continuous
 62
     7
370
    15
100
AcDbLine
 10
85.7443723347
 20
143.491890735
 30
0.0
 11
87.2443723347
 21
143.491890735
 31
0.0
  0
LINE
  5
FE
330
1F
100
AcDbEntity
  8
0
  6
Continuous
 62
     7
370
    15
100
AcDbLine
 10
85.7443723347
 20
143.491890735
 30
0.0
 11
85.7443723347
 21
508.491890735
 31
0.0
  0
ARC
  5
FF
330
1F
100
AcDbEntity
  8
0
  6
Continuous
 62
     7
370
    15
100
AcDbCircle
 10
830.7443723347
 20
508.491890735
 30
0.0
 40
2.0
100
AcDbArc
 50
0.0
 51
90.0
  0
ARC
  5
100
330
1F
100
AcDbEntity
  8
0
  6
Continuous
 62
     7
370
    15
100
AcDbCircle
 10
830.7443723347
 20
508.491890735
 30
0.0
 40
3.500000000000114
100
AcDbArc
 50
0.0
 51
90.0
  0
LINE
  5
101
330
1F
100
AcDbEntity
  8
0
  6
Continuous
 62
     7
370
    15
100
AcDbLine
 10
832.7443723347
 20
508.491890735
 30
0.0
 11
834.2443723347
 21
508.491890735
 31
0.0
  0
ARC
  5
102
330
1F
100
AcDbEntity
  8
0
  6
Continuous
 62
     7
370
    15
100
AcDbCircle
 10
830.7443723347
 20
508.491890735
 30
0.0
 40
5.000000000000114
100
AcDbArc
 50
0.0
 51
90.0
  0
LINE
  5
103
330
1F
100
AcDbEntity
  8
0
  6
Continuous
 62
     7
370
    15
100
AcDbLine
 10
834.2443723347
 20
508.491890735
 30
0.0
 11
835.7443723347
 21
508.491890735
 31
0.0
  0
LINE
  5
104
330
1F
100
AcDbEntity
  8
0
  6
Continuous
 62
     7
370
    15
100
AcDbLine
 10
832.7443723347
 20
143.491890735
 30
0.0
 11
832.7443723347
 21
508.491890735
 31
0.0
  0
LINE
  5
105
330
1F
100
AcDbEntity
  8
0
  6
Continuous
 62
     7
370
    15
100
AcDbLine
 10
834.2443723347
 20
143.491890735
 30
0.0
 11
834.2443723347
 21
508.491890735
 31
0.0
  0
LINE
  5
106
330
1F
100
AcDbEntity
  8
0
  6
Continuous
 62
     7
370
    15
100
AcDbLine
 10
832.7443723347
 20
143.491890735
 30
0.0
 11
834.2443723347
 21
143.491890735
 31
0.0
  0
LINE
  5
107
330
1F
100
AcDbEntity
  8
0
  6
Continuous
 62
     7
370
    15
100
AcDbLine
 10
835.7443723347
 20
508.491890735
 30
0.0
 11
835.7443723347
 21
143.491890735
 31
0.0
  0
LINE
  5
108
330
1F
100
AcDbEntity
  8
0
  6
Continuous
 62
     7
370
    15
100
AcDbLine
 10
834.2443723347
 20
143.491890735
 30
0.0
 11
835.7443723347
 21
143.491890735
 31
0.0
  0
ARC
  5
109
330
1F
100
AcDbEntity
  8
0
  6
Continuous
 62
     7
370
    15
100
AcDbCircle
 10
90.7443723347
 20
143.491890735
 30
0.0
 40
3.5
100
AcDbArc
 50
180.0
 51
270.0
  0
ARC
  5
10A
330
1F
100
AcDbEntity
  8
0
  6
Continuous
 62
     7
370
    15
100
AcDbCircle
 10
90.7443723347
 20
143.491890735
 30
0.0
 40
2.0
100
AcDbArc
 50
180.0
 51
270.0
  0
LINE
  5
10B
330
1F
100
AcDbEntity
  8
0
  6
Continuous
 62
     7
370
    15
100
AcDbLine
 10
90.7443723347
 20
139.991890735
 30
0.0
 11
90.7443723347
 21
141.491890735
 31
0.0
  0
LINE
  5
10C
330
1F
100
AcDbEntity
  8
0
  6
Continuous
 62
     7
370
    15
100
AcDbLine
 10
90.7443723347
 20
138.491890735
 30
0.0
 11
90.7443723347
 21
139.991890735
 31
0.0
  0
ARC
  5
10D
330
1F
100
AcDbEntity
  8
0
  6
Continuous
 62
     7
370
    15
100
AcDbCircle
 10
90.7443723347
 20
143.491890735
 30
0.0
 40
5.0
100
AcDbArc
 50
180.0
 51
270.0
  0
LINE
  5
10E
330
1F
100
AcDbEntity
  8
0
  6
Continuous
 62
     7
370
    15
100
AcDbLine
 10
90.7443723347
 20
139.991890735
 30
0.0
 11
830.7443723347
 21
139.991890735
 31
0.0
  0
LINE
  5
10F
330
1F
100
AcDbEntity
  8
0
  6
Continuous
 62
     7
370
    15
100
AcDbLine
 10
90.7443723347
 20
141.491890735
 30
0.0
 11
830.7443723347
 21
141.491890735
 31
0.0
  0
LINE
  5
110
330
1F
100
AcDbEntity
  8
0
  6
Continuous
 62
     7
370
    15
100
AcDbLine
 10
830.7443723347
 20
139.991890735
 30
0.0
 11
830.7443723347
 21
141.491890735
 31
0.0
  0
LINE
  5
111
330
1F
100
AcDbEntity
  8
0
  6
Continuous
 62
     7
370
    15
100
AcDbLine
 10
830.7443723347
 20
138.491890735
 30
0.0
 11
830.7443723347
 21
139.991890735
 31
0.0
  0
LINE
  5
112
330
1F
100
AcDbEntity
  8
0
  6
Continuous
 62
     7
370
    15
100
AcDbLine
 10
830.7443723347
 20
138.491890735
 30
0.0
 11
90.7443723347
 21
138.491890735
 31
0.0
  0
ARC
  5
113
330
1F
100
AcDbEntity
  8
0
  6
Continuous
 62
     7
370
    15
100
AcDbCircle
 10
830.7443723347
 20
143.491890735
 30
0.0
 40
3.500000000000114
100
AcDbArc
 50
270.0
 51
0.0
  0
ARC
  5
114
330
1F
100
AcDbEntity
  8
0
  6
Continuous
 62
     7
370
    15
100
AcDbCircle
 10
830.7443723347
 20
143.491890735
 30
0.0
 40
5.000000000000114
100
AcDbArc
 50
270.0
 51
0.0
  0
ARC
  5
115
330
1F
100
AcDbEntity
  8
0
  6
Continuous
 62
     7
370
    15
100
AcDbCircle
 10
830.7443723347
 20
143.491890735
 30
0.0
 40
2.0
100
AcDbArc
 50
270.0
 51
0.0
  0
LINE
  5
116
330
1F
100
AcDbEntity
  8
0
  6
Continuous
 62
     7
370
    15
100
AcDbLine
 10
90.7443723347
 20
508.491890735
 30
0.0
 11
90.7443723347
 21
510.491890735
 31
0.0
  0
LINE
  5
117
330
1F
100
AcDbEntity
  8
0
  6
Continuous
 62
     7
370
    15
100
AcDbLine
 10
88.7443723347
 20
508.491890735
 30
0.0
 11
90.7443723347
 21
508.491890735
 31
0.0
  0
LINE
  5
118
330
1F
100
AcDbEntity
  8
0
  6
Continuous
 62
     7
370
    15
100
AcDbLine
 10
830.7443723347
 20
508.491890735
 30
0.0
 11
90.7443723347
 21
508.491890735
 31
0.0
  0
LINE
  5
119
330
1F
100
AcDbEntity
  8
0
  6
Continuous
 62
     7
370
    15
100
AcDbLine
 10
830.7443723347
 20
508.491890735
 30
0.0
 11
830.7443723347
 21
510.491890735
 31
0.0
  0
LINE
  5
11A
330
1F
100
AcDbEntity
  8
0
  6
Continuous
 62
     7
370
    15
100
AcDbLine
 10
90.7443723347
 20
508.491890735
 30
0.0
 11
90.7443723347
 21
143.491890735
 31
0.0
  0
LINE
  5
11B
330
1F
100
AcDbEntity
  8
0
  6
Continuous
 62
     7
370
    15
100
AcDbLine
 10
88.7443723347
 20
143.491890735
 30
0.0
 11
90.7443723347
 21
143.491890735
 31
0.0
  0
LINE
  5
11C
330
1F
100
AcDbEntity
  8
0
  6
Continuous
 62
     7
370
    15
100
AcDbLine
 10
830.7443723347
 20
508.491890735
 30
0.0
 11
832.7443723347
 21
508.491890735
 31
0.0
  0
LINE
  5
11D
330
1F
100
AcDbEntity
  8
0
  6
Continuous
 62
     7
370
    15
100
AcDbLine
 10
830.7443723347
 20
143.491890735
 30
0.0
 11
830.7443723347
 21
508.491890735
 31
0.0
  0
LINE
  5
11E
330
1F
100
AcDbEntity
  8
0
  6
Continuous
 62
     7
370
    15
100
AcDbLine
 10
830.7443723347
 20
143.491890735
 30
0.0
 11
832.7443723347
 21
143.491890735
 31
0.0
  0
LINE
  5
11F
330
1F
100
AcDbEntity
  8
0
  6
Continuous
 62
     7
370
    15
100
AcDbLine
 10
90.7443723347
 20
141.491890735
 30
0.0
 11
90.7443723347
 21
143.491890735
 31
0.0
  0
LINE
  5
120
330
1F
100
AcDbEntity
  8
0
  6
Continuous
 62
     7
370
    15
100
AcDbLine
 10
90.7443723347
 20
143.491890735
 30
0.0
 11
830.7443723347
 21
143.491890735
 31
0.0
  0
LINE
  5
121
330
1F
100
AcDbEntity
  8
0
  6
Continuous
 62
     7
370
    15
100
AcDbLine
 10
830.7443723347
 20
141.491890735
 30
0.0
 11
830.7443723347
 21
143.491890735
 31
0.0
  0
LWPOLYLINE
  5
122
330
1F
100
AcDbEntity
  8
0
  6
Continuous
 62
     7
370
    15
100
AcDbPolyline
 90
        5
 70
   128
 43
0.0
 10
93.7624879145
 20
505.4733713731
 10
278.1686218944
 20
505.4714356261
 10
462.5747558832
 20
505.4704096787
 10
645.1505063191
 20
505.4714535371
 10
827.7262567548
 20
505.4733713731
  0
LINE
  5
123
330
1F
100
AcDbEntity
  8
0
  6
Continuous
 62
     7
370
    15
100
AcDbLine
 10
93.7443723347
 20
146.491890735
 30
0.0
 11
93.7443723347
 21
505.491890735
 31
0.0
  0
LWPOLYLINE
  5
124
330
1F
100
AcDbEntity
  8
0
  6
Continuous
 62
     7
370
    15
100
AcDbPolyline
 90
        5
 70
   128
 43
0.0
 10
827.7262567548
 20
146.510410097
 10
643.3201227749
 20
146.512345844
 10
458.9139887861
 20
146.5133717913
 10
276.3382383503
 20
146.512327933
 10
93.7624879145
 20
146.510410097
  0
LINE
  5
125
330
1F
100
AcDbEntity
  8
0
  6
Continuous
 62
     7
370
    15
100
AcDbLine
 10
827.7443723347
 20
505.491890735
 30
0.0
 11
827.7443723347
 21
146.491890735
 31
0.0
  0
LWPOLYLINE
  5
126
330
1F
100
AcDbEntity
  8
0
  6
Continuous
 62
     7
370
    15
100
AcDbPolyline
 90
        5
 70
   128
 43
0.0
 10
827.7262567992
 20
505.4689414418
 10
662.3287743859
 20
424.5758218927
 10
579.6292793276
 20
384.1308034745
 10
496.9280601602
 20
343.6893104128
 10
496.5419956291
 20
343.5005356675
  0
SPLINE
  5
127
330
1F
100
AcDbEntity
  8
0
  6
Continuous
 62
     7
370
    15
100
AcDbSpline
210
0.0
220
0.0
230
1.0
 70
     8
 71
     3
 72
    23
 73
    19
 74
     0
 42
0.000000001
 43
0.00000001
 40
0.0
 40
0.0
 40
0.0
 40
0.0
 40
0.0625000000000001
 40
0.1249999999999999
 40
0.1874999999999998
 40
0.2500000000000001
 40
0.3124999999999998
 40
0.3750000000000001
 40
0.4375
 40
0.4999999999999999
 40
0.5625000000000002
 40
0.6250000000000001
 40
0.6874999999999999
 40
0.7500000000000001
 40
0.8125
 40
0.8749999999999999
 40
0.9375000000000001
 40
1.0
 40
1.0
 40
1.0
 40
1.0
 10
424.9467481148886
 20
343.5005343209728
 30
0.0
 10
425.8279606084748
 20
345.1321465705403
 30
0.0
 10
427.5903855956472
 20
348.3953710696751
 30
0.0
 10
431.0643819437656
 20
352.7638771029252
 30
0.0
 10
435.0649990228941
 20
356.6367443401084
 30
0.0
 10
439.5778271457818
 20
359.9077784913372
 30
0.0
 10
444.4982404356261
 20
362.5217345792076
 30
0.0
 10
449.7352022403401
 20
364.425612136709
 30
0.0
 10
455.1857660746883
 20
365.5830239570836
 30
0.0
 10
460.7443723346664
 20
365.9713241240032
 30
0.0
 10
466.3029785946446
 20
365.5830239570836
 30
0.0
 10
471.7535424289928
 20
364.425612136709
 30
0.0
 10
476.9905042337067
 20
362.5217345792075
 30
0.0
 10
481.910917523551
 20
359.9077784913372
 30
0.0
 10
486.4237456464387
 20
356.6367443401084
 30
0.0
 10
490.4243627255672
 20
352.7638771029252
 30
0.0
 10
493.8983590736856
 20
348.3953710696751
 30
0.0
 10
495.660784060858
 20
345.1321465705403
 30
0.0
 10
496.5419965544443
 20
343.5005343209728
 30
0.0
  0
LWPOLYLINE
  5
128
330
1F
100
AcDbEntity
  8
0
  6
Continuous
 62
     7
370
    15
100
AcDbPolyline
 90
        5
 70
   128
 43
0.0
 10
93.7624878702
 20
505.4689414418
 10
259.1599702835
 20
424.5758218927
 10
341.8594653417
 20
384.1308034745
 10
424.5606845091
 20
343.6893104128
 10
424.9467490402
 20
343.5005356675
  0
SPLINE
  5
129
330
1F
100
AcDbEntity
  8
0
  6
Continuous
 62
     7
370
    15
100
AcDbSpline
210
0.0
220
0.0
230
1.0
 70
     8
 71
     3
 72
    15
 73
    11
 74
     0
 42
0.000000001
 43
0.00000001
 40
0.0
 40
0.0
 40
0.0
 40
0.0
 40
0.1250000000000001
 40
0.2500000000000002
 40
0.3749999999999998
 40
0.5
 40
0.6250000000000001
 40
0.7499999999999997
 40
0.8749999999999999
 40
1.0
 40
1.0
 40
1.0
 40
1.0
 10
424.9467481148886
 20
308.4832471490872
 30
0.0
 10
424.3276339145876
 20
309.8620584729443
 30
0.0
 10
423.0894055139857
 20
312.6196811206586
 30
0.0
 10
421.8424830169409
 20
316.9894563610652
 30
0.0
 10
421.0647558572944
 20
321.4593764535954
 30
0.0
 10
420.8091805733524
 20
325.99189073503
 30
0.0
 10
421.0647558572944
 20
330.5244050164646
 30
0.0
 10
421.8424830169409
 20
334.9943251089949
 30
0.0
 10
423.0894055139857
 20
339.3641003494014
 30
0.0
 10
424.3276339145877
 20
342.1217229971157
 30
0.0
 10
424.9467481148886
 20
343.5005343209728
 30
0.0
  0
LWPOLYLINE
  5
12A
330
1F
100
AcDbEntity
  8
0
  6
Continuous
 62
     7
370
    15
100
AcDbPolyline
 90
        5
 70
   128
 43
0.0
 10
93.7624878702
 20
146.5148400282
 10
259.1599702835
 20
227.4079595773
 10
341.8594653417
 20
267.8529779955
 10
424.5606845091
 20
308.2944710573
 10
424.9467490402
 20
308.4832458026
  0
LWPOLYLINE
  5
12B
330
1F
100
AcDbEntity
  8
0
  6
Continuous
 62
     7
370
    15
100
AcDbPolyline
 90
        5
 70
   128
 43
0.0
 10
496.5419956291
 20
308.4832458026
 10
496.9280601602
 20
308.2944710573
 10
662.3287740712
 20
227.4079597312
 10
745.0276507034
 20
186.9616764769
 10
827.7262567992
 20
146.5148400282
  0
SPLINE
  5
12C
330
1F
100
AcDbEntity
  8
0
  6
Continuous
 62
     7
370
    15
100
AcDbSpline
210
0.0
220
0.0
230
1.0
 70
     8
 71
     3
 72
    15
 73
    11
 74
     0
 42
0.000000001
 43
0.00000001
 40
0.0
 40
0.0
 40
0.0
 40
0.0
 40
0.125
 40
0.25
 40
0.375
 40
0.5
 40
0.6250000000000001
 40
0.75
 40
0.875
 40
1.0
 40
1.0
 40
1.0
 40
1.0
 10
496.5419965544443
 20
343.5005343209728
 30
0.0
 10
497.1611107547452
 20
342.1217229971157
 30
0.0
 10
498.3993391553471
 20
339.3641003494014
 30
0.0
 10
499.6462616523919
 20
334.9943251089949
 30
0.0
 10
500.4239888120384
 20
330.5244050164646
 30
0.0
 10
500.6795640959805
 20
325.99189073503
 30
0.0
 10
500.4239888120384
 20
321.4593764535954
 30
0.0
 10
499.6462616523919
 20
316.9894563610652
 30
0.0
 10
498.3993391553471
 20
312.6196811206586
 30
0.0
 10
497.1611107547452
 20
309.8620584729443
 30
0.0
 10
496.5419965544443
 20
308.4832471490872
 30
0.0
  0
SPLINE
  5
12D
330
1F
100
AcDbEntity
  8
0
  6
Continuous
 62
     7
370
    15
100
AcDbSpline
210
0.0
220
0.0
230
1.0
 70
     8
 71
     3
 72
    21
 73
    17
 74
     0
 42
0.000000001
 43
0.00000001
 40
0.0
 40
0.0
 40
0.0
 40
0.0
 40
0.0744837334053018
 40
0.1511277102282247
 40
0.2256116303540643
 40
0.3022564390306362
 40
0.3767165192882293
 40
0.4533306010003126
 40
0.5278728952945785
 40
0.6045727597206382
 40
0.6791785671357436
 40
0.7559532402574605
 40
0.8304770102279233
 40
0.9071658553650813
 40
0.9533336718040393
 40
1.0
 40
1.0
 40
1.0
 40
1.0
 10
424.9540581508191
 20
308.4868206524931
 30
0.0
 10
426.0198247255919
 20
306.550920327032
 30
0.0
 10
428.1822681843101
 20
302.6229729747558
 30
0.0
 10
432.5991250838721
 20
297.5480652832952
 30
0.0
 10
437.7852356370468
 20
293.2022402316374
 30
0.0
 10
443.59157196943
 20
289.8322445883087
 30
0.0
 10
449.9330835773734
 20
287.4601065676958
 30
0.0
 10
456.5250391133588
 20
286.1971476179071
 30
0.0
 10
463.299071582455
 20
286.05570043544
 30
0.0
 10
469.9444569540222
 20
287.0442855095763
 30
0.0
 10
476.3903772204265
 20
289.1543377550449
 30
0.0
 10
482.3340342059265
 20
292.2897429168448
 30
0.0
 10
487.7167342896979
 20
296.413182221425
 30
0.0
 10
491.7002952302066
 20
300.7250254112932
 30
0.0
 10
494.6068402406986
 20
304.8305931409971
 30
0.0
 10
495.8897746749464
 20
307.2637229127641
 30
0.0
 10
496.5346865185138
 20
308.4868206524931
 30
0.0
  0
CIRCLE
  5
12E
330
1F
100
AcDbEntity
  8
0
  6
Continuous
 62
     7
370
    15
100
AcDbCircle
 10
460.7443723347
 20
325.991890735
 30
0.0
 40
30.63616071428568
  0
CIRCLE
  5
12F
330
1F
100
AcDbEntity
  8
0
  6
Continuous
 62
     7
370
    15
100
AcDbCircle
 10
460.7443723347
 20
325.991890735
 30
0.0
 40
31.49999999999998
  0
ENDSEC
  0
SECTION
  2
OBJECTS
  0
DICTIONARY
  5
C
330
0
100
AcDbDictionary
281
     1
  3
ACAD_GROUP
350
D
  3
ACAD_LAYOUT
350
1A
  3
ACAD_MLINESTYLE
350
17
  3
ACAD_PLOTSETTINGS
350
19
  3
ACAD_PLOTSTYLENAME
350
E
  3
ACAD_SCALELIST
350
47
  0
DICTIONARY
  5
D
102
{ACAD_REACTORS
330
C
102
}
330
C
100
AcDbDictionary
281
     1
  0
DICTIONARY
  5
1A
102
{ACAD_REACTORS
330
C
102
}
330
C
100
AcDbDictionary
281
     1
  3
Layout1
350
1E
  3
Layout2
350
26
  3
Model
350
22
  0
DICTIONARY
  5
17
102
{ACAD_REACTORS
330
C
102
}
330
C
100
AcDbDictionary
281
     1
  3
Standard
350
18
  0
DICTIONARY
  5
19
102
{ACAD_REACTORS
330
C
102
}
330
C
100
AcDbDictionary
281
     1
  0
ACDBDICTIONARYWDFLT
  5
E
102
{ACAD_REACTORS
330
C
102
}
330
C
100
AcDbDictionary
281
     1
  3
Normal
350
F
100
AcDbDictionaryWithDefault
340
F
  0
DICTIONARY
  5
47
102
{ACAD_REACTORS
330
C
102
}
330
C
100
AcDbDictionary
281
     1
  3
A0
350
48
  3
A1
350
49
  3
A2
350
4A
  3
A3
350
4B
  3
A4
350
4C
  3
A5
350
4D
  3
A6
350
4E
  3
A7
350
4F
  3
A8
350
50
  3
A9
350
51
  3
B0
350
52
  3
B1
350
53
  3
B2
350
54
  3
B3
350
55
  3
B4
350
56
  3
B5
350
57
  3
B6
350
58
  3
B7
350
59
  3
B8
350
5A
  3
B9
350
5B
  3
C0
350
5C
  3
C1
350
5D
  3
C2
350
5E
  3
C3
350
5F
  3
C4
350
60
  3
C5
350
61
  3
C6
350
62
  3
C7
350
63
  3
C8
350
64
  3
C9
350
65
  3
D0
350
66
  3
D1
350
67
  3
D2
350
68
  0
LAYOUT
  5
1E
102
{ACAD_REACTORS
330
1A
102
}
330
1A
100
AcDbPlotSettings
  1

  2
none_device
  4

  6

 40
0.0
 41
0.0
 42
0.0
 43
0.0
 44
0.0
 45
0.0
 46
0.0
 47
0.0
 48
0.0
 49
0.0
140
0.0
141
0.0
142
1.0
143
1.0
 70
   688
 72
     1
 73
     0
 74
     5
  7

 75
    16
147
1.0
148
0.0
149
0.0
100
AcDbLayout
  1
Layout1
 70
     1
 71
     1
 10
0.0
 20
0.0
 11
420.0
 21
297.0
 12
0.0
 22
0.0
 32
0.0
 14
1.0000000000E+20
 24
1.0000000000E+20
 34
1.0000000000E+20
 15
-1.0000000000E+20
 25
-1.0000000000E+20
 35
-1.0000000000E+20
146
0.0
 13
0.0
 23
0.0
 33
0.0
 16
1.0
 26
0.0
 36
0.0
 17
0.0
 27
1.0
 37
0.0
 76
     0
330
1B
  0
LAYOUT
  5
26
102
{ACAD_REACTORS
330
1A
102
}
330
1A
100
AcDbPlotSettings
  1

  2
none_device
  4

  6

 40
0.0
 41
0.0
 42
0.0
 43
0.0
 44
0.0
 45
0.0
 46
0.0
 47
0.0
 48
0.0
 49
0.0
140
0.0
141
0.0
142
1.0
143
1.0
 70
   688
 72
     1
 73
     0
 74
     5
  7

 75
    16
147
1.0
148
0.0
149
0.0
100
AcDbLayout
  1
Layout2
 70
     1
 71
     2
 10
0.0
 20
0.0
 11
0.0
 21
0.0
 12
0.0
 22
0.0
 32
0.0
 14
0.0
 24
0.0
 34
0.0
 15
0.0
 25
0.0
 35
0.0
146
0.0
 13
0.0
 23
0.0
 33
0.0
 16
1.0
 26
0.0
 36
0.0
 17
0.0
 27
1.0
 37
0.0
 76
     0
330
23
  0
LAYOUT
  5
22
102
{ACAD_REACTORS
330
1A
102
}
330
1A
100
AcDbPlotSettings
  1

  2
none_device
  4
Letter_(8.50_x_11.00_Inches)
  6

 40
6.35
 41
6.35
 42
6.35000508
 43
6.35000508
 44
215.9
 45
279.4
 46
0.0
 47
0.0
 48
0.0
 49
0.0
140
0.0
141
0.0
142
1.0
143
1.0
 70
  1712
 72
     1
 73
     0
 74
     0
  7

 75
     0
147
1.0
148
0.0
149
0.0
100
AcDbLayout
  1
Model
 70
     1
 71
     0
 10
0.0
 20
0.0
 11
1400.0
 21
1000.0
 12
0.0
 22
0.0
 32
0.0
 14
0.0
 24
0.0
 34
0.0
 15
1400.0
 25
1000.0
 35
0.0
146
0.0
 13
0.0
 23
0.0
 33
0.0
 16
1.0
 26
0.0
 36
0.0
 17
0.0
 27
1.0
 37
0.0
 76
     0
330
1F
331
29
  0
MLINESTYLE
  5
18
102
{ACAD_REACTORS
330
17
102
}
330
17
100
AcDbMlineStyle
  2
Standard
 70
     0
  3

 62
   256
 51
90.0
 52
90.0
 71
     2
 49
0.5
 62
   256
  6
BYLAYER
 49
-0.5
 62
   256
  6
BYLAYER
  0
ACDBPLACEHOLDER
  5
F
102
{ACAD_REACTORS
330
E
102
}
330
E
  0
SCALE
  5
48
102
{ACAD_REACTORS
330
47
102
}
330
47
100
AcDbScale
 70
     0
300
1:1
140
1.0
141
1.0
290
     1
  0
SCALE
  5
49
102
{ACAD_REACTORS
330
47
102
}
330
47
100
AcDbScale
 70
     0
300
1:2
140
1.0
141
2.0
290
     0
  0
SCALE
  5
4A
102
{ACAD_REACTORS
330
47
102
}
330
47
100
AcDbScale
 70
     0
300
1:4
140
1.0
141
4.0
290
     0
  0
SCALE
  5
4B
102
{ACAD_REACTORS
330
47
102
}
330
47
100
AcDbScale
 70
     0
300
1:5
140
1.0
141
5.0
290
     0
  0
SCALE
  5
4C
102
{ACAD_REACTORS
330
47
102
}
330
47
100
AcDbScale
 70
     0
300
1:8
140
1.0
141
8.0
290
     0
  0
SCALE
  5
4D
102
{ACAD_REACTORS
330
47
102
}
330
47
100
AcDbScale
 70
     0
300
1:10
140
1.0
141
10.0
290
     0
  0
SCALE
  5
4E
102
{ACAD_REACTORS
330
47
102
}
330
47
100
AcDbScale
 70
     0
300
1:16
140
1.0
141
16.0
290
     0
  0
SCALE
  5
4F
102
{ACAD_REACTORS
330
47
102
}
330
47
100
AcDbScale
 70
     0
300
1:20
140
1.0
141
20.0
290
     0
  0
SCALE
  5
50
102
{ACAD_REACTORS
330
47
102
}
330
47
100
AcDbScale
 70
     0
300
1:30
140
1.0
141
30.0
290
     0
  0
SCALE
  5
51
102
{ACAD_REACTORS
330
47
102
}
330
47
100
AcDbScale
 70
     0
300
1:40
140
1.0
141
40.0
290
     0
  0
SCALE
  5
52
102
{ACAD_REACTORS
330
47
102
}
330
47
100
AcDbScale
 70
     0
300
1:50
140
1.0
141
50.0
290
     0
  0
SCALE
  5
53
102
{ACAD_REACTORS
330
47
102
}
330
47
100
AcDbScale
 70
     0
300
1:100
140
1.0
141
100.0
290
     0
  0
SCALE
  5
54
102
{ACAD_REACTORS
330
47
102
}
330
47
100
AcDbScale
 70
     0
300
2:1
140
2.0
141
1.0
290
     0
  0
SCALE
  5
55
102
{ACAD_REACTORS
330
47
102
}
330
47
100
AcDbScale
 70
     0
300
4:1
140
4.0
141
1.0
290
     0
  0
SCALE
  5
56
102
{ACAD_REACTORS
330
47
102
}
330
47
100
AcDbScale
 70
     0
300
8:1
140
8.0
141
1.0
290
     0
  0
SCALE
  5
57
102
{ACAD_REACTORS
330
47
102
}
330
47
100
AcDbScale
 70
     0
300
10:1
140
10.0
141
1.0
290
     0
  0
SCALE
  5
58
102
{ACAD_REACTORS
330
47
102
}
330
47
100
AcDbScale
 70
     0
300
100:1
140
100.0
141
1.0
290
     0
  0
SCALE
  5
59
102
{ACAD_REACTORS
330
47
102
}
330
47
100
AcDbScale
 70
     0
300
1/128" = 1'-0"
140
0.0078125
141
12.0
290
     0
  0
SCALE
  5
5A
102
{ACAD_REACTORS
330
47
102
}
330
47
100
AcDbScale
 70
     0
300
1/64" = 1'-0"
140
0.015625
141
12.0
290
     0
  0
SCALE
  5
5B
102
{ACAD_REACTORS
330
47
102
}
330
47
100
AcDbScale
 70
     0
300
1/32" = 1'-0"
140
0.03125
141
12.0
290
     0
  0
SCALE
  5
5C
102
{ACAD_REACTORS
330
47
102
}
330
47
100
AcDbScale
 70
     0
300
1/16" = 1'-0"
140
0.0625
141
12.0
290
     0
  0
SCALE
  5
5D
102
{ACAD_REACTORS
330
47
102
}
330
47
100
AcDbScale
 70
     0
300
3/32" = 1'-0"
140
0.09375
141
12.0
290
     0
  0
SCALE
  5
5E
102
{ACAD_REACTORS
330
47
102
}
330
47
100
AcDbScale
 70
     0
300
1/8" = 1'-0"
140
0.125
141
12.0
290
     0
  0
SCALE
  5
5F
102
{ACAD_REACTORS
330
47
102
}
330
47
100
AcDbScale
 70
     0
300
3/16" = 1'-0"
140
0.1875
141
12.0
290
     0
  0
SCALE
  5
60
102
{ACAD_REACTORS
330
47
102
}
330
47
100
AcDbScale
 70
     0
300
1/4" = 1'-0"
140
0.25
141
12.0
290
     0
  0
SCALE
  5
61
102
{ACAD_REACTORS
330
47
102
}
330
47
100
AcDbScale
 70
     0
300
3/8" = 1'-0"
140
0.375
141
12.0
290
     0
  0
SCALE
  5
62
102
{ACAD_REACTORS
330
47
102
}
330
47
100
AcDbScale
 70
     0
300
1/2" = 1'-0"
140
0.5
141
12.0
290
     0
  0
SCALE
  5
63
102
{ACAD_REACTORS
330
47
102
}
330
47
100
AcDbScale
 70
     0
300
3/4" = 1'-0"
140
0.75
141
12.0
290
     0
  0
SCALE
  5
64
102
{ACAD_REACTORS
330
47
102
}
330
47
100
AcDbScale
 70
     0
300
1" = 1'-0"
140
1.0
141
12.0
290
     0
  0
SCALE
  5
65
102
{ACAD_REACTORS
330
47
102
}
330
47
100
AcDbScale
 70
     0
300
1-1/2" = 1'-0"
140
1.5
141
12.0
290
     0
  0
SCALE
  5
66
102
{ACAD_REACTORS
330
47
102
}
330
47
100
AcDbScale
 70
     0
300
3" = 1'-0"
140
3.0
141
12.0
290
     0
  0
SCALE
  5
67
102
{ACAD_REACTORS
330
47
102
}
330
47
100
AcDbScale
 70
     0
300
6" = 1'-0"
140
6.0
141
12.0
290
     0
  0
SCALE
  5
68
102
{ACAD_REACTORS
330
47
102
}
330
47
100
AcDbScale
 70
     0
300
1'-0" = 1'-0"
140
12.0
141
12.0
290
     0
  0
ENDSEC
  0
EOF
