  0
SECTION
  2
HEADER
  9
$ACADVER
  1
AC1012
  9
$DWGCODEPAGE
  3
ANSI_1252
  9
$INSBASE
 10
0.0
 20
0.0
 30
0.0
  9
$EXTMIN
 10
-630.0454516516197
 20
-695.0455675731679
 30
-0.00000001
  9
$EXTMAX
 10
587.1764105740291
 20
946.3774514553142
 30
0.00000001
  9
$LIMMIN
 10
0.0
 20
0.0
  9
$LIMMAX
 10
420.0
 20
297.0
  9
$ORTHOMODE
 70
     0
  9
$REGENMODE
 70
     1
  9
$FILLMODE
 70
     1
  9
$QTEXTMODE
 70
     0
  9
$MIRRTEXT
 70
     1
  9
$DRAGMODE
 70
     2
  9
$LTSCALE
 40
1.0
  9
$OSMODE
 70
   547
  9
$ATTMODE
 70
     1
  9
$TEXTSIZE
 40
2.5
  9
$TRACEWID
 40
1.0
  9
$TEXTSTYLE
  7
STANDARD
  9
$CLAYER
  8
0
  9
$CELTYPE
  6
BYLAYER
  9
$CECOLOR
 62
   256
  9
$CELTSCALE
 40
1.0
  9
$DELOBJ
 70
     1
  9
$DISPSILH
 70
     0
  9
$DIMSCALE
 40
1.0
  9
$DIMASZ
 40
2.5
  9
$DIMEXO
 40
0.625
  9
$DIMDLI
 40
3.75
  9
$DIMRND
 40
0.0
  9
$DIMDLE
 40
0.0
  9
$DIMEXE
 40
1.25
  9
$DIMTP
 40
0.0
  9
$DIMTM
 40
0.0
  9
$DIMTXT
 40
2.5
  9
$DIMCEN
 40
2.5
  9
$DIMTSZ
 40
0.0
  9
$DIMTOL
 70
     0
  9
$DIMLIM
 70
     0
  9
$DIMTIH
 70
     0
  9
$DIMTOH
 70
     0
  9
$DIMSE1
 70
     0
  9
$DIMSE2
 70
     0
  9
$DIMTAD
 70
     1
  9
$DIMZIN
 70
     8
  9
$DIMBLK
  1

  9
$DIMASO
 70
     1
  9
$DIMSHO
 70
     1
  9
$DIMPOST
  1

  9
$DIMAPOST
  1

  9
$DIMALT
 70
     0
  9
$DIMALTD
 70
     3
  9
$DIMALTF
 40
0.03937007874016
  9
$DIMLFAC
 40
1.0
  9
$DIMTOFL
 70
     1
  9
$DIMTVP
 40
0.0
  9
$DIMTIX
 70
     0
  9
$DIMSOXD
 70
     0
  9
$DIMSAH
 70
     0
  9
$DIMBLK1
  1

  9
$DIMBLK2
  1

  9
$DIMSTYLE
  2
ISO-25
  9
$DIMCLRD
 70
     0
  9
$DIMCLRE
 70
     0
  9
$DIMCLRT
 70
     0
  9
$DIMTFAC
 40
1.0
  9
$DIMGAP
 40
0.625
  9
$DIMJUST
 70
     0
  9
$DIMSD1
 70
     0
  9
$DIMSD2
 70
     0
  9
$DIMTOLJ
 70
     0
  9
$DIMTZIN
 70
     8
  9
$DIMALTZ
 70
     0
  9
$DIMALTTZ
 70
     0
  9
$DIMFIT
 70
     3
  9
$DIMUPT
 70
     0
  9
$DIMUNIT
 70
     2
  9
$DIMDEC
 70
     2
  9
$DIMTDEC
 70
     2
  9
$DIMALTU
 70
     2
  9
$DIMALTTD
 70
     3
  9
$DIMTXSTY
  7
STANDARD
  9
$DIMAUNIT
 70
     0
  9
$LUNITS
 70
     2
  9
$LUPREC
 70
     4
  9
$SKETCHINC
 40
1.0
  9
$FILLETRAD
 40
10.0
  9
$AUNITS
 70
     0
  9
$AUPREC
 70
     0
  9
$MENU
  1
.
  9
$ELEVATION
 40
0.0
  9
$PELEVATION
 40
0.0
  9
$THICKNESS
 40
0.0
  9
$LIMCHECK
 70
     0
  9
$BLIPMODE
 70
     0
  9
$CHAMFERA
 40
10.0
  9
$CHAMFERB
 40
10.0
  9
$CHAMFERC
 40
20.0
  9
$CHAMFERD
 40
0.0
  9
$SKPOLY
 70
     0
  9
$TDCREATE
 40
2456367.398034213
  9
$TDUPDATE
 40
2456367.410598044
  9
$TDINDWG
 40
0.0125679977
  9
$TDUSRTIMER
 40
0.0125640162
  9
$USRTIMER
 70
     1
  9
$ANGBASE
 50
0.0
  9
$ANGDIR
 70
     0
  9
$PDMODE
 70
     0
  9
$PDSIZE
 40
0.0
  9
$PLINEWID
 40
0.0
  9
$COORDS
 70
     1
  9
$SPLFRAME
 70
     0
  9
$SPLINETYPE
 70
     6
  9
$SPLINESEGS
 70
     8
  9
$ATTDIA
 70
     0
  9
$ATTREQ
 70
     1
  9
$HANDLING
 70
 10241
  9
$HANDSEED
  5
4DC
  9
$SURFTAB1
 70
     6
  9
$SURFTAB2
 70
     6
  9
$SURFTYPE
 70
     6
  9
$SURFU
 70
     6
  9
$SURFV
 70
     6
  9
$UCSNAME
  2

  9
$UCSORG
 10
0.0
 20
0.0
 30
0.0
  9
$UCSXDIR
 10
1.0
 20
0.0
 30
0.0
  9
$UCSYDIR
 10
0.0
 20
1.0
 30
0.0
  9
$PUCSNAME
  2

  9
$PUCSORG
 10
0.0
 20
0.0
 30
0.0
  9
$PUCSXDIR
 10
1.0
 20
0.0
 30
0.0
  9
$PUCSYDIR
 10
0.0
 20
1.0
 30
0.0
  9
$USERI1
 70
     0
  9
$USERI2
 70
     0
  9
$USERI3
 70
     0
  9
$USERI4
 70
     0
  9
$USERI5
 70
     0
  9
$USERR1
 40
0.0
  9
$USERR2
 40
0.0
  9
$USERR3
 40
0.0
  9
$USERR4
 40
0.0
  9
$USERR5
 40
0.0
  9
$WORLDVIEW
 70
     1
  9
$SHADEDGE
 70
     3
  9
$SHADEDIF
 70
    70
  9
$TILEMODE
 70
     1
  9
$MAXACTVP
 70
    64
  9
$PINSBASE
 10
0.0
 20
0.0
 30
0.0
  9
$PLIMCHECK
 70
     0
  9
$PEXTMIN
 10
1.000000000000000E+20
 20
1.000000000000000E+20
 30
1.000000000000000E+20
  9
$PEXTMAX
 10
-1.000000000000000E+20
 20
-1.000000000000000E+20
 30
-1.000000000000000E+20
  9
$PLIMMIN
 10
0.0
 20
0.0
  9
$PLIMMAX
 10
420.0
 20
297.0
  9
$UNITMODE
 70
     0
  9
$VISRETAIN
 70
     1
  9
$PLINEGEN
 70
     0
  9
$PSLTSCALE
 70
     1
  9
$TREEDEPTH
 70
  3020
  9
$PICKSTYLE
 70
     1
  9
$CMLSTYLE
  2
STANDARD
  9
$CMLJUST
 70
     0
  9
$CMLSCALE
 40
20.0
  9
$SAVEIMAGES
 70
     1
  0
ENDSEC
  0
SECTION
  2
CLASSES
  0
CLASS
  1
ACDBDICTIONARYWDFLT
  2
AcDbDictionaryWithDefault
  3
AutoCAD 2000
 90
    32768
280
     0
281
     0
  0
CLASS
  1
ACDBPLACEHOLDER
  2
AcDbPlaceHolder
  3
AutoCAD 2000
 90
    32768
280
     0
281
     0
  0
CLASS
  1
LAYOUT
  2
AcDbLayout
  3
AutoCAD 2000
 90
    32768
280
     0
281
     0
  0
CLASS
  1
LONG_TRANSACTION
  2
AcDbLongTransaction
  3
AutoCAD 2000
 90
    32768
280
     0
281
     0
  0
CLASS
  1
LWPOLYLINE
  2
AcDbPolyline
  3
AutoCAD 2000
 90
    32768
280
     0
281
     1
  0
CLASS
  1
HATCH
  2
AcDbHatch
  3
AutoCAD 2000
 90
    32768
280
     0
281
     1
  0
CLASS
  1
XRECORD
  2
AcDbXrecord
  3
AutoCAD 2000
 90
    32768
280
     0
281
     0
  0
ENDSEC
  0
SECTION
  2
TABLES
  0
TABLE
  2
VPORT
  5
8
330
0
100
AcDbSymbolTable
 70
    25
  0
VPORT
  5
4D5
330
8
100
AcDbSymbolTableRecord
100
AcDbViewportTableRecord
  2
*ACTIVE
 70
     0
 10
0.0
 20
0.0
 11
1.0
 21
1.0
 12
-76.52397775024212
 22
-231.1157705580989
 13
0.0
 23
0.0
 14
10.0
 24
10.0
 15
10.0
 25
10.0
 16
0.0
 26
0.0
 36
1.0
 17
0.0
 27
0.0
 37
0.0
 40
6529.914647946838
 41
1.589677419354838
 42
50.0
 43
0.0
 44
0.0
 50
0.0
 51
0.0
 71
     0
 72
   100
 73
     1
 74
     3
 75
     0
 76
     0
 77
     0
 78
     0
  0
ENDTAB
  0
TABLE
  2
LTYPE
  5
5
330
0
100
AcDbSymbolTable
 70
     1
  0
LTYPE
  5
14
330
5
100
AcDbSymbolTableRecord
100
AcDbLinetypeTableRecord
  2
BYBLOCK
 70
     0
  3

 72
    65
 73
     0
 40
0.0
  0
LTYPE
  5
15
330
5
100
AcDbSymbolTableRecord
100
AcDbLinetypeTableRecord
  2
BYLAYER
 70
     0
  3

 72
    65
 73
     0
 40
0.0
  0
LTYPE
  5
16
330
5
100
AcDbSymbolTableRecord
100
AcDbLinetypeTableRecord
  2
CONTINUOUS
 70
     0
  3
Solid line
 72
    65
 73
     0
 40
0.0
  0
ENDTAB
  0
TABLE
  2
LAYER
  5
2
330
0
100
AcDbSymbolTable
 70
     1
  0
LAYER
  5
10
330
2
100
AcDbSymbolTableRecord
100
AcDbLayerTableRecord
  2
0
 70
     0
 62
     7
  6
CONTINUOUS
  0
ENDTAB
  0
TABLE
  2
STYLE
  5
3
330
0
100
AcDbSymbolTable
 70
     1
  0
STYLE
  5
11
330
3
100
AcDbSymbolTableRecord
100
AcDbTextStyleTableRecord
  2
STANDARD
 70
     0
 40
0.0
 41
1.0
 50
0.0
 71
     0
 42
2.5
  3
txt
  4

  0
ENDTAB
  0
TABLE
  2
VIEW
  5
6
330
0
100
AcDbSymbolTable
 70
     0
  0
ENDTAB
  0
TABLE
  2
UCS
  5
7
330
0
100
AcDbSymbolTable
 70
     0
  0
ENDTAB
  0
TABLE
  2
APPID
  5
9
330
0
100
AcDbSymbolTable
 70
     1
  0
APPID
  5
12
330
9
100
AcDbSymbolTableRecord
100
AcDbRegAppTableRecord
  2
ACAD
 70
     0
  0
ENDTAB
  0
TABLE
  2
DIMSTYLE
  5
A
330
0
100
AcDbSymbolTable
 70
     2
  0
DIMSTYLE
105
27
330
A
100
AcDbSymbolTableRecord
100
AcDbDimStyleTableRecord
  2
ISO-25
 70
     0
  3

  4

  5

  6

  7

 40
1.0
 41
2.5
 42
0.625
 43
3.75
 44
1.25
 45
0.0
 46
0.0
 47
0.0
 48
0.0
140
2.5
141
2.5
142
0.0
143
0.03937007874016
144
1.0
145
0.0
146
1.0
147
0.625
 71
     0
 72
     0
 73
     0
 74
     0
 75
     0
 76
     0
 77
     1
 78
     8
170
     0
171
     3
172
     1
173
     0
174
     0
175
     0
176
     0
177
     0
178
     0
270
     2
271
     2
272
     2
273
     2
274
     3
340
11
275
     0
280
     0
281
     0
282
     0
283
     0
284
     8
285
     0
286
     0
287
     3
288
     0
  0
DIMSTYLE
105
2B
330
A
100
AcDbSymbolTableRecord
100
AcDbDimStyleTableRecord
  2
STANDARD
 70
     0
  3

  4

  5

  6

  7

 40
1.0
 41
0.18
 42
0.0625
 43
0.38
 44
0.18
 45
0.0
 46
0.0
 47
0.0
 48
0.0
140
0.18
141
0.09
142
0.0
143
25.4
144
1.0
145
0.0
146
1.0
147
0.09
 71
     0
 72
     0
 73
     1
 74
     1
 75
     0
 76
     0
 77
     0
 78
     0
170
     0
171
     2
172
     0
173
     0
174
     0
175
     0
176
     0
177
     0
178
     0
270
     2
271
     4
272
     4
273
     2
274
     2
340
11
275
     0
280
     0
281
     0
282
     0
283
     1
284
     0
285
     0
286
     0
287
     3
288
     0
  0
ENDTAB
  0
TABLE
  2
BLOCK_RECORD
  5
1
330
0
100
AcDbSymbolTable
 70
    26
  0
BLOCK_RECORD
  5
1F
102
{ACAD_XDICTIONARY
360
4D8
102
}
330
1
100
AcDbSymbolTableRecord
100
AcDbBlockTableRecord
  2
*MODEL_SPACE
  0
BLOCK_RECORD
  5
1B
102
{ACAD_XDICTIONARY
360
4D6
102
}
330
1
100
AcDbSymbolTableRecord
100
AcDbBlockTableRecord
  2
*PAPER_SPACE
  0
BLOCK_RECORD
  5
4B9
330
1
100
AcDbSymbolTableRecord
100
AcDbBlockTableRecord
  2
823331D
  0
ENDTAB
  0
ENDSEC
  0
SECTION
  2
BLOCKS
  0
BLOCK
  5
20
330
1F
100
AcDbEntity
  8
0
100
AcDbBlockBegin
  2
*MODEL_SPACE
 70
     0
 10
0.0
 20
0.0
 30
0.0
  3
*MODEL_SPACE
  1

  0
ENDBLK
  5
21
330
1F
100
AcDbEntity
  8
0
100
AcDbBlockEnd
  0
BLOCK
  5
1C
330
1B
100
AcDbEntity
 67
     1
  8
0
100
AcDbBlockBegin
  2
*PAPER_SPACE
 70
     0
 10
0.0
 20
0.0
 30
0.0
  3
*PAPER_SPACE
  1

  0
ENDBLK
  5
1D
330
1B
100
AcDbEntity
 67
     1
  8
0
100
AcDbBlockEnd
  0
BLOCK
  5
4D2
330
4B9
100
AcDbEntity
  8
0
100
AcDbBlockBegin
  2
823331D
 70
     0
 10
0.0
 20
0.0
 30
0.0
  3
823331D
  1

  0
SPLINE
  5
4BA
330
4B9
100
AcDbEntity
  8
0
 62
     7
100
AcDbSpline
210
0.0
220
0.0
230
1.0
 70
    11
 71
     3
 72
    17
 73
    13
 74
     0
 42
0.0000000001
 43
0.0000000001
 40
0.0
 40
0.0
 40
0.0
 40
0.0
 40
1.0
 40
1.0
 40
1.0
 40
2.0
 40
2.0
 40
2.0
 40
3.0
 40
3.0
 40
3.0
 40
4.0
 40
4.0
 40
4.0
 40
4.0
 10
99.9019985373075
 20
-122.4907144876065
 30
0.0
 10
104.0416252723836
 20
-122.4907144876065
 30
0.0
 10
107.3985263132111
 20
-125.8421033756575
 30
0.0
 10
107.3985263132111
 20
-129.9927544162865
 30
0.0
 10
107.3985263132111
 20
-134.1322088965885
 30
0.0
 10
104.0416252723836
 20
-137.4891099374159
 30
0.0
 10
99.9019985373075
 20
-137.4891099374159
 30
0.0
 10
95.7568596494549
 20
-137.4891099374159
 30
0.0
 10
92.39995860862745
 20
-134.1322088965885
 30
0.0
 10
92.39995860862745
 20
-129.9927544162865
 30
0.0
 10
92.39995860862745
 20
-125.8421033756575
 30
0.0
 10
95.7568596494549
 20
-122.4907144876065
 30
0.0
 10
99.9019985373075
 20
-122.4907144876065
 30
0.0
  0
POLYLINE
  5
4BB
330
4B9
100
AcDbEntity
  8
0
 62
     7
100
AcDb2dPolyline
 66
     1
 10
0.0
 20
0.0
 30
0.0
  0
VERTEX
  5
4BC
330
4BB
100
AcDbEntity
  8
0
 62
     7
100
AcDbVertex
100
AcDb2dVertex
 10
99.89648638453109
 20
-118.0865044192631
 30
0.0
  0
VERTEX
  5
4BD
330
4BB
100
AcDbEntity
  8
0
 62
     7
100
AcDbVertex
100
AcDb2dVertex
 10
99.89648638453109
 20
-141.9704901446289
 30
0.0
  0
SEQEND
  5
4BE
330
4BB
100
AcDbEntity
  8
0
  0
POLYLINE
  5
4BF
330
4B9
100
AcDbEntity
  8
0
 62
     7
100
AcDb2dPolyline
 66
     1
 10
0.0
 20
0.0
 30
0.0
  0
VERTEX
  5
4C0
330
4BF
100
AcDbEntity
  8
0
 62
     7
100
AcDbVertex
100
AcDb2dVertex
 10
111.8354647886644
 20
-130.0258273329449
 30
0.0
  0
VERTEX
  5
4C1
330
4BF
100
AcDbEntity
  8
0
 62
     7
100
AcDbVertex
100
AcDb2dVertex
 10
87.95165131807285
 20
-130.0258273329449
 30
0.0
  0
SEQEND
  5
4C2
330
4BF
100
AcDbEntity
  8
0
  0
SPLINE
  5
4C3
330
4B9
100
AcDbEntity
  8
0
 62
     7
100
AcDbSpline
210
0.0
220
0.0
230
1.0
 70
    11
 71
     3
 72
    17
 73
    13
 74
     0
 42
0.0000000001
 43
0.0000000001
 40
0.0
 40
0.0
 40
0.0
 40
0.0
 40
1.0
 40
1.0
 40
1.0
 40
2.0
 40
2.0
 40
2.0
 40
3.0
 40
3.0
 40
3.0
 40
4.0
 40
4.0
 40
4.0
 40
4.0
 10
-99.9019985373075
 20
-122.4907144876065
 30
0.0
 10
-95.76254405700554
 20
-122.4907144876065
 30
0.0
 10
-92.40013086340169
 20
-125.8421033756575
 30
0.0
 10
-92.40013086340169
 20
-129.9927544162865
 30
0.0
 10
-92.40013086340169
 20
-134.1322088965885
 30
0.0
 10
-95.76254405700554
 20
-137.4891099374159
 30
0.0
 10
-99.9019985373075
 20
-137.4891099374159
 30
0.0
 10
-104.0416252723836
 20
-137.4891099374159
 30
0.0
 10
-107.3985263132111
 20
-134.1322088965885
 30
0.0
 10
-107.3985263132111
 20
-129.9927544162865
 30
0.0
 10
-107.3985263132111
 20
-125.8421033756575
 30
0.0
 10
-104.0416252723836
 20
-122.4907144876065
 30
0.0
 10
-99.9019985373075
 20
-122.4907144876065
 30
0.0
  0
POLYLINE
  5
4C4
330
4B9
100
AcDbEntity
  8
0
 62
     7
100
AcDb2dPolyline
 66
     1
 10
0.0
 20
0.0
 30
0.0
  0
VERTEX
  5
4C5
330
4C4
100
AcDbEntity
  8
0
 62
     7
100
AcDbVertex
100
AcDb2dVertex
 10
-99.9019985373075
 20
-118.0865044192631
 30
0.0
  0
VERTEX
  5
4C6
330
4C4
100
AcDbEntity
  8
0
 62
     7
100
AcDbVertex
100
AcDb2dVertex
 10
-99.9019985373075
 20
-141.9704901446289
 30
0.0
  0
SEQEND
  5
4C7
330
4C4
100
AcDbEntity
  8
0
  0
POLYLINE
  5
4C8
330
4B9
100
AcDbEntity
  8
0
 62
     7
100
AcDb2dPolyline
 66
     1
 10
0.0
 20
0.0
 30
0.0
  0
VERTEX
  5
4C9
330
4C8
100
AcDbEntity
  8
0
 62
     7
100
AcDbVertex
100
AcDb2dVertex
 10
-87.96284787839992
 20
-130.0258273329449
 30
0.0
  0
VERTEX
  5
4CA
330
4C8
100
AcDbEntity
  8
0
 62
     7
100
AcDbVertex
100
AcDb2dVertex
 10
-111.8468336037657
 20
-130.0258273329449
 30
0.0
  0
SEQEND
  5
4CB
330
4C8
100
AcDbEntity
  8
0
  0
SPLINE
  5
4CC
330
4B9
100
AcDbEntity
  8
0
 62
     7
100
AcDbSpline
210
0.0
220
0.0
230
1.0
 70
    11
 71
     3
 72
    41
 73
    37
 74
     0
 42
0.0000000001
 43
0.0000000001
 40
0.0
 40
0.0
 40
0.0
 40
0.0
 40
1.0
 40
1.0
 40
1.0
 40
2.0
 40
2.0
 40
2.0
 40
3.0
 40
3.0
 40
3.0
 40
4.0
 40
4.0
 40
4.0
 40
5.0
 40
5.0
 40
5.0
 40
6.0
 40
6.0
 40
6.0
 40
7.0
 40
7.0
 40
7.0
 40
8.0
 40
8.0
 40
8.0
 40
9.0
 40
9.0
 40
9.0
 40
10.0
 40
10.0
 40
10.0
 40
11.0
 40
11.0
 40
11.0
 40
12.0
 40
12.0
 40
12.0
 40
12.0
 10
50.27057493860424
 20
-279.377090045173
 30
0.0
 10
49.99496729978424
 20
-277.403739351222
 30
0.0
 10
48.32478500853513
 20
-276.7863782402652
 30
0.0
 10
46.54987181453441
 20
-276.7092081013956
 30
0.0
 10
31.03316174896914
 20
-275.9264824071468
 30
0.0
 10
15.53316039650734
 20
-275.4138521989417
 30
0.0
 10
-0.000086127387128
 20
-275.3752671295069
 30
0.0
 10
-15.53333265128159
 20
-275.4138521989417
 30
0.0
 10
-31.03901841129406
 20
-275.9264824071468
 30
0.0
 10
-46.55004406930866
 20
-276.7092081013956
 30
0.0
 10
-48.32495726330939
 20
-276.7863782402652
 30
0.0
 10
-50.00065170733491
 20
-277.403739351222
 30
0.0
 10
-50.27625934615489
 20
-279.377090045173
 30
0.0
 10
-49.79670205460812
 20
-281.7032185168137
 30
0.0
 10
-44.19635483378598
 20
-281.9953626139629
 30
0.0
 10
-42.45451455644366
 20
-282.2378973361245
 30
0.0
 10
-38.40859441856625
 20
-282.8001369193173
 30
0.0
 10
-34.32426146602831
 20
-283.0647202525845
 30
0.0
 10
-30.2452684114925
 20
-283.2741820580877
 30
0.0
 10
-21.86128403858849
 20
-283.7041299746469
 30
0.0
 10
-13.46627536013169
 20
-283.7978365718456
 30
0.0
 10
-5.071266681674888
 20
-283.8419337940568
 30
0.0
 10
-3.379035779320169
 20
-283.8529580996097
 30
0.0
 10
-1.68680487696545
 20
-283.8529580996097
 30
0.0
 10
-0.000086127387128
 20
-283.8529580996097
 30
0.0
 10
1.68663262219119
 20
-283.8529580996097
 30
0.0
 10
3.378863524545913
 20
-283.8529580996097
 30
0.0
 10
5.065582274124231
 20
-283.8419337940568
 30
0.0
 10
13.46059095258103
 20
-283.7978365718456
 30
0.0
 10
21.86093952903997
 20
-283.7041299746469
 30
0.0
 10
30.24492390194398
 20
-283.2741820580877
 30
0.0
 10
34.32391695647979
 20
-283.0647202525845
 30
0.0
 10
38.40842216379199
 20
-282.8001369193173
 30
0.0
 10
42.4543423016694
 20
-282.2378973361245
 30
0.0
 10
44.19618257901172
 20
-282.0008747667393
 30
0.0
 10
49.80204195261025
 20
-281.7032185168137
 30
0.0
 10
50.27057493860424
 20
-279.377090045173
 30
0.0
  0
SPLINE
  5
4CD
330
4B9
100
AcDbEntity
  8
0
 62
     7
100
AcDbSpline
210
0.0
220
0.0
230
1.0
 70
    11
 71
     3
 72
    74
 73
    70
 74
     0
 42
0.0000000001
 43
0.0000000001
 40
0.0
 40
0.0
 40
0.0
 40
0.0
 40
1.0
 40
1.0
 40
1.0
 40
2.0
 40
2.0
 40
2.0
 40
3.0
 40
3.0
 40
3.0
 40
4.0
 40
4.0
 40
4.0
 40
5.0
 40
5.0
 40
5.0
 40
6.0
 40
6.0
 40
6.0
 40
7.0
 40
7.0
 40
7.0
 40
8.0
 40
8.0
 40
8.0
 40
9.0
 40
9.0
 40
9.0
 40
10.0
 40
10.0
 40
10.0
 40
11.0
 40
11.0
 40
11.0
 40
12.0
 40
12.0
 40
12.0
 40
13.0
 40
13.0
 40
13.0
 40
14.0
 40
14.0
 40
14.0
 40
15.0
 40
15.0
 40
15.0
 40
16.0
 40
16.0
 40
16.0
 40
17.0
 40
17.0
 40
17.0
 40
18.0
 40
18.0
 40
18.0
 40
19.0
 40
19.0
 40
19.0
 40
20.0
 40
20.0
 40
20.0
 40
21.0
 40
21.0
 40
21.0
 40
22.0
 40
22.0
 40
22.0
 40
23.0
 40
23.0
 40
23.0
 40
23.0
 10
67.44093083708943
 20
-258.7506143558853
 30
0.0
 10
67.07161660107065
 20
-253.2990952600259
 30
0.0
 10
66.50386486510147
 20
-247.368191127394
 30
0.0
 10
64.50295340726836
 20
-242.2363768925659
 30
0.0
 10
62.35321382447246
 20
-236.7076876578369
 30
0.0
 10
58.24114785327826
 20
-233.4334689086555
 30
0.0
 10
53.0652363962389
 20
-230.9199272426172
 30
0.0
 10
45.57973292588805
 20
-227.3260036324046
 30
0.0
 10
37.60364785843763
 20
-227.3370279379574
 30
0.0
 10
29.47322251324802
 20
-226.9897623130442
 30
0.0
 10
21.02309230702722
 20
-226.6259602298018
 30
0.0
 10
12.56211005002787
 20
-226.3999619659694
 30
0.0
 10
4.106467691030676
 20
-226.3448404382054
 30
0.0
 10
2.739453802483541
 20
-226.339328285429
 30
0.0
 10
1.372439913936407
 20
-226.3338161326526
 30
0.0
 10
-0.000086127387128
 20
-226.3338161326526
 30
0.0
 10
-1.372612168710663
 20
-226.3338161326526
 30
0.0
 10
-2.739626057257797
 20
-226.339328285429
 30
0.0
 10
-4.106639945804936
 20
-226.3448404382054
 30
0.0
 10
-12.56779445757853
 20
-226.3999619659694
 30
0.0
 10
-21.02343681657573
 20
-226.6259602298018
 30
0.0
 10
-29.47907917557293
 20
-226.9897623130442
 30
0.0
 10
-37.60950452076255
 20
-227.3370279379574
 30
0.0
 10
-45.57990518066231
 20
-227.3260036324046
 30
0.0
 10
-53.06540865101315
 20
-230.9199272426172
 30
0.0
 10
-58.24132010805252
 20
-233.4279567558791
 30
0.0
 10
-62.35889823202312
 20
-236.7131998106133
 30
0.0
 10
-64.50312566204262
 20
-242.2363768925659
 30
0.0
 10
-66.50403711987573
 20
-247.368191127394
 30
0.0
 10
-67.0717888558449
 20
-253.2990952600259
 30
0.0
 10
-67.43559093908729
 20
-258.7506143558853
 30
0.0
 10
-67.95373330006886
 20
-266.7322115761121
 30
0.0
 10
-67.77183225844765
 20
-274.8075153935377
 30
0.0
 10
-67.67812566124887
 20
-282.8001369193173
 30
0.0
 10
-67.57339475849727
 20
-291.5093383060289
 30
0.0
 10
-67.34188434188848
 20
-300.2185396927405
 30
0.0
 10
-66.99461871697531
 20
-308.9277410794521
 30
0.0
 10
-66.91193642532931
 20
-311.0388955928132
 30
0.0
 10
-66.81271767535412
 20
-313.1555622589506
 30
0.0
 10
-66.71349892537891
 20
-315.2722289250882
 30
0.0
 10
-65.99140691167055
 20
-329.2510483660379
 30
0.0
 10
-65.15355968965778
 20
-343.1082559363583
 30
0.0
 10
-62.9707471902035
 20
-356.9492715578981
 30
0.0
 10
-61.67539128774955
 20
-365.2009642641685
 30
0.0
 10
-60.09891559369923
 20
-373.3369017621345
 30
0.0
 10
-56.83020899729418
 20
-381.0594278018705
 30
0.0
 10
-53.82057358137992
 20
-388.1645927306498
 30
0.0
 10
-49.20690170753335
 20
-394.8783948123047
 30
0.0
 10
-43.60104233393481
 20
-400.1810857832013
 30
0.0
 10
-31.68945243890923
 20
-411.4534382109387
 30
0.0
 10
-16.29952188720116
 20
-416.9821274456676
 30
0.0
 10
-0.000086127387128
 20
-417.0758340428665
 30
0.0
 10
16.2993496324269
 20
-416.9821274456676
 30
0.0
 10
31.68910792936071
 20
-411.4534382109387
 30
0.0
 10
43.60087007916056
 20
-400.1810857832013
 30
0.0
 10
49.20121729998268
 20
-394.8783948123047
 30
0.0
 10
53.82591347938206
 20
-388.1590805778734
 30
0.0
 10
56.82452458974353
 20
-381.0594278018705
 30
0.0
 10
60.09323118614857
 20
-373.3369017621345
 30
0.0
 10
61.67521903297529
 20
-365.2009642641685
 30
0.0
 10
62.97057493542924
 20
-356.9492715578981
 30
0.0
 10
65.14787528210714
 20
-343.1082559363583
 30
0.0
 10
65.99123465689629
 20
-329.2510483660379
 30
0.0
 10
66.70781451782826
 20
-315.2722289250882
 30
0.0
 10
66.80703326780346
 20
-313.1555622589506
 30
0.0
 10
66.91176417055505
 20
-311.0388955928132
 30
0.0
 10
66.99444646220104
 20
-308.9277410794521
 30
0.0
 10
67.65590479536901
 20
-292.2975761530541
 30
0.0
 10
68.48272771182897
 20
-275.3752671295069
 30
0.0
 10
67.44093083708943
 20
-258.7506143558853
 30
0.0
  0
SPLINE
  5
4CE
330
4B9
100
AcDbEntity
  8
0
 62
     7
100
AcDbSpline
210
0.0
220
0.0
230
1.0
 70
    11
 71
     3
 72
    50
 73
    46
 74
     0
 42
0.0000000001
 43
0.0000000001
 40
0.0
 40
0.0
 40
0.0
 40
0.0
 40
1.0
 40
1.0
 40
1.0
 40
2.0
 40
2.0
 40
2.0
 40
3.0
 40
3.0
 40
3.0
 40
4.0
 40
4.0
 40
4.0
 40
5.0
 40
5.0
 40
5.0
 40
6.0
 40
6.0
 40
6.0
 40
7.0
 40
7.0
 40
7.0
 40
8.0
 40
8.0
 40
8.0
 40
9.0
 40
9.0
 40
9.0
 40
10.0
 40
10.0
 40
10.0
 40
11.0
 40
11.0
 40
11.0
 40
12.0
 40
12.0
 40
12.0
 40
13.0
 40
13.0
 40
13.0
 40
14.0
 40
14.0
 40
14.0
 40
15.0
 40
15.0
 40
15.0
 40
15.0
 10
-51.75902844300642
 20
-352.6828653089647
 30
0.0
 10
-52.95516559548516
 20
-335.9207532254816
 30
0.0
 10
-53.84813434526193
 20
-319.1197115630152
 30
0.0
 10
-54.2450093451627
 20
-302.3131577477724
 30
0.0
 10
-54.57573851174669
 20
-288.587897334537
 30
0.0
 10
-54.67495726172188
 20
-274.8626369213017
 30
0.0
 10
-54.50408052565349
 20
-261.1318643552899
 30
0.0
 10
-54.4213982340075
 20
-255.4874199122566
 30
0.0
 10
-53.72135483140473
 20
-249.1980535943845
 30
0.0
 10
-50.00065170733491
 20
-244.6837727252874
 30
0.0
 10
-46.00434094444509
 20
-239.838590434832
 30
0.0
 10
-39.4338548349766
 20
-238.515673768496
 30
0.0
 10
-33.48090209123914
 20
-238.1408473797009
 30
0.0
 10
-33.48090209123914
 20
-238.1408473797009
 30
0.0
 10
-37.08585000700458
 20
-238.3888942546389
 30
0.0
 10
-37.08585000700458
 20
-238.3888942546389
 30
0.0
 10
-12.36935695762814
 20
-237.4518282826509
 30
0.0
 10
12.36918470285388
 20
-237.4518282826509
 30
0.0
 10
37.08550549745606
 20
-238.3888942546389
 30
0.0
 10
37.08550549745606
 20
-238.3888942546389
 30
0.0
 10
33.48055758169062
 20
-238.1408473797009
 30
0.0
 10
33.48055758169062
 20
-238.1408473797009
 30
0.0
 10
39.43368258020235
 20
-238.515673768496
 30
0.0
 10
46.00416868967083
 20
-239.838590434832
 30
0.0
 10
49.99496729978424
 20
-244.6837727252874
 30
0.0
 10
53.72118257663046
 20
-249.1980535943845
 30
0.0
 10
54.41571382645683
 20
-255.4874199122566
 30
0.0
 10
54.50390827087923
 20
-261.1318643552899
 30
0.0
 10
54.66376070139483
 20
-274.8626369213017
 30
0.0
 10
54.57005410419603
 20
-288.587897334537
 30
0.0
 10
54.24483709038844
 20
-302.3131577477724
 30
0.0
 10
53.84244993771126
 20
-319.1197115630152
 30
0.0
 10
52.95499334071092
 20
-335.9207532254816
 30
0.0
 10
51.75334403545576
 20
-352.6828653089647
 30
0.0
 10
50.9595940356542
 20
-363.4866847507081
 30
0.0
 10
47.38771903654717
 20
-373.8660684286689
 30
0.0
 10
40.55816174658789
 20
-382.3547837043245
 30
0.0
 10
30.58116522130436
 20
-394.7405909928947
 30
0.0
 10
15.67647636869373
 20
-400.908689949686
 30
0.0
 10
-0.000086127387128
 20
-401.0630302274252
 30
0.0
 10
-15.67664862346799
 20
-400.908689949686
 30
0.0
 10
-30.58150973085288
 20
-394.7405909928947
 30
0.0
 10
-40.55833400136215
 20
-382.3547837043245
 30
0.0
 10
-47.39340344409782
 20
-373.8660684286689
 30
0.0
 10
-50.95425413765205
 20
-363.4921969034846
 30
0.0
 10
-51.75902844300642
 20
-352.6828653089647
 30
0.0
  0
SPLINE
  5
4CF
330
4B9
100
AcDbEntity
  8
0
 62
     7
100
AcDbSpline
210
0.0
220
0.0
230
1.0
 70
    11
 71
     3
 72
    74
 73
    70
 74
     0
 42
0.0000000001
 43
0.0000000001
 40
0.0
 40
0.0
 40
0.0
 40
0.0
 40
1.0
 40
1.0
 40
1.0
 40
2.0
 40
2.0
 40
2.0
 40
3.0
 40
3.0
 40
3.0
 40
4.0
 40
4.0
 40
4.0
 40
5.0
 40
5.0
 40
5.0
 40
6.0
 40
6.0
 40
6.0
 40
7.0
 40
7.0
 40
7.0
 40
8.0
 40
8.0
 40
8.0
 40
9.0
 40
9.0
 40
9.0
 40
10.0
 40
10.0
 40
10.0
 40
11.0
 40
11.0
 40
11.0
 40
12.0
 40
12.0
 40
12.0
 40
13.0
 40
13.0
 40
13.0
 40
14.0
 40
14.0
 40
14.0
 40
15.0
 40
15.0
 40
15.0
 40
16.0
 40
16.0
 40
16.0
 40
17.0
 40
17.0
 40
17.0
 40
18.0
 40
18.0
 40
18.0
 40
19.0
 40
19.0
 40
19.0
 40
20.0
 40
20.0
 40
20.0
 40
21.0
 40
21.0
 40
21.0
 40
22.0
 40
22.0
 40
22.0
 40
23.0
 40
23.0
 40
23.0
 40
23.0
 10
-0.000086127387128
 20
-210.1556477339194
 30
0.0
 10
27.09748466661972
 20
-210.1556477339194
 30
0.0
 10
54.18971556262445
 20
-210.5690591921494
 30
0.0
 10
81.27643430585278
 20
-211.3848578030565
 30
0.0
 10
81.27643430585278
 20
-211.3848578030565
 30
0.0
 10
81.35360444472237
 20
-211.3848578030565
 30
0.0
 10
81.35360444472237
 20
-211.3848578030565
 30
0.0
 10
97.31128673239963
 20
-212.2282171778457
 30
0.0
 10
111.9346835386396
 20
-220.6232258563025
 30
0.0
 10
119.8335984672204
 20
-234.723312658333
 30
0.0
 10
123.7196661745822
 20
-241.6631130038203
 30
0.0
 10
125.6103345768873
 20
-249.4461004693225
 30
0.0
 10
125.6709682574277
 20
-257.3725761617853
 30
0.0
 10
125.7316019379681
 20
-265.7730969930185
 30
0.0
 10
125.6434074935457
 20
-274.1846421298045
 30
0.0
 10
125.6323831879929
 20
-282.5796508082613
 30
0.0
 10
125.6103345768873
 20
-302.1257445533748
 30
0.0
 10
125.5772616602289
 20
-321.6663261457119
 30
0.0
 10
125.5441887435705
 20
-341.2179320436017
 30
0.0
 10
125.5331644380177
 20
-348.8243583654849
 30
0.0
 10
125.5166279796885
 20
-356.4311291969165
 30
0.0
 10
125.5056036741357
 20
-364.0379000283481
 30
0.0
 10
125.4890672158065
 20
-371.9754000263638
 30
0.0
 10
125.7316019379681
 20
-379.9735337049198
 30
0.0
 10
124.8992668687317
 20
-387.8724486335006
 30
0.0
 10
123.1629387441658
 20
-404.453004184911
 30
0.0
 10
118.4390238147912
 20
-420.3776135559299
 30
0.0
 10
110.6286478401814
 20
-435.1171100800228
 30
0.0
 10
102.9888040920913
 20
-449.5479260486373
 30
0.0
 10
92.33932492808705
 20
-462.4405068830878
 30
0.0
 10
79.74405583401365
 20
-472.8033541027193
 30
0.0
 10
67.13776243438744
 20
-483.1772256279036
 30
0.0
 10
52.44236313250573
 20
-491.153310695354
 30
0.0
 10
36.80438570585967
 20
-495.8717134719522
 30
0.0
 10
24.79891695886103
 20
-499.4987099988232
 30
0.0
 10
12.52352498059308
 20
-501.246062428942
 30
0.0
 10
-0.000086127387128
 20
-501.4004027066811
 30
0.0
 10
-17.77126667849989
 20
-501.1854287484015
 30
0.0
 10
-35.02981702140747
 20
-497.6025294437418
 30
0.0
 10
-51.31254406811804
 20
-490.4257065288692
 30
0.0
 10
-67.13793468916169
 20
-483.4473211139472
 30
0.0
 10
-81.66245725497502
 20
-472.8750120888125
 30
0.0
 10
-93.17183225209767
 20
-459.9655502864843
 30
0.0
 10
-104.9180575638312
 20
-446.7863375076611
 30
0.0
 10
-113.9414516587976
 20
-431.3798704976238
 30
0.0
 10
-119.3874586018805
 20
-414.5512680712753
 30
0.0
 10
-122.055340545658
 20
-406.3105996705577
 30
0.0
 10
-123.9129360313047
 20
-397.7392021032562
 30
0.0
 10
-124.7728318644231
 20
-389.118195160967
 30
0.0
 10
-125.6768249197526
 20
-380.1719712048702
 30
0.0
 10
-125.489411725355
 20
-371.2036986376678
 30
0.0
 10
-125.5114603364606
 20
-362.229913917689
 30
0.0
 10
-125.544533253119
 20
-343.6815198251039
 30
0.0
 10
-125.572094017001
 20
-325.1334702420673
 30
0.0
 10
-125.599654780883
 20
-306.5905883022586
 30
0.0
 10
-125.627215544765
 20
-290.2470553202334
 30
0.0
 10
-125.6713127669762
 20
-273.9090344909846
 30
0.0
 10
-125.654776308647
 20
-257.5599893561829
 30
0.0
 10
-125.6437520030942
 20
-241.5253091844103
 30
0.0
 10
-117.629081866209
 20
-227.0944932157958
 30
0.0
 10
-104.2621113834396
 20
-218.3522189124258
 30
0.0
 10
-97.45477495936027
 20
-213.9039116218712
 30
0.0
 10
-89.40703190581665
 20
-211.8092935668393
 30
0.0
 10
-81.35928885227302
 20
-211.3848578030565
 30
0.0
 10
-81.35928885227302
 20
-211.3848578030565
 30
0.0
 10
-81.27660656062703
 20
-211.3848578030565
 30
0.0
 10
-81.27660656062703
 20
-211.3848578030565
 30
0.0
 10
-54.18988781739871
 20
-210.5690591921494
 30
0.0
 10
-27.09782917616825
 20
-210.1556477339194
 30
0.0
 10
-0.000086127387128
 20
-210.1556477339194
 30
0.0
  0
SPLINE
  5
4D0
330
4B9
100
AcDbEntity
  8
0
 62
     7
100
AcDbSpline
210
0.0
220
0.0
230
1.0
 70
    11
 71
     3
 72
    77
 73
    73
 74
     0
 42
0.0000000001
 43
0.0000000001
 40
0.0
 40
0.0
 40
0.0
 40
0.0
 40
1.0
 40
1.0
 40
1.0
 40
2.0
 40
2.0
 40
2.0
 40
3.0
 40
3.0
 40
3.0
 40
4.0
 40
4.0
 40
4.0
 40
5.0
 40
5.0
 40
5.0
 40
6.0
 40
6.0
 40
6.0
 40
7.0
 40
7.0
 40
7.0
 40
8.0
 40
8.0
 40
8.0
 40
9.0
 40
9.0
 40
9.0
 40
10.0
 40
10.0
 40
10.0
 40
11.0
 40
11.0
 40
11.0
 40
12.0
 40
12.0
 40
12.0
 40
13.0
 40
13.0
 40
13.0
 40
14.0
 40
14.0
 40
14.0
 40
15.0
 40
15.0
 40
15.0
 40
16.0
 40
16.0
 40
16.0
 40
17.0
 40
17.0
 40
17.0
 40
18.0
 40
18.0
 40
18.0
 40
19.0
 40
19.0
 40
19.0
 40
20.0
 40
20.0
 40
20.0
 40
21.0
 40
21.0
 40
21.0
 40
22.0
 40
22.0
 40
22.0
 40
23.0
 40
23.0
 40
23.0
 40
24.0
 40
24.0
 40
24.0
 40
24.0
 10
-0.000086127387128
 20
-513.9846474952017
 30
0.0
 10
-17.29722153972951
 20
-513.7200641619346
 30
0.0
 10
-33.93289861890393
 20
-510.6663315238091
 30
0.0
 10
-50.1384555267449
 20
-504.5919391642166
 30
0.0
 10
-65.69375066174496
 20
-498.7545693740092
 30
0.0
 10
-80.13559093591229
 20
-489.6319565290677
 30
0.0
 10
-92.5048617661533
 20
-478.591114517939
 30
0.0
 10
-104.8023023555268
 20
-467.6053940345743
 30
0.0
 10
-115.3139777001211
 20
-454.2825207740162
 30
0.0
 10
-122.8601148510124
 20
-439.5929781344594
 30
0.0
 10
-130.9850280434256
 20
-423.7620753606393
 30
0.0
 10
-135.9459655421853
 20
-406.9500093926201
 30
0.0
 10
-137.996486375006
 20
-389.2835597442589
 30
0.0
 10
-138.9776495692052
 20
-380.8113809269325
 30
0.0
 10
-138.7240905414908
 20
-372.212422595749
 30
0.0
 10
-138.7461391525964
 20
-363.7016587089878
 30
0.0
 10
-138.7626756109256
 20
-357.8312160021221
 30
0.0
 10
-138.7847242220312
 20
-351.9662854480327
 30
0.0
 10
-138.795748527584
 20
-346.1013548939434
 30
0.0
 10
-138.8453579025716
 20
-322.7246594787806
 30
0.0
 10
-138.8949672775592
 20
-299.3476195540694
 30
0.0
 10
-138.9500888053232
 20
-275.9760917821345
 30
0.0
 10
-138.9776495692052
 20
-261.8594685217747
 30
0.0
 10
-140.3060783883175
 20
-246.9878525858224
 30
0.0
 10
-134.5403665842034
 20
-233.7201008530283
 30
0.0
 10
-127.8265645025485
 20
-218.258512315227
 30
0.0
 10
-115.3360263112267
 20
-205.834119957222
 30
0.0
 10
-99.23502805136312
 20
-200.3826008613627
 30
0.0
 10
-93.60178016865685
 20
-198.4753960007284
 30
0.0
 10
-87.78094683677872
 20
-197.3839897510012
 30
0.0
 10
-81.84435829659619
 20
-197.1635036399452
 30
0.0
 10
-81.84435829659619
 20
-197.1635036399452
 30
0.0
 10
-81.7506516993974
 20
-197.1579914871688
 30
0.0
 10
-81.7506516993974
 20
-197.1579914871688
 30
0.0
 10
-54.50959267842989
 20
-196.3311685707089
 30
0.0
 10
-27.25216945390744
 20
-195.9177571124789
 30
0.0
 10
-0.000086127387128
 20
-195.9122449597025
 30
0.0
 10
27.25182494435892
 20
-195.9177571124789
 30
0.0
 10
54.50942042365564
 20
-196.3311685707089
 30
0.0
 10
81.74496729184674
 20
-197.1579914871688
 30
0.0
 10
81.74496729184674
 20
-197.1579914871688
 30
0.0
 10
81.83867388904555
 20
-197.1635036399452
 30
0.0
 10
81.83867388904555
 20
-197.1635036399452
 30
0.0
 10
88.03433360971885
 20
-197.4335991259888
 30
0.0
 10
94.32369992759095
 20
-198.4588595423992
 30
0.0
 10
100.1390211066926
 20
-200.6967935696174
 30
0.0
 10
115.6112894404982
 20
-206.660942873682
 30
0.0
 10
128.4931904789444
 20
-218.423876898519
 30
0.0
 10
134.6502651301829
 20
-234.0177571029538
 30
0.0
 10
137.7591192960723
 20
-241.8946234204291
 30
0.0
 10
138.9993536707623
 20
-249.9477063719749
 30
0.0
 10
138.9828172124331
 20
-258.3868122726429
 30
0.0
 10
138.9717929068803
 20
-264.3289129656018
 30
0.0
 10
138.9552564485511
 20
-270.2710136585607
 30
0.0
 10
138.9442321429983
 20
-276.2076021987433
 30
0.0
 10
138.8946227680107
 20
-299.4192775401625
 30
0.0
 10
138.8450133930231
 20
-322.6254407288054
 30
0.0
 10
138.7954040180355
 20
-345.8367715606762
 30
0.0
 10
138.7623311013771
 20
-360.1408080154335
 30
0.0
 10
139.4954474206383
 20
-374.6598184284704
 30
0.0
 10
138.0237026293395
 20
-388.9032212026874
 30
0.0
 10
136.2267408242332
 20
-406.2775267538993
 30
0.0
 10
131.2823397838026
 20
-423.2108600829993
 30
0.0
 10
123.3007425635758
 20
-438.7551309124466
 30
0.0
 10
115.539631454405
 20
-453.8691093157861
 30
0.0
 10
104.9621547860424
 20
-467.1919825763444
 30
0.0
 10
92.46059228916784
 20
-478.6352117401502
 30
0.0
 10
80.14093083391442
 20
-489.9130763206641
 30
0.0
 10
65.38489785149232
 20
-498.6829113879161
 30
0.0
 10
49.85165132759785
 20
-504.6911579141918
 30
0.0
 10
33.91050549824981
 20
-510.8647690237595
 30
0.0
 10
17.06002671557006
 20
-513.8027464535805
 30
0.0
 10
-0.000086127387128
 20
-513.9846474952017
 30
0.0
  0
SPLINE
  5
4D1
330
4B9
100
AcDbEntity
  8
0
 62
     7
100
AcDbSpline
210
0.0
220
0.0
230
1.0
 70
    11
 71
     3
 72
    77
 73
    73
 74
     0
 42
0.0000000001
 43
0.0000000001
 40
0.0
 40
0.0
 40
0.0
 40
0.0
 40
1.0
 40
1.0
 40
1.0
 40
2.0
 40
2.0
 40
2.0
 40
3.0
 40
3.0
 40
3.0
 40
4.0
 40
4.0
 40
4.0
 40
5.0
 40
5.0
 40
5.0
 40
6.0
 40
6.0
 40
6.0
 40
7.0
 40
7.0
 40
7.0
 40
8.0
 40
8.0
 40
8.0
 40
9.0
 40
9.0
 40
9.0
 40
10.0
 40
10.0
 40
10.0
 40
11.0
 40
11.0
 40
11.0
 40
12.0
 40
12.0
 40
12.0
 40
13.0
 40
13.0
 40
13.0
 40
14.0
 40
14.0
 40
14.0
 40
15.0
 40
15.0
 40
15.0
 40
16.0
 40
16.0
 40
16.0
 40
17.0
 40
17.0
 40
17.0
 40
18.0
 40
18.0
 40
18.0
 40
19.0
 40
19.0
 40
19.0
 40
20.0
 40
20.0
 40
20.0
 40
21.0
 40
21.0
 40
21.0
 40
22.0
 40
22.0
 40
22.0
 40
23.0
 40
23.0
 40
23.0
 40
24.0
 40
24.0
 40
24.0
 40
24.0
 10
-0.000086127387128
 20
0.0
 30
0.0
 10
-0.000086127387128
 20
0.0
 30
0.0
 10
-181.9171474425849
 20
0.0
 30
0.0
 10
-181.9171474425849
 20
0.0
 30
0.0
 10
-183.5652811227284
 20
0.0
 30
0.0
 10
-184.91024640017
 20
-1.339453124665169
 30
0.0
 10
-184.91024640017
 20
-2.99861111036148
 30
0.0
 10
-184.91024640017
 20
-2.99861111036148
 30
0.0
 10
-185.0039529973687
 20
-111.2348985181982
 30
0.0
 10
-185.0039529973687
 20
-111.2348985181982
 30
0.0
 10
-185.0039529973687
 20
-111.2348985181982
 30
0.0
 10
-184.9598557751576
 20
-219.1349446066746
 30
0.0
 10
-184.9598557751576
 20
-219.1349446066746
 30
0.0
 10
-184.9598557751576
 20
-219.1349446066746
 30
0.0
 10
-184.7889790390892
 20
-326.7540431583288
 30
0.0
 10
-184.7889790390892
 20
-326.7540431583288
 30
0.0
 10
-184.7889790390892
 20
-326.7540431583288
 30
0.0
 10
-184.6787359835612
 20
-373.6676309287185
 30
0.0
 10
-184.6787359835612
 20
-373.6676309287185
 30
0.0
 10
-184.4747863308344
 20
-390.6175007161477
 30
0.0
 10
-182.5730936229765
 20
-407.4185423786141
 30
0.0
 10
-178.1799078601859
 20
-423.8227090411798
 30
0.0
 10
-173.7756977918425
 20
-440.2709729259566
 30
0.0
 10
-167.0508714046348
 20
-456.0739704263461
 30
0.0
 10
-158.2589877262772
 20
-470.6536145199234
 30
0.0
 10
-149.5334221360107
 20
-485.1119912524199
 30
0.0
 10
-138.8012606803604
 20
-498.3466700685557
 30
0.0
 10
-126.5036478362126
 20
-509.9001422878895
 30
0.0
 10
-114.2721808253816
 20
-521.392980826683
 30
0.0
 10
-100.4807745788294
 20
-531.2156370742274
 30
0.0
 10
-85.60915864287721
 20
-538.9932846417273
 30
0.0
 10
-70.70429753549233
 20
-546.7819565147802
 30
0.0
 10
-54.72456663670948
 20
-552.5090832494595
 30
0.0
 10
-38.27079059915625
 20
-555.9872516513678
 30
0.0
 10
-25.65364514875152
 20
-558.6551335951453
 30
0.0
 10
-12.88198716583332
 20
-559.8567829004004
 30
0.0
 10
-0.000086127387128
 20
-560.0000988725867
 30
0.0
 10
12.88181491105906
 20
-559.8567829004004
 30
0.0
 10
25.65330063920299
 20
-558.6551335951453
 30
0.0
 10
38.2651061916056
 20
-555.9872516513678
 30
0.0
 10
54.72439438193522
 20
-552.5090832494595
 30
0.0
 10
70.70412528071807
 20
-546.7819565147802
 30
0.0
 10
85.61449854087937
 20
-538.987772488951
 30
0.0
 10
100.4807745788294
 20
-531.2156370742274
 30
0.0
 10
114.2663241630566
 20
-521.392980826683
 30
0.0
 10
126.5033033266641
 20
-509.9001422878895
 30
0.0
 10
138.8009161708119
 20
-498.3466700685557
 30
0.0
 10
149.5385897792386
 20
-485.1064790996435
 30
0.0
 10
158.2533033187266
 20
-470.6536145199234
 30
0.0
 10
167.0506991498606
 20
-456.0739704263461
 30
0.0
 10
173.7755255370682
 20
-440.2709729259566
 30
0.0
 10
178.1797356054116
 20
-423.8171968884033
 30
0.0
 10
182.5729213682022
 20
-407.4185423786141
 30
0.0
 10
184.4746140760601
 20
-390.6175007161477
 30
0.0
 10
184.6785637287869
 20
-373.6676309287185
 30
0.0
 10
184.6785637287869
 20
-373.6676309287185
 30
0.0
 10
184.8218797009733
 20
-311.2042601761052
 30
0.0
 10
184.8218797009733
 20
-311.2042601761052
 30
0.0
 10
184.8218797009733
 20
-311.2042601761052
 30
0.0
 10
184.9707078259361
 20
-203.9214029438113
 30
0.0
 10
184.9707078259361
 20
-203.9214029438113
 30
0.0
 10
184.9707078259361
 20
-203.9214029438113
 30
0.0
 10
184.9982685898181
 20
-96.03789331366414
 30
0.0
 10
184.9982685898181
 20
-96.03789331366414
 30
0.0
 10
184.9982685898181
 20
-96.03789331366414
 30
0.0
 10
184.9100741453957
 20
-2.99861111036148
 30
0.0
 10
184.9100741453957
 20
-2.99861111036148
 30
0.0
 10
184.8990498398429
 20
-1.344965277441531
 30
0.0
 10
183.5320359512958
 20
-0.0110243055528372
 30
0.0
 10
181.894926576705
 20
0.0
 30
0.0
 10
181.894926576705
 20
0.0
 30
0.0
 10
-0.000086127387128
 20
0.0
 30
0.0
 10
-0.000086127387128
 20
0.0
 30
0.0
  0
ENDBLK
  5
4D3
330
4B9
100
AcDbEntity
  8
0
100
AcDbBlockEnd
  0
ENDSEC
  0
SECTION
  2
ENTITIES
  0
INSERT
  5
4D4
330
1F
100
AcDbEntity
  8
0
100
AcDbBlockReference
  2
823331D
 10
0.0
 20
0.0
 30
0.0
  0
ENDSEC
  0
SECTION
  2
OBJECTS
  0
DICTIONARY
  5
C
330
0
100
AcDbDictionary
  3
ACAD_GROUP
350
D
  3
ACAD_MLINESTYLE
350
17
  3
ACAD_PLOTSETTINGS
350
19
  3
ACAD_LAYOUT
350
1A
1001
ACAD
1000
TREAT_AS_HARD
1070
     0
  0
DICTIONARY
  5
4D8
330
1F
100
AcDbDictionary
  3
ACAD_LAYOUTSELFREF
350
4D9
  0
DICTIONARY
  5
4D6
330
1B
100
AcDbDictionary
  3
ACAD_LAYOUTSELFREF
350
4D7
  0
DICTIONARY
  5
D
102
{ACAD_REACTORS
330
C
102
}
330
C
100
AcDbDictionary
1001
ACAD
1000
TREAT_AS_HARD
1070
     0
  0
DICTIONARY
  5
17
102
{ACAD_REACTORS
330
C
102
}
330
C
100
AcDbDictionary
  3
STANDARD
350
18
1001
ACAD
1000
TREAT_AS_HARD
1070
     0
  0
DICTIONARY
  5
19
102
{ACAD_REACTORS
330
C
102
}
330
C
100
AcDbDictionary
1001
ACAD
1000
TREAT_AS_HARD
1070
     0
  0
DICTIONARY
  5
1A
102
{ACAD_REACTORS
330
C
102
}
330
C
100
AcDbDictionary
1001
ACAD
1000
TREAT_AS_HARD
1070
     0
  0
XRECORD
  5
4D9
102
{ACAD_REACTORS
330
4D8
102
}
330
4D8
100
AcDbXrecord
340
1F
  0
XRECORD
  5
4D7
102
{ACAD_REACTORS
330
4D6
102
}
330
4D6
100
AcDbXrecord
340
1B
  0
MLINESTYLE
  5
18
102
{ACAD_REACTORS
330
17
102
}
330
17
100
AcDbMlineStyle
  2
STANDARD
 70
     0
  3

 62
   256
 51
90.0
 52
90.0
 71
     2
 49
0.5
 62
   256
  6
BYLAYER
 49
-0.5
 62
   256
  6
BYLAYER
  0
ENDSEC
  0
EOF
