  0
SECTION
  2
HEADER
  9
$ACADVER
  1
AC1027
  9
$ACADMAINTVER
 70
   125
  9
$DWGCODEPAGE
  3
ANSI_1252
  9
$LASTSAVEDBY
  1
fleminab
  9
$REQUIREDVERSIONS
160
                 0
  9
$INSBASE
 10
0.0
 20
0.0
 30
0.0
  9
$EXTMIN
 10
1.627873779563472
 20
0.7456007707380437
 30
-0.0000000349181948
  9
$EXTMAX
 10
15.0178022893691
 20
11.92504739784307
 30
0.0000000814935746
  9
$LIMMIN
 10
0.0
 20
0.0
  9
$LIMMAX
 10
12.0
 20
9.0
  9
$ORTHOMODE
 70
     0
  9
$REGENMODE
 70
     1
  9
$FILLMODE
 70
     1
  9
$QTEXTMODE
 70
     0
  9
$MIRRTEXT
 70
     0
  9
$LTSCALE
 40
1.0
  9
$ATTMODE
 70
     1
  9
$TEXTSIZE
 40
0.2
  9
$TRACEWID
 40
0.05
  9
$TEXTSTYLE
  7
Standard
  9
$CLAYER
  8
0
  9
$CELTYPE
  6
ByLayer
  9
$CECOLOR
 62
   256
  9
$CELTSCALE
 40
1.0
  9
$DISPSILH
 70
     0
  9
$DIMSCALE
 40
1.0
  9
$DIMASZ
 40
0.18
  9
$DIMEXO
 40
0.0625
  9
$DIMDLI
 40
0.38
  9
$DIMRND
 40
0.0
  9
$DIMDLE
 40
0.0
  9
$DIMEXE
 40
0.18
  9
$DIMTP
 40
0.0
  9
$DIMTM
 40
0.0
  9
$DIMTXT
 40
0.18
  9
$DIMCEN
 40
0.09
  9
$DIMTSZ
 40
0.0
  9
$DIMTOL
 70
     0
  9
$DIMLIM
 70
     0
  9
$DIMTIH
 70
     1
  9
$DIMTOH
 70
     1
  9
$DIMSE1
 70
     0
  9
$DIMSE2
 70
     0
  9
$DIMTAD
 70
     0
  9
$DIMZIN
 70
     0
  9
$DIMBLK
  1

  9
$DIMASO
 70
     1
  9
$DIMSHO
 70
     1
  9
$DIMPOST
  1

  9
$DIMAPOST
  1

  9
$DIMALT
 70
     0
  9
$DIMALTD
 70
     2
  9
$DIMALTF
 40
25.4
  9
$DIMLFAC
 40
1.0
  9
$DIMTOFL
 70
     0
  9
$DIMTVP
 40
0.0
  9
$DIMTIX
 70
     0
  9
$DIMSOXD
 70
     0
  9
$DIMSAH
 70
     0
  9
$DIMBLK1
  1

  9
$DIMBLK2
  1

  9
$DIMSTYLE
  2
Standard
  9
$DIMCLRD
 70
     0
  9
$DIMCLRE
 70
     0
  9
$DIMCLRT
 70
     0
  9
$DIMTFAC
 40
1.0
  9
$DIMGAP
 40
0.09
  9
$DIMJUST
 70
     0
  9
$DIMSD1
 70
     0
  9
$DIMSD2
 70
     0
  9
$DIMTOLJ
 70
     1
  9
$DIMTZIN
 70
     0
  9
$DIMALTZ
 70
     0
  9
$DIMALTTZ
 70
     0
  9
$DIMUPT
 70
     0
  9
$DIMDEC
 70
     4
  9
$DIMTDEC
 70
     4
  9
$DIMALTU
 70
     2
  9
$DIMALTTD
 70
     2
  9
$DIMTXSTY
  7
Standard
  9
$DIMAUNIT
 70
     0
  9
$DIMADEC
 70
     0
  9
$DIMALTRND
 40
0.0
  9
$DIMAZIN
 70
     0
  9
$DIMDSEP
 70
    46
  9
$DIMATFIT
 70
     3
  9
$DIMFRAC
 70
     0
  9
$DIMLDRBLK
  1

  9
$DIMLUNIT
 70
     2
  9
$DIMLWD
 70
    -2
  9
$DIMLWE
 70
    -2
  9
$DIMTMOVE
 70
     0
  9
$DIMFXL
 40
1.0
  9
$DIMFXLON
 70
     0
  9
$DIMJOGANG
 40
0.7853981633974483
  9
$DIMTFILL
 70
     0
  9
$DIMTFILLCLR
 70
     0
  9
$DIMARCSYM
 70
     0
  9
$DIMLTYPE
  6

  9
$DIMLTEX1
  6

  9
$DIMLTEX2
  6

  9
$DIMTXTDIRECTION
 70
     0
  9
$LUNITS
 70
     2
  9
$LUPREC
 70
     4
  9
$SKETCHINC
 40
0.1
  9
$FILLETRAD
 40
0.0
  9
$AUNITS
 70
     0
  9
$AUPREC
 70
     0
  9
$MENU
  1
.
  9
$ELEVATION
 40
0.0
  9
$PELEVATION
 40
0.0
  9
$THICKNESS
 40
0.0
  9
$LIMCHECK
 70
     0
  9
$CHAMFERA
 40
0.0
  9
$CHAMFERB
 40
0.0
  9
$CHAMFERC
 40
0.0
  9
$CHAMFERD
 40
0.0
  9
$SKPOLY
 70
     0
  9
$TDCREATE
 40
2458192.358923611
  9
$TDUCREATE
 40
2458191.900590278
  9
$TDUPDATE
 40
2458192.359525463
  9
$TDUUPDATE
 40
2458191.901192130
  9
$TDINDWG
 40
0.0006018519
  9
$TDUSRTIMER
 40
0.0006018519
  9
$USRTIMER
 70
     1
  9
$ANGBASE
 50
0.0
  9
$ANGDIR
 70
     0
  9
$PDMODE
 70
     0
  9
$PDSIZE
 40
0.0
  9
$PLINEWID
 40
0.0
  9
$SPLFRAME
 70
     0
  9
$SPLINETYPE
 70
     6
  9
$SPLINESEGS
 70
     8
  9
$HANDSEED
  5
536
  9
$SURFTAB1
 70
     6
  9
$SURFTAB2
 70
     6
  9
$SURFTYPE
 70
     6
  9
$SURFU
 70
     6
  9
$SURFV
 70
     6
  9
$UCSBASE
  2

  9
$UCSNAME
  2

  9
$UCSORG
 10
0.0
 20
0.0
 30
0.0
  9
$UCSXDIR
 10
1.0
 20
0.0
 30
0.0
  9
$UCSYDIR
 10
0.0
 20
1.0
 30
0.0
  9
$UCSORTHOREF
  2

  9
$UCSORTHOVIEW
 70
     0
  9
$UCSORGTOP
 10
0.0
 20
0.0
 30
0.0
  9
$UCSORGBOTTOM
 10
0.0
 20
0.0
 30
0.0
  9
$UCSORGLEFT
 10
0.0
 20
0.0
 30
0.0
  9
$UCSORGRIGHT
 10
0.0
 20
0.0
 30
0.0
  9
$UCSORGFRONT
 10
0.0
 20
0.0
 30
0.0
  9
$UCSORGBACK
 10
0.0
 20
0.0
 30
0.0
  9
$PUCSBASE
  2

  9
$PUCSNAME
  2

  9
$PUCSORG
 10
0.0
 20
0.0
 30
0.0
  9
$PUCSXDIR
 10
1.0
 20
0.0
 30
0.0
  9
$PUCSYDIR
 10
0.0
 20
1.0
 30
0.0
  9
$PUCSORTHOREF
  2

  9
$PUCSORTHOVIEW
 70
     0
  9
$PUCSORGTOP
 10
0.0
 20
0.0
 30
0.0
  9
$PUCSORGBOTTOM
 10
0.0
 20
0.0
 30
0.0
  9
$PUCSORGLEFT
 10
0.0
 20
0.0
 30
0.0
  9
$PUCSORGRIGHT
 10
0.0
 20
0.0
 30
0.0
  9
$PUCSORGFRONT
 10
0.0
 20
0.0
 30
0.0
  9
$PUCSORGBACK
 10
0.0
 20
0.0
 30
0.0
  9
$USERI1
 70
     0
  9
$USERI2
 70
     0
  9
$USERI3
 70
     0
  9
$USERI4
 70
     0
  9
$USERI5
 70
     0
  9
$USERR1
 40
0.0
  9
$USERR2
 40
0.0
  9
$USERR3
 40
0.0
  9
$USERR4
 40
0.0
  9
$USERR5
 40
0.0
  9
$WORLDVIEW
 70
     1
  9
$SHADEDGE
 70
     3
  9
$SHADEDIF
 70
    70
  9
$TILEMODE
 70
     1
  9
$MAXACTVP
 70
    64
  9
$PINSBASE
 10
0.0
 20
0.0
 30
0.0
  9
$PLIMCHECK
 70
     0
  9
$PEXTMIN
 10
1.000000000000000E+20
 20
1.000000000000000E+20
 30
1.000000000000000E+20
  9
$PEXTMAX
 10
-1.000000000000000E+20
 20
-1.000000000000000E+20
 30
-1.000000000000000E+20
  9
$PLIMMIN
 10
-0.7524054877282309
 20
-0.5025428238148726
  9
$PLIMMAX
 10
35.24759547345533
 20
23.49745621500156
  9
$UNITMODE
 70
     0
  9
$VISRETAIN
 70
     1
  9
$PLINEGEN
 70
     0
  9
$PSLTSCALE
 70
     1
  9
$TREEDEPTH
 70
  3020
  9
$CMLSTYLE
  2
Standard
  9
$CMLJUST
 70
     0
  9
$CMLSCALE
 40
1.0
  9
$PROXYGRAPHICS
 70
     1
  9
$MEASUREMENT
 70
     0
  9
$CELWEIGHT
370
    -1
  9
$ENDCAPS
280
     0
  9
$JOINSTYLE
280
     0
  9
$LWDISPLAY
290
     0
  9
$INSUNITS
 70
     1
  9
$HYPERLINKBASE
  1

  9
$STYLESHEET
  1

  9
$XEDIT
290
     1
  9
$CEPSNTYPE
380
     0
  9
$PSTYLEMODE
290
     1
  9
$FINGERPRINTGUID
  2
{0CAAA4FD-1130-4E4B-9B62-E60D852A5C9A}
  9
$VERSIONGUID
  2
{ABD09B30-F3DD-2C4A-A26D-CA8F84A39E90}
  9
$EXTNAMES
290
     1
  9
$PSVPSCALE
 40
0.0
  9
$OLESTARTUP
290
     0
  9
$SORTENTS
280
   127
  9
$INDEXCTL
280
     0
  9
$HIDETEXT
280
     0
  9
$XCLIPFRAME
280
     0
  9
$HALOGAP
280
     0
  9
$OBSCOLOR
 70
   257
  9
$OBSLTYPE
280
     0
  9
$INTERSECTIONDISPLAY
280
     0
  9
$INTERSECTIONCOLOR
 70
   257
  9
$DIMASSOC
280
     1
  9
$PROJECTNAME
  1

  9
$CAMERADISPLAY
290
     0
  9
$LENSLENGTH
 40
50.0
  9
$CAMERAHEIGHT
 40
0.0
  9
$STEPSPERSEC
 40
2.0
  9
$STEPSIZE
 40
6.0
  9
$3DDWFPREC
 40
2.0
  9
$PSOLWIDTH
 40
0.25
  9
$PSOLHEIGHT
 40
4.0
  9
$LOFTANG1
 40
1.570796326794896
  9
$LOFTANG2
 40
1.570796326794896
  9
$LOFTMAG1
 40
0.0
  9
$LOFTMAG2
 40
0.0
  9
$LOFTPARAM
 70
     7
  9
$LOFTNORMALS
280
     1
  9
$LATITUDE
 40
37.795
  9
$LONGITUDE
 40
-122.394
  9
$NORTHDIRECTION
 40
0.0
  9
$TIMEZONE
 70
 -8000
  9
$LIGHTGLYPHDISPLAY
280
     1
  9
$TILEMODELIGHTSYNCH
280
     1
  9
$CMATERIAL
347
7F
  9
$SOLIDHIST
280
     1
  9
$SHOWHIST
280
     1
  9
$DWFFRAME
280
     2
  9
$DGNFRAME
280
     0
  9
$REALWORLDSCALE
290
     1
  9
$INTERFERECOLOR
 62
     1
  9
$INTERFEREOBJVS
345
8C
  9
$INTERFEREVPVS
346
A5
  9
$CSHADOW
280
     0
  9
$SHADOWPLANELOCATION
 40
0.0
  0
ENDSEC
  0
SECTION
  2
CLASSES
  0
CLASS
  1
ACDBDICTIONARYWDFLT
  2
AcDbDictionaryWithDefault
  3
ObjectDBX Classes
 90
        0
 91
        1
280
     0
281
     0
  0
CLASS
  1
PLOTSETTINGS
  2
AcDbPlotSettings
  3
ObjectDBX Classes
 90
        0
 91
        0
280
     0
281
     0
  0
CLASS
  1
MATERIAL
  2
AcDbMaterial
  3
ObjectDBX Classes
 90
     1153
 91
        3
280
     0
281
     0
  0
CLASS
  1
VISUALSTYLE
  2
AcDbVisualStyle
  3
ObjectDBX Classes
 90
     4095
 91
       26
280
     0
281
     0
  0
CLASS
  1
TABLESTYLE
  2
AcDbTableStyle
  3
ObjectDBX Classes
 90
     4095
 91
        1
280
     0
281
     0
  0
CLASS
  1
DICTIONARYVAR
  2
AcDbDictionaryVar
  3
ObjectDBX Classes
 90
        0
 91
       17
280
     0
281
     0
  0
CLASS
  1
SCALE
  2
AcDbScale
  3
ObjectDBX Classes
 90
     1153
 91
       17
280
     0
281
     0
  0
CLASS
  1
MLEADERSTYLE
  2
AcDbMLeaderStyle
  3
ACDB_MLEADERSTYLE_CLASS
 90
     4095
 91
        1
280
     0
281
     0
  0
CLASS
  1
ACDBSECTIONVIEWSTYLE
  2
AcDbSectionViewStyle
  3
ObjectDBX Classes
 90
     1025
 91
        1
280
     0
281
     0
  0
CLASS
  1
ACDBDETAILVIEWSTYLE
  2
AcDbDetailViewStyle
  3
ObjectDBX Classes
 90
     1025
 91
        1
280
     0
281
     0
  0
CLASS
  1
CELLSTYLEMAP
  2
AcDbCellStyleMap
  3
ObjectDBX Classes
 90
     1152
 91
        1
280
     0
281
     0
  0
ENDSEC
  0
SECTION
  2
TABLES
  0
TABLE
  2
VPORT
  5
19
330
0
100
AcDbSymbolTable
 70
     1
1001
ACAD
1000
DbSaveVer
1071
        5
  0
VPORT
  5
7D
330
19
100
AcDbSymbolTableRecord
100
AcDbViewportTableRecord
  2
*Active
 70
     0
 10
0.0
 20
0.0
 11
1.0
 21
1.0
 12
8.322838034466286
 22
6.335324084290558
 13
0.0
 23
0.0
 14
0.5
 24
0.5
 15
0.5
 25
0.5
 16
0.0
 26
0.0
 36
1.0
 17
0.0
 27
0.0
 37
0.0
 40
11.25949039770482
 41
2.292712066905615
 42
50.0
 43
0.0
 44
0.0
 50
0.0
 51
0.0
 71
     0
 72
  1000
 73
     1
 74
     3
 75
     0
 76
     0
 77
     0
 78
     0
281
     0
 65
     1
110
0.0
120
0.0
130
0.0
111
1.0
121
0.0
131
0.0
112
0.0
122
1.0
132
0.0
 79
     0
146
0.0
348
88
 60
     3
 61
     5
292
     1
282
     1
141
0.0
142
0.0
 63
   250
421
  3355443
1001
ACAD_NAV_VCDISPLAY
1070
     3
  0
ENDTAB
  0
TABLE
  2
LTYPE
  5
14
330
0
100
AcDbSymbolTable
 70
     1
  0
LTYPE
  5
15
330
14
100
AcDbSymbolTableRecord
100
AcDbLinetypeTableRecord
  2
ByBlock
 70
     0
  3

 72
    65
 73
     0
 40
0.0
  0
LTYPE
  5
16
330
14
100
AcDbSymbolTableRecord
100
AcDbLinetypeTableRecord
  2
ByLayer
 70
     0
  3

 72
    65
 73
     0
 40
0.0
  0
LTYPE
  5
8
330
14
100
AcDbSymbolTableRecord
100
AcDbLinetypeTableRecord
  2
Continuous
 70
     0
  3
Solid line
 72
    65
 73
     0
 40
0.0
  0
ENDTAB
  0
TABLE
  2
LAYER
  5
10
330
0
100
AcDbSymbolTable
 70
     4
  0
LAYER
  5
4
102
{ACAD_XDICTIONARY
360
511
102
}
330
10
100
AcDbSymbolTableRecord
100
AcDbLayerTableRecord
  2
0
 70
     0
 62
     7
  6
Continuous
370
    -3
390
5
347
81
348
0
  0
LAYER
  5
25
102
{ACAD_XDICTIONARY
360
513
102
}
330
10
100
AcDbSymbolTableRecord
100
AcDbLayerTableRecord
  2
Title Block
 70
     0
 62
     7
  6
Continuous
370
    -3
390
5
347
81
348
0
  0
LAYER
  5
CE
102
{ACAD_XDICTIONARY
360
515
102
}
330
10
100
AcDbSymbolTableRecord
100
AcDbLayerTableRecord
  2
PDF_Layer 1
 70
     0
 62
   178
420
   263430
  6
Continuous
370
    -3
390
5
347
81
348
0
  0
LAYER
  5
DF
102
{ACAD_XDICTIONARY
360
517
102
}
330
10
100
AcDbSymbolTableRecord
100
AcDbLayerTableRecord
  2
PDF_Text
 70
     0
 62
   178
420
   263430
  6
Continuous
370
    -3
390
5
347
81
348
0
  0
ENDTAB
  0
TABLE
  2
STYLE
  5
11
330
0
100
AcDbSymbolTable
 70
     3
  0
STYLE
  5
12
330
11
100
AcDbSymbolTableRecord
100
AcDbTextStyleTableRecord
  2
Standard
 70
     0
 40
0.0
 41
1.0
 50
0.0
 71
     0
 42
0.2
  3
txt
  4

  0
STYLE
  5
27
330
11
100
AcDbSymbolTableRecord
100
AcDbTextStyleTableRecord
  2
Roman
 70
     0
 40
0.0
 41
1.0
 50
0.0
 71
     0
 42
0.2
  3
ROMANS.SHX
  4

  0
STYLE
  5
DE
330
11
100
AcDbSymbolTableRecord
100
AcDbTextStyleTableRecord
  2
PDF Arial
 70
     0
 40
0.0
 41
1.0
 50
0.0
 71
     0
 42
0.2
  3
arial.ttf
  4

1001
ACAD
1000
Arial
1071
       34
  0
ENDTAB
  0
TABLE
  2
VIEW
  5
17
330
0
100
AcDbSymbolTable
 70
     0
  0
ENDTAB
  0
TABLE
  2
UCS
  5
18
330
0
100
AcDbSymbolTable
 70
     0
  0
ENDTAB
  0
TABLE
  2
APPID
  5
1B
330
0
100
AcDbSymbolTable
 70
     2
  0
APPID
  5
1C
330
1B
100
AcDbSymbolTableRecord
100
AcDbRegAppTableRecord
  2
ACAD
 70
     0
  0
APPID
  5
519
330
1B
100
AcDbSymbolTableRecord
100
AcDbRegAppTableRecord
  2
ACAD_NAV_VCDISPLAY
 70
     0
  0
ENDTAB
  0
TABLE
  2
DIMSTYLE
  5
1D
330
0
100
AcDbSymbolTable
 70
     1
100
AcDbDimStyleTable
 71
     0
  0
DIMSTYLE
105
23
330
1D
100
AcDbSymbolTableRecord
100
AcDbDimStyleTableRecord
  2
Standard
 70
     0
340
12
  0
ENDTAB
  0
TABLE
  2
BLOCK_RECORD
  5
1
330
0
100
AcDbSymbolTable
 70
     0
  0
BLOCK_RECORD
  5
2
330
1
100
AcDbSymbolTableRecord
100
AcDbBlockTableRecord
  2
*Model_Space
340
A
 70
     0
280
     1
281
     0
  0
BLOCK_RECORD
  5
C
330
1
100
AcDbSymbolTableRecord
100
AcDbBlockTableRecord
  2
*Paper_Space
340
F
 70
     0
280
     1
281
     0
  0
ENDTAB
  0
ENDSEC
  0
SECTION
  2
BLOCKS
  0
BLOCK
  5
3
330
2
100
AcDbEntity
  8
0
100
AcDbBlockBegin
  2
*Model_Space
 70
     2
 10
0.0
 20
0.0
 30
0.0
  3
*Model_Space
  1

  0
ENDBLK
  5
9
330
2
100
AcDbEntity
  8
0
100
AcDbBlockEnd
  0
BLOCK
  5
D
330
C
100
AcDbEntity
 67
     1
  8
0
100
AcDbBlockBegin
  2
*Paper_Space
 70
     0
 10
0.0
 20
0.0
 30
0.0
  3
*Paper_Space
  1

  0
ENDBLK
  5
E
330
C
100
AcDbEntity
 67
     1
  8
0
100
AcDbBlockEnd
  0
ENDSEC
  0
SECTION
  2
ENTITIES
  0
SOLID
  5
CF
330
2
100
AcDbEntity
  8
PDF_Layer 1
 62
     7
420
 16777215
440
 33554559
370
    18
100
AcDbTrace
 10
5.722045833333332
 20
4.999959722222221
 30
0.0
 11
5.70019861111111
 21
5.051390277777776
 31
0.0
 12
5.600129166666666
 22
5.051390277777776
 32
0.0
 13
5.722045833333332
 23
5.102820833333332
 33
0.0
  0
SOLID
  5
D0
330
2
100
AcDbEntity
  8
PDF_Layer 1
 62
     7
420
 16777215
440
 33554559
370
    18
100
AcDbTrace
 10
12.15284583333333
 20
4.999959722222221
 30
0.0
 11
12.17469305555555
 21
5.051390277777776
 31
0.0
 12
12.2747625
 22
5.051390277777776
 32
0.0
 13
12.15284583333333
 23
5.102820833333332
 33
0.0
  0
SOLID
  5
D1
330
2
100
AcDbEntity
  8
PDF_Layer 1
 62
     7
420
 16777215
440
 33554559
370
    18
100
AcDbTrace
 10
14.62792916666666
 20
5.87147361111111
 30
0.0
 11
14.57649861111111
 21
5.849626388888887
 31
0.0
 12
14.57649861111111
 22
5.749556944444443
 32
0.0
 13
14.52506805555555
 23
5.87147361111111
 33
0.0
  0
SOLID
  5
D2
330
2
100
AcDbEntity
  8
PDF_Layer 1
 62
     7
420
 16777215
440
 33554559
370
    18
100
AcDbTrace
 10
14.62792916666666
 20
11.77695
 30
0.0
 11
14.57649861111111
 21
11.79879722222222
 31
0.0
 12
14.57649861111111
 22
11.89886666666666
 32
0.0
 13
14.52506805555555
 23
11.77695
 33
0.0
  0
SOLID
  5
D3
330
2
100
AcDbEntity
  8
PDF_Layer 1
 62
     7
420
 16777215
440
 33554559
370
    18
100
AcDbTrace
 10
13.80541944444444
 20
5.87147361111111
 30
0.0
 11
13.75398888888889
 21
5.849626388888887
 31
0.0
 12
13.75398888888889
 22
5.749556944444443
 32
0.0
 13
13.70255833333333
 23
5.87147361111111
 33
0.0
  0
SOLID
  5
D4
330
2
100
AcDbEntity
  8
PDF_Layer 1
 62
     7
420
 16777215
440
 33554559
370
    18
100
AcDbTrace
 10
13.80541944444444
 20
10.93368888888889
 30
0.0
 11
13.75398888888889
 21
10.95553611111111
 31
0.0
 12
13.75398888888889
 22
11.05560555555555
 32
0.0
 13
13.70255833333333
 23
10.93368888888889
 33
0.0
  0
SOLID
  5
D5
330
2
100
AcDbEntity
  8
PDF_Layer 1
 62
     7
420
 16777215
440
 33554559
370
    18
100
AcDbTrace
 10
2.942030555555555
 20
1.613336111111111
 30
0.0
 11
2.8906
 21
1.591488888888888
 31
0.0
 12
2.8906
 22
1.491419444444444
 32
0.0
 13
2.839169444444444
 23
1.613336111111111
 33
0.0
  0
SOLID
  5
D6
330
2
100
AcDbEntity
  8
PDF_Layer 1
 62
     7
420
 16777215
440
 33554559
370
    18
100
AcDbTrace
 10
2.942030555555555
 20
5.627604166666666
 30
0.0
 11
2.8906
 21
5.649451388888888
 31
0.0
 12
2.8906
 22
5.749520833333332
 32
0.0
 13
2.839169444444444
 23
5.627604166666666
 33
0.0
  0
SOLID
  5
D7
330
2
100
AcDbEntity
  8
PDF_Layer 1
 62
     7
420
 16777215
440
 33554559
370
    18
100
AcDbTrace
 10
5.404099999999999
 20
1.310288888888888
 30
0.0
 11
5.382252777777777
 21
1.361719444444444
 31
0.0
 12
5.282183333333333
 22
1.361719444444444
 32
0.0
 13
5.404099999999999
 23
1.413149999999999
 33
0.0
  0
SOLID
  5
D8
330
2
100
AcDbEntity
  8
PDF_Layer 1
 62
     7
420
 16777215
440
 33554559
370
    18
100
AcDbTrace
 10
5.600301388888888
 20
1.310288888888888
 30
0.0
 11
5.62214861111111
 21
1.361719444444444
 31
0.0
 12
5.722218055555554
 22
1.361719444444444
 32
0.0
 13
5.600301388888888
 23
1.413149999999999
 33
0.0
  0
SOLID
  5
D9
330
2
100
AcDbEntity
  8
PDF_Layer 1
 62
     7
420
 16777215
440
 33554559
370
    18
100
AcDbTrace
 10
2.166083333333333
 20
5.549248611111111
 30
0.0
 11
2.217513888888889
 21
5.571095833333333
 31
0.0
 12
2.217513888888889
 22
5.671165277777777
 32
0.0
 13
2.268944444444445
 23
5.549248611111111
 33
0.0
  0
SOLID
  5
DA
330
2
100
AcDbEntity
  8
PDF_Layer 1
 62
     7
420
 16777215
440
 33554559
370
    18
100
AcDbTrace
 10
2.166083333333333
 20
5.008640277777777
 30
0.0
 11
2.217513888888889
 21
4.986793055555555
 31
0.0
 12
2.217513888888889
 22
4.88672361111111
 32
0.0
 13
2.268944444444445
 23
5.008640277777777
 33
0.0
  0
SOLID
  5
DB
330
2
100
AcDbEntity
  8
PDF_Layer 1
 62
     7
420
 16777215
440
 33554559
370
    18
100
AcDbTrace
 10
2.9397375
 20
5.865491666666666
 30
0.0
 11
2.888306944444444
 21
5.843644444444444
 31
0.0
 12
2.888306944444444
 22
5.743574999999999
 32
0.0
 13
2.836876388888888
 23
5.865491666666666
 33
0.0
  0
SOLID
  5
DC
330
2
100
AcDbEntity
  8
PDF_Layer 1
 62
     7
420
 16777215
440
 33554559
370
    18
100
AcDbTrace
 10
2.9397375
 20
11.80231388888889
 30
0.0
 11
2.888306944444444
 21
11.82416111111111
 31
0.0
 12
2.888306944444444
 22
11.92423055555555
 32
0.0
 13
2.836876388888888
 23
11.80231388888889
 33
0.0
  0
LWPOLYLINE
  5
E0
330
2
100
AcDbEntity
  8
PDF_Layer 1
 62
     7
420
 16777215
370
    18
100
AcDbPolyline
 90
        2
 70
     0
 43
0.0
 10
5.683037499999999
 20
5.051391666666666
 10
12.19185694444444
 20
5.051391666666666
  0
LWPOLYLINE
  5
E1
330
2
100
AcDbEntity
  8
PDF_Layer 1
 62
     7
420
 16777215
370
    70
100
AcDbPolyline
 90
        4
 70
     0
 43
0.0
 10
6.399604166666665
 20
10.22156388888888
 10
6.424993055555554
 20
10.22156388888888
 10
6.424993055555554
 20
9.998119444444441
 10
6.399604166666665
 20
9.998119444444441
  0
LWPOLYLINE
  5
E2
330
2
100
AcDbEntity
  8
PDF_Layer 1
 62
     7
420
 16777215
370
    70
100
AcDbPolyline
 90
        5
 70
     0
 43
0.0
 10
4.800609722222221
 20
10.72612777777778
 10
6.397318055555555
 20
10.72612777777778
 10
6.397318055555555
 20
10.728475
 10
6.397318055555555
 20
10.72612777777778
 10
6.397318055555555
 20
10.4866
  0
LWPOLYLINE
  5
E3
330
2
100
AcDbEntity
  8
PDF_Layer 1
 62
     7
420
 16777215
370
    70
100
AcDbPolyline
 90
        4
 70
     0
 43
0.0
 10
6.397318055555555
 20
10.72609305555555
 10
6.397318055555555
 20
10.48656527777777
 10
6.399581944444443
 20
10.48656527777777
 10
6.399581944444443
 20
9.845968055555553
  0
LWPOLYLINE
  5
E4
330
2
100
AcDbEntity
  8
PDF_Layer 1
 62
     7
420
 16777215
370
    70
100
AcDbPolyline
 90
        5
 70
     0
 43
0.0
 10
4.800645833333333
 20
10.21926527777778
 10
4.800645833333333
 20
10.72614027777778
 10
4.816729166666666
 20
10.74457083333333
 10
6.383520833333333
 20
10.74457083333333
 10
6.397354166666666
 20
10.7284875
  0
LWPOLYLINE
  5
E7
330
2
100
AcDbEntity
  8
PDF_Layer 1
 62
     7
420
 16777215
370
    70
100
AcDbPolyline
 90
        3
 70
     0
 43
0.0
 10
6.399604166666665
 20
9.846015277777777
 10
5.600159722222221
 20
9.846015277777777
 10
4.800631944444443
 20
10.21926527777778
  0
LWPOLYLINE
  5
E9
330
2
100
AcDbEntity
  8
PDF_Layer 1
 62
     7
420
 16777215
370
    70
100
AcDbPolyline
 90
        2
 70
     0
 43
0.0
 10
6.397318055555555
 20
10.72846111111111
 10
6.38349861111111
 20
10.74462777777777
  0
LWPOLYLINE
  5
EA
330
2
100
AcDbEntity
  8
PDF_Layer 1
 62
     7
420
 16777215
370
    70
100
AcDbPolyline
 90
        2
 70
     0
 43
0.0
 10
6.397318055555555
 20
10.48656527777777
 10
6.399581944444443
 20
10.48656527777777
  0
LWPOLYLINE
  5
EC
330
2
100
AcDbEntity
  8
PDF_Layer 1
 62
     7
420
 16777215
370
    70
100
AcDbPolyline
 90
        4
 70
     0
 43
0.0
 10
6.39961111111111
 20
10.2584875
 10
6.464124999999999
 20
10.2584875
 10
6.464124999999999
 20
10.7722375
 10
8.433999999999999
 20
11.6914875
  0
LWPOLYLINE
  5
ED
330
2
100
AcDbEntity
  8
PDF_Layer 1
 62
     7
420
 16777215
370
    70
100
AcDbPolyline
 90
        3
 70
     0
 43
0.0
 10
8.431722222222223
 20
11.77446111111111
 10
8.026222222222223
 20
11.92426666666666
 10
5.560944444444445
 20
10.77453055555555
  0
LWPOLYLINE
  5
EF
330
2
100
AcDbEntity
  8
PDF_Layer 1
 62
     7
420
 16777215
370
    70
100
AcDbPolyline
 90
        3
 70
     0
 43
0.0
 10
6.399604166666665
 20
10.48654027777778
 10
6.399604166666665
 20
10.74224861111111
 10
6.464118055555553
 20
10.77216527777777
  0
LWPOLYLINE
  5
F1
330
2
100
AcDbEntity
  8
PDF_Layer 1
 62
     7
420
 16777215
370
    70
100
AcDbPolyline
 90
        3
 70
     0
 43
0.0
 10
8.088393055555554
 20
9.415134722222223
 10
8.10457361111111
 20
9.426690277777778
 10
8.655268055555554
 20
8.638731944444444
  0
LWPOLYLINE
  5
F2
330
2
100
AcDbEntity
  8
PDF_Layer 1
 62
     7
420
 16777215
370
    70
100
AcDbPolyline
 90
        3
 70
     0
 43
0.0
 10
8.641424999999999
 20
8.65948472222222
 10
8.625258333333333
 20
8.680179166666665
 10
8.129938888888888
 20
9.387470833333331
  0
LWPOLYLINE
  5
F3
330
2
100
AcDbEntity
  8
PDF_Layer 1
 62
     7
420
 16777215
370
    70
100
AcDbPolyline
 90
        3
 70
     0
 43
0.0
 10
11.94992638888889
 20
10.84830138888889
 10
11.97296805555555
 20
10.84595416666666
 10
12.27482916666666
 20
11.05557916666667
  0
LWPOLYLINE
  5
F5
330
2
100
AcDbEntity
  8
PDF_Layer 1
 62
     7
420
 16777215
370
    70
100
AcDbPolyline
 90
        3
 70
     0
 43
0.0
 10
12.57660694444444
 20
11.26759444444444
 10
12.58121805555555
 20
11.29063611111111
 10
12.53287083333333
 20
11.35976111111111
  0
LWPOLYLINE
  5
F7
330
2
100
AcDbEntity
  8
PDF_Layer 1
 62
     7
420
 16777215
370
    70
100
AcDbPolyline
 90
        2
 70
     0
 43
0.0
 10
12.58121805555555
 20
11.29063611111111
 10
12.39000972222222
 20
11.15699722222222
  0
LWPOLYLINE
  5
F8
330
2
100
AcDbEntity
  8
PDF_Layer 1
 62
     7
420
 16777215
370
    70
100
AcDbPolyline
 90
        2
 70
     0
 43
0.0
 10
12.27479444444444
 20
11.05560972222222
 10
12.57665555555555
 20
11.26758194444444
  0
LWPOLYLINE
  5
F9
330
2
100
AcDbEntity
  8
PDF_Layer 1
 62
     7
420
 16777215
370
    70
100
AcDbPolyline
 90
        2
 70
     0
 43
0.0
 10
12.39000138888889
 20
11.15698888888889
 10
11.94989027777777
 20
10.84825277777778
  0
LWPOLYLINE
  5
FA
330
2
100
AcDbEntity
  8
PDF_Layer 1
 62
     7
420
 16777215
370
    70
100
AcDbPolyline
 90
        2
 70
     0
 43
0.0
 10
11.94989722222222
 20
10.8482875
 10
11.90156388888889
 20
10.91739861111111
  0
LWPOLYLINE
  5
FB
330
2
100
AcDbEntity
  8
PDF_Layer 1
 62
     7
420
 16777215
370
    70
100
AcDbPolyline
 90
        2
 70
     0
 43
0.0
 10
8.659830555555554
 20
8.643365277777776
 10
8.650622222222221
 20
8.645629166666665
  0
LWPOLYLINE
  5
FC
330
2
100
AcDbEntity
  8
PDF_Layer 1
 62
     7
420
 16777215
370
    70
100
AcDbPolyline
 90
        3
 70
     0
 43
0.0
 10
8.106851388888888
 20
9.422113888888885
 10
8.109198611111109
 20
9.428988888888886
 10
11.63430972222222
 20
11.89887777777777
  0
LWPOLYLINE
  5
FE
330
2
100
AcDbEntity
  8
PDF_Layer 1
 62
     7
420
 16777215
370
    70
100
AcDbPolyline
 90
        2
 70
     0
 43
0.0
 10
12.53972777777777
 20
11.35972777777777
 10
12.94061666666666
 20
11.64081111111111
  0
LWPOLYLINE
  5
FF
330
2
100
AcDbEntity
  8
PDF_Layer 1
 62
     7
420
 16777215
370
    70
100
AcDbPolyline
 90
        2
 70
     0
 43
0.0
 10
12.93376944444444
 20
11.67080416666666
 10
11.63429722222222
 20
11.89894305555555
  0
LWPOLYLINE
  5
100
330
2
100
AcDbEntity
  8
PDF_Layer 1
 62
     7
420
 16777215
370
    70
100
AcDbPolyline
 90
        2
 70
     0
 43
0.0
 10
11.89925138888888
 20
10.91275972222222
 10
8.659834722222219
 20
8.643370833333333
  0
LWPOLYLINE
  5
101
330
2
100
AcDbEntity
  8
PDF_Layer 1
 62
     7
420
 16777215
370
    70
100
AcDbPolyline
 90
        2
 70
     0
 43
0.0
 10
8.625270833333333
 20
8.680188888888888
 10
8.129868055555554
 20
9.387466666666666
  0
LWPOLYLINE
  5
102
330
2
100
AcDbEntity
  8
PDF_Layer 1
 62
     7
420
 16777215
370
    70
100
AcDbPolyline
 90
        3
 70
     0
 43
0.0
 10
5.047159722222221
 20
5.671136111111111
 10
5.047159722222221
 20
5.749552777777777
 10
4.800673611111109
 20
5.749552777777777
  0
LWPOLYLINE
  5
103
330
2
100
AcDbEntity
  8
PDF_Layer 1
 62
     7
420
 16777215
370
    70
100
AcDbPolyline
 90
        2
 70
     0
 43
0.0
 10
8.417901388888889
 20
8.475151388888889
 10
8.627609722222222
 20
8.622609722222222
  0
LWPOLYLINE
  5
104
330
2
100
AcDbEntity
  8
PDF_Layer 1
 62
     7
420
 16777215
370
    70
100
AcDbPolyline
 90
        2
 70
     1
 43
0.0
 10
8.076898611111111
 20
9.408283333333331
 10
8.086120833333334
 20
9.394463888888887
  0
LWPOLYLINE
  5
105
330
2
100
AcDbEntity
  8
PDF_Layer 1
 62
     7
420
 16777215
370
    70
100
AcDbPolyline
 90
        3
 70
     0
 43
0.0
 10
6.399604166666665
 20
6.827825
 10
6.399604166666665
 20
6.807047222222222
 10
6.399604166666665
 20
5.749547222222222
  0
LWPOLYLINE
  5
107
330
2
100
AcDbEntity
  8
PDF_Layer 1
 62
     7
420
 16777215
370
    70
100
AcDbPolyline
 90
        2
 70
     0
 43
0.0
 10
6.461791666666666
 20
8.276991666666665
 10
8.076930555555556
 20
9.40829722222222
  0
LWPOLYLINE
  5
108
330
2
100
AcDbEntity
  8
PDF_Layer 1
 62
     7
420
 16777215
370
    70
100
AcDbPolyline
 90
        2
 70
     0
 43
0.0
 10
6.399604166666665
 20
7.042106944444443
 10
6.399604166666665
 20
6.827787499999998
  0
LWPOLYLINE
  5
109
330
2
100
AcDbEntity
  8
PDF_Layer 1
 62
     7
420
 16777215
370
    70
100
AcDbPolyline
 90
        4
 70
     0
 43
0.0
 10
6.401940277777776
 20
7.042097222222222
 10
6.404190277777776
 20
7.055833333333333
 10
6.418023611111109
 20
7.074347222222222
 10
8.41788472222222
 20
8.475166666666666
  0
LWPOLYLINE
  5
10B
330
2
100
AcDbEntity
  8
PDF_Layer 1
 62
     7
420
 16777215
370
    70
100
AcDbPolyline
 90
        3
 70
     0
 43
0.0
 10
8.627619444444443
 20
8.620326388888887
 10
8.076924999999999
 20
9.408284722222221
 10
8.088397222222221
 20
9.415159722222222
  0
LWPOLYLINE
  5
10C
330
2
100
AcDbEntity
  8
PDF_Layer 1
 62
     7
420
 16777215
370
    70
100
AcDbPolyline
 90
        2
 70
     0
 43
0.0
 10
8.627590277777777
 20
8.620293055555553
 10
8.655243055555555
 20
8.638723611111108
  0
LWPOLYLINE
  5
10F
330
2
100
AcDbEntity
  8
PDF_Layer 1
 62
     7
420
 16777215
370
    70
100
AcDbPolyline
 90
        2
 70
     0
 43
0.0
 10
6.399604166666665
 20
8.31159861111111
 10
6.399604166666665
 20
9.735390277777776
  0
LWPOLYLINE
  5
110
330
2
100
AcDbEntity
  8
PDF_Layer 1
 62
     7
420
 16777215
370
    70
100
AcDbPolyline
 90
        2
 70
     0
 43
0.0
 10
4.800645833333333
 20
9.735433333333331
 10
4.800645833333333
 20
5.749530555555553
  0
LWPOLYLINE
  5
111
330
2
100
AcDbEntity
  8
PDF_Layer 1
 62
     7
420
 16777215
370
    70
100
AcDbPolyline
 90
        4
 70
     0
 43
0.0
 10
4.800675
 20
9.735427777777777
 10
4.816758333333333
 20
9.74926111111111
 10
6.383480555555555
 20
9.74926111111111
 10
6.399647222222222
 20
9.735427777777777
  0
LWPOLYLINE
  5
114
330
2
100
AcDbEntity
  8
PDF_Layer 1
 62
     7
420
 16777215
370
    70
100
AcDbPolyline
 90
        2
 70
     0
 43
0.0
 10
5.047159722222221
 20
5.749552777777777
 10
6.153076388888887
 20
5.749552777777777
  0
LWPOLYLINE
  5
115
330
2
100
AcDbEntity
  8
PDF_Layer 1
 62
     7
420
 16777215
370
    70
100
AcDbPolyline
 90
        4
 70
     0
 43
0.0
 10
5.600124999999999
 20
5.671169444444444
 10
5.712972222222221
 20
5.671169444444444
 10
5.600124999999999
 20
5.671169444444444
 10
5.047166666666665
 20
5.671169444444444
  0
LWPOLYLINE
  5
116
330
2
100
AcDbEntity
  8
PDF_Layer 1
 62
     7
420
 16777215
370
    70
100
AcDbPolyline
 90
        3
 70
     0
 43
0.0
 10
6.153095833333332
 20
5.671169444444444
 10
6.153095833333332
 20
5.749586111111111
 10
6.399581944444443
 20
5.749586111111111
  0
LWPOLYLINE
  5
117
330
2
100
AcDbEntity
  8
PDF_Layer 1
 62
     7
420
 16777215
370
    70
100
AcDbPolyline
 90
        3
 70
     0
 43
0.0
 10
6.067815277777777
 20
1.305108333333333
 10
5.74064861111111
 20
1.305108333333333
 10
5.74064861111111
 20
1.196858333333333
  0
LWPOLYLINE
  5
118
330
2
100
AcDbEntity
  8
PDF_Layer 1
 62
     7
420
 16777215
370
    70
100
AcDbPolyline
 90
        2
 70
     0
 43
0.0
 10
5.789041666666665
 20
1.109320833333333
 10
5.90423611111111
 20
1.109320833333333
  0
LWPOLYLINE
  5
119
330
2
100
AcDbEntity
  8
PDF_Layer 1
 62
     7
420
 16777215
370
    70
100
AcDbPolyline
 90
        2
 70
     0
 43
0.0
 10
5.904243055555554
 20
1.054009722222222
 10
5.703826388888888
 20
1.054009722222222
  0
LWPOLYLINE
  5
11A
330
2
100
AcDbEntity
  8
PDF_Layer 1
 62
     7
420
 16777215
370
    70
100
AcDbPolyline
 90
        3
 70
     0
 43
0.0
 10
5.703786111111111
 20
0.8236083333333333
 10
5.731438888888889
 20
0.8236083333333333
 10
5.904286111111111
 20
0.8236083333333333
  0
LWPOLYLINE
  5
11B
330
2
100
AcDbEntity
  8
PDF_Layer 1
 62
     7
420
 16777215
370
    70
100
AcDbPolyline
 90
        2
 70
     0
 43
0.0
 10
5.904243055555554
 20
0.7660180555555556
 10
5.731395833333333
 20
0.7660180555555556
  0
LWPOLYLINE
  5
11D
330
2
100
AcDbEntity
  8
PDF_Layer 1
 62
     7
420
 16777215
370
    70
100
AcDbPolyline
 90
        2
 70
     0
 43
0.0
 10
5.731438888888889
 20
0.8236083333333333
 10
5.731438888888889
 20
0.7659694444444445
  0
LWPOLYLINE
  5
11E
330
2
100
AcDbEntity
  8
PDF_Layer 1
 62
     7
420
 16777215
370
    70
100
AcDbPolyline
 90
        4
 70
     0
 43
0.0
 10
5.703833333333332
 20
1.196856944444443
 10
5.690013888888888
 20
1.183037499999999
 10
5.789041666666665
 20
1.183037499999999
 10
5.789041666666665
 20
1.196856944444443
  0
LWPOLYLINE
  5
120
330
2
100
AcDbEntity
  8
PDF_Layer 1
 62
     7
420
 16777215
370
    70
100
AcDbPolyline
 90
        2
 70
     0
 43
0.0
 10
5.731438888888889
 20
1.196872222222222
 10
5.789077777777777
 20
1.196872222222222
  0
LWPOLYLINE
  5
121
330
2
100
AcDbEntity
  8
PDF_Layer 1
 62
     7
420
 16777215
370
    70
100
AcDbPolyline
 90
        2
 70
     0
 43
0.0
 10
5.789041666666665
 20
1.183037499999999
 10
5.789041666666665
 20
1.109301388888888
  0
LWPOLYLINE
  5
122
330
2
100
AcDbEntity
  8
PDF_Layer 1
 62
     7
420
 16777215
370
    70
100
AcDbPolyline
 90
        3
 70
     0
 43
0.0
 10
5.703822222222222
 20
1.054009722222222
 10
5.690002777777777
 20
1.054009722222222
 10
5.690002777777777
 20
0.8374263888888886
  0
LWPOLYLINE
  5
124
330
2
100
AcDbEntity
  8
PDF_Layer 1
 62
     7
420
 16777215
370
    70
100
AcDbPolyline
 90
        3
 70
     0
 43
0.0
 10
5.703837499999999
 20
1.0540125
 10
5.703837499999999
 20
0.8374430555555555
 10
5.703837499999999
 20
0.8236097222222223
  0
LWPOLYLINE
  5
126
330
2
100
AcDbEntity
  8
PDF_Layer 1
 62
     7
420
 16777215
370
    70
100
AcDbPolyline
 90
        2
 70
     0
 43
0.0
 10
5.690002777777777
 20
0.8374430555555555
 10
5.703822222222222
 20
0.8236097222222223
  0
LWPOLYLINE
  5
127
330
2
100
AcDbEntity
  8
PDF_Layer 1
 62
     7
420
 16777215
370
    70
100
AcDbPolyline
 90
        3
 70
     0
 43
0.0
 10
5.690004166666666
 20
0.8374430555555555
 10
5.703837499999999
 20
0.8374430555555555
 10
5.904240277777777
 20
0.8374430555555555
  0
LWPOLYLINE
  5
129
330
2
100
AcDbEntity
  8
PDF_Layer 1
 62
     7
420
 16777215
370
    70
100
AcDbPolyline
 90
        2
 70
     0
 43
0.0
 10
5.690002777777777
 20
1.054009722222222
 10
5.690002777777777
 20
1.183037499999999
  0
LWPOLYLINE
  5
12A
330
2
100
AcDbEntity
  8
PDF_Layer 1
 62
     7
420
 16777215
370
    70
100
AcDbPolyline
 90
        2
 70
     0
 43
0.0
 10
5.703837499999999
 20
1.196872222222222
 10
5.731476388888888
 20
1.196872222222222
  0
LWPOLYLINE
  5
12B
330
2
100
AcDbEntity
  8
PDF_Layer 1
 62
     7
420
 16777215
370
    70
100
AcDbPolyline
 90
        2
 70
     0
 43
0.0
 10
5.904243055555554
 20
1.109320833333333
 10
6.019437499999999
 20
1.109320833333333
  0
LWPOLYLINE
  5
12C
330
2
100
AcDbEntity
  8
PDF_Layer 1
 62
     7
420
 16777215
370
    70
100
AcDbPolyline
 90
        2
 70
     0
 43
0.0
 10
6.104695833333331
 20
1.054009722222222
 10
5.904195833333331
 20
1.054009722222222
  0
LWPOLYLINE
  5
12D
330
2
100
AcDbEntity
  8
PDF_Layer 1
 62
     7
420
 16777215
370
    70
100
AcDbPolyline
 90
        2
 70
     0
 43
0.0
 10
5.904243055555554
 20
0.8236083333333333
 10
6.077076388888888
 20
0.8236083333333333
  0
LWPOLYLINE
  5
12E
330
2
100
AcDbEntity
  8
PDF_Layer 1
 62
     7
420
 16777215
370
    70
100
AcDbPolyline
 90
        2
 70
     0
 43
0.0
 10
6.077040277777776
 20
0.7660180555555556
 10
5.904193055555555
 20
0.7660180555555556
  0
LWPOLYLINE
  5
12F
330
2
100
AcDbEntity
  8
PDF_Layer 1
 62
     7
420
 16777215
370
    70
100
AcDbPolyline
 90
        2
 70
     0
 43
0.0
 10
5.699163888888889
 20
1.807399999999999
 10
5.699163888888889
 20
1.814261111111111
  0
LWPOLYLINE
  5
130
330
2
100
AcDbEntity
  8
PDF_Layer 1
 62
     7
420
 16777215
370
    70
100
AcDbPolyline
 90
        2
 70
     0
 43
0.0
 10
5.678459722222222
 20
1.496324999999999
 10
5.404334722222222
 20
1.496324999999999
  0
LWPOLYLINE
  5
131
330
2
100
AcDbEntity
  8
PDF_Layer 1
 62
     7
420
 16777215
370
    70
100
AcDbPolyline
 90
        3
 70
     0
 43
0.0
 10
5.473415277777777
 20
1.496324999999999
 10
5.533318055555555
 20
1.496324999999999
 10
5.763720833333333
 20
1.496324999999999
  0
LWPOLYLINE
  5
132
330
2
100
AcDbEntity
  8
PDF_Layer 1
 62
     7
420
 16777215
370
    70
100
AcDbPolyline
 90
        3
 70
     0
 43
0.0
 10
5.473418055555554
 20
1.496324999999999
 10
5.302918055555554
 20
1.496324999999999
 10
5.282140277777776
 20
1.496324999999999
  0
LWPOLYLINE
  5
134
330
2
100
AcDbEntity
  8
PDF_Layer 1
 62
     7
420
 16777215
370
    70
100
AcDbPolyline
 90
        2
 70
     0
 43
0.0
 10
5.397379166666666
 20
1.807399999999999
 10
5.671504166666665
 20
1.807399999999999
  0
LWPOLYLINE
  5
135
330
2
100
AcDbEntity
  8
PDF_Layer 1
 62
     7
420
 16777215
370
    70
100
AcDbPolyline
 90
        2
 70
     0
 43
0.0
 10
5.600124999999999
 20
1.496324999999999
 10
5.547166666666665
 20
1.496324999999999
  0
LWPOLYLINE
  5
136
330
2
100
AcDbEntity
  8
PDF_Layer 1
 62
     7
420
 16777215
370
    70
100
AcDbPolyline
 90
        2
 70
     0
 43
0.0
 10
5.763719444444443
 20
1.496324999999999
 10
5.789024999999999
 20
1.496324999999999
  0
LWPOLYLINE
  5
138
330
2
100
AcDbEntity
  8
PDF_Layer 1
 62
     7
420
 16777215
370
    70
100
AcDbPolyline
 90
        2
 70
     0
 43
0.0
 10
5.418118055555555
 20
1.807399999999999
 10
5.664604166666666
 20
1.807399999999999
  0
LWPOLYLINE
  5
139
330
2
100
AcDbEntity
  8
PDF_Layer 1
 62
     7
420
 16777215
370
    70
100
AcDbPolyline
 90
        2
 70
     0
 43
0.0
 10
5.706122222222222
 20
1.78202361111111
 10
5.706122222222222
 20
1.521718055555555
  0
LWPOLYLINE
  5
13A
330
2
100
AcDbEntity
  8
PDF_Layer 1
 62
     7
420
 16777215
370
    70
100
AcDbPolyline
 90
        7
 70
     0
 43
0.0
 10
5.708404166666666
 20
1.5216875
 10
5.648501388888888
 20
1.505590277777777
 10
5.577126388888888
 20
1.496298611111111
 10
5.505654166666666
 20
1.496298611111111
 10
5.434279166666666
 20
1.503256944444444
 10
5.362806944444444
 20
1.5216875
 10
5.362806944444444
 20
1.781993055555555
  0
LWPOLYLINE
  5
13B
330
2
100
AcDbEntity
  8
PDF_Layer 1
 62
     7
420
 16777215
370
    70
100
AcDbPolyline
 90
        3
 70
     0
 43
0.0
 10
5.789041666666665
 20
1.496324999999999
 10
5.791374999999999
 20
1.496324999999999
 10
5.853541666666665
 20
1.496324999999999
  0
LWPOLYLINE
  5
13C
330
2
100
AcDbEntity
  8
PDF_Layer 1
 62
     7
420
 16777215
370
    70
100
AcDbPolyline
 90
        3
 70
     0
 43
0.0
 10
5.853530555555554
 20
1.496298611111111
 10
5.878919444444443
 20
1.5216875
 10
5.878919444444443
 20
1.781993055555555
  0
LWPOLYLINE
  5
13D
330
2
100
AcDbEntity
  8
PDF_Layer 1
 62
     7
420
 16777215
370
    70
100
AcDbPolyline
 90
        4
 70
     0
 43
0.0
 10
5.853551388888888
 20
1.807412499999999
 10
5.215398611111111
 20
1.807412499999999
 10
5.190009722222222
 20
1.78202361111111
 10
5.190009722222222
 20
1.521718055555555
  0
LWPOLYLINE
  5
13E
330
2
100
AcDbEntity
  8
PDF_Layer 1
 62
     7
420
 16777215
370
    70
100
AcDbPolyline
 90
        2
 70
     0
 43
0.0
 10
5.853556944444442
 20
1.807399999999999
 10
5.878945833333331
 20
1.782011111111111
  0
LWPOLYLINE
  5
140
330
2
100
AcDbEntity
  8
PDF_Layer 1
 62
     7
420
 16777215
370
    70
100
AcDbPolyline
 90
        2
 70
     0
 43
0.0
 10
5.215379166666665
 20
1.496324999999999
 10
5.189990277777776
 20
1.521699999999999
  0
LWPOLYLINE
  5
142
330
2
100
AcDbEntity
  8
PDF_Layer 1
 62
     7
420
 16777215
370
    70
100
AcDbPolyline
 90
        2
 70
     0
 43
0.0
 10
5.27756111111111
 20
1.496324999999999
 10
5.215394444444444
 20
1.496324999999999
  0
LWPOLYLINE
  5
143
330
2
100
AcDbEntity
  8
PDF_Layer 1
 62
     7
420
 16777215
370
    70
100
AcDbPolyline
 90
        2
 70
     0
 43
0.0
 10
5.268351388888888
 20
1.496324999999999
 10
5.282170833333332
 20
1.496324999999999
  0
LWPOLYLINE
  5
145
330
2
100
AcDbEntity
  8
PDF_Layer 1
 62
     7
420
 16777215
370
    70
100
AcDbPolyline
 90
        3
 70
     0
 43
0.0
 10
5.712991666666666
 20
3.34185
 10
5.712991666666666
 20
2.708211111111111
 10
5.712991666666666
 20
2.692211111111111
  0
LWPOLYLINE
  5
146
330
2
100
AcDbEntity
  8
PDF_Layer 1
 62
     7
420
 16777215
370
    70
100
AcDbPolyline
 90
        4
 70
     0
 43
0.0
 10
5.712998611111109
 20
2.673654166666667
 10
5.712998611111109
 20
2.692168055555555
 10
5.719943055555554
 20
2.699043055555555
 10
5.729165277777776
 20
2.689820833333333
  0
LWPOLYLINE
  5
148
330
2
100
AcDbEntity
  8
PDF_Layer 1
 62
     7
420
 16777215
370
    70
100
AcDbPolyline
 90
        4
 70
     0
 43
0.0
 10
5.712972222222221
 20
2.655291666666666
 10
5.712972222222221
 20
2.673722222222222
 10
5.729152777777777
 20
2.689805555555555
 10
5.738374999999999
 20
2.678236111111111
  0
LWPOLYLINE
  5
14A
330
2
100
AcDbEntity
  8
PDF_Layer 1
 62
     7
420
 16777215
370
    70
100
AcDbPolyline
 90
        4
 70
     0
 43
0.0
 10
5.712966666666666
 20
2.636875
 10
5.712966666666666
 20
2.655305555555555
 10
5.738355555555555
 20
2.678263888888888
 10
5.747577777777777
 20
2.669138888888888
  0
LWPOLYLINE
  5
14C
330
2
100
AcDbEntity
  8
PDF_Layer 1
 62
     7
420
 16777215
370
    70
100
AcDbPolyline
 90
        3
 70
     0
 43
0.0
 10
5.713001388888887
 20
2.636844444444443
 10
5.74759861111111
 20
2.669094444444443
 10
5.756737499999998
 20
2.657538888888888
  0
LWPOLYLINE
  5
14E
330
2
100
AcDbEntity
  8
PDF_Layer 1
 62
     7
420
 16777215
370
    70
100
AcDbPolyline
 90
        2
 70
     0
 43
0.0
 10
5.756768055555554
 20
2.657565277777777
 10
5.765976388888888
 20
2.648343055555555
  0
LWPOLYLINE
  5
14F
330
2
100
AcDbEntity
  8
PDF_Layer 1
 62
     7
420
 16777215
370
    70
100
AcDbPolyline
 90
        3
 70
     0
 43
0.0
 10
5.712991666666666
 20
2.636868055555555
 10
5.712991666666666
 20
2.618354166666666
 10
5.756713888888889
 20
2.6575625
  0
LWPOLYLINE
  5
150
330
2
100
AcDbEntity
  8
PDF_Layer 1
 62
     7
420
 16777215
370
    70
100
AcDbPolyline
 90
        3
 70
     0
 43
0.0
 10
5.779848611111109
 20
2.551601388888888
 10
5.726820833333332
 20
2.611504166666666
 10
5.715348611111109
 20
2.602281944444444
  0
LWPOLYLINE
  5
152
330
2
100
AcDbEntity
  8
PDF_Layer 1
 62
     7
420
 16777215
370
    70
100
AcDbPolyline
 90
        3
 70
     0
 43
0.0
 10
5.726820833333332
 20
2.611504166666666
 10
5.736043055555554
 20
2.620629166666666
 10
5.791418055555554
 20
2.560809722222222
  0
LWPOLYLINE
  5
153
330
2
100
AcDbEntity
  8
PDF_Layer 1
 62
     7
420
 16777215
370
    70
100
AcDbPolyline
 90
        3
 70
     0
 43
0.0
 10
5.736063888888887
 20
2.620659722222221
 10
5.745286111111109
 20
2.629881944444444
 10
5.800577777777776
 20
2.57004861111111
  0
LWPOLYLINE
  5
154
330
2
100
AcDbEntity
  8
PDF_Layer 1
 62
     7
420
 16777215
370
    70
100
AcDbPolyline
 90
        3
 70
     0
 43
0.0
 10
5.745273611111111
 20
2.629909722222222
 10
5.756745833333333
 20
2.639118055555555
 10
5.812051388888888
 20
2.579298611111111
  0
LWPOLYLINE
  5
155
330
2
100
AcDbEntity
  8
PDF_Layer 1
 62
     7
420
 16777215
370
    70
100
AcDbPolyline
 90
        2
 70
     0
 43
0.0
 10
5.82132361111111
 20
2.588419444444444
 10
5.766031944444444
 20
2.648322222222222
  0
LWPOLYLINE
  5
157
330
2
100
AcDbEntity
  8
PDF_Layer 1
 62
     7
420
 16777215
370
    70
100
AcDbPolyline
 90
        2
 70
     0
 43
0.0
 10
5.712991666666666
 20
2.708211111111111
 10
5.719936111111111
 20
2.699072222222222
  0
LWPOLYLINE
  5
158
330
2
100
AcDbEntity
  8
PDF_Layer 1
 62
     7
420
 16777215
370
    70
100
AcDbPolyline
 90
        4
 70
     0
 43
0.0
 10
5.712991666666666
 20
2.618365277777777
 10
5.712991666666666
 20
2.604545833333333
 10
5.712991666666666
 20
2.599934722222222
 10
5.715324999999999
 20
2.602281944444444
  0
LWPOLYLINE
  5
159
330
2
100
AcDbEntity
  8
PDF_Layer 1
 62
     7
420
 16777215
370
    70
100
AcDbPolyline
 90
        2
 70
     0
 43
0.0
 10
5.756768055555554
 20
2.639159722222221
 10
5.765976388888888
 20
2.648284722222221
  0
LWPOLYLINE
  5
15A
330
2
100
AcDbEntity
  8
PDF_Layer 1
 62
     7
420
 16777215
370
    70
100
AcDbPolyline
 90
        2
 70
     0
 43
0.0
 10
6.095493055555555
 20
3.602227777777777
 10
6.095493055555555
 20
3.602227777777777
  0
LWPOLYLINE
  5
15B
330
2
100
AcDbEntity
  8
PDF_Layer 1
 62
     7
420
 16777215
370
    70
100
AcDbPolyline
 90
        4
 70
     0
 43
0.0
 10
6.079336111111111
 20
3.597559722222221
 10
6.063252777777777
 20
3.59069861111111
 10
6.056308333333332
 20
3.592962499999999
 10
6.04021111111111
 20
3.597559722222221
  0
LWPOLYLINE
  5
15C
330
2
100
AcDbEntity
  8
PDF_Layer 1
 62
     7
420
 16777215
370
    70
100
AcDbPolyline
 90
        2
 70
     0
 43
0.0
 10
6.083956944444445
 20
3.597574999999999
 10
6.095526388888889
 20
3.602269444444444
  0
LWPOLYLINE
  5
15D
330
2
100
AcDbEntity
  8
PDF_Layer 1
 62
     7
420
 16777215
370
    70
100
AcDbPolyline
 90
        4
 70
     0
 43
0.0
 10
5.81905
 20
3.602213888888889
 10
5.807494444444444
 20
3.599866666666666
 10
5.793661111111111
 20
3.595255555555555
 10
5.777577777777778
 20
3.590727777777777
  0
LWPOLYLINE
  5
15E
330
2
100
AcDbEntity
  8
PDF_Layer 1
 62
     7
420
 16777215
370
    70
100
AcDbPolyline
 90
        3
 70
     0
 43
0.0
 10
5.766011111111112
 20
3.588405555555555
 10
5.763747222222223
 20
3.588405555555555
 10
5.713052777777778
 20
3.602225
  0
LWPOLYLINE
  5
161
330
2
100
AcDbEntity
  8
PDF_Layer 1
 62
     7
420
 16777215
370
    70
100
AcDbPolyline
 90
        6
 70
     0
 43
0.0
 10
6.040181944444443
 20
3.597574999999999
 10
6.028612499999998
 20
3.602269444444444
 10
5.996445833333331
 20
3.616088888888888
 10
5.936543055555554
 20
3.622949999999999
 10
5.881251388888887
 20
3.620616666666666
 10
5.819001388888887
 20
3.602269444444444
  0
LWPOLYLINE
  5
162
330
2
100
AcDbEntity
  8
PDF_Layer 1
 62
     7
420
 16777215
370
    70
100
AcDbPolyline
 90
        2
 70
     0
 43
0.0
 10
5.777547222222221
 20
3.59069861111111
 10
5.765977777777776
 20
3.588434722222221
  0
LWPOLYLINE
  5
163
330
2
100
AcDbEntity
  8
PDF_Layer 1
 62
     7
420
 16777215
370
    70
100
AcDbPolyline
 90
        2
 70
     0
 43
0.0
 10
6.095493055555555
 20
3.602227777777777
 10
6.095493055555555
 20
3.602227777777777
  0
LWPOLYLINE
  5
164
330
2
100
AcDbEntity
  8
PDF_Layer 1
 62
     7
420
 16777215
370
    70
100
AcDbPolyline
 90
        2
 70
     0
 43
0.0
 10
6.095493055555555
 20
3.34181111111111
 10
6.095493055555555
 20
2.282047222222222
  0
LWPOLYLINE
  5
166
330
2
100
AcDbEntity
  8
PDF_Layer 1
 62
     7
420
 16777215
370
    70
100
AcDbPolyline
 90
        3
 70
     0
 43
0.0
 10
6.056301388888888
 20
4.505344444444444
 10
6.095509722222222
 20
4.505344444444444
 10
6.095509722222222
 20
3.604525
  0
LWPOLYLINE
  5
167
330
2
100
AcDbEntity
  8
PDF_Layer 1
 62
     7
420
 16777215
370
    70
100
AcDbPolyline
 90
        3
 70
     0
 43
0.0
 10
5.712991666666666
 20
3.604525
 10
5.712991666666666
 20
4.505344444444444
 10
4.959616666666666
 20
4.505344444444444
  0
LWPOLYLINE
  5
169
330
2
100
AcDbEntity
  8
PDF_Layer 1
 62
     7
420
 16777215
370
    70
100
AcDbPolyline
 90
        2
 70
     0
 43
0.0
 10
5.74989861111111
 20
2.279730555555555
 10
5.793620833333332
 20
2.231397222222221
  0
LWPOLYLINE
  5
16A
330
2
100
AcDbEntity
  8
PDF_Layer 1
 62
     7
420
 16777215
370
    70
100
AcDbPolyline
 90
        2
 70
     0
 43
0.0
 10
5.74989861111111
 20
2.302720833333332
 10
5.759106944444443
 20
2.309665277777777
  0
LWPOLYLINE
  5
16B
330
2
100
AcDbEntity
  8
PDF_Layer 1
 62
     7
420
 16777215
370
    70
100
AcDbPolyline
 90
        2
 70
     0
 43
0.0
 10
5.768304166666666
 20
2.318915277777777
 10
5.749873611111111
 20
2.339609722222222
  0
LWPOLYLINE
  5
16C
330
2
100
AcDbEntity
  8
PDF_Layer 1
 62
     7
420
 16777215
370
    70
100
AcDbPolyline
 90
        4
 70
     0
 43
0.0
 10
5.749916666666665
 20
2.360279166666666
 10
5.777555555555554
 20
2.3281125
 10
5.789041666666665
 20
2.337334722222222
 10
5.749916666666665
 20
2.381056944444444
  0
LWPOLYLINE
  5
16D
330
2
100
AcDbEntity
  8
PDF_Layer 1
 62
     7
420
 16777215
370
    70
100
AcDbPolyline
 90
        3
 70
     0
 43
0.0
 10
5.74989861111111
 20
2.381131944444443
 10
5.74989861111111
 20
2.383395833333332
 10
5.747634722222221
 20
2.383395833333332
  0
LWPOLYLINE
  5
16E
330
2
100
AcDbEntity
  8
PDF_Layer 1
 62
     7
420
 16777215
370
    70
100
AcDbPolyline
 90
        2
 70
     0
 43
0.0
 10
5.74989861111111
 20
2.381104166666666
 10
5.74989861111111
 20
2.286590277777777
  0
LWPOLYLINE
  5
16F
330
2
100
AcDbEntity
  8
PDF_Layer 1
 62
     7
420
 16777215
370
    70
100
AcDbPolyline
 90
        2
 70
     0
 43
0.0
 10
5.729152777777777
 20
2.383395833333332
 10
5.724541666666666
 20
2.390256944444443
  0
LWPOLYLINE
  5
170
330
2
100
AcDbEntity
  8
PDF_Layer 1
 62
     7
420
 16777215
370
    70
100
AcDbPolyline
 90
        2
 70
     0
 43
0.0
 10
5.736063888888887
 20
2.252074999999999
 10
5.772924999999998
 20
2.212866666666666
  0
LWPOLYLINE
  5
171
330
2
100
AcDbEntity
  8
PDF_Layer 1
 62
     7
420
 16777215
370
    70
100
AcDbPolyline
 90
        4
 70
     0
 43
0.0
 10
5.733752777777778
 20
2.194472222222222
 10
5.742961111111111
 20
2.185263888888888
 10
5.752183333333333
 20
2.194472222222222
 10
5.715322222222222
 20
2.235944444444444
  0
LWPOLYLINE
  5
172
330
2
100
AcDbEntity
  8
PDF_Layer 1
 62
     7
420
 16777215
370
    70
100
AcDbPolyline
 90
        2
 70
     0
 43
0.0
 10
5.712991666666666
 20
2.233669444444444
 10
5.712991666666666
 20
2.217502777777777
  0
LWPOLYLINE
  5
173
330
2
100
AcDbEntity
  8
PDF_Layer 1
 62
     7
420
 16777215
370
    70
100
AcDbPolyline
 90
        4
 70
     0
 43
0.0
 10
5.712991666666666
 20
1.968683333333333
 10
5.712991666666666
 20
1.970947222222222
 10
5.722199999999999
 20
1.961808333333333
 10
5.719936111111111
 20
1.961808333333333
  0
LWPOLYLINE
  5
174
330
2
100
AcDbEntity
  8
PDF_Layer 1
 62
     7
420
 16777215
370
    70
100
AcDbPolyline
 90
        2
 70
     0
 43
0.0
 10
5.722243055555554
 20
1.961777777777777
 10
5.724506944444443
 20
1.957083333333333
  0
LWPOLYLINE
  5
175
330
2
100
AcDbEntity
  8
PDF_Layer 1
 62
     7
420
 16777215
370
    70
100
AcDbPolyline
 90
        2
 70
     0
 43
0.0
 10
5.731438888888889
 20
1.954820833333332
 10
5.740661111111111
 20
1.961779166666666
  0
LWPOLYLINE
  5
176
330
2
100
AcDbEntity
  8
PDF_Layer 1
 62
     7
420
 16777215
370
    70
100
AcDbPolyline
 90
        3
 70
     0
 43
0.0
 10
5.738384722222221
 20
1.943373611111111
 10
5.74064861111111
 20
1.943373611111111
 10
5.800551388888887
 20
1.998595833333333
  0
LWPOLYLINE
  5
177
330
2
100
AcDbEntity
  8
PDF_Layer 1
 62
     7
420
 16777215
370
    70
100
AcDbPolyline
 90
        2
 70
     0
 43
0.0
 10
5.74989861111111
 20
1.869574999999999
 10
5.754509722222221
 20
1.864963888888888
  0
LWPOLYLINE
  5
178
330
2
100
AcDbEntity
  8
PDF_Layer 1
 62
     7
420
 16777215
370
    70
100
AcDbPolyline
 90
        2
 70
     0
 43
0.0
 10
5.74759861111111
 20
1.858113888888888
 10
5.784376388888888
 20
1.892627777777777
  0
LWPOLYLINE
  5
179
330
2
100
AcDbEntity
  8
PDF_Layer 1
 62
     7
420
 16777215
370
    70
100
AcDbPolyline
 90
        2
 70
     0
 43
0.0
 10
5.761433333333332
 20
1.85346111111111
 10
5.745252777777777
 20
1.85346111111111
  0
LWPOLYLINE
  5
17A
330
2
100
AcDbEntity
  8
PDF_Layer 1
 62
     7
420
 16777215
370
    70
100
AcDbPolyline
 90
        2
 70
     0
 43
0.0
 10
6.040181944444443
 20
2.344197222222222
 10
5.984890277777776
 20
2.404183333333333
  0
LWPOLYLINE
  5
17B
330
2
100
AcDbEntity
  8
PDF_Layer 1
 62
     7
420
 16777215
370
    70
100
AcDbPolyline
 90
        2
 70
     0
 43
0.0
 10
5.931891666666666
 20
2.466348611111111
 10
5.876599999999999
 20
2.526251388888888
  0
LWPOLYLINE
  5
17C
330
2
100
AcDbEntity
  8
PDF_Layer 1
 62
     7
420
 16777215
370
    70
100
AcDbPolyline
 90
        4
 70
     0
 43
0.0
 10
6.079336111111111
 20
3.33496111111111
 10
6.063252777777777
 20
3.330349999999999
 10
6.056308333333332
 20
3.332613888888888
 10
6.04021111111111
 20
3.337224999999999
  0
LWPOLYLINE
  5
17D
330
2
100
AcDbEntity
  8
PDF_Layer 1
 62
     7
420
 16777215
370
    70
100
AcDbPolyline
 90
        2
 70
     0
 43
0.0
 10
6.083956944444445
 20
3.337226388888888
 10
6.095526388888889
 20
3.3418375
  0
LWPOLYLINE
  5
17E
330
2
100
AcDbEntity
  8
PDF_Layer 1
 62
     7
420
 16777215
370
    70
100
AcDbPolyline
 90
        2
 70
     0
 43
0.0
 10
5.867384722222221
 20
2.53777361111111
 10
5.876606944444443
 20
2.526218055555554
  0
LWPOLYLINE
  5
17F
330
2
100
AcDbEntity
  8
PDF_Layer 1
 62
     7
420
 16777215
370
    70
100
AcDbPolyline
 90
        3
 70
     0
 43
0.0
 10
5.867412499999999
 20
2.5378
 10
5.876634722222221
 20
2.526244444444444
 10
5.865065277777777
 20
2.517022222222222
  0
LWPOLYLINE
  5
181
330
2
100
AcDbEntity
  8
PDF_Layer 1
 62
     7
420
 16777215
370
    70
100
AcDbPolyline
 90
        4
 70
     0
 43
0.0
 10
5.858147222222221
 20
2.546990277777777
 10
5.867369444444443
 20
2.537768055555555
 10
5.805202777777777
 20
2.482476388888888
 10
5.795980555555555
 20
2.491684722222222
  0
LWPOLYLINE
  5
183
330
2
100
AcDbEntity
  8
PDF_Layer 1
 62
     7
420
 16777215
370
    70
100
AcDbPolyline
 90
        4
 70
     0
 43
0.0
 10
5.848987499999999
 20
2.556240277777777
 10
5.858209722222222
 20
2.546934722222221
 10
5.795959722222222
 20
2.491712499999999
 10
5.7867375
 20
2.500837499999999
  0
LWPOLYLINE
  5
185
330
2
100
AcDbEntity
  8
PDF_Layer 1
 62
     7
420
 16777215
370
    70
100
AcDbPolyline
 90
        4
 70
     0
 43
0.0
 10
5.839708333333333
 20
2.567729166666666
 10
5.848999999999999
 20
2.55617361111111
 10
5.786749999999999
 20
2.500881944444444
 10
5.777527777777777
 20
2.512437499999999
  0
LWPOLYLINE
  5
187
330
2
100
AcDbEntity
  8
PDF_Layer 1
 62
     7
420
 16777215
370
    70
100
AcDbPolyline
 90
        4
 70
     0
 43
0.0
 10
5.830491666666665
 20
2.577006944444443
 10
5.839713888888887
 20
2.567701388888888
 10
5.777547222222221
 20
2.51242361111111
 10
5.768324999999999
 20
2.521631944444444
  0
LWPOLYLINE
  5
189
330
2
100
AcDbEntity
  8
PDF_Layer 1
 62
     7
420
 16777215
370
    70
100
AcDbPolyline
 90
        4
 70
     1
 43
0.0
 10
5.759081944444444
 20
2.533147222222221
 10
5.821331944444444
 20
2.588452777777777
 10
5.830554166666666
 20
2.576952777777777
 10
5.768304166666666
 20
2.52166111111111
  0
LWPOLYLINE
  5
18B
330
2
100
AcDbEntity
  8
PDF_Layer 1
 62
     7
420
 16777215
370
    70
100
AcDbPolyline
 90
        5
 70
     0
 43
0.0
 10
5.805188888888888
 20
2.482480555555555
 10
5.81441111111111
 20
2.470924999999999
 10
5.865091666666665
 20
2.516994444444443
 10
5.87666111111111
 20
2.526216666666666
 10
5.865091666666665
 20
2.516994444444443
  0
LWPOLYLINE
  5
18D
330
2
100
AcDbEntity
  8
PDF_Layer 1
 62
     7
420
 16777215
370
    70
100
AcDbPolyline
 90
        2
 70
     0
 43
0.0
 10
5.86047361111111
 20
2.420206944444444
 10
5.869695833333333
 20
2.411081944444444
  0
LWPOLYLINE
  5
18E
330
2
100
AcDbEntity
  8
PDF_Layer 1
 62
     7
420
 16777215
370
    70
100
AcDbPolyline
 90
        3
 70
     0
 43
0.0
 10
5.860447222222221
 20
2.420162499999999
 10
5.869669444444443
 20
2.411037499999999
 10
5.860447222222221
 20
2.401829166666666
  0
LWPOLYLINE
  5
190
330
2
100
AcDbEntity
  8
PDF_Layer 1
 62
     7
420
 16777215
370
    70
100
AcDbPolyline
 90
        4
 70
     0
 43
0.0
 10
5.851258333333333
 20
2.431754166666666
 10
5.860480555555555
 20
2.42019861111111
 10
5.800577777777777
 20
2.364976388888888
 10
5.791355555555555
 20
2.376531944444444
  0
LWPOLYLINE
  5
192
330
2
100
AcDbEntity
  8
PDF_Layer 1
 62
     7
420
 16777215
370
    70
100
AcDbPolyline
 90
        4
 70
     0
 43
0.0
 10
5.84198611111111
 20
2.441033333333333
 10
5.851277777777776
 20
2.431727777777777
 10
5.791374999999999
 20
2.376519444444444
 10
5.782152777777777
 20
2.385644444444444
  0
LWPOLYLINE
  5
194
330
2
100
AcDbEntity
  8
PDF_Layer 1
 62
     7
420
 16777215
370
    70
100
AcDbPolyline
 90
        4
 70
     0
 43
0.0
 10
5.832805555555554
 20
2.450272222222221
 10
5.842027777777777
 20
2.440966666666666
 10
5.782124999999999
 20
2.385674999999999
 10
5.772902777777777
 20
2.397244444444444
  0
LWPOLYLINE
  5
196
330
2
100
AcDbEntity
  8
PDF_Layer 1
 62
     7
420
 16777215
370
    70
100
AcDbPolyline
 90
        4
 70
     0
 43
0.0
 10
5.823609722222221
 20
2.461813888888888
 10
5.832831944444444
 20
2.450244444444444
 10
5.772929166666666
 20
2.397216666666666
 10
5.763706944444444
 20
2.406438888888888
  0
LWPOLYLINE
  5
198
330
2
100
AcDbEntity
  8
PDF_Layer 1
 62
     7
420
 16777215
370
    70
100
AcDbPolyline
 90
        4
 70
     1
 43
0.0
 10
5.754497222222221
 20
2.415591666666666
 10
5.814399999999999
 20
2.470980555555555
 10
5.823622222222221
 20
2.461758333333333
 10
5.763719444444443
 20
2.406466666666666
  0
LWPOLYLINE
  5
19A
330
2
100
AcDbEntity
  8
PDF_Layer 1
 62
     7
420
 16777215
370
    70
100
AcDbPolyline
 90
        5
 70
     0
 43
0.0
 10
5.800570833333333
 20
2.36502361111111
 10
5.809779166666666
 20
2.355718055555555
 10
5.86047361111111
 20
2.401801388888888
 10
5.869695833333333
 20
2.411009722222221
 10
5.86047361111111
 20
2.401801388888888
  0
LWPOLYLINE
  5
19D
330
2
100
AcDbEntity
  8
PDF_Layer 1
 62
     7
420
 16777215
370
    70
100
AcDbPolyline
 90
        4
 70
     0
 43
0.0
 10
5.855805555555555
 20
2.507779166666666
 10
5.865111111111111
 20
2.517001388888888
 10
5.920402777777777
 20
2.45709861111111
 10
5.911180555555555
 20
2.447890277777777
  0
LWPOLYLINE
  5
19F
330
2
100
AcDbEntity
  8
PDF_Layer 1
 62
     7
420
 16777215
370
    70
100
AcDbPolyline
 90
        4
 70
     0
 43
0.0
 10
5.846645833333333
 20
2.498543055555555
 10
5.855868055555555
 20
2.507848611111111
 10
5.911159722222222
 20
2.447862499999999
 10
5.899590277777777
 20
2.438737499999999
  0
LWPOLYLINE
  5
1A1
330
2
100
AcDbEntity
  8
PDF_Layer 1
 62
     7
420
 16777215
370
    70
100
AcDbPolyline
 90
        4
 70
     0
 43
0.0
 10
5.835109722222222
 20
2.489304166666666
 10
5.846665277777777
 20
2.498595833333333
 10
5.899623611111111
 20
2.438693055555555
 10
5.890484722222222
 20
2.429484722222222
  0
LWPOLYLINE
  5
1A3
330
2
100
AcDbEntity
  8
PDF_Layer 1
 62
     7
420
 16777215
370
    70
100
AcDbPolyline
 90
        3
 70
     0
 43
0.0
 10
5.835163888888889
 20
2.489359722222222
 10
5.890455555555555
 20
2.429456944444444
 10
5.881233333333333
 20
2.420248611111111
  0
LWPOLYLINE
  5
1A5
330
2
100
AcDbEntity
  8
PDF_Layer 1
 62
     7
420
 16777215
370
    70
100
AcDbPolyline
 90
        2
 70
     0
 43
0.0
 10
5.881205555555554
 20
2.420206944444444
 10
5.869649999999999
 20
2.411081944444444
  0
LWPOLYLINE
  5
1A6
330
2
100
AcDbEntity
  8
PDF_Layer 1
 62
     7
420
 16777215
370
    70
100
AcDbPolyline
 90
        3
 70
     0
 43
0.0
 10
5.881198611111109
 20
2.420197222222221
 10
5.825906944444443
 20
2.480183333333333
 10
5.835115277777776
 20
2.489308333333333
  0
LWPOLYLINE
  5
1A8
330
2
100
AcDbEntity
  8
PDF_Layer 1
 62
     7
420
 16777215
370
    70
100
AcDbPolyline
 90
        2
 70
     0
 43
0.0
 10
5.920402777777777
 20
2.45709861111111
 10
5.931874999999999
 20
2.466320833333333
  0
LWPOLYLINE
  5
1A9
330
2
100
AcDbEntity
  8
PDF_Layer 1
 62
     7
420
 16777215
370
    70
100
AcDbPolyline
 90
        3
 70
     0
 43
0.0
 10
5.825906944444443
 20
2.480183333333333
 10
5.814337499999998
 20
2.47096111111111
 10
5.869629166666666
 20
2.411044444444444
  0
LWPOLYLINE
  5
1AA
330
2
100
AcDbEntity
  8
PDF_Layer 1
 62
     7
420
 16777215
370
    70
100
AcDbPolyline
 90
        2
 70
     1
 43
0.0
 10
5.984881944444444
 20
2.404147222222221
 10
5.97567361111111
 20
2.394924999999999
  0
LWPOLYLINE
  5
1AB
330
2
100
AcDbEntity
  8
PDF_Layer 1
 62
     7
420
 16777215
370
    70
100
AcDbPolyline
 90
        4
 70
     0
 43
0.0
 10
5.966465277777777
 20
2.385640277777777
 10
5.975687499999999
 20
2.394931944444444
 10
6.030979166666665
 20
2.335029166666666
 10
6.019409722222221
 20
2.325820833333333
  0
LWPOLYLINE
  5
1AD
330
2
100
AcDbEntity
  8
PDF_Layer 1
 62
     7
420
 16777215
370
    70
100
AcDbPolyline
 90
        4
 70
     0
 43
0.0
 10
5.954922222222222
 20
2.376472222222222
 10
5.966477777777777
 20
2.385694444444444
 10
6.019436111111111
 20
2.325791666666666
 10
6.010213888888888
 20
2.316583333333333
  0
LWPOLYLINE
  5
1AF
330
2
100
AcDbEntity
  8
PDF_Layer 1
 62
     7
420
 16777215
370
    70
100
AcDbPolyline
 90
        4
 70
     0
 43
0.0
 10
5.945726388888887
 20
2.367222222222221
 10
5.95494861111111
 20
2.376527777777777
 10
6.010240277777776
 20
2.316541666666666
 10
6.001018055555554
 20
2.307416666666666
  0
LWPOLYLINE
  5
1B1
330
2
100
AcDbEntity
  8
PDF_Layer 1
 62
     7
420
 16777215
370
    70
100
AcDbPolyline
 90
        3
 70
     0
 43
0.0
 10
5.94569861111111
 20
2.367276388888888
 10
6.000990277777776
 20
2.30737361111111
 10
5.989504166666665
 20
2.298165277777777
  0
LWPOLYLINE
  5
1B3
330
2
100
AcDbEntity
  8
PDF_Layer 1
 62
     7
420
 16777215
370
    70
100
AcDbPolyline
 90
        2
 70
     0
 43
0.0
 10
5.989495833333332
 20
2.29813611111111
 10
5.98027361111111
 20
2.28901111111111
  0
LWPOLYLINE
  5
1B4
330
2
100
AcDbEntity
  8
PDF_Layer 1
 62
     7
420
 16777215
370
    70
100
AcDbPolyline
 90
        3
 70
     0
 43
0.0
 10
5.989522222222221
 20
2.298129166666666
 10
5.934230555555555
 20
2.358031944444444
 10
5.945716666666666
 20
2.367240277777777
  0
LWPOLYLINE
  5
1B6
330
2
100
AcDbEntity
  8
PDF_Layer 1
 62
     7
420
 16777215
370
    70
100
AcDbPolyline
 90
        2
 70
     0
 43
0.0
 10
6.030979166666665
 20
2.335029166666666
 10
6.040187499999999
 20
2.344168055555555
  0
LWPOLYLINE
  5
1B7
330
2
100
AcDbEntity
  8
PDF_Layer 1
 62
     7
420
 16777215
370
    70
100
AcDbPolyline
 90
        3
 70
     0
 43
0.0
 10
5.934230555555555
 20
2.358031944444444
 10
5.925008333333333
 20
2.348893055555555
 10
5.980313888888889
 20
2.288990277777777
  0
LWPOLYLINE
  5
1B8
330
2
100
AcDbEntity
  8
PDF_Layer 1
 62
     7
420
 16777215
370
    70
100
AcDbPolyline
 90
        8
 70
     0
 43
0.0
 10
5.975647222222221
 20
2.394952777777777
 10
5.984869444444443
 20
2.404174999999999
 10
5.975647222222221
 20
2.415647222222221
 10
5.96878611111111
 20
2.424855555555554
 10
5.959563888888887
 20
2.434077777777777
 10
5.950355555555554
 20
2.445549999999999
 10
5.941133333333332
 20
2.45478611111111
 10
5.93191111111111
 20
2.466341666666666
  0
LWPOLYLINE
  5
1BA
330
2
100
AcDbEntity
  8
PDF_Layer 1
 62
     7
420
 16777215
370
    70
100
AcDbPolyline
 90
        2
 70
     0
 43
0.0
 10
5.984869444444443
 20
2.404174999999999
 10
5.975647222222221
 20
2.415647222222221
  0
LWPOLYLINE
  5
1BB
330
2
100
AcDbEntity
  8
PDF_Layer 1
 62
     7
420
 16777215
370
    70
100
AcDbPolyline
 90
        4
 70
     0
 43
0.0
 10
5.96872222222222
 20
2.424908333333333
 10
5.975680555555554
 20
2.415602777777777
 10
5.915777777777776
 20
2.360325
 10
5.906555555555554
 20
2.369533333333333
  0
LWPOLYLINE
  5
1BD
330
2
100
AcDbEntity
  8
PDF_Layer 1
 62
     7
420
 16777215
370
    70
100
AcDbPolyline
 90
        4
 70
     0
 43
0.0
 10
5.959533333333332
 20
2.434158333333333
 10
5.968741666666665
 20
2.424852777777777
 10
5.906574999999999
 20
2.369561111111111
 10
5.897352777777776
 20
2.381116666666666
  0
LWPOLYLINE
  5
1BF
330
2
100
AcDbEntity
  8
PDF_Layer 1
 62
     7
420
 16777215
370
    70
100
AcDbPolyline
 90
        4
 70
     0
 43
0.0
 10
5.950352777777777
 20
2.445618055555555
 10
5.959575
 20
2.434131944444444
 10
5.897325
 20
2.381104166666666
 10
5.888102777777778
 20
2.390229166666666
  0
LWPOLYLINE
  5
1C1
330
2
100
AcDbEntity
  8
PDF_Layer 1
 62
     7
420
 16777215
370
    70
100
AcDbPolyline
 90
        4
 70
     0
 43
0.0
 10
5.94107361111111
 20
2.454855555555555
 10
5.950365277777777
 20
2.445549999999999
 10
5.888129166666666
 20
2.390258333333333
 10
5.878906944444444
 20
2.399480555555555
  0
LWPOLYLINE
  5
1C3
330
2
100
AcDbEntity
  8
PDF_Layer 1
 62
     7
420
 16777215
370
    70
100
AcDbPolyline
 90
        4
 70
     1
 43
0.0
 10
5.869697222222221
 20
2.411063888888888
 10
5.931877777777777
 20
2.466355555555554
 10
5.941086111111109
 20
2.45478611111111
 10
5.878919444444443
 20
2.399508333333332
  0
LWPOLYLINE
  5
1C6
330
2
100
AcDbEntity
  8
PDF_Layer 1
 62
     7
420
 16777215
370
    70
100
AcDbPolyline
 90
        3
 70
     0
 43
0.0
 10
5.97567361111111
 20
2.394924999999999
 10
5.924979166666665
 20
2.348855555555555
 10
5.915770833333333
 20
2.360327777777777
  0
LWPOLYLINE
  5
1C7
330
2
100
AcDbEntity
  8
PDF_Layer 1
 62
     7
420
 16777215
370
    70
100
AcDbPolyline
 90
        2
 70
     0
 43
0.0
 10
6.086249999999999
 20
2.293551388888888
 10
6.095458333333333
 20
2.281995833333332
  0
LWPOLYLINE
  5
1C8
330
2
100
AcDbEntity
  8
PDF_Layer 1
 62
     7
420
 16777215
370
    70
100
AcDbPolyline
 90
        3
 70
     0
 43
0.0
 10
6.086270833333332
 20
2.293579166666666
 10
6.095493055555555
 20
2.282023611111111
 10
6.086270833333332
 20
2.272801388888888
  0
LWPOLYLINE
  5
1CA
330
2
100
AcDbEntity
  8
PDF_Layer 1
 62
     7
420
 16777215
370
    70
100
AcDbPolyline
 90
        4
 70
     0
 43
0.0
 10
6.077040277777776
 20
2.302754166666666
 10
6.086262499999999
 20
2.293531944444444
 10
6.026359722222221
 20
2.238240277777777
 10
6.017137499999999
 20
2.247365277777777
  0
LWPOLYLINE
  5
1CC
330
2
100
AcDbEntity
  8
PDF_Layer 1
 62
     7
420
 16777215
370
    70
100
AcDbPolyline
 90
        4
 70
     0
 43
0.0
 10
6.067831944444443
 20
2.311993055555555
 10
6.077054166666665
 20
2.302701388888888
 10
6.017151388888888
 20
2.247409722222221
 10
6.007929166666666
 20
2.258965277777777
  0
LWPOLYLINE
  5
1CE
330
2
100
AcDbEntity
  8
PDF_Layer 1
 62
     7
420
 16777215
370
    70
100
AcDbPolyline
 90
        4
 70
     0
 43
0.0
 10
6.058622222222221
 20
2.32353611111111
 10
6.067844444444443
 20
2.311966666666666
 10
6.007941666666666
 20
2.258938888888888
 10
5.998719444444444
 20
2.26816111111111
  0
LWPOLYLINE
  5
1D0
330
2
100
AcDbEntity
  8
PDF_Layer 1
 62
     7
420
 16777215
370
    70
100
AcDbPolyline
 90
        4
 70
     0
 43
0.0
 10
6.04938472222222
 20
2.332716666666666
 10
6.058606944444442
 20
2.323480555555555
 10
5.998704166666665
 20
2.268188888888888
 10
5.989481944444443
 20
2.27741111111111
  0
LWPOLYLINE
  5
1D2
330
2
100
AcDbEntity
  8
PDF_Layer 1
 62
     7
420
 16777215
370
    70
100
AcDbPolyline
 90
        4
 70
     1
 43
0.0
 10
5.98027361111111
 20
2.288994444444444
 10
6.040176388888887
 20
2.344216666666666
 10
6.04939861111111
 20
2.332647222222221
 10
5.989495833333332
 20
2.277438888888888
  0
LWPOLYLINE
  5
1D4
330
2
100
AcDbEntity
  8
PDF_Layer 1
 62
     7
420
 16777215
370
    70
100
AcDbPolyline
 90
        4
 70
     0
 43
0.0
 10
6.026347222222222
 20
2.238258333333333
 10
6.035638888888888
 20
2.226702777777777
 10
6.086249999999999
 20
2.272772222222221
 10
6.095458333333333
 20
2.281994444444443
  0
LWPOLYLINE
  5
1D6
330
2
100
AcDbEntity
  8
PDF_Layer 1
 62
     7
420
 16777215
370
    70
100
AcDbPolyline
 90
       10
 70
     0
 43
0.0
 10
5.925001388888888
 20
2.348870833333333
 10
5.93420972222222
 20
2.339579166666666
 10
5.943431944444443
 20
2.330356944444444
 10
5.952640277777776
 20
2.318870833333332
 10
5.961862499999998
 20
2.309662499999999
 10
5.971070833333332
 20
2.298093055555555
 10
5.980293055555554
 20
2.288968055555555
 10
5.968723611111109
 20
2.279759722222221
 10
5.980293055555554
 20
2.288968055555555
 10
5.971070833333332
 20
2.298093055555555
  0
LWPOLYLINE
  5
1D7
330
2
100
AcDbEntity
  8
PDF_Layer 1
 62
     7
420
 16777215
370
    70
100
AcDbPolyline
 90
        4
 70
     0
 43
0.0
 10
5.959547222222221
 20
2.270488888888889
 10
5.968769444444443
 20
2.279711111111111
 10
6.02406111111111
 20
2.217461111111111
 10
6.014838888888887
 20
2.208336111111111
  0
LWPOLYLINE
  5
1D9
330
2
100
AcDbEntity
  8
PDF_Layer 1
 62
     7
420
 16777215
370
    70
100
AcDbPolyline
 90
        4
 70
     0
 43
0.0
 10
5.950311111111111
 20
2.261334722222222
 10
5.959533333333333
 20
2.270473611111111
 10
6.014825
 20
2.208293055555555
 10
6.003338888888889
 20
2.199084722222222
  0
LWPOLYLINE
  5
1DB
330
2
100
AcDbEntity
  8
PDF_Layer 1
 62
     7
420
 16777215
370
    70
100
AcDbPolyline
 90
        4
 70
     0
 43
0.0
 10
5.938815277777777
 20
2.252083333333333
 10
5.950370833333332
 20
2.261305555555555
 10
6.003329166666666
 20
2.199055555555555
 10
5.994106944444443
 20
2.192194444444444
  0
LWPOLYLINE
  5
1DD
330
2
100
AcDbEntity
  8
PDF_Layer 1
 62
     7
420
 16777215
370
    70
100
AcDbPolyline
 90
        3
 70
     0
 43
0.0
 10
5.938829166666666
 20
2.252068055555555
 10
5.994120833333332
 20
2.192179166666666
 10
5.98489861111111
 20
2.182956944444444
  0
LWPOLYLINE
  5
1DF
330
2
100
AcDbEntity
  8
PDF_Layer 1
 62
     7
420
 16777215
370
    70
100
AcDbPolyline
 90
        2
 70
     0
 43
0.0
 10
5.984869444444443
 20
2.182943055555555
 10
5.973383333333332
 20
2.173804166666666
  0
LWPOLYLINE
  5
1E0
330
2
100
AcDbEntity
  8
PDF_Layer 1
 62
     7
420
 16777215
370
    70
100
AcDbPolyline
 90
        3
 70
     0
 43
0.0
 10
5.984856944444443
 20
2.182922222222222
 10
5.929565277777776
 20
2.242825
 10
5.938787499999999
 20
2.252033333333333
  0
LWPOLYLINE
  5
1E2
330
2
100
AcDbEntity
  8
PDF_Layer 1
 62
     7
420
 16777215
370
    70
100
AcDbPolyline
 90
        3
 70
     0
 43
0.0
 10
6.02406111111111
 20
2.217461111111111
 10
6.035630555555554
 20
2.226683333333333
 10
5.980324999999998
 20
2.289002777777777
  0
LWPOLYLINE
  5
1E3
330
2
100
AcDbEntity
  8
PDF_Layer 1
 62
     7
420
 16777215
370
    70
100
AcDbPolyline
 90
        4
 70
     0
 43
0.0
 10
5.929565277777776
 20
2.242825
 10
5.918079166666665
 20
2.2337
 10
5.973287499999999
 20
2.173783333333333
 10
5.964162499999999
 20
2.164477777777777
  0
LWPOLYLINE
  5
1E4
330
2
100
AcDbEntity
  8
PDF_Layer 1
 62
     7
420
 16777215
370
    70
100
AcDbPolyline
 90
        4
 70
     0
 43
0.0
 10
5.952658333333333
 20
2.155295833333333
 10
5.964144444444444
 20
2.164504166666666
 10
6.019436111111111
 20
2.102268055555555
 10
6.007963888888888
 20
2.093129166666666
  0
LWPOLYLINE
  5
1E6
330
2
100
AcDbEntity
  8
PDF_Layer 1
 62
     7
420
 16777215
370
    70
100
AcDbPolyline
 90
        4
 70
     0
 43
0.0
 10
5.943427777777777
 20
2.146126388888888
 10
5.95265
 20
2.155265277777777
 10
6.007941666666666
 20
2.09309861111111
 10
5.998719444444444
 20
2.083876388888888
  0
LWPOLYLINE
  5
1E8
330
2
100
AcDbEntity
  8
PDF_Layer 1
 62
     7
420
 16777215
370
    70
100
AcDbPolyline
 90
        4
 70
     0
 43
0.0
 10
5.934190277777776
 20
2.136890277777777
 10
5.943412499999999
 20
2.14609861111111
 10
5.998704166666665
 20
2.083862499999999
 10
5.98713472222222
 20
2.074640277777777
  0
LWPOLYLINE
  5
1EA
330
2
100
AcDbEntity
  8
PDF_Layer 1
 62
     7
420
 16777215
370
    70
100
AcDbPolyline
 90
        3
 70
     0
 43
0.0
 10
5.934204166666665
 20
2.136848611111111
 10
5.987162499999999
 20
2.0746125
 10
5.978037499999999
 20
2.065473611111111
  0
LWPOLYLINE
  5
1EC
330
2
100
AcDbEntity
  8
PDF_Layer 1
 62
     7
420
 16777215
370
    70
100
AcDbPolyline
 90
        2
 70
     0
 43
0.0
 10
5.977999999999998
 20
2.065443055555555
 10
5.968777777777776
 20
2.056220833333333
  0
LWPOLYLINE
  5
1ED
330
2
100
AcDbEntity
  8
PDF_Layer 1
 62
     7
420
 16777215
370
    70
100
AcDbPolyline
 90
        3
 70
     0
 43
0.0
 10
5.977987499999998
 20
2.065451388888888
 10
5.922695833333332
 20
2.127631944444444
 10
5.934251388888887
 20
2.136840277777777
  0
LWPOLYLINE
  5
1EF
330
2
100
AcDbEntity
  8
PDF_Layer 1
 62
     7
420
 16777215
370
    70
100
AcDbPolyline
 90
        3
 70
     0
 43
0.0
 10
6.019436111111111
 20
2.102268055555555
 10
6.028658333333333
 20
2.111476388888889
 10
5.973366666666667
 20
2.173809722222222
  0
LWPOLYLINE
  5
1F0
330
2
100
AcDbEntity
  8
PDF_Layer 1
 62
     7
420
 16777215
370
    70
100
AcDbPolyline
 90
        3
 70
     0
 43
0.0
 10
5.922695833333332
 20
2.127631944444444
 10
5.913473611111109
 20
2.118493055555555
 10
5.968779166666665
 20
2.056159722222221
  0
LWPOLYLINE
  5
1F1
330
2
100
AcDbEntity
  8
PDF_Layer 1
 62
     7
420
 16777215
370
    70
100
AcDbPolyline
 90
        8
 70
     0
 43
0.0
 10
5.853536111111109
 20
2.286606944444443
 10
5.865091666666665
 20
2.293551388888888
 10
5.855869444444443
 20
2.30502361111111
 10
5.846661111111109
 20
2.314245833333333
 10
5.837438888888887
 20
2.325801388888888
 10
5.828230555555554
 20
2.33502361111111
 10
5.819008333333331
 20
2.346579166666666
 10
5.809799999999999
 20
2.355718055555555
  0
LWPOLYLINE
  5
1F3
330
2
100
AcDbEntity
  8
PDF_Layer 1
 62
     7
420
 16777215
370
    70
100
AcDbPolyline
 90
        5
 70
     0
 43
0.0
 10
5.793619444444443
 20
2.249829166666666
 10
5.802841666666665
 20
2.24052361111111
 10
5.853536111111109
 20
2.286606944444443
 10
5.865091666666665
 20
2.293551388888888
 10
5.855869444444443
 20
2.30502361111111
  0
LWPOLYLINE
  5
1F4
330
2
100
AcDbEntity
  8
PDF_Layer 1
 62
     7
420
 16777215
370
    70
100
AcDbPolyline
 90
        4
 70
     0
 43
0.0
 10
5.846619444444445
 20
2.314297222222222
 10
5.855827777777777
 20
2.304991666666666
 10
5.793661111111111
 20
2.249783333333333
 10
5.784438888888889
 20
2.258908333333333
  0
LWPOLYLINE
  5
1F6
330
2
100
AcDbEntity
  8
PDF_Layer 1
 62
     7
420
 16777215
370
    70
100
AcDbPolyline
 90
        4
 70
     0
 43
0.0
 10
5.837451388888887
 20
2.325799999999999
 10
5.846673611111109
 20
2.314230555555555
 10
5.784423611111109
 20
2.258938888888888
 10
5.77528472222222
 20
2.270508333333332
  0
LWPOLYLINE
  5
1F8
330
2
100
AcDbEntity
  8
PDF_Layer 1
 62
     7
420
 16777215
370
    70
100
AcDbPolyline
 90
        4
 70
     0
 43
0.0
 10
5.828213888888888
 20
2.335063888888888
 10
5.837422222222221
 20
2.325772222222221
 10
5.775255555555554
 20
2.270480555555554
 10
5.766033333333332
 20
2.279688888888888
  0
LWPOLYLINE
  5
1FA
330
2
100
AcDbEntity
  8
PDF_Layer 1
 62
     7
420
 16777215
370
    70
100
AcDbPolyline
 90
        4
 70
     1
 43
0.0
 10
5.756788888888889
 20
2.29128611111111
 10
5.819038888888889
 20
2.346577777777777
 10
5.828247222222223
 20
2.335022222222221
 10
5.766011111111112
 20
2.279730555555555
  0
LWPOLYLINE
  5
1FC
330
2
100
AcDbEntity
  8
PDF_Layer 1
 62
     7
420
 16777215
370
    70
100
AcDbPolyline
 90
        2
 70
     0
 43
0.0
 10
5.819030555555555
 20
2.346570833333333
 10
5.809808333333332
 20
2.355695833333333
  0
LWPOLYLINE
  5
1FE
330
2
100
AcDbEntity
  8
PDF_Layer 1
 62
     7
420
 16777215
370
    70
100
AcDbPolyline
 90
        2
 70
     0
 43
0.0
 10
6.074754166666665
 20
2.060872222222222
 10
6.083962499999999
 20
2.05165
  0
LWPOLYLINE
  5
1FF
330
2
100
AcDbEntity
  8
PDF_Layer 1
 62
     7
420
 16777215
370
    70
100
AcDbPolyline
 90
        3
 70
     0
 43
0.0
 10
6.074734722222222
 20
2.060830555555555
 10
6.083956944444445
 20
2.051622222222222
 10
6.0723875
 20
2.042399999999999
  0
LWPOLYLINE
  5
201
330
2
100
AcDbEntity
  8
PDF_Layer 1
 62
     7
420
 16777215
370
    70
100
AcDbPolyline
 90
        4
 70
     0
 43
0.0
 10
6.065554166666665
 20
2.070075
 10
6.074776388888887
 20
2.060838888888889
 10
6.012526388888887
 20
2.005561111111111
 10
6.003304166666665
 20
2.017033333333333
  0
LWPOLYLINE
  5
203
330
2
100
AcDbEntity
  8
PDF_Layer 1
 62
     7
420
 16777215
370
    70
100
AcDbPolyline
 90
        4
 70
     0
 43
0.0
 10
6.05627361111111
 20
2.081591666666666
 10
6.065565277777777
 20
2.07003611111111
 10
6.003329166666666
 20
2.017008333333333
 10
5.994106944444443
 20
2.026216666666666
  0
LWPOLYLINE
  5
205
330
2
100
AcDbEntity
  8
PDF_Layer 1
 62
     7
420
 16777215
370
    70
100
AcDbPolyline
 90
        4
 70
     0
 43
0.0
 10
6.047079166666666
 20
2.090841666666666
 10
6.056287499999998
 20
2.08155
 10
5.994120833333332
 20
2.026258333333333
 10
5.98489861111111
 20
2.035466666666666
  0
LWPOLYLINE
  5
207
330
2
100
AcDbEntity
  8
PDF_Layer 1
 62
     7
420
 16777215
370
    70
100
AcDbPolyline
 90
        4
 70
     0
 43
0.0
 10
6.037897222222221
 20
2.10227361111111
 10
6.047119444444443
 20
2.090787499999999
 10
5.984869444444443
 20
2.035495833333333
 10
5.977994444444443
 20
2.047065277777777
  0
LWPOLYLINE
  5
209
330
2
100
AcDbEntity
  8
PDF_Layer 1
 62
     7
420
 16777215
370
    70
100
AcDbPolyline
 90
        4
 70
     1
 43
0.0
 10
5.968777777777776
 20
2.0561625
 10
6.02861111111111
 20
2.111551388888889
 10
6.037902777777776
 20
2.102245833333333
 10
5.977999999999998
 20
2.0470375
  0
LWPOLYLINE
  5
20B
330
2
100
AcDbEntity
  8
PDF_Layer 1
 62
     7
420
 16777215
370
    70
100
AcDbPolyline
 90
        5
 70
     0
 43
0.0
 10
6.012519444444444
 20
2.005594444444444
 10
6.021811111111111
 20
1.996302777777777
 10
6.072422222222222
 20
2.042372222222222
 10
6.083991666666666
 20
2.051594444444444
 10
6.072422222222222
 20
2.042372222222222
  0
LWPOLYLINE
  5
20E
330
2
100
AcDbEntity
  8
PDF_Layer 1
 62
     7
420
 16777215
370
    70
100
AcDbPolyline
 90
        4
 70
     0
 43
0.0
 10
5.848999999999999
 20
2.392654166666666
 10
5.86048611111111
 20
2.401793055555555
 10
5.915777777777776
 20
2.3396125
 10
5.904208333333332
 20
2.330404166666666
  0
LWPOLYLINE
  5
210
330
2
100
AcDbEntity
  8
PDF_Layer 1
 62
     7
420
 16777215
370
    70
100
AcDbPolyline
 90
        4
 70
     0
 43
0.0
 10
5.839729166666666
 20
2.383404166666666
 10
5.848951388888888
 20
2.392612499999999
 10
5.904243055555554
 20
2.330376388888888
 10
5.895020833333332
 20
2.321251388888888
  0
LWPOLYLINE
  5
212
330
2
100
AcDbEntity
  8
PDF_Layer 1
 62
     7
420
 16777215
370
    70
100
AcDbPolyline
 90
        4
 70
     0
 43
0.0
 10
5.828179166666666
 20
2.374166666666666
 10
5.839748611111111
 20
2.383375
 10
5.895040277777777
 20
2.321208333333333
 10
5.883470833333332
 20
2.311999999999999
  0
LWPOLYLINE
  5
214
330
2
100
AcDbEntity
  8
PDF_Layer 1
 62
     7
420
 16777215
370
    70
100
AcDbPolyline
 90
        3
 70
     0
 43
0.0
 10
5.8282125
 20
2.374137499999999
 10
5.883504166666666
 20
2.311956944444444
 10
5.874281944444444
 20
2.30274861111111
  0
LWPOLYLINE
  5
216
330
2
100
AcDbEntity
  8
PDF_Layer 1
 62
     7
420
 16777215
370
    70
100
AcDbPolyline
 90
        2
 70
     0
 43
0.0
 10
5.874294444444444
 20
2.302720833333332
 10
5.865072222222222
 20
2.293595833333332
  0
LWPOLYLINE
  5
217
330
2
100
AcDbEntity
  8
PDF_Layer 1
 62
     7
420
 16777215
370
    70
100
AcDbPolyline
 90
        3
 70
     0
 43
0.0
 10
5.874322222222221
 20
2.302726388888888
 10
5.819030555555555
 20
2.364976388888888
 10
5.828169444444443
 20
2.374101388888888
  0
LWPOLYLINE
  5
219
330
2
100
AcDbEntity
  8
PDF_Layer 1
 62
     7
420
 16777215
370
    70
100
AcDbPolyline
 90
        3
 70
     0
 43
0.0
 10
5.915777777777776
 20
2.3396125
 10
5.92498611111111
 20
2.348834722222222
 10
5.869694444444442
 20
2.411084722222222
  0
LWPOLYLINE
  5
21A
330
2
100
AcDbEntity
  8
PDF_Layer 1
 62
     7
420
 16777215
370
    70
100
AcDbPolyline
 90
        4
 70
     0
 43
0.0
 10
5.819030555555555
 20
2.364976388888888
 10
5.809808333333332
 20
2.355768055555555
 10
5.865113888888888
 20
2.293504166666666
 10
5.853544444444444
 20
2.286559722222222
  0
LWPOLYLINE
  5
21B
330
2
100
AcDbEntity
  8
PDF_Layer 1
 62
     7
420
 16777215
370
    70
100
AcDbPolyline
 90
        4
 70
     0
 43
0.0
 10
5.844347222222221
 20
2.277447222222222
 10
5.853569444444443
 20
2.286586111111111
 10
5.908861111111109
 20
2.224419444444444
 10
5.899638888888887
 20
2.215197222222222
  0
LWPOLYLINE
  5
21D
330
2
100
AcDbEntity
  8
PDF_Layer 1
 62
     7
420
 16777215
370
    70
100
AcDbPolyline
 90
        4
 70
     0
 43
0.0
 10
5.832845833333333
 20
2.26821111111111
 10
5.844331944444444
 20
2.277419444444443
 10
5.899623611111111
 20
2.215183333333333
 10
5.8881375
 20
2.206044444444444
  0
LWPOLYLINE
  5
21F
330
2
100
AcDbEntity
  8
PDF_Layer 1
 62
     7
420
 16777215
370
    70
100
AcDbPolyline
 90
        4
 70
     0
 43
0.0
 10
5.823615277777777
 20
2.258972222222221
 10
5.8328375
 20
2.268180555555555
 10
5.888129166666666
 20
2.206013888888888
 10
5.878906944444444
 20
2.196791666666666
  0
LWPOLYLINE
  5
221
330
2
100
AcDbEntity
  8
PDF_Layer 1
 62
     7
420
 16777215
370
    70
100
AcDbPolyline
 90
        3
 70
     0
 43
0.0
 10
5.823627777777777
 20
2.258930555555555
 10
5.878919444444443
 20
2.196763888888888
 10
5.867349999999999
 20
2.187541666666666
  0
LWPOLYLINE
  5
223
330
2
100
AcDbEntity
  8
PDF_Layer 1
 62
     7
420
 16777215
370
    70
100
AcDbPolyline
 90
        2
 70
     0
 43
0.0
 10
5.867384722222221
 20
2.187513888888888
 10
5.858162499999998
 20
2.178388888888888
  0
LWPOLYLINE
  5
224
330
2
100
AcDbEntity
  8
PDF_Layer 1
 62
     7
420
 16777215
370
    70
100
AcDbPolyline
 90
        3
 70
     0
 43
0.0
 10
5.867363888888887
 20
2.187533333333333
 10
5.812072222222221
 20
2.249783333333333
 10
5.823627777777777
 20
2.258908333333333
  0
LWPOLYLINE
  5
226
330
2
100
AcDbEntity
  8
PDF_Layer 1
 62
     7
420
 16777215
370
    70
100
AcDbPolyline
 90
        3
 70
     0
 43
0.0
 10
5.908861111111109
 20
2.224419444444444
 10
5.918083333333331
 20
2.233627777777777
 10
5.865124999999998
 20
2.293544444444444
  0
LWPOLYLINE
  5
227
330
2
100
AcDbEntity
  8
PDF_Layer 1
 62
     7
420
 16777215
370
    70
100
AcDbPolyline
 90
        3
 70
     0
 43
0.0
 10
5.812072222222221
 20
2.249783333333333
 10
5.802849999999999
 20
2.240561111111111
 10
5.858141666666665
 20
2.178311111111111
  0
LWPOLYLINE
  5
228
330
2
100
AcDbEntity
  8
PDF_Layer 1
 62
     7
420
 16777215
370
    70
100
AcDbPolyline
 90
        3
 70
     0
 43
0.0
 10
5.858208333333332
 20
2.178316666666666
 10
5.846638888888888
 20
2.169108333333332
 10
5.837416666666666
 20
2.15988611111111
  0
LWPOLYLINE
  5
229
330
2
100
AcDbEntity
  8
PDF_Layer 1
 62
     7
420
 16777215
370
    70
100
AcDbPolyline
 90
        4
 70
     0
 43
0.0
 10
5.828233333333333
 20
2.150655555555555
 10
5.837455555555555
 20
2.159877777777778
 10
5.892747222222221
 20
2.099975
 10
5.881177777777777
 20
2.09085
  0
LWPOLYLINE
  5
22B
330
2
100
AcDbEntity
  8
PDF_Layer 1
 62
     7
420
 16777215
370
    70
100
AcDbPolyline
 90
        4
 70
     0
 43
0.0
 10
5.816691666666666
 20
2.141418055555555
 10
5.828247222222221
 20
2.150709722222222
 10
5.881205555555554
 20
2.090806944444444
 10
5.871983333333332
 20
2.081598611111111
  0
LWPOLYLINE
  5
22D
330
2
100
AcDbEntity
  8
PDF_Layer 1
 62
     7
420
 16777215
370
    70
100
AcDbPolyline
 90
        4
 70
     0
 43
0.0
 10
5.807447222222221
 20
2.132168055555555
 10
5.816669444444444
 20
2.141459722222222
 10
5.87196111111111
 20
2.081556944444444
 10
5.86283611111111
 20
2.07234861111111
  0
LWPOLYLINE
  5
22F
330
2
100
AcDbEntity
  8
PDF_Layer 1
 62
     7
420
 16777215
370
    70
100
AcDbPolyline
 90
        3
 70
     0
 43
0.0
 10
5.807508333333333
 20
2.132222222222222
 10
5.8628
 20
2.072319444444444
 10
5.851230555555555
 20
2.063194444444444
  0
LWPOLYLINE
  5
231
330
2
100
AcDbEntity
  8
PDF_Layer 1
 62
     7
420
 16777215
370
    70
100
AcDbPolyline
 90
        2
 70
     1
 43
0.0
 10
5.842041666666665
 20
2.053943055555555
 10
5.851263888888888
 20
2.063151388888888
  0
LWPOLYLINE
  5
232
330
2
100
AcDbEntity
  8
PDF_Layer 1
 62
     7
420
 16777215
370
    70
100
AcDbPolyline
 90
        3
 70
     0
 43
0.0
 10
5.851251388888888
 20
2.063144444444444
 10
5.795959722222222
 20
2.123047222222222
 10
5.807515277777778
 20
2.132172222222222
  0
LWPOLYLINE
  5
234
330
2
100
AcDbEntity
  8
PDF_Layer 1
 62
     7
420
 16777215
370
    70
100
AcDbPolyline
 90
        3
 70
     0
 43
0.0
 10
5.892747222222221
 20
2.099975
 10
5.901955555555555
 20
2.109183333333333
 10
5.846663888888888
 20
2.1691
  0
LWPOLYLINE
  5
235
330
2
100
AcDbEntity
  8
PDF_Layer 1
 62
     7
420
 16777215
370
    70
100
AcDbPolyline
 90
        2
 70
     1
 43
0.0
 10
5.7867375
 20
2.113825
 10
5.795959722222222
 20
2.123047222222222
  0
LWPOLYLINE
  5
236
330
2
100
AcDbEntity
  8
PDF_Layer 1
 62
     7
420
 16777215
370
    70
100
AcDbPolyline
 90
        2
 70
     0
 43
0.0
 10
6.081665277777777
 20
2.176066666666666
 10
6.088526388888888
 20
2.166858333333332
  0
LWPOLYLINE
  5
237
330
2
100
AcDbEntity
  8
PDF_Layer 1
 62
     7
420
 16777215
370
    70
100
AcDbPolyline
 90
        3
 70
     0
 43
0.0
 10
6.081630555555554
 20
2.176037499999999
 10
6.088574999999999
 20
2.166815277777777
 10
6.079352777777777
 20
2.157606944444443
  0
LWPOLYLINE
  5
239
330
2
100
AcDbEntity
  8
PDF_Layer 1
 62
     7
420
 16777215
370
    70
100
AcDbPolyline
 90
        4
 70
     0
 43
0.0
 10
6.072394444444444
 20
2.187561111111111
 10
6.08168611111111
 20
2.176075
 10
6.019436111111111
 20
2.123047222222222
 10
6.010213888888888
 20
2.132172222222222
  0
LWPOLYLINE
  5
23B
330
2
100
AcDbEntity
  8
PDF_Layer 1
 62
     7
420
 16777215
370
    70
100
AcDbPolyline
 90
        4
 70
     0
 43
0.0
 10
6.06319861111111
 20
2.1968
 10
6.072406944444442
 20
2.187494444444444
 10
6.010240277777776
 20
2.132202777777777
 10
6.001018055555554
 20
2.141424999999999
  0
LWPOLYLINE
  5
23D
330
2
100
AcDbEntity
  8
PDF_Layer 1
 62
     7
420
 16777215
370
    70
100
AcDbPolyline
 90
        4
 70
     0
 43
0.0
 10
6.054018055555554
 20
2.208313888888888
 10
6.063240277777776
 20
2.196744444444444
 10
6.000990277777776
 20
2.141452777777777
 10
5.991851388888887
 20
2.153022222222221
  0
LWPOLYLINE
  5
23F
330
2
100
AcDbEntity
  8
PDF_Layer 1
 62
     7
420
 16777215
370
    70
100
AcDbPolyline
 90
        4
 70
     0
 43
0.0
 10
6.044779166666665
 20
2.217508333333332
 10
6.054001388888887
 20
2.20828611111111
 10
5.991834722222221
 20
2.152994444444443
 10
5.982612499999999
 20
2.162202777777777
  0
LWPOLYLINE
  5
241
330
2
100
AcDbEntity
  8
PDF_Layer 1
 62
     7
420
 16777215
370
    70
100
AcDbPolyline
 90
        4
 70
     1
 43
0.0
 10
5.973362499999999
 20
2.173801388888888
 10
6.035612499999999
 20
2.226759722222221
 10
6.044834722222221
 20
2.217454166666666
 10
5.982584722222221
 20
2.162231944444444
  0
LWPOLYLINE
  5
243
330
2
100
AcDbEntity
  8
PDF_Layer 1
 62
     7
420
 16777215
370
    70
100
AcDbPolyline
 90
        5
 70
     0
 43
0.0
 10
6.019476388888888
 20
2.123065277777777
 10
6.02868472222222
 20
2.111495833333333
 10
6.079379166666665
 20
2.157579166666666
 10
6.088504166666665
 20
2.166787499999999
 10
6.079379166666665
 20
2.157579166666666
  0
LWPOLYLINE
  5
248
330
2
100
AcDbEntity
  8
PDF_Layer 1
 62
     7
420
 16777215
370
    70
100
AcDbPolyline
 90
        4
 70
     0
 43
0.0
 10
5.961819444444443
 20
2.309672222222222
 10
5.971027777777775
 20
2.298116666666667
 10
5.908861111111109
 20
2.242825
 10
5.899638888888887
 20
2.254380555555556
  0
LWPOLYLINE
  5
24A
330
2
100
AcDbEntity
  8
PDF_Layer 1
 62
     7
420
 16777215
370
    70
100
AcDbPolyline
 90
        4
 70
     0
 43
0.0
 10
5.952651388888888
 20
2.318951388888888
 10
5.96187361111111
 20
2.309645833333333
 10
5.899623611111111
 20
2.254368055555555
 10
5.890484722222222
 20
2.263576388888888
  0
LWPOLYLINE
  5
24C
330
2
100
AcDbEntity
  8
PDF_Layer 1
 62
     7
420
 16777215
370
    70
100
AcDbPolyline
 90
        4
 70
     0
 43
0.0
 10
5.943413888888889
 20
2.330395833333332
 10
5.952622222222221
 20
2.318895833333332
 10
5.890455555555555
 20
2.263604166666666
 10
5.881233333333333
 20
2.275090277777777
  0
LWPOLYLINE
  5
24E
330
2
100
AcDbEntity
  8
PDF_Layer 1
 62
     7
420
 16777215
370
    70
100
AcDbPolyline
 90
        4
 70
     0
 43
0.0
 10
5.934247222222222
 20
2.33964861111111
 10
5.943455555555554
 20
2.330356944444444
 10
5.881205555555554
 20
2.275065277777777
 10
5.871983333333332
 20
2.284273611111111
  0
LWPOLYLINE
  5
250
330
2
100
AcDbEntity
  8
PDF_Layer 1
 62
     7
420
 16777215
370
    70
100
AcDbPolyline
 90
        4
 70
     1
 43
0.0
 10
5.86508611111111
 20
2.293523611111111
 10
5.925002777777777
 20
2.348898611111111
 10
5.934211111111109
 20
2.339593055555555
 10
5.87196111111111
 20
2.284301388888888
  0
LWPOLYLINE
  5
252
330
2
100
AcDbEntity
  8
PDF_Layer 1
 62
     7
420
 16777215
370
    70
100
AcDbPolyline
 90
        4
 70
     0
 43
0.0
 10
5.908854166666666
 20
2.242869444444444
 10
5.918076388888889
 20
2.23366111111111
 10
5.968756944444444
 20
2.279730555555555
 10
5.980326388888888
 20
2.288938888888888
  0
LWPOLYLINE
  5
254
330
2
100
AcDbEntity
  8
PDF_Layer 1
 62
     7
420
 16777215
370
    70
100
AcDbPolyline
 90
        2
 70
     0
 43
0.0
 10
5.964179166666665
 20
2.182943055555555
 10
5.973304166666665
 20
2.173804166666666
  0
LWPOLYLINE
  5
255
330
2
100
AcDbEntity
  8
PDF_Layer 1
 62
     7
420
 16777215
370
    70
100
AcDbPolyline
 90
        3
 70
     0
 43
0.0
 10
5.964152777777776
 20
2.18289861111111
 10
5.973374999999998
 20
2.17377361111111
 10
5.964152777777776
 20
2.164551388888888
  0
LWPOLYLINE
  5
257
330
2
100
AcDbEntity
  8
PDF_Layer 1
 62
     7
420
 16777215
370
    70
100
AcDbPolyline
 90
        4
 70
     0
 43
0.0
 10
5.95492361111111
 20
2.192215277777777
 10
5.964145833333332
 20
2.182909722222222
 10
5.904243055555554
 20
2.127631944444444
 10
5.895020833333332
 20
2.139187499999999
  0
LWPOLYLINE
  5
259
330
2
100
AcDbEntity
  8
PDF_Layer 1
 62
     7
420
 16777215
370
    70
100
AcDbPolyline
 90
        4
 70
     0
 43
0.0
 10
5.945720833333332
 20
2.203756944444444
 10
5.954943055555554
 20
2.192187499999999
 10
5.895040277777777
 20
2.139159722222221
 10
5.885818055555555
 20
2.148381944444444
  0
LWPOLYLINE
  5
25B
330
2
100
AcDbEntity
  8
PDF_Layer 1
 62
     7
420
 16777215
370
    70
100
AcDbPolyline
 90
        4
 70
     0
 43
0.0
 10
5.936470833333332
 20
2.212923611111111
 10
5.945693055555554
 20
2.203701388888888
 10
5.885790277777776
 20
2.148409722222222
 10
5.876651388888888
 20
2.157534722222222
  0
LWPOLYLINE
  5
25D
330
2
100
AcDbEntity
  8
PDF_Layer 1
 62
     7
420
 16777215
370
    70
100
AcDbPolyline
 90
        4
 70
     0
 43
0.0
 10
5.927231944444444
 20
2.224426388888888
 10
5.936537499999999
 20
2.212870833333333
 10
5.876634722222221
 20
2.157579166666666
 10
5.867412499999999
 20
2.169134722222222
  0
LWPOLYLINE
  5
25F
330
2
100
AcDbEntity
  8
PDF_Layer 1
 62
     7
420
 16777215
370
    70
100
AcDbPolyline
 90
        4
 70
     1
 43
0.0
 10
5.858162499999998
 20
2.178316666666666
 10
5.918065277777776
 20
2.233691666666666
 10
5.927287499999998
 20
2.22438611111111
 10
5.867384722222221
 20
2.169108333333332
  0
LWPOLYLINE
  5
261
330
2
100
AcDbEntity
  8
PDF_Layer 1
 62
     7
420
 16777215
370
    70
100
AcDbPolyline
 90
        2
 70
     0
 43
0.0
 10
5.964179166666665
 20
2.164537499999999
 10
5.973304166666665
 20
2.173745833333333
  0
LWPOLYLINE
  5
262
330
2
100
AcDbEntity
  8
PDF_Layer 1
 62
     7
420
 16777215
370
    70
100
AcDbPolyline
 90
        2
 70
     0
 43
0.0
 10
5.959554166666666
 20
2.06773611111111
 10
5.968762499999999
 20
2.056180555555555
  0
LWPOLYLINE
  5
263
330
2
100
AcDbEntity
  8
PDF_Layer 1
 62
     7
420
 16777215
370
    70
100
AcDbPolyline
 90
        3
 70
     0
 43
0.0
 10
5.959534722222222
 20
2.0677625
 10
5.968756944444444
 20
2.056206944444444
 10
5.957187499999999
 20
2.047068055555555
  0
LWPOLYLINE
  5
265
330
2
100
AcDbEntity
  8
PDF_Layer 1
 62
     7
420
 16777215
370
    70
100
AcDbPolyline
 90
        4
 70
     0
 43
0.0
 10
5.950352777777777
 20
2.077020833333333
 10
5.959575
 20
2.067715277777777
 10
5.897325
 20
2.012423611111111
 10
5.888102777777778
 20
2.021645833333333
  0
LWPOLYLINE
  5
267
330
2
100
AcDbEntity
  8
PDF_Layer 1
 62
     7
420
 16777215
370
    70
100
AcDbPolyline
 90
        4
 70
     0
 43
0.0
 10
5.94107361111111
 20
2.086187499999999
 10
5.950365277777777
 20
2.076965277777777
 10
5.888129166666666
 20
2.02167361111111
 10
5.878906944444444
 20
2.033229166666666
  0
LWPOLYLINE
  5
269
330
2
100
AcDbEntity
  8
PDF_Layer 1
 62
     7
420
 16777215
370
    70
100
AcDbPolyline
 90
        4
 70
     0
 43
0.0
 10
5.931877777777777
 20
2.097730555555555
 10
5.941086111111109
 20
2.086161111111111
 10
5.878919444444443
 20
2.033216666666666
 10
5.869697222222221
 20
2.042341666666666
  0
LWPOLYLINE
  5
26B
330
2
100
AcDbEntity
  8
PDF_Layer 1
 62
     7
420
 16777215
370
    70
100
AcDbPolyline
 90
        4
 70
     0
 43
0.0
 10
5.922697222222221
 20
2.106969444444444
 10
5.931919444444443
 20
2.097663888888888
 10
5.869669444444443
 20
2.042372222222222
 10
5.860447222222221
 20
2.051594444444444
  0
LWPOLYLINE
  5
26D
330
2
100
AcDbEntity
  8
PDF_Layer 1
 62
     7
420
 16777215
370
    70
100
AcDbPolyline
 90
        4
 70
     1
 43
0.0
 10
5.851251388888888
 20
2.063177777777777
 10
5.913418055555554
 20
2.118469444444444
 10
5.92272361111111
 20
2.106913888888888
 10
5.86047361111111
 20
2.051622222222222
  0
LWPOLYLINE
  5
26F
330
2
100
AcDbEntity
  8
PDF_Layer 1
 62
     7
420
 16777215
370
    70
100
AcDbPolyline
 90
        5
 70
     0
 43
0.0
 10
5.897318055555555
 20
2.012440277777777
 10
5.906609722222221
 20
2.000954166666666
 10
5.957220833333332
 20
2.0470375
 10
5.968790277777777
 20
2.0561625
 10
5.957220833333332
 20
2.0470375
  0
LWPOLYLINE
  5
271
330
2
100
AcDbEntity
  8
PDF_Layer 1
 62
     7
420
 16777215
370
    70
100
AcDbPolyline
 90
        8
 70
     0
 43
0.0
 10
5.846605555555554
 20
2.16913611111111
 10
5.858174999999999
 20
2.178358333333333
 10
5.848952777777777
 20
2.189830555555555
 10
5.839744444444443
 20
2.199038888888888
 10
5.830522222222221
 20
2.20826111111111
 10
5.821313888888887
 20
2.219816666666666
 10
5.812091666666665
 20
2.228969444444444
 10
5.802883333333332
 20
2.240524999999999
  0
LWPOLYLINE
  5
273
330
2
100
AcDbEntity
  8
PDF_Layer 1
 62
     7
420
 16777215
370
    70
100
AcDbPolyline
 90
        2
 70
     0
 43
0.0
 10
5.858174999999999
 20
2.178358333333333
 10
5.848952777777777
 20
2.189830555555555
  0
LWPOLYLINE
  5
274
330
2
100
AcDbEntity
  8
PDF_Layer 1
 62
     7
420
 16777215
370
    70
100
AcDbPolyline
 90
        4
 70
     0
 43
0.0
 10
5.839708333333333
 20
2.199090277777777
 10
5.848999999999999
 20
2.18979861111111
 10
5.786749999999999
 20
2.134576388888888
 10
5.777527777777777
 20
2.143701388888888
  0
LWPOLYLINE
  5
276
330
2
100
AcDbEntity
  8
PDF_Layer 1
 62
     7
420
 16777215
370
    70
100
AcDbPolyline
 90
        4
 70
     0
 43
0.0
 10
5.830491666666665
 20
2.208327777777777
 10
5.839713888888887
 20
2.19903611111111
 10
5.777547222222221
 20
2.143744444444444
 10
5.768324999999999
 20
2.155299999999999
  0
LWPOLYLINE
  5
278
330
2
100
AcDbEntity
  8
PDF_Layer 1
 62
     7
420
 16777215
370
    70
100
AcDbPolyline
 90
        4
 70
     0
 43
0.0
 10
5.821331944444444
 20
2.219870833333333
 10
5.830554166666666
 20
2.208315277777777
 10
5.768304166666666
 20
2.1552875
 10
5.761429166666666
 20
2.164495833333333
  0
LWPOLYLINE
  5
27A
330
2
100
AcDbEntity
  8
PDF_Layer 1
 62
     7
420
 16777215
370
    70
100
AcDbPolyline
 90
        4
 70
     0
 43
0.0
 10
5.812044444444444
 20
2.229051388888888
 10
5.82133611111111
 20
2.219815277777777
 10
5.761433333333332
 20
2.164537499999999
 10
5.75221111111111
 20
2.173745833333333
  0
LWPOLYLINE
  5
27C
330
2
100
AcDbEntity
  8
PDF_Layer 1
 62
     7
420
 16777215
370
    70
100
AcDbPolyline
 90
        4
 70
     1
 43
0.0
 10
5.742961111111111
 20
2.185245833333333
 10
5.802863888888889
 20
2.240551388888888
 10
5.812086111111111
 20
2.228981944444444
 10
5.752183333333333
 20
2.17377361111111
  0
LWPOLYLINE
  5
27F
330
2
100
AcDbEntity
  8
PDF_Layer 1
 62
     7
420
 16777215
370
    70
100
AcDbPolyline
 90
        3
 70
     0
 43
0.0
 10
5.846638888888888
 20
2.169108333333332
 10
5.795958333333333
 20
2.123024999999999
 10
5.78673611111111
 20
2.134594444444444
  0
LWPOLYLINE
  5
280
330
2
100
AcDbEntity
  8
PDF_Layer 1
 62
     7
420
 16777215
370
    70
100
AcDbPolyline
 90
        2
 70
     0
 43
0.0
 10
5.842020833333332
 20
2.072319444444444
 10
5.851243055555555
 20
2.063194444444444
  0
LWPOLYLINE
  5
282
330
2
100
AcDbEntity
  8
PDF_Layer 1
 62
     7
420
 16777215
370
    70
100
AcDbPolyline
 90
        3
 70
     0
 43
0.0
 10
5.842041666666665
 20
2.053943055555555
 10
5.851263888888888
 20
2.063151388888888
 10
5.842041666666665
 20
2.072290277777777
  0
LWPOLYLINE
  5
283
330
2
100
AcDbEntity
  8
PDF_Layer 1
 62
     7
420
 16777215
370
    70
100
AcDbPolyline
 90
        4
 70
     0
 43
0.0
 10
5.832805555555554
 20
2.083855555555555
 10
5.842027777777777
 20
2.072299999999999
 10
5.782124999999999
 20
2.017008333333333
 10
5.772902777777777
 20
2.028563888888888
  0
LWPOLYLINE
  5
285
330
2
100
AcDbEntity
  8
PDF_Layer 1
 62
     7
420
 16777215
370
    70
100
AcDbPolyline
 90
        4
 70
     0
 43
0.0
 10
5.823609722222221
 20
2.093134722222222
 10
5.832831944444444
 20
2.083829166666666
 10
5.772929166666666
 20
2.028551388888888
 10
5.763706944444444
 20
2.037759722222222
  0
LWPOLYLINE
  5
287
330
2
100
AcDbEntity
  8
PDF_Layer 1
 62
     7
420
 16777215
370
    70
100
AcDbPolyline
 90
        4
 70
     0
 43
0.0
 10
5.814399999999999
 20
2.10464861111111
 10
5.823622222222221
 20
2.093079166666666
 10
5.763719444444443
 20
2.037801388888888
 10
5.754497222222221
 20
2.049356944444444
  0
LWPOLYLINE
  5
289
330
2
100
AcDbEntity
  8
PDF_Layer 1
 62
     7
420
 16777215
370
    70
100
AcDbPolyline
 90
        4
 70
     0
 43
0.0
 10
5.805149999999999
 20
2.113844444444444
 10
5.814372222222221
 20
2.104622222222222
 10
5.754469444444444
 20
2.049330555555555
 10
5.745247222222221
 20
2.058538888888889
  0
LWPOLYLINE
  5
28B
330
2
100
AcDbEntity
  8
PDF_Layer 1
 62
     7
420
 16777215
370
    70
100
AcDbPolyline
 90
        4
 70
     1
 43
0.0
 10
5.736051388888888
 20
2.070052777777777
 10
5.795954166666666
 20
2.123094444444443
 10
5.805176388888888
 20
2.113788888888888
 10
5.745273611111111
 20
2.058566666666666
  0
LWPOLYLINE
  5
28D
330
2
100
AcDbEntity
  8
PDF_Layer 1
 62
     7
420
 16777215
370
    70
100
AcDbPolyline
 90
        4
 70
     0
 43
0.0
 10
5.782118055555555
 20
2.017040277777778
 10
5.791409722222221
 20
2.007831944444444
 10
5.842020833333332
 20
2.053901388888889
 10
5.851243055555555
 20
2.063123611111111
  0
LWPOLYLINE
  5
28F
330
2
100
AcDbEntity
  8
PDF_Layer 1
 62
     7
420
 16777215
370
    70
100
AcDbPolyline
 90
        3
 70
     0
 43
0.0
 10
5.961826388888887
 20
1.941027777777777
 10
5.971048611111109
 20
1.950236111111111
 10
5.991826388888887
 20
1.968666666666666
  0
LWPOLYLINE
  5
290
330
2
100
AcDbEntity
  8
PDF_Layer 1
 62
     7
420
 16777215
370
    70
100
AcDbPolyline
 90
        7
 70
     0
 43
0.0
 10
6.021754166666665
 20
1.996276388888889
 10
6.030976388888888
 20
1.984790277777777
 10
6.040184722222221
 20
1.975568055555555
 10
6.049406944444443
 20
1.966359722222222
 10
6.058615277777777
 20
1.954790277777777
 10
6.067837499999999
 20
1.945665277777777
 10
6.077059722222221
 20
1.934109722222222
  0
LWPOLYLINE
  5
292
330
2
100
AcDbEntity
  8
PDF_Layer 1
 62
     7
420
 16777215
370
    70
100
AcDbPolyline
 90
        5
 70
     0
 43
0.0
 10
6.067818055555554
 20
1.945691666666666
 10
6.077040277777776
 20
1.934136111111111
 10
6.067818055555554
 20
1.924913888888888
 10
6.077040277777776
 20
1.934136111111111
 10
6.095470833333332
 20
1.950219444444444
  0
LWPOLYLINE
  5
294
330
2
100
AcDbEntity
  8
PDF_Layer 1
 62
     7
420
 16777215
370
    70
100
AcDbPolyline
 90
        4
 70
     0
 43
0.0
 10
6.058622222222221
 20
1.954868055555555
 10
6.067844444444443
 20
1.945645833333333
 10
6.007941666666666
 20
1.890354166666666
 10
5.998719444444444
 20
1.899479166666666
  0
LWPOLYLINE
  5
296
330
2
100
AcDbEntity
  8
PDF_Layer 1
 62
     7
420
 16777215
370
    70
100
AcDbPolyline
 90
        4
 70
     0
 43
0.0
 10
6.04938472222222
 20
1.966369444444444
 10
6.058606944444442
 20
1.954813888888888
 10
5.998704166666665
 20
1.899522222222221
 10
5.989481944444443
 20
1.911077777777777
  0
LWPOLYLINE
  5
298
330
2
100
AcDbEntity
  8
PDF_Layer 1
 62
     7
420
 16777215
370
    70
100
AcDbPolyline
 90
        4
 70
     0
 43
0.0
 10
6.040176388888887
 20
1.975648611111111
 10
6.04939861111111
 20
1.966343055555555
 10
5.989495833333332
 20
1.911065277777777
 10
5.98027361111111
 20
1.92027361111111
  0
LWPOLYLINE
  5
29A
330
2
100
AcDbEntity
  8
PDF_Layer 1
 62
     7
420
 16777215
370
    70
100
AcDbPolyline
 90
        4
 70
     0
 43
0.0
 10
6.030973611111109
 20
1.984815277777777
 10
6.040195833333331
 20
1.975593055555555
 10
5.980293055555554
 20
1.920301388888888
 10
5.971070833333332
 20
1.931856944444444
  0
LWPOLYLINE
  5
29C
330
2
100
AcDbEntity
  8
PDF_Layer 1
 62
     7
420
 16777215
370
    70
100
AcDbPolyline
 90
        4
 70
     0
 43
0.0
 10
6.021729166666665
 20
1.996358333333333
 10
6.030951388888887
 20
1.984788888888888
 10
5.971048611111109
 20
1.931830555555555
 10
5.961826388888887
 20
1.940969444444444
  0
LWPOLYLINE
  5
29F
330
2
100
AcDbEntity
  8
PDF_Layer 1
 62
     7
420
 16777215
370
    70
100
AcDbPolyline
 90
        2
 70
     0
 43
0.0
 10
6.017151388888888
 20
1.878824999999999
 10
6.007929166666666
 20
1.890380555555555
  0
LWPOLYLINE
  5
2A0
330
2
100
AcDbEntity
  8
PDF_Layer 1
 62
     7
420
 16777215
370
    70
100
AcDbPolyline
 90
        3
 70
     0
 43
0.0
 10
5.80058611111111
 20
2.570055555555555
 10
5.812072222222221
 20
2.579263888888888
 10
5.821294444444443
 20
2.588388888888888
  0
LWPOLYLINE
  5
2A1
330
2
100
AcDbEntity
  8
PDF_Layer 1
 62
     7
420
 16777215
370
    70
100
AcDbPolyline
 90
        2
 70
     0
 43
0.0
 10
5.793661111111111
 20
3.334933333333332
 10
5.807480555555556
 20
3.337197222222221
  0
LWPOLYLINE
  5
2A3
330
2
100
AcDbEntity
  8
PDF_Layer 1
 62
     7
420
 16777215
370
    70
100
AcDbPolyline
 90
        3
 70
     0
 43
0.0
 10
5.765977777777776
 20
3.325738888888888
 10
5.777547222222221
 20
3.330349999999999
 10
5.793630555555554
 20
3.33496111111111
  0
LWPOLYLINE
  5
2A4
330
2
100
AcDbEntity
  8
PDF_Layer 1
 62
     7
420
 16777215
370
    70
100
AcDbPolyline
 90
        2
 70
     0
 43
0.0
 10
5.800577777777777
 20
2.570013888888888
 10
5.791355555555555
 20
2.560805555555555
  0
LWPOLYLINE
  5
2A5
330
2
100
AcDbEntity
  8
PDF_Layer 1
 62
     7
420
 16777215
370
    70
100
AcDbPolyline
 90
        2
 70
     0
 43
0.0
 10
5.766011111111112
 20
3.325765277777777
 10
5.763747222222223
 20
3.328029166666666
  0
LWPOLYLINE
  5
2A6
330
2
100
AcDbEntity
  8
PDF_Layer 1
 62
     7
420
 16777215
370
    70
100
AcDbPolyline
 90
        2
 70
     0
 43
0.0
 10
5.791374999999999
 20
2.560777777777777
 10
5.779805555555554
 20
2.551652777777777
  0
LWPOLYLINE
  5
2A7
330
2
100
AcDbEntity
  8
PDF_Layer 1
 62
     7
420
 16777215
370
    70
100
AcDbPolyline
 90
        2
 70
     0
 43
0.0
 10
5.763719444444443
 20
3.328070833333333
 10
5.713038888888888
 20
3.341793055555555
  0
LWPOLYLINE
  5
2A8
330
2
100
AcDbEntity
  8
PDF_Layer 1
 62
     7
420
 16777215
370
    70
100
AcDbPolyline
 90
        3
 70
     0
 43
0.0
 10
5.779838888888889
 20
2.551608333333332
 10
5.770616666666667
 20
2.542399999999999
 10
5.715325
 20
2.602219444444443
  0
LWPOLYLINE
  5
2A9
330
2
100
AcDbEntity
  8
PDF_Layer 1
 62
     7
420
 16777215
370
    70
100
AcDbPolyline
 90
        3
 70
     0
 43
0.0
 10
5.712991666666666
 20
2.599959722222222
 10
5.712991666666666
 20
2.586140277777777
 10
5.724547222222222
 20
2.572306944444444
  0
LWPOLYLINE
  5
2AA
330
2
100
AcDbEntity
  8
PDF_Layer 1
 62
     7
420
 16777215
370
    70
100
AcDbPolyline
 90
        5
 70
     0
 43
0.0
 10
5.742894444444444
 20
2.553930555555555
 10
5.733769444444444
 20
2.563069444444444
 10
5.712991666666666
 20
2.544638888888888
 10
5.712991666666666
 20
2.563069444444444
 10
5.712991666666666
 20
2.586097222222222
  0
LWPOLYLINE
  5
2AB
330
2
100
AcDbEntity
  8
PDF_Layer 1
 62
     7
420
 16777215
370
    70
100
AcDbPolyline
 90
        3
 70
     0
 43
0.0
 10
5.733749999999999
 20
2.563084722222221
 10
5.724527777777777
 20
2.572306944444444
 10
5.712958333333332
 20
2.563084722222221
  0
LWPOLYLINE
  5
2AE
330
2
100
AcDbEntity
  8
PDF_Layer 1
 62
     7
420
 16777215
370
    70
100
AcDbPolyline
 90
        4
 70
     0
 43
0.0
 10
5.712991666666666
 20
2.544663888888888
 10
5.712991666666666
 20
2.526233333333332
 10
5.742894444444444
 20
2.553872222222221
 10
5.7522
 20
2.542399999999999
  0
LWPOLYLINE
  5
2AF
330
2
100
AcDbEntity
  8
PDF_Layer 1
 62
     7
420
 16777215
370
    70
100
AcDbPolyline
 90
        3
 70
     0
 43
0.0
 10
5.7522
 20
2.542354166666666
 10
5.712991666666666
 20
2.507840277777777
 10
5.712991666666666
 20
2.489312499999999
  0
LWPOLYLINE
  5
2B2
330
2
100
AcDbEntity
  8
PDF_Layer 1
 62
     7
420
 16777215
370
    70
100
AcDbPolyline
 90
        2
 70
     0
 43
0.0
 10
5.752183333333333
 20
2.542358333333333
 10
5.759127777777778
 20
2.533149999999999
  0
LWPOLYLINE
  5
2B3
330
2
100
AcDbEntity
  8
PDF_Layer 1
 62
     7
420
 16777215
370
    70
100
AcDbPolyline
 90
        2
 70
     0
 43
0.0
 10
5.807494444444444
 20
3.337226388888888
 10
5.81905
 20
3.3418375
  0
LWPOLYLINE
  5
2B4
330
2
100
AcDbEntity
  8
PDF_Layer 1
 62
     7
420
 16777215
370
    70
100
AcDbPolyline
 90
        2
 70
     0
 43
0.0
 10
5.770588888888888
 20
2.542358333333333
 10
5.759102777777777
 20
2.533149999999999
  0
LWPOLYLINE
  5
2B5
330
2
100
AcDbEntity
  8
PDF_Layer 1
 62
     7
420
 16777215
370
    70
100
AcDbPolyline
 90
        2
 70
     0
 43
0.0
 10
5.814365277777777
 20
2.470933333333333
 10
5.805226388888888
 20
2.461808333333333
  0
LWPOLYLINE
  5
2B6
330
2
100
AcDbEntity
  8
PDF_Layer 1
 62
     7
420
 16777215
370
    70
100
AcDbPolyline
 90
        4
 70
     0
 43
0.0
 10
5.793620833333332
 20
2.452480555555554
 10
5.805190277777776
 20
2.46178611111111
 10
5.74989861111111
 20
2.523952777777777
 10
5.740676388888887
 20
2.514744444444443
  0
LWPOLYLINE
  5
2B8
330
2
100
AcDbEntity
  8
PDF_Layer 1
 62
     7
420
 16777215
370
    70
100
AcDbPolyline
 90
        4
 70
     0
 43
0.0
 10
5.784370833333333
 20
2.443230555555555
 10
5.793676388888887
 20
2.452536111111111
 10
5.74064861111111
 20
2.514702777777777
 10
5.729162499999999
 20
2.505494444444444
  0
LWPOLYLINE
  5
2BA
330
2
100
AcDbEntity
  8
PDF_Layer 1
 62
     7
420
 16777215
370
    70
100
AcDbPolyline
 90
        4
 70
     0
 43
0.0
 10
5.775222222222221
 20
2.434077777777777
 10
5.784444444444443
 20
2.443286111111111
 10
5.729152777777777
 20
2.505466666666666
 10
5.719930555555555
 20
2.496341666666666
  0
LWPOLYLINE
  5
2BC
330
2
100
AcDbEntity
  8
PDF_Layer 1
 62
     7
420
 16777215
370
    70
100
AcDbPolyline
 90
        3
 70
     0
 43
0.0
 10
5.77523472222222
 20
2.434130555555555
 10
5.719943055555554
 20
2.496297222222221
 10
5.712998611111109
 20
2.489338888888888
  0
LWPOLYLINE
  5
2BE
330
2
100
AcDbEntity
  8
PDF_Layer 1
 62
     7
420
 16777215
370
    70
100
AcDbPolyline
 90
        2
 70
     0
 43
0.0
 10
5.712991666666666
 20
2.461765277777777
 10
5.712991666666666
 20
2.482459722222221
  0
LWPOLYLINE
  5
2BF
330
2
100
AcDbEntity
  8
PDF_Layer 1
 62
     7
420
 16777215
370
    70
100
AcDbPolyline
 90
        4
 70
     0
 43
0.0
 10
5.713038888888888
 20
2.489386111111111
 10
5.713038888888888
 20
2.482511111111111
 10
5.763719444444443
 20
2.424872222222222
 10
5.775288888888888
 20
2.434080555555555
  0
LWPOLYLINE
  5
2C1
330
2
100
AcDbEntity
  8
PDF_Layer 1
 62
     7
420
 16777215
370
    70
100
AcDbPolyline
 90
        3
 70
     0
 43
0.0
 10
5.74989861111111
 20
2.523952777777777
 10
5.759106944444443
 20
2.533077777777777
 10
5.814412499999998
 20
2.470924999999999
  0
LWPOLYLINE
  5
2C2
330
2
100
AcDbEntity
  8
PDF_Layer 1
 62
     7
420
 16777215
370
    70
100
AcDbPolyline
 90
        2
 70
     0
 43
0.0
 10
5.712991666666666
 20
2.383395833333332
 10
5.712991666666666
 20
2.397215277777777
  0
LWPOLYLINE
  5
2C3
330
2
100
AcDbEntity
  8
PDF_Layer 1
 62
     7
420
 16777215
370
    70
100
AcDbPolyline
 90
        4
 70
     0
 43
0.0
 10
5.713009722222222
 20
2.415595833333333
 10
5.713009722222222
 20
2.39724861111111
 10
5.745273611111111
 20
2.427165277777777
 10
5.736051388888888
 20
2.436373611111111
  0
LWPOLYLINE
  5
2C5
330
2
100
AcDbEntity
  8
PDF_Layer 1
 62
     7
420
 16777215
370
    70
100
AcDbPolyline
 90
        4
 70
     0
 43
0.0
 10
5.71302222222222
 20
2.434151388888889
 10
5.71302222222222
 20
2.4156375
 10
5.736063888888887
 20
2.436415277777777
 10
5.726841666666665
 20
2.4478875
  0
LWPOLYLINE
  5
2C7
330
2
100
AcDbEntity
  8
PDF_Layer 1
 62
     7
420
 16777215
370
    70
100
AcDbPolyline
 90
        4
 70
     0
 43
0.0
 10
5.713001388888887
 20
2.452556944444444
 10
5.713001388888887
 20
2.434126388888888
 10
5.726820833333332
 20
2.447862499999999
 10
5.717695833333332
 20
2.457084722222222
  0
LWPOLYLINE
  5
2C9
330
2
100
AcDbEntity
  8
PDF_Layer 1
 62
     7
420
 16777215
370
    70
100
AcDbPolyline
 90
        3
 70
     1
 43
0.0
 10
5.712963888888888
 20
2.461793055555555
 10
5.712963888888888
 20
2.452501388888888
 10
5.717658333333333
 20
2.45709861111111
  0
LWPOLYLINE
  5
2CB
330
2
100
AcDbEntity
  8
PDF_Layer 1
 62
     7
420
 16777215
370
    70
100
AcDbPolyline
 90
        2
 70
     0
 43
0.0
 10
5.745273611111111
 20
2.427165277777777
 10
5.754495833333333
 20
2.415595833333333
  0
LWPOLYLINE
  5
2CC
330
2
100
AcDbEntity
  8
PDF_Layer 1
 62
     7
420
 16777215
370
    70
100
AcDbPolyline
 90
        4
 70
     0
 43
0.0
 10
5.754488888888889
 20
2.415629166666666
 10
5.809780555555556
 20
2.355740277777777
 10
5.798225
 20
2.346601388888888
 10
5.743002777777778
 20
2.406420833333332
  0
LWPOLYLINE
  5
2CD
330
2
100
AcDbEntity
  8
PDF_Layer 1
 62
     7
420
 16777215
370
    70
100
AcDbPolyline
 90
        2
 70
     0
 43
0.0
 10
5.798244444444443
 20
2.346570833333333
 10
5.789022222222221
 20
2.337348611111111
  0
LWPOLYLINE
  5
2CE
330
2
100
AcDbEntity
  8
PDF_Layer 1
 62
     7
420
 16777215
370
    70
100
AcDbPolyline
 90
        2
 70
     0
 43
0.0
 10
5.74759861111111
 20
2.383395833333332
 10
5.733779166666665
 20
2.397215277777777
  0
LWPOLYLINE
  5
2D0
330
2
100
AcDbEntity
  8
PDF_Layer 1
 62
     7
420
 16777215
370
    70
100
AcDbPolyline
 90
        4
 70
     0
 43
0.0
 10
5.777547222222221
 20
2.328084722222222
 10
5.768324999999999
 20
2.318945833333333
 10
5.759116666666665
 20
2.309654166666666
 10
5.749894444444443
 20
2.318945833333333
  0
LWPOLYLINE
  5
2D2
330
2
100
AcDbEntity
  8
PDF_Layer 1
 62
     7
420
 16777215
370
    70
100
AcDbPolyline
 90
        5
 70
     0
 43
0.0
 10
5.74991111111111
 20
2.298172222222222
 10
5.802869444444444
 20
2.240533333333333
 10
5.793647222222221
 20
2.231408333333333
 10
5.782091666666666
 20
2.222102777777777
 10
5.745230555555555
 20
2.263575
  0
LWPOLYLINE
  5
2D3
330
2
100
AcDbEntity
  8
PDF_Layer 1
 62
     7
420
 16777215
370
    70
100
AcDbPolyline
 90
        4
 70
     0
 43
0.0
 10
5.782124999999999
 20
2.222127777777777
 10
5.772902777777777
 20
2.212919444444444
 10
5.761430555555555
 20
2.203697222222221
 10
5.724486111111111
 20
2.245086111111111
  0
LWPOLYLINE
  5
2D4
330
2
100
AcDbEntity
  8
PDF_Layer 1
 62
     7
420
 16777215
370
    70
100
AcDbPolyline
 90
        2
 70
     0
 43
0.0
 10
5.761433333333332
 20
2.203722222222222
 10
5.75221111111111
 20
2.1945
  0
LWPOLYLINE
  5
2D7
330
2
100
AcDbEntity
  8
PDF_Layer 1
 62
     7
420
 16777215
370
    70
100
AcDbPolyline
 90
        4
 70
     0
 43
0.0
 10
5.724547222222222
 20
2.206027777777777
 10
5.712991666666666
 20
2.217430555555555
 10
5.712991666666666
 20
2.194472222222222
 10
5.712991666666666
 20
2.176041666666666
  0
LWPOLYLINE
  5
2D8
330
2
100
AcDbEntity
  8
PDF_Layer 1
 62
     7
420
 16777215
370
    70
100
AcDbPolyline
 90
        3
 70
     0
 43
0.0
 10
5.733777777777777
 20
2.194472222222222
 10
5.724555555555554
 20
2.206027777777777
 10
5.712999999999999
 20
2.194472222222222
  0
LWPOLYLINE
  5
2D9
330
2
100
AcDbEntity
  8
PDF_Layer 1
 62
     7
420
 16777215
370
    70
100
AcDbPolyline
 90
        3
 70
     0
 43
0.0
 10
5.733769444444444
 20
2.194497222222222
 10
5.712991666666666
 20
2.176066666666666
 10
5.712991666666666
 20
2.157552777777777
  0
LWPOLYLINE
  5
2DD
330
2
100
AcDbEntity
  8
PDF_Layer 1
 62
     7
420
 16777215
370
    70
100
AcDbPolyline
 90
        4
 70
     0
 43
0.0
 10
5.777522222222223
 20
2.104594444444443
 10
5.786730555555555
 20
2.113816666666666
 10
5.731438888888889
 20
2.176066666666666
 10
5.743008333333333
 20
2.185191666666666
  0
LWPOLYLINE
  5
2DF
330
2
100
AcDbEntity
  8
PDF_Layer 1
 62
     7
420
 16777215
370
    70
100
AcDbPolyline
 90
        4
 70
     0
 43
0.0
 10
5.765965277777777
 20
2.095343055555555
 10
5.77753472222222
 20
2.10464861111111
 10
5.722243055555554
 20
2.166815277777777
 10
5.731451388888888
 20
2.176037499999999
  0
LWPOLYLINE
  5
2E1
330
2
100
AcDbEntity
  8
PDF_Layer 1
 62
     7
420
 16777215
370
    70
100
AcDbPolyline
 90
        4
 70
     0
 43
0.0
 10
5.712991666666666
 20
2.134576388888888
 10
5.712991666666666
 20
2.155270833333333
 10
5.766019444444443
 20
2.095368055555555
 10
5.756713888888889
 20
2.086159722222221
  0
LWPOLYLINE
  5
2E2
330
2
100
AcDbEntity
  8
PDF_Layer 1
 62
     7
420
 16777215
370
    70
100
AcDbPolyline
 90
        3
 70
     0
 43
0.0
 10
5.712991666666666
 20
2.116170833333333
 10
5.712991666666666
 20
2.134601388888889
 10
5.756713888888889
 20
2.086184722222222
  0
LWPOLYLINE
  5
2E3
330
2
100
AcDbEntity
  8
PDF_Layer 1
 62
     7
420
 16777215
370
    70
100
AcDbPolyline
 90
        2
 70
     0
 43
0.0
 10
5.712991666666666
 20
2.095391666666666
 10
5.712991666666666
 20
2.116169444444444
  0
LWPOLYLINE
  5
2E4
330
2
100
AcDbEntity
  8
PDF_Layer 1
 62
     7
420
 16777215
370
    70
100
AcDbPolyline
 90
        3
 70
     0
 43
0.0
 10
5.713009722222222
 20
2.116124999999999
 10
5.745273611111111
 20
2.079277777777777
 10
5.756745833333333
 20
2.086138888888888
  0
LWPOLYLINE
  5
2E6
330
2
100
AcDbEntity
  8
PDF_Layer 1
 62
     7
420
 16777215
370
    70
100
AcDbPolyline
 90
        2
 70
     0
 43
0.0
 10
5.74297361111111
 20
2.185220833333333
 10
5.795931944444443
 20
2.123054166666666
  0
LWPOLYLINE
  5
2E7
330
2
100
AcDbEntity
  8
PDF_Layer 1
 62
     7
420
 16777215
370
    70
100
AcDbPolyline
 90
        3
 70
     0
 43
0.0
 10
5.712991666666666
 20
2.1552875
 10
5.712991666666666
 20
2.1575375
 10
5.722199999999999
 20
2.166843055555555
  0
LWPOLYLINE
  5
2E8
330
2
100
AcDbEntity
  8
PDF_Layer 1
 62
     7
420
 16777215
370
    70
100
AcDbPolyline
 90
        2
 70
     0
 43
0.0
 10
5.745273611111111
 20
2.079277777777777
 10
5.736051388888888
 20
2.070055555555555
  0
LWPOLYLINE
  5
2E9
330
2
100
AcDbEntity
  8
PDF_Layer 1
 62
     7
420
 16777215
370
    70
100
AcDbPolyline
 90
        3
 70
     0
 43
0.0
 10
5.712991666666666
 20
2.047012499999999
 10
5.712991666666666
 20
2.065443055555555
 10
5.712991666666666
 20
2.083873611111111
  0
LWPOLYLINE
  5
2EA
330
2
100
AcDbEntity
  8
PDF_Layer 1
 62
     7
420
 16777215
370
    70
100
AcDbPolyline
 90
        3
 70
     0
 43
0.0
 10
5.712963888888888
 20
2.083819444444444
 10
5.717658333333333
 20
2.088513888888888
 10
5.726783333333333
 20
2.079305555555555
  0
LWPOLYLINE
  5
2ED
330
2
100
AcDbEntity
  8
PDF_Layer 1
 62
     7
420
 16777215
370
    70
100
AcDbPolyline
 90
        4
 70
     0
 43
0.0
 10
5.791355555555553
 20
2.007861111111111
 10
5.736063888888887
 20
2.070027777777777
 10
5.726841666666665
 20
2.079236111111111
 10
5.71302222222222
 20
2.065416666666666
  0
LWPOLYLINE
  5
2EE
330
2
100
AcDbEntity
  8
PDF_Layer 1
 62
     7
420
 16777215
370
    70
100
AcDbPolyline
 90
        2
 70
     0
 43
0.0
 10
5.712991666666666
 20
1.991726388888888
 10
5.712991666666666
 20
1.970948611111111
  0
LWPOLYLINE
  5
2EF
330
2
100
AcDbEntity
  8
PDF_Layer 1
 62
     7
420
 16777215
370
    70
100
AcDbPolyline
 90
        4
 70
     0
 43
0.0
 10
5.712995833333332
 20
2.012388888888888
 10
5.712995833333332
 20
1.991680555555555
 10
5.74064861111111
 20
1.961777777777777
 10
5.749870833333332
 20
1.970902777777777
  0
LWPOLYLINE
  5
2F1
330
2
100
AcDbEntity
  8
PDF_Layer 1
 62
     7
420
 16777215
370
    70
100
AcDbPolyline
 90
        4
 70
     0
 43
0.0
 10
5.713037499999998
 20
2.033183333333333
 10
5.713037499999998
 20
2.012405555555555
 10
5.74989861111111
 20
1.970947222222222
 10
5.761454166666665
 20
1.980155555555555
  0
LWPOLYLINE
  5
2F3
330
2
100
AcDbEntity
  8
PDF_Layer 1
 62
     7
420
 16777215
370
    70
100
AcDbPolyline
 90
        3
 70
     0
 43
0.0
 10
5.713002777777776
 20
2.033224999999999
 10
5.761433333333332
 20
1.980197222222221
 10
5.770558333333332
 20
1.989405555555555
  0
LWPOLYLINE
  5
2F5
330
2
100
AcDbEntity
  8
PDF_Layer 1
 62
     7
420
 16777215
370
    70
100
AcDbPolyline
 90
        2
 70
     0
 43
0.0
 10
5.715324999999999
 20
2.051622222222222
 10
5.726811111111111
 20
2.060830555555555
  0
LWPOLYLINE
  5
2F6
330
2
100
AcDbEntity
  8
PDF_Layer 1
 62
     7
420
 16777215
370
    70
100
AcDbPolyline
 90
        3
 70
     0
 43
0.0
 10
5.779838888888889
 20
1.998602777777777
 10
5.770616666666667
 20
1.989477777777777
 10
5.715325
 20
2.051630555555555
  0
LWPOLYLINE
  5
2F7
330
2
100
AcDbEntity
  8
PDF_Layer 1
 62
     7
420
 16777215
370
    70
100
AcDbPolyline
 90
        2
 70
     0
 43
0.0
 10
5.726820833333332
 20
2.060872222222222
 10
5.736043055555554
 20
2.069997222222222
  0
LWPOLYLINE
  5
2F8
330
2
100
AcDbEntity
  8
PDF_Layer 1
 62
     7
420
 16777215
370
    70
100
AcDbPolyline
 90
        3
 70
     0
 43
0.0
 10
5.791374999999999
 20
2.007840277777777
 10
5.779805555555554
 20
1.998631944444444
 10
5.726777777777777
 20
2.060868055555555
  0
LWPOLYLINE
  5
2F9
330
2
100
AcDbEntity
  8
PDF_Layer 1
 62
     7
420
 16777215
370
    70
100
AcDbPolyline
 90
        3
 70
     0
 43
0.0
 10
5.712991666666666
 20
2.083862499999999
 10
5.712991666666666
 20
2.095418055555555
 10
5.717686111111111
 20
2.088556944444444
  0
LWPOLYLINE
  5
2FB
330
2
100
AcDbEntity
  8
PDF_Layer 1
 62
     7
420
 16777215
370
    70
100
AcDbPolyline
 90
        3
 70
     0
 43
0.0
 10
5.712991666666666
 20
2.033216666666666
 10
5.712991666666666
 20
2.047036111111111
 10
5.715324999999999
 20
2.051633333333333
  0
LWPOLYLINE
  5
2FC
330
2
100
AcDbEntity
  8
PDF_Layer 1
 62
     7
420
 16777215
370
    70
100
AcDbPolyline
 90
        4
 70
     0
 43
0.0
 10
6.035626388888887
 20
2.226740277777777
 10
6.044765277777776
 20
2.235962499999999
 10
6.053987499999998
 20
2.245087499999999
 10
6.095445833333331
 20
2.201351388888888
  0
LWPOLYLINE
  5
2FD
330
2
100
AcDbEntity
  8
PDF_Layer 1
 62
     7
420
 16777215
370
    70
100
AcDbPolyline
 90
        3
 70
     0
 43
0.0
 10
6.095493055555555
 20
2.222102777777777
 10
6.095493055555555
 20
2.240533333333333
 10
6.095493055555555
 20
2.261311111111111
  0
LWPOLYLINE
  5
2FE
330
2
100
AcDbEntity
  8
PDF_Layer 1
 62
     7
420
 16777215
370
    70
100
AcDbPolyline
 90
        3
 70
     0
 43
0.0
 10
6.095458333333333
 20
2.261299999999999
 10
6.086249999999999
 20
2.272772222222221
 10
6.074763888888888
 20
2.263647222222221
  0
LWPOLYLINE
  5
301
330
2
100
AcDbEntity
  8
PDF_Layer 1
 62
     7
420
 16777215
370
    70
100
AcDbPolyline
 90
        3
 70
     0
 43
0.0
 10
6.065544444444443
 20
2.254368055555555
 10
6.074766666666666
 20
2.263576388888888
 10
6.095447222222222
 20
2.240534722222221
  0
LWPOLYLINE
  5
302
330
2
100
AcDbEntity
  8
PDF_Layer 1
 62
     7
420
 16777215
370
    70
100
AcDbPolyline
 90
        2
 70
     0
 43
0.0
 10
6.095493055555555
 20
2.222127777777777
 10
6.095493055555555
 20
2.20135
  0
LWPOLYLINE
  5
303
330
2
100
AcDbEntity
  8
PDF_Layer 1
 62
     7
420
 16777215
370
    70
100
AcDbPolyline
 90
        3
 70
     0
 43
0.0
 10
6.056301388888888
 20
2.247409722222221
 10
6.06552361111111
 20
2.254354166666666
 10
6.095509722222222
 20
2.222104166666666
  0
LWPOLYLINE
  5
304
330
2
100
AcDbEntity
  8
PDF_Layer 1
 62
     7
420
 16777215
370
    70
100
AcDbPolyline
 90
        2
 70
     0
 43
0.0
 10
6.095493055555555
 20
2.201348611111111
 10
6.095493055555555
 20
2.180654166666666
  0
LWPOLYLINE
  5
305
330
2
100
AcDbEntity
  8
PDF_Layer 1
 62
     7
420
 16777215
370
    70
100
AcDbPolyline
 90
        2
 70
     0
 43
0.0
 10
6.054009722222221
 20
2.245116666666666
 10
6.05627361111111
 20
2.247380555555555
  0
LWPOLYLINE
  5
306
330
2
100
AcDbEntity
  8
PDF_Layer 1
 62
     7
420
 16777215
370
    70
100
AcDbPolyline
 90
        2
 70
     0
 43
0.0
 10
6.095493055555555
 20
2.1806375
 10
6.095493055555555
 20
2.171429166666666
  0
LWPOLYLINE
  5
308
330
2
100
AcDbEntity
  8
PDF_Layer 1
 62
     7
420
 16777215
370
    70
100
AcDbPolyline
 90
        2
 70
     0
 43
0.0
 10
6.044765277777776
 20
2.235962499999999
 10
6.095445833333331
 20
2.180670833333333
  0
LWPOLYLINE
  5
309
330
2
100
AcDbEntity
  8
PDF_Layer 1
 62
     7
420
 16777215
370
    70
100
AcDbPolyline
 90
        2
 70
     0
 43
0.0
 10
6.088574999999999
 20
2.166815277777777
 10
6.035616666666665
 20
2.226718055555555
  0
LWPOLYLINE
  5
30A
330
2
100
AcDbEntity
  8
PDF_Layer 1
 62
     7
420
 16777215
370
    70
100
AcDbPolyline
 90
        3
 70
     0
 43
0.0
 10
6.095493055555555
 20
2.261312499999999
 10
6.095493055555555
 20
2.282006944444443
 10
6.086270833333332
 20
2.27279861111111
  0
LWPOLYLINE
  5
30B
330
2
100
AcDbEntity
  8
PDF_Layer 1
 62
     7
420
 16777215
370
    70
100
AcDbPolyline
 90
        2
 70
     0
 43
0.0
 10
6.026359722222221
 20
2.109226388888889
 10
5.968720833333333
 20
2.056184722222222
  0
LWPOLYLINE
  5
30D
330
2
100
AcDbEntity
  8
PDF_Layer 1
 62
     7
420
 16777215
370
    70
100
AcDbPolyline
 90
        4
 70
     0
 43
0.0
 10
6.070104166666665
 20
2.148381944444444
 10
6.079409722222221
 20
2.157590277777777
 10
6.095493055555555
 20
2.139159722222221
 10
6.095493055555555
 20
2.118465277777777
  0
LWPOLYLINE
  5
30F
330
2
100
AcDbEntity
  8
PDF_Layer 1
 62
     7
420
 16777215
370
    70
100
AcDbPolyline
 90
        4
 70
     0
 43
0.0
 10
6.058631944444443
 20
2.139156944444444
 10
6.070104166666665
 20
2.148379166666666
 10
6.095493055555555
 20
2.1184625
 10
6.095493055555555
 20
2.097684722222222
  0
LWPOLYLINE
  5
311
330
2
100
AcDbEntity
  8
PDF_Layer 1
 62
     7
420
 16777215
370
    70
100
AcDbPolyline
 90
        2
 70
     0
 43
0.0
 10
6.095493055555555
 20
2.097683333333333
 10
6.095493055555555
 20
2.079252777777777
  0
LWPOLYLINE
  5
312
330
2
100
AcDbEntity
  8
PDF_Layer 1
 62
     7
420
 16777215
370
    70
100
AcDbPolyline
 90
        4
 70
     0
 43
0.0
 10
6.037854166666666
 20
2.12073611111111
 10
6.049409722222221
 20
2.129888888888888
 10
6.095493055555555
 20
2.079277777777777
 10
6.095493055555555
 20
2.060847222222221
  0
LWPOLYLINE
  5
314
330
2
100
AcDbEntity
  8
PDF_Layer 1
 62
     7
420
 16777215
370
    70
100
AcDbPolyline
 90
        3
 70
     0
 43
0.0
 10
6.037908333333333
 20
2.120761111111111
 10
6.093199999999999
 20
2.060872222222222
 10
6.083977777777777
 20
2.05165
  0
LWPOLYLINE
  5
316
330
2
100
AcDbEntity
  8
PDF_Layer 1
 62
     7
420
 16777215
370
    70
100
AcDbPolyline
 90
        5
 70
     0
 43
0.0
 10
6.095493055555555
 20
2.139176388888888
 10
6.095493055555555
 20
2.159870833333333
 10
6.095493055555555
 20
2.171426388888888
 10
6.08854861111111
 20
2.166815277777777
 10
6.095493055555555
 20
2.159870833333333
  0
LWPOLYLINE
  5
319
330
2
100
AcDbEntity
  8
PDF_Layer 1
 62
     7
420
 16777215
370
    70
100
AcDbPolyline
 90
        2
 70
     0
 43
0.0
 10
6.037895833333331
 20
2.120754166666666
 10
6.026326388888887
 20
2.10919861111111
  0
LWPOLYLINE
  5
31A
330
2
100
AcDbEntity
  8
PDF_Layer 1
 62
     7
420
 16777215
370
    70
100
AcDbPolyline
 90
        2
 70
     0
 43
0.0
 10
6.028645833333333
 20
2.111504166666667
 10
6.083937499999999
 20
2.051601388888889
  0
LWPOLYLINE
  5
31B
330
2
100
AcDbEntity
  8
PDF_Layer 1
 62
     7
420
 16777215
370
    70
100
AcDbPolyline
 90
        2
 70
     0
 43
0.0
 10
6.095493055555555
 20
1.931830555555555
 10
6.095493055555555
 20
1.874191666666666
  0
LWPOLYLINE
  5
31C
330
2
100
AcDbEntity
  8
PDF_Layer 1
 62
     7
420
 16777215
370
    70
100
AcDbPolyline
 90
        4
 70
     0
 43
0.0
 10
6.095458333333333
 20
1.915747222222222
 10
6.086249999999999
 20
1.924886111111111
 10
6.095458333333333
 20
1.931830555555555
 10
6.095458333333333
 20
1.95026111111111
  0
LWPOLYLINE
  5
31F
330
2
100
AcDbEntity
  8
PDF_Layer 1
 62
     7
420
 16777215
370
    70
100
AcDbPolyline
 90
        3
 70
     0
 43
0.0
 10
6.054030555555555
 20
2.023994444444444
 10
6.063252777777777
 20
2.033216666666666
 10
6.072391666666666
 20
2.042341666666666
  0
LWPOLYLINE
  5
320
330
2
100
AcDbEntity
  8
PDF_Layer 1
 62
     7
420
 16777215
370
    70
100
AcDbPolyline
 90
        3
 70
     0
 43
0.0
 10
6.072451388888888
 20
2.042397222222221
 10
6.095493055555555
 20
2.017008333333333
 10
6.095493055555555
 20
1.996313888888888
  0
LWPOLYLINE
  5
323
330
2
100
AcDbEntity
  8
PDF_Layer 1
 62
     7
420
 16777215
370
    70
100
AcDbPolyline
 90
        3
 70
     0
 43
0.0
 10
6.063243055555554
 20
2.033158333333333
 10
6.095493055555555
 20
1.99631111111111
 10
6.095493055555555
 20
1.975616666666666
  0
LWPOLYLINE
  5
325
330
2
100
AcDbEntity
  8
PDF_Layer 1
 62
     7
420
 16777215
370
    70
100
AcDbPolyline
 90
        2
 70
     0
 43
0.0
 10
6.054009722222221
 20
2.023966666666666
 10
6.042440277777776
 20
2.014744444444444
  0
LWPOLYLINE
  5
326
330
2
100
AcDbEntity
  8
PDF_Layer 1
 62
     7
420
 16777215
370
    70
100
AcDbPolyline
 90
        3
 70
     0
 43
0.0
 10
6.054020833333332
 20
2.023945833333332
 10
6.095493055555555
 20
1.975612499999999
 10
6.095493055555555
 20
1.954834722222221
  0
LWPOLYLINE
  5
328
330
2
100
AcDbEntity
  8
PDF_Layer 1
 62
     7
420
 16777215
370
    70
100
AcDbPolyline
 90
        2
 70
     0
 43
0.0
 10
6.04247361111111
 20
2.014716666666666
 10
6.033251388888888
 20
2.005591666666666
  0
LWPOLYLINE
  5
329
330
2
100
AcDbEntity
  8
PDF_Layer 1
 62
     7
420
 16777215
370
    70
100
AcDbPolyline
 90
        3
 70
     0
 43
0.0
 10
6.042465277777777
 20
2.01472361111111
 10
6.095493055555555
 20
1.954820833333332
 10
6.095493055555555
 20
1.95022361111111
  0
LWPOLYLINE
  5
32B
330
2
100
AcDbEntity
  8
PDF_Layer 1
 62
     7
420
 16777215
370
    70
100
AcDbPolyline
 90
        3
 70
     0
 43
0.0
 10
6.088562499999999
 20
1.943380555555555
 10
6.033270833333332
 20
2.005561111111111
 10
6.021784722222221
 20
1.996338888888888
  0
LWPOLYLINE
  5
32D
330
2
100
AcDbEntity
  8
PDF_Layer 1
 62
     7
420
 16777215
370
    70
100
AcDbPolyline
 90
        4
 70
     0
 43
0.0
 10
6.095470833333332
 20
1.894927777777777
 10
6.067818055555554
 20
1.924913888888888
 10
6.077040277777776
 20
1.934136111111111
 10
6.02174861111111
 20
1.996302777777777
  0
LWPOLYLINE
  5
32F
330
2
100
AcDbEntity
  8
PDF_Layer 1
 62
     7
420
 16777215
370
    70
100
AcDbPolyline
 90
        3
 70
     0
 43
0.0
 10
6.08392361111111
 20
2.051620833333333
 10
6.095493055555555
 20
2.037801388888888
 10
6.095493055555555
 20
2.017023611111111
  0
LWPOLYLINE
  5
331
330
2
100
AcDbEntity
  8
PDF_Layer 1
 62
     7
420
 16777215
370
    70
100
AcDbPolyline
 90
        2
 70
     0
 43
0.0
 10
6.095493055555555
 20
2.060872222222222
 10
6.095493055555555
 20
2.037830555555555
  0
LWPOLYLINE
  5
332
330
2
100
AcDbEntity
  8
PDF_Layer 1
 62
     7
420
 16777215
370
    70
100
AcDbPolyline
 90
        2
 70
     0
 43
0.0
 10
6.093199999999999
 20
2.060872222222222
 10
6.095463888888888
 20
2.060872222222222
  0
LWPOLYLINE
  5
334
330
2
100
AcDbEntity
  8
PDF_Layer 1
 62
     7
420
 16777215
370
    70
100
AcDbPolyline
 90
        3
 70
     0
 43
0.0
 10
6.056284722222221
 20
1.915698611111111
 10
6.095493055555555
 20
1.874240277777777
 10
6.095493055555555
 20
1.8534625
  0
LWPOLYLINE
  5
336
330
2
100
AcDbEntity
  8
PDF_Layer 1
 62
     7
420
 16777215
370
    70
100
AcDbPolyline
 90
        3
 70
     0
 43
0.0
 10
6.037869444444444
 20
1.897258333333333
 10
6.047091666666666
 20
1.906480555555555
 10
6.095522222222222
 20
1.853438888888888
  0
LWPOLYLINE
  5
338
330
2
100
AcDbEntity
  8
PDF_Layer 1
 62
     7
420
 16777215
370
    70
100
AcDbPolyline
 90
        3
 70
     0
 43
0.0
 10
6.037915277777776
 20
1.897183333333332
 10
6.077040277777776
 20
1.85346111111111
 10
6.095470833333332
 20
1.85346111111111
  0
LWPOLYLINE
  5
33A
330
2
100
AcDbEntity
  8
PDF_Layer 1
 62
     7
420
 16777215
370
    70
100
AcDbPolyline
 90
        3
 70
     0
 43
0.0
 10
6.026337499999998
 20
1.888058333333333
 10
6.058587499999998
 20
1.85346111111111
 10
6.077018055555554
 20
1.85346111111111
  0
LWPOLYLINE
  5
33C
330
2
100
AcDbEntity
  8
PDF_Layer 1
 62
     7
420
 16777215
370
    70
100
AcDbPolyline
 90
        2
 70
     0
 43
0.0
 10
6.077040277777776
 20
1.934136111111111
 10
6.086262499999999
 20
1.924913888888888
  0
LWPOLYLINE
  5
33D
330
2
100
AcDbEntity
  8
PDF_Layer 1
 62
     7
420
 16777215
370
    70
100
AcDbPolyline
 90
        2
 70
     0
 43
0.0
 10
6.026359722222221
 20
1.888061111111111
 10
6.017137499999999
 20
1.878852777777778
  0
LWPOLYLINE
  5
33F
330
2
100
AcDbEntity
  8
PDF_Layer 1
 62
     7
420
 16777215
370
    70
100
AcDbPolyline
 90
        4
 70
     0
 43
0.0
 10
5.830547222222222
 20
2.044684722222222
 10
5.842033333333334
 20
2.053906944444444
 10
5.897325
 20
1.991726388888888
 10
5.885755555555555
 20
1.982518055555555
  0
LWPOLYLINE
  5
341
330
2
100
AcDbEntity
  8
PDF_Layer 1
 62
     7
420
 16777215
370
    70
100
AcDbPolyline
 90
        4
 70
     0
 43
0.0
 10
5.821276388888888
 20
2.035504166666666
 10
5.83049861111111
 20
2.044656944444444
 10
5.885790277777776
 20
1.982476388888889
 10
5.876651388888888
 20
1.975615277777777
  0
LWPOLYLINE
  5
343
330
2
100
AcDbEntity
  8
PDF_Layer 1
 62
     7
420
 16777215
370
    70
100
AcDbPolyline
 90
        4
 70
     0
 43
0.0
 10
5.812037499999999
 20
2.02622361111111
 10
5.821343055555555
 20
2.035501388888888
 10
5.876634722222221
 20
1.975612499999999
 10
5.865065277777777
 20
1.966390277777777
  0
LWPOLYLINE
  5
345
330
2
100
AcDbEntity
  8
PDF_Layer 1
 62
     7
420
 16777215
370
    70
100
AcDbPolyline
 90
        3
 70
     0
 43
0.0
 10
5.812063888888888
 20
2.026265277777777
 10
5.865091666666665
 20
1.966362499999999
 10
5.855869444444443
 20
1.957140277777777
  0
LWPOLYLINE
  5
347
330
2
100
AcDbEntity
  8
PDF_Layer 1
 62
     7
420
 16777215
370
    70
100
AcDbPolyline
 90
        2
 70
     0
 43
0.0
 10
5.85584861111111
 20
1.957126388888888
 10
5.846626388888887
 20
1.947987499999999
  0
LWPOLYLINE
  5
348
330
2
100
AcDbEntity
  8
PDF_Layer 1
 62
     7
420
 16777215
370
    70
100
AcDbPolyline
 90
        3
 70
     0
 43
0.0
 10
5.855869444444444
 20
1.957105555555555
 10
5.800577777777777
 20
2.017008333333333
 10
5.81205
 20
2.026216666666666
  0
LWPOLYLINE
  5
34A
330
2
100
AcDbEntity
  8
PDF_Layer 1
 62
     7
420
 16777215
370
    70
100
AcDbPolyline
 90
        3
 70
     0
 43
0.0
 10
5.897325
 20
1.991726388888888
 10
5.906547222222222
 20
2.000948611111111
 10
5.851241666666666
 20
2.063198611111111
  0
LWPOLYLINE
  5
34B
330
2
100
AcDbEntity
  8
PDF_Layer 1
 62
     7
420
 16777215
370
    70
100
AcDbPolyline
 90
        2
 70
     0
 43
0.0
 10
5.800577777777777
 20
2.017008333333333
 10
5.791355555555555
 20
2.007883333333333
  0
LWPOLYLINE
  5
34C
330
2
100
AcDbEntity
  8
PDF_Layer 1
 62
     7
420
 16777215
370
    70
100
AcDbPolyline
 90
        7
 70
     0
 43
0.0
 10
5.79135972222222
 20
2.007806944444443
 10
5.800581944444442
 20
1.998584722222221
 10
5.809790277777776
 20
1.987029166666666
 10
5.819012499999998
 20
1.977890277777777
 10
5.828220833333332
 20
1.966334722222221
 10
5.837443055555554
 20
1.957126388888888
 10
5.846651388888887
 20
1.947987499999999
  0
LWPOLYLINE
  5
34E
330
2
100
AcDbEntity
  8
PDF_Layer 1
 62
     7
420
 16777215
370
    70
100
AcDbPolyline
 90
        3
 70
     0
 43
0.0
 10
5.837416666666666
 20
1.957081944444444
 10
5.846638888888888
 20
1.947956944444444
 10
5.835152777777777
 20
1.938734722222222
  0
LWPOLYLINE
  5
350
330
2
100
AcDbEntity
  8
PDF_Layer 1
 62
     7
420
 16777215
370
    70
100
AcDbPolyline
 90
        4
 70
     0
 43
0.0
 10
5.948012499999999
 20
2.037741666666666
 10
5.957234722222221
 20
2.047047222222222
 10
6.012526388888887
 20
1.987061111111111
 10
6.003304166666665
 20
1.977936111111111
  0
LWPOLYLINE
  5
352
330
2
100
AcDbEntity
  8
PDF_Layer 1
 62
     7
420
 16777215
370
    70
100
AcDbPolyline
 90
        4
 70
     1
 43
0.0
 10
5.991843055555555
 20
1.968683333333333
 10
5.936551388888888
 20
2.028502777777777
 10
5.948037499999999
 20
2.037794444444444
 10
6.003329166666666
 20
1.977905555555555
  0
LWPOLYLINE
  5
354
330
2
100
AcDbEntity
  8
PDF_Layer 1
 62
     7
420
 16777215
370
    70
100
AcDbPolyline
 90
        3
 70
     0
 43
0.0
 10
5.936516666666665
 20
2.028551388888888
 10
5.927294444444443
 20
2.0194125
 10
5.982599999999999
 20
1.9594125
  0
LWPOLYLINE
  5
356
330
2
100
AcDbEntity
  8
PDF_Layer 1
 62
     7
420
 16777215
370
    70
100
AcDbPolyline
 90
        3
 70
     0
 43
0.0
 10
5.971069444444442
 20
1.950243055555555
 10
5.915777777777776
 20
2.010131944444443
 10
5.927249999999999
 20
2.019354166666666
  0
LWPOLYLINE
  5
358
330
2
100
AcDbEntity
  8
PDF_Layer 1
 62
     7
420
 16777215
370
    70
100
AcDbPolyline
 90
        3
 70
     0
 43
0.0
 10
6.012526388888887
 20
1.987061111111111
 10
6.021748611111109
 20
1.996283333333333
 10
5.968790277777776
 20
2.056186111111111
  0
LWPOLYLINE
  5
359
330
2
100
AcDbEntity
  8
PDF_Layer 1
 62
     7
420
 16777215
370
    70
100
AcDbPolyline
 90
        2
 70
     0
 43
0.0
 10
5.915777777777776
 20
2.010131944444443
 10
5.906555555555554
 20
2.001006944444443
  0
LWPOLYLINE
  5
35A
330
2
100
AcDbEntity
  8
PDF_Layer 1
 62
     7
420
 16777215
370
    70
100
AcDbPolyline
 90
        2
 70
     0
 43
0.0
 10
5.952643055555554
 20
1.950236111111111
 10
5.961851388888888
 20
1.941027777777777
  0
LWPOLYLINE
  5
35B
330
2
100
AcDbEntity
  8
PDF_Layer 1
 62
     7
420
 16777215
370
    70
100
AcDbPolyline
 90
        4
 70
     0
 43
0.0
 10
5.943413888888889
 20
1.961813888888888
 10
5.952622222222221
 20
1.950258333333333
 10
5.890455555555555
 20
1.897230555555555
 10
5.881233333333333
 20
1.906438888888888
  0
LWPOLYLINE
  5
35D
330
2
100
AcDbEntity
  8
PDF_Layer 1
 62
     7
420
 16777215
370
    70
100
AcDbPolyline
 90
        4
 70
     0
 43
0.0
 10
5.934247222222222
 20
1.970994444444444
 10
5.943455555555554
 20
1.961758333333333
 10
5.881205555555554
 20
1.906480555555555
 10
5.87426111111111
 20
1.915688888888888
  0
LWPOLYLINE
  5
35F
330
2
100
AcDbEntity
  8
PDF_Layer 1
 62
     7
420
 16777215
370
    70
100
AcDbPolyline
 90
        4
 70
     0
 43
0.0
 10
5.924974999999999
 20
1.982494444444444
 10
5.934197222222222
 20
1.970938888888888
 10
5.874294444444444
 20
1.915716666666666
 10
5.865072222222222
 20
1.927188888888888
  0
LWPOLYLINE
  5
361
330
2
100
AcDbEntity
  8
PDF_Layer 1
 62
     7
420
 16777215
370
    70
100
AcDbPolyline
 90
        4
 70
     0
 43
0.0
 10
5.91577222222222
 20
1.99176111111111
 10
5.924994444444442
 20
1.982469444444444
 10
5.865091666666665
 20
1.927177777777777
 10
5.855869444444443
 20
1.93638611111111
  0
LWPOLYLINE
  5
363
330
2
100
AcDbEntity
  8
PDF_Layer 1
 62
     7
420
 16777215
370
    70
100
AcDbPolyline
 90
        4
 70
     1
 43
0.0
 10
5.846626388888887
 20
1.947984722222222
 10
5.906529166666665
 20
2.0010125
 10
5.915751388888887
 20
1.991706944444444
 10
5.85584861111111
 20
1.936415277777777
  0
LWPOLYLINE
  5
365
330
2
100
AcDbEntity
  8
PDF_Layer 1
 62
     7
420
 16777215
370
    70
100
AcDbPolyline
 90
        3
 70
     0
 43
0.0
 10
5.899590277777777
 20
1.885812499999999
 10
5.911159722222222
 20
1.894937499999999
 10
5.920381944444444
 20
1.904145833333332
  0
LWPOLYLINE
  5
366
330
2
100
AcDbEntity
  8
PDF_Layer 1
 62
     7
420
 16777215
370
    70
100
AcDbPolyline
 90
        3
 70
     0
 43
0.0
 10
5.911198611111109
 20
1.894919444444444
 10
5.948059722222221
 20
1.85346111111111
 10
5.966490277777777
 20
1.85346111111111
  0
LWPOLYLINE
  5
368
330
2
100
AcDbEntity
  8
PDF_Layer 1
 62
     7
420
 16777215
370
    70
100
AcDbPolyline
 90
        2
 70
     0
 43
0.0
 10
5.920402777777777
 20
1.904174999999999
 10
5.931874999999999
 20
1.913299999999999
  0
LWPOLYLINE
  5
369
330
2
100
AcDbEntity
  8
PDF_Layer 1
 62
     7
420
 16777215
370
    70
100
AcDbPolyline
 90
        2
 70
     0
 43
0.0
 10
5.966463888888888
 20
1.85346111111111
 10
5.987158333333333
 20
1.85346111111111
  0
LWPOLYLINE
  5
36A
330
2
100
AcDbEntity
  8
PDF_Layer 1
 62
     7
420
 16777215
370
    70
100
AcDbPolyline
 90
        4
 70
     0
 43
0.0
 10
5.996405555555554
 20
1.862731944444444
 10
5.987183333333332
 20
1.853440277777777
 10
5.931891666666666
 20
1.913343055555555
 10
5.941113888888888
 20
1.922551388888888
  0
LWPOLYLINE
  5
36C
330
2
100
AcDbEntity
  8
PDF_Layer 1
 62
     7
420
 16777215
370
    70
100
AcDbPolyline
 90
        4
 70
     0
 43
0.0
 10
6.005615277777777
 20
1.871913888888888
 10
5.996393055555555
 20
1.862691666666666
 10
5.941101388888888
 20
1.922594444444444
 10
5.950323611111111
 20
1.931802777777777
  0
LWPOLYLINE
  5
36E
330
2
100
AcDbEntity
  8
PDF_Layer 1
 62
     7
420
 16777215
370
    70
100
AcDbPolyline
 90
        3
 70
     0
 43
0.0
 10
6.00563611111111
 20
1.871858333333333
 10
5.950344444444444
 20
1.931830555555555
 10
5.961816666666666
 20
1.940969444444444
  0
LWPOLYLINE
  5
370
330
2
100
AcDbEntity
  8
PDF_Layer 1
 62
     7
420
 16777215
370
    70
100
AcDbPolyline
 90
        5
 70
     0
 43
0.0
 10
6.035604166666666
 20
1.860405555555555
 10
6.040215277777777
 20
1.85346111111111
 10
6.026381944444444
 20
1.85346111111111
 10
6.035604166666666
 20
1.860405555555555
 10
6.026381944444444
 20
1.869544444444444
  0
LWPOLYLINE
  5
371
330
2
100
AcDbEntity
  8
PDF_Layer 1
 62
     7
420
 16777215
370
    70
100
AcDbPolyline
 90
        3
 70
     0
 43
0.0
 10
6.026359722222221
 20
1.85346111111111
 10
6.007929166666666
 20
1.85346111111111
 10
6.026359722222221
 20
1.869544444444444
  0
LWPOLYLINE
  5
372
330
2
100
AcDbEntity
  8
PDF_Layer 1
 62
     7
420
 16777215
370
    70
100
AcDbPolyline
 90
        2
 70
     0
 43
0.0
 10
6.040181944444443
 20
1.85346111111111
 10
6.058612499999998
 20
1.85346111111111
  0
LWPOLYLINE
  5
373
330
2
100
AcDbEntity
  8
PDF_Layer 1
 62
     7
420
 16777215
370
    70
100
AcDbPolyline
 90
        2
 70
     0
 43
0.0
 10
6.026359722222221
 20
1.869574999999999
 10
6.017137499999999
 20
1.878797222222221
  0
LWPOLYLINE
  5
374
330
2
100
AcDbEntity
  8
PDF_Layer 1
 62
     7
420
 16777215
370
    70
100
AcDbPolyline
 90
        2
 70
     0
 43
0.0
 10
6.007941666666666
 20
1.85346111111111
 10
5.987163888888888
 20
1.85346111111111
  0
LWPOLYLINE
  5
375
330
2
100
AcDbEntity
  8
PDF_Layer 1
 62
     7
420
 16777215
370
    70
100
AcDbPolyline
 90
        3
 70
     0
 43
0.0
 10
6.005655555555555
 20
1.871866666666666
 10
6.017127777777777
 20
1.87881111111111
 10
5.96183611111111
 20
1.940991666666666
  0
LWPOLYLINE
  5
377
330
2
100
AcDbEntity
  8
PDF_Layer 1
 62
     7
420
 16777215
370
    70
100
AcDbPolyline
 90
        5
 70
     0
 43
0.0
 10
5.918070833333332
 20
1.864990277777777
 10
5.929556944444443
 20
1.853434722222221
 10
5.904251388888887
 20
1.853434722222221
 10
5.918070833333332
 20
1.864990277777777
 10
5.90884861111111
 20
1.876559722222221
  0
LWPOLYLINE
  5
378
330
2
100
AcDbEntity
  8
PDF_Layer 1
 62
     7
420
 16777215
370
    70
100
AcDbPolyline
 90
        3
 70
     0
 43
0.0
 10
5.904243055555554
 20
1.85346111111111
 10
5.883465277777776
 20
1.85346111111111
 10
5.908854166666666
 20
1.876488888888888
  0
LWPOLYLINE
  5
379
330
2
100
AcDbEntity
  8
PDF_Layer 1
 62
     7
420
 16777215
370
    70
100
AcDbPolyline
 90
        2
 70
     0
 43
0.0
 10
5.929565277777776
 20
1.85346111111111
 10
5.947995833333332
 20
1.85346111111111
  0
LWPOLYLINE
  5
37A
330
2
100
AcDbEntity
  8
PDF_Layer 1
 62
     7
420
 16777215
370
    70
100
AcDbPolyline
 90
        2
 70
     0
 43
0.0
 10
5.908861111111109
 20
1.876533333333333
 10
5.899638888888887
 20
1.885741666666666
  0
LWPOLYLINE
  5
37C
330
2
100
AcDbEntity
  8
PDF_Layer 1
 62
     7
420
 16777215
370
    70
100
AcDbPolyline
 90
        4
 70
     0
 43
0.0
 10
5.828213888888888
 20
1.96639861111111
 10
5.837422222222221
 20
1.957093055555555
 10
5.775255555555554
 20
1.901815277777777
 10
5.766033333333332
 20
1.913370833333333
  0
LWPOLYLINE
  5
37E
330
2
100
AcDbEntity
  8
PDF_Layer 1
 62
     7
420
 16777215
370
    70
100
AcDbPolyline
 90
        4
 70
     0
 43
0.0
 10
5.819038888888889
 20
1.977940277777777
 10
5.828247222222223
 20
1.966370833333332
 10
5.766011111111112
 20
1.913343055555555
 10
5.756788888888889
 20
1.922551388888888
  0
LWPOLYLINE
  5
380
330
2
100
AcDbEntity
  8
PDF_Layer 1
 62
     7
420
 16777215
370
    70
100
AcDbPolyline
 90
        4
 70
     0
 43
0.0
 10
5.809795833333332
 20
1.987108333333333
 10
5.819004166666665
 20
1.977886111111111
 10
5.756768055555554
 20
1.922594444444444
 10
5.747629166666666
 20
1.931802777777777
  0
LWPOLYLINE
  5
382
330
2
100
AcDbEntity
  8
PDF_Layer 1
 62
     7
420
 16777215
370
    70
100
AcDbPolyline
 90
        4
 70
     0
 43
0.0
 10
5.800556944444443
 20
1.998608333333333
 10
5.809765277777776
 20
1.987052777777777
 10
5.74759861111111
 20
1.931830555555555
 10
5.745251388888887
 20
1.934094444444444
  0
LWPOLYLINE
  5
385
330
2
100
AcDbEntity
  8
PDF_Layer 1
 62
     7
420
 16777215
370
    70
100
AcDbPolyline
 90
        2
 70
     0
 43
0.0
 10
5.800577777777777
 20
1.998602777777777
 10
5.791355555555555
 20
2.007811111111111
  0
LWPOLYLINE
  5
387
330
2
100
AcDbEntity
  8
PDF_Layer 1
 62
     7
420
 16777215
370
    70
100
AcDbPolyline
 90
        2
 70
     0
 43
0.0
 10
5.835144444444444
 20
1.938706944444444
 10
5.846616666666666
 20
1.947915277777777
  0
LWPOLYLINE
  5
388
330
2
100
AcDbEntity
  8
PDF_Layer 1
 62
     7
420
 16777215
370
    70
100
AcDbPolyline
 90
        4
 70
     0
 43
0.0
 10
5.899623611111111
 20
1.885769444444444
 10
5.890484722222222
 20
1.87656111111111
 10
5.835109722222222
 20
1.938727777777777
 10
5.8258875
 20
1.929422222222221
  0
LWPOLYLINE
  5
389
330
2
100
AcDbEntity
  8
PDF_Layer 1
 62
     7
420
 16777215
370
    70
100
AcDbPolyline
 90
        4
 70
     0
 43
0.0
 10
5.814427777777777
 20
1.920309722222222
 10
5.825913888888888
 20
1.929448611111111
 10
5.881205555555554
 20
1.867281944444444
 10
5.890427777777777
 20
1.876490277777777
  0
LWPOLYLINE
  5
38B
330
2
100
AcDbEntity
  8
PDF_Layer 1
 62
     7
420
 16777215
370
    70
100
AcDbPolyline
 90
        4
 70
     0
 43
0.0
 10
5.805155555555555
 20
1.911072222222222
 10
5.814377777777777
 20
1.920294444444444
 10
5.869669444444443
 20
1.858113888888888
 10
5.881238888888888
 20
1.867238888888888
  0
LWPOLYLINE
  5
38D
330
2
100
AcDbEntity
  8
PDF_Layer 1
 62
     7
420
 16777215
370
    70
100
AcDbPolyline
 90
        4
 70
     0
 43
0.0
 10
5.795945833333332
 20
1.901794444444444
 10
5.805237499999998
 20
1.911099999999999
 10
5.85584861111111
 20
1.85346111111111
 10
5.862793055555554
 20
1.85346111111111
  0
LWPOLYLINE
  5
38F
330
2
100
AcDbEntity
  8
PDF_Layer 1
 62
     7
420
 16777215
370
    70
100
AcDbPolyline
 90
        3
 70
     0
 43
0.0
 10
5.795970833333331
 20
1.901794444444444
 10
5.837443055555554
 20
1.85346111111111
 10
5.85587361111111
 20
1.85346111111111
  0
LWPOLYLINE
  5
391
330
2
100
AcDbEntity
  8
PDF_Layer 1
 62
     7
420
 16777215
370
    70
100
AcDbPolyline
 90
        2
 70
     0
 43
0.0
 10
5.890455555555555
 20
1.897230555555555
 10
5.899580555555555
 20
1.885744444444444
  0
LWPOLYLINE
  5
392
330
2
100
AcDbEntity
  8
PDF_Layer 1
 62
     7
420
 16777215
370
    70
100
AcDbPolyline
 90
        3
 70
     0
 43
0.0
 10
5.883504166666666
 20
1.85346111111111
 10
5.862809722222221
 20
1.85346111111111
 10
5.869670833333333
 20
1.858155555555555
  0
LWPOLYLINE
  5
393
330
2
100
AcDbEntity
  8
PDF_Layer 1
 62
     7
420
 16777215
370
    70
100
AcDbPolyline
 90
        2
 70
     0
 43
0.0
 10
5.795959722222222
 20
1.901815277777777
 10
5.784390277777777
 20
1.892676388888888
  0
LWPOLYLINE
  5
394
330
2
100
AcDbEntity
  8
PDF_Layer 1
 62
     7
420
 16777215
370
    70
100
AcDbPolyline
 90
        3
 70
     0
 43
0.0
 10
5.802849999999999
 20
1.853490277777777
 10
5.812072222222221
 20
1.86269861111111
 10
5.819016666666666
 20
1.853490277777777
  0
LWPOLYLINE
  5
396
330
2
100
AcDbEntity
  8
PDF_Layer 1
 62
     7
420
 16777215
370
    70
100
AcDbPolyline
 90
        2
 70
     0
 43
0.0
 10
5.812072222222221
 20
1.86269861111111
 10
5.802849999999999
 20
1.87182361111111
  0
LWPOLYLINE
  5
397
330
2
100
AcDbEntity
  8
PDF_Layer 1
 62
     7
420
 16777215
370
    70
100
AcDbPolyline
 90
        5
 70
     0
 43
0.0
 10
5.83746111111111
 20
1.85346111111111
 10
5.819030555555555
 20
1.85346111111111
 10
5.782169444444443
 20
1.85346111111111
 10
5.802863888888888
 20
1.871891666666666
 10
5.793641666666665
 20
1.881099999999999
  0
LWPOLYLINE
  5
398
330
2
100
AcDbEntity
  8
PDF_Layer 1
 62
     7
420
 16777215
370
    70
100
AcDbPolyline
 90
        3
 70
     0
 43
0.0
 10
5.782124999999999
 20
1.85346111111111
 10
5.761430555555555
 20
1.85346111111111
 10
5.793694444444444
 20
1.881099999999999
  0
LWPOLYLINE
  5
39A
330
2
100
AcDbEntity
  8
PDF_Layer 1
 62
     7
420
 16777215
370
    70
100
AcDbPolyline
 90
        3
 70
     0
 43
0.0
 10
5.793661111111111
 20
1.881104166666666
 10
5.784438888888889
 20
1.892659722222221
 10
5.775230555555555
 20
1.90179861111111
  0
LWPOLYLINE
  5
39B
330
2
100
AcDbEntity
  8
PDF_Layer 1
 62
     7
420
 16777215
370
    70
100
AcDbPolyline
 90
        2
 70
     0
 43
0.0
 10
5.775255555555554
 20
1.883395833333332
 10
5.749866666666665
 20
1.91104861111111
  0
LWPOLYLINE
  5
39C
330
2
100
AcDbEntity
  8
PDF_Layer 1
 62
     7
420
 16777215
370
    70
100
AcDbPolyline
 90
        2
 70
     0
 43
0.0
 10
5.74989861111111
 20
1.890354166666666
 10
5.763718055555554
 20
1.874270833333333
  0
LWPOLYLINE
  5
39D
330
2
100
AcDbEntity
  8
PDF_Layer 1
 62
     7
420
 16777215
370
    70
100
AcDbPolyline
 90
        2
 70
     0
 43
0.0
 10
6.095493055555555
 20
1.85346111111111
 10
6.109312499999999
 20
1.85346111111111
  0
LWPOLYLINE
  5
39E
330
2
100
AcDbEntity
  8
PDF_Layer 1
 62
     7
420
 16777215
370
    70
100
AcDbPolyline
 90
        2
 70
     0
 43
0.0
 10
5.712991666666666
 20
2.507840277777777
 10
5.712991666666666
 20
2.52392361111111
  0
LWPOLYLINE
  5
3A0
330
2
100
AcDbEntity
  8
PDF_Layer 1
 62
     7
420
 16777215
370
    70
100
AcDbPolyline
 90
        6
 70
     0
 43
0.0
 10
6.040181944444443
 20
3.337226388888888
 10
6.028612499999998
 20
3.3418375
 10
5.996445833333331
 20
3.355740277777777
 10
5.936543055555554
 20
3.360268055555555
 10
5.881251388888887
 20
3.358004166666666
 10
5.819001388888887
 20
3.3418375
  0
LWPOLYLINE
  5
3A2
330
2
100
AcDbEntity
  8
PDF_Layer 1
 62
     7
420
 16777215
370
    70
100
AcDbPolyline
 90
        2
 70
     0
 43
0.0
 10
6.067837499999999
 20
1.305108333333333
 10
6.067837499999999
 20
1.196858333333333
  0
LWPOLYLINE
  5
3A3
330
2
100
AcDbEntity
  8
PDF_Layer 1
 62
     7
420
 16777215
370
    70
100
AcDbPolyline
 90
        2
 70
     0
 43
0.0
 10
6.109320833333332
 20
1.346598611111111
 10
6.109320833333332
 20
1.853473611111111
  0
LWPOLYLINE
  5
3A4
330
2
100
AcDbEntity
  8
PDF_Layer 1
 62
     7
420
 16777215
370
    70
100
AcDbPolyline
 90
        2
 70
     0
 43
0.0
 10
5.699163888888889
 20
1.496324999999999
 10
5.699163888888889
 20
1.346602777777777
  0
LWPOLYLINE
  5
3A6
330
2
100
AcDbEntity
  8
PDF_Layer 1
 62
     7
420
 16777215
370
    70
100
AcDbPolyline
 90
        2
 70
     0
 43
0.0
 10
5.712991666666666
 20
2.523952777777777
 10
5.712991666666666
 20
2.526216666666666
  0
LWPOLYLINE
  5
3A7
330
2
100
AcDbEntity
  8
PDF_Layer 1
 62
     7
420
 16777215
370
    70
100
AcDbPolyline
 90
        2
 70
     0
 43
0.0
 10
5.752183333333333
 20
4.505344444444444
 10
6.056308333333333
 20
4.505344444444444
  0
LWPOLYLINE
  5
3A8
330
2
100
AcDbEntity
  8
PDF_Layer 1
 62
     7
420
 16777215
370
    70
100
AcDbPolyline
 90
        2
 70
     0
 43
0.0
 10
6.095493055555555
 20
4.505344444444444
 10
6.282159722222221
 20
4.505344444444444
  0
LWPOLYLINE
  5
3A9
330
2
100
AcDbEntity
  8
PDF_Layer 1
 62
     7
420
 16777215
370
    70
100
AcDbPolyline
 90
        4
 70
     0
 43
0.0
 10
5.443447222222221
 20
4.005395833333332
 10
5.473447222222221
 20
4.003048611111109
 10
5.50796111111111
 20
3.989312499999999
 10
5.50796111111111
 20
3.93167361111111
  0
LWPOLYLINE
  5
3AA
330
2
100
AcDbEntity
  8
PDF_Layer 1
 62
     7
420
 16777215
370
    70
100
AcDbPolyline
 90
        3
 70
     0
 43
0.0
 10
4.97571111111111
 20
3.164429166666666
 10
5.381224999999999
 20
3.164429166666666
 10
5.381224999999999
 20
2.834901388888889
  0
LWPOLYLINE
  5
3AC
330
2
100
AcDbEntity
  8
PDF_Layer 1
 62
     7
420
 16777215
370
    70
100
AcDbPolyline
 90
        2
 70
     0
 43
0.0
 10
5.005676388888887
 20
4.440863888888888
 10
5.383523611111109
 20
4.440863888888888
  0
LWPOLYLINE
  5
3AD
330
2
100
AcDbEntity
  8
PDF_Layer 1
 62
     7
420
 16777215
370
    70
100
AcDbPolyline
 90
        2
 70
     0
 43
0.0
 10
5.680758333333333
 20
4.212755555555554
 10
5.680758333333333
 20
3.966269444444444
  0
LWPOLYLINE
  5
3AE
330
2
100
AcDbEntity
  8
PDF_Layer 1
 62
     7
420
 16777215
370
    70
100
AcDbPolyline
 90
        2
 70
     0
 43
0.0
 10
5.424987499999999
 20
4.005424999999999
 10
5.424987499999999
 20
4.08603611111111
  0
LWPOLYLINE
  5
3AF
330
2
100
AcDbEntity
  8
PDF_Layer 1
 62
     7
420
 16777215
370
    70
100
AcDbPolyline
 90
        2
 70
     0
 43
0.0
 10
5.408874999999999
 20
4.092976388888888
 10
5.408874999999999
 20
4.005420833333332
  0
LWPOLYLINE
  5
3B0
330
2
100
AcDbEntity
  8
PDF_Layer 1
 62
     7
420
 16777215
370
    70
100
AcDbPolyline
 90
        3
 70
     0
 43
0.0
 10
5.088606944444443
 20
4.75652361111111
 10
5.072523611111109
 20
4.75652361111111
 10
4.927412499999998
 20
4.75652361111111
  0
LWPOLYLINE
  5
3B2
330
2
100
AcDbEntity
  8
PDF_Layer 1
 62
     7
420
 16777215
370
    70
100
AcDbPolyline
 90
        3
 70
     0
 43
0.0
 10
6.127726388888888
 20
4.744968055555554
 10
6.127726388888888
 20
4.75652361111111
 10
6.272837499999999
 20
4.75652361111111
  0
LWPOLYLINE
  5
3B3
330
2
100
AcDbEntity
  8
PDF_Layer 1
 62
     7
420
 16777215
370
    70
100
AcDbPolyline
 90
        2
 70
     0
 43
0.0
 10
6.288987499999999
 20
4.7726375
 10
6.288987499999999
 20
4.820970833333332
  0
LWPOLYLINE
  5
3B4
330
2
100
AcDbEntity
  8
PDF_Layer 1
 62
     7
420
 16777215
370
    70
100
AcDbPolyline
 90
        2
 70
     0
 43
0.0
 10
6.272868055555555
 20
4.837118055555555
 10
6.127756944444444
 20
4.837118055555555
  0
LWPOLYLINE
  5
3B6
330
2
100
AcDbEntity
  8
PDF_Layer 1
 62
     7
420
 16777215
370
    70
100
AcDbPolyline
 90
        6
 70
     0
 43
0.0
 10
6.127729166666665
 20
4.75652361111111
 10
6.088520833333332
 20
4.75652361111111
 10
6.072437499999999
 20
4.75652361111111
 10
5.991840277777777
 20
4.75652361111111
 10
5.97567361111111
 20
4.75652361111111
 10
5.713006944444443
 20
4.75652361111111
  0
LWPOLYLINE
  5
3B8
330
2
100
AcDbEntity
  8
PDF_Layer 1
 62
     7
420
 16777215
370
    70
100
AcDbPolyline
 90
        5
 70
     0
 43
0.0
 10
6.127726388888888
 20
4.837118055555555
 10
6.088518055555554
 20
4.837118055555555
 10
6.072434722222221
 20
4.837118055555555
 10
5.99182361111111
 20
4.837118055555555
 10
5.975656944444443
 20
4.837118055555555
  0
LWPOLYLINE
  5
3B9
330
2
100
AcDbEntity
  8
PDF_Layer 1
 62
     7
420
 16777215
370
    70
100
AcDbPolyline
 90
        4
 70
     0
 43
0.0
 10
5.383551388888888
 20
4.837118055555555
 10
5.088634722222222
 20
4.837118055555555
 10
5.072551388888888
 20
4.837118055555555
 10
4.927356944444444
 20
4.837118055555555
  0
LWPOLYLINE
  5
3BA
330
2
100
AcDbEntity
  8
PDF_Layer 1
 62
     7
420
 16777215
370
    70
100
AcDbPolyline
 90
        2
 70
     0
 43
0.0
 10
4.911255555555555
 20
4.820990277777776
 10
4.911255555555555
 20
4.772656944444443
  0
LWPOLYLINE
  5
3BB
330
2
100
AcDbEntity
  8
PDF_Layer 1
 62
     7
420
 16777215
370
    70
100
AcDbPolyline
 90
        4
 70
     0
 43
0.0
 10
5.383551388888888
 20
4.480038888888889
 10
5.383551388888888
 20
4.505344444444444
 10
5.687676388888888
 20
4.505344444444444
 10
5.687676388888888
 20
4.477775
  0
LWPOLYLINE
  5
3BC
330
2
100
AcDbEntity
  8
PDF_Layer 1
 62
     7
420
 16777215
370
    70
100
AcDbPolyline
 90
        2
 70
     0
 43
0.0
 10
5.712991666666666
 20
4.505344444444444
 10
5.7522
 20
4.505344444444444
  0
LWPOLYLINE
  5
3BE
330
2
100
AcDbEntity
  8
PDF_Layer 1
 62
     7
420
 16777215
370
    70
100
AcDbPolyline
 90
        2
 70
     0
 43
0.0
 10
5.088643055555555
 20
4.440863888888888
 10
5.088643055555555
 20
4.005447222222222
  0
LWPOLYLINE
  5
3BF
330
2
100
AcDbEntity
  8
PDF_Layer 1
 62
     7
420
 16777215
370
    70
100
AcDbPolyline
 90
        2
 70
     0
 43
0.0
 10
5.072523611111109
 20
4.005424999999999
 10
5.072523611111109
 20
4.440855555555555
  0
LWPOLYLINE
  5
3C0
330
2
100
AcDbEntity
  8
PDF_Layer 1
 62
     7
420
 16777215
370
    70
100
AcDbPolyline
 90
        2
 70
     0
 43
0.0
 10
5.712991666666666
 20
4.664320833333332
 10
6.282116666666666
 20
4.664320833333332
  0
LWPOLYLINE
  5
3C1
330
2
100
AcDbEntity
  8
PDF_Layer 1
 62
     7
420
 16777215
370
    70
100
AcDbPolyline
 90
        2
 70
     0
 43
0.0
 10
4.99184861111111
 20
4.447740277777776
 10
4.959598611111109
 20
4.505379166666664
  0
LWPOLYLINE
  5
3C2
330
2
100
AcDbEntity
  8
PDF_Layer 1
 62
     7
420
 16777215
370
    70
100
AcDbPolyline
 90
        6
 70
     0
 43
0.0
 10
4.945780555555555
 20
4.505348611111109
 10
4.941169444444444
 20
4.505348611111109
 10
4.920391666666666
 20
4.512306944444443
 10
4.902044444444443
 20
4.533001388888887
 10
4.897433333333332
 20
4.553779166666665
 10
4.897433333333332
 20
4.615945833333332
  0
LWPOLYLINE
  5
3C3
330
2
100
AcDbEntity
  8
PDF_Layer 1
 62
     7
420
 16777215
370
    70
100
AcDbPolyline
 90
        2
 70
     0
 43
0.0
 10
6.330470833333332
 20
4.615952777777778
 10
6.330470833333332
 20
4.553786111111111
  0
LWPOLYLINE
  5
3C4
330
2
100
AcDbEntity
  8
PDF_Layer 1
 62
     7
420
 16777215
370
    70
100
AcDbPolyline
 90
        2
 70
     0
 43
0.0
 10
4.959608333333332
 20
4.505344444444444
 10
4.943524999999999
 20
4.505344444444444
  0
LWPOLYLINE
  5
3C5
330
2
100
AcDbEntity
  8
PDF_Layer 1
 62
     7
420
 16777215
370
    70
100
AcDbPolyline
 90
        2
 70
     0
 43
0.0
 10
5.381224999999999
 20
1.807399999999999
 10
5.381224999999999
 20
1.807399999999999
  0
LWPOLYLINE
  5
3C6
330
2
100
AcDbEntity
  8
PDF_Layer 1
 62
     7
420
 16777215
370
    70
100
AcDbPolyline
 90
        2
 70
     0
 43
0.0
 10
5.685377777777778
 20
2.383395833333332
 10
5.685377777777778
 20
2.408770833333332
  0
LWPOLYLINE
  5
3C7
330
2
100
AcDbEntity
  8
PDF_Layer 1
 62
     7
420
 16777215
370
    70
100
AcDbPolyline
 90
        2
 70
     0
 43
0.0
 10
5.385844444444444
 20
2.579263888888888
 10
5.381233333333333
 20
2.576999999999999
  0
LWPOLYLINE
  5
3C8
330
2
100
AcDbEntity
  8
PDF_Layer 1
 62
     7
420
 16777215
370
    70
100
AcDbPolyline
 90
        2
 70
     0
 43
0.0
 10
5.381224999999999
 20
2.834947222222222
 10
5.38583611111111
 20
2.837294444444444
  0
LWPOLYLINE
  5
3C9
330
2
100
AcDbEntity
  8
PDF_Layer 1
 62
     7
420
 16777215
370
    70
100
AcDbPolyline
 90
        2
 70
     0
 43
0.0
 10
5.685377777777778
 20
3.095363888888889
 10
5.685377777777778
 20
3.139030555555555
  0
LWPOLYLINE
  5
3CA
330
2
100
AcDbEntity
  8
PDF_Layer 1
 62
     7
420
 16777215
370
    70
100
AcDbPolyline
 90
        2
 70
     0
 43
0.0
 10
5.381224999999999
 20
2.620659722222221
 10
5.381224999999999
 20
2.577006944444443
  0
LWPOLYLINE
  5
3CB
330
2
100
AcDbEntity
  8
PDF_Layer 1
 62
     7
420
 16777215
370
    70
100
AcDbPolyline
 90
        2
 70
     0
 43
0.0
 10
5.381224999999999
 20
2.669094444444443
 10
5.381224999999999
 20
2.75438611111111
  0
LWPOLYLINE
  5
3CC
330
2
100
AcDbEntity
  8
PDF_Layer 1
 62
     7
420
 16777215
370
    70
100
AcDbPolyline
 90
        4
 70
     0
 43
0.0
 10
5.514833333333332
 20
2.537744444444444
 10
5.53561111111111
 20
2.514716666666666
 10
5.664638888888888
 20
2.643730555555555
 10
5.685333333333333
 20
2.62305
  0
LWPOLYLINE
  5
3CD
330
2
100
AcDbEntity
  8
PDF_Layer 1
 62
     7
420
 16777215
370
    70
100
AcDbPolyline
 90
        3
 70
     0
 43
0.0
 10
5.685377777777778
 20
2.837341666666666
 10
5.685377777777778
 20
2.881008333333333
 10
5.6646
 20
2.90178611111111
  0
LWPOLYLINE
  5
3CF
330
2
100
AcDbEntity
  8
PDF_Layer 1
 62
     7
420
 16777215
370
    70
100
AcDbPolyline
 90
        2
 70
     0
 43
0.0
 10
5.55634861111111
 20
3.010118055555555
 10
5.579390277777777
 20
3.03079861111111
  0
LWPOLYLINE
  5
3D0
330
2
100
AcDbEntity
  8
PDF_Layer 1
 62
     7
420
 16777215
370
    70
100
AcDbPolyline
 90
        2
 70
     0
 43
0.0
 10
5.643894444444444
 20
2.408759722222221
 10
5.648505555555555
 20
2.40414861111111
  0
LWPOLYLINE
  5
3D1
330
2
100
AcDbEntity
  8
PDF_Layer 1
 62
     7
420
 16777215
370
    70
100
AcDbPolyline
 90
        2
 70
     0
 43
0.0
 10
5.625447222222221
 20
2.427165277777777
 10
5.62083611111111
 20
2.429415277777777
  0
LWPOLYLINE
  5
3D2
330
2
100
AcDbEntity
  8
PDF_Layer 1
 62
     7
420
 16777215
370
    70
100
AcDbPolyline
 90
        2
 70
     0
 43
0.0
 10
5.600124999999999
 20
1.807399999999999
 10
5.556388888888887
 20
1.807399999999999
  0
LWPOLYLINE
  5
3D3
330
2
100
AcDbEntity
  8
PDF_Layer 1
 62
     7
420
 16777215
370
    70
100
AcDbPolyline
 90
        3
 70
     0
 43
0.0
 10
5.602458333333332
 20
2.447862499999999
 10
5.60011111111111
 20
2.450209722222222
 10
5.579416666666666
 20
2.473251388888888
  0
LWPOLYLINE
  5
3D4
330
2
100
AcDbEntity
  8
PDF_Layer 1
 62
     7
420
 16777215
370
    70
100
AcDbPolyline
 90
        2
 70
     0
 43
0.0
 10
5.55634861111111
 20
1.807399999999999
 10
5.427320833333332
 20
1.807399999999999
  0
LWPOLYLINE
  5
3D5
330
2
100
AcDbEntity
  8
PDF_Layer 1
 62
     7
420
 16777215
370
    70
100
AcDbPolyline
 90
        2
 70
     0
 43
0.0
 10
5.57938611111111
 20
2.473226388888889
 10
5.535649999999999
 20
2.514698611111111
  0
LWPOLYLINE
  5
3D6
330
2
100
AcDbEntity
  8
PDF_Layer 1
 62
     7
420
 16777215
370
    70
100
AcDbPolyline
 90
        3
 70
     0
 43
0.0
 10
5.49187361111111
 20
2.429440277777777
 10
5.471095833333332
 20
2.408759722222221
 10
5.381193055555554
 20
2.496315277777777
  0
LWPOLYLINE
  5
3D8
330
2
100
AcDbEntity
  8
PDF_Layer 1
 62
     7
420
 16777215
370
    70
100
AcDbPolyline
 90
        4
 70
     0
 43
0.0
 10
5.381224999999999
 20
2.496297222222221
 10
5.381224999999999
 20
2.540019444444443
 10
5.491808333333333
 20
2.429449999999999
 10
5.51485
 20
2.450227777777777
  0
LWPOLYLINE
  5
3D9
330
2
100
AcDbEntity
  8
PDF_Layer 1
 62
     7
420
 16777215
370
    70
100
AcDbPolyline
 90
        2
 70
     0
 43
0.0
 10
5.381224999999999
 20
2.540079166666666
 10
5.381224999999999
 20
2.576926388888888
  0
LWPOLYLINE
  5
3DA
330
2
100
AcDbEntity
  8
PDF_Layer 1
 62
     7
420
 16777215
370
    70
100
AcDbPolyline
 90
        5
 70
     0
 43
0.0
 10
5.53565
 20
2.473180555555555
 10
5.406622222222222
 20
2.602208333333333
 10
5.385844444444444
 20
2.579249999999999
 10
5.514872222222222
 20
2.45023611111111
 10
5.620858333333333
 20
2.55848611111111
  0
LWPOLYLINE
  5
3DB
330
2
100
AcDbEntity
  8
PDF_Layer 1
 62
     7
420
 16777215
370
    70
100
AcDbPolyline
 90
        3
 70
     0
 43
0.0
 10
5.381224999999999
 20
2.49625
 10
5.381224999999999
 20
2.452527777777778
 10
5.381224999999999
 20
2.411055555555555
  0
LWPOLYLINE
  5
3DD
330
2
100
AcDbEntity
  8
PDF_Layer 1
 62
     7
420
 16777215
370
    70
100
AcDbPolyline
 90
        2
 70
     0
 43
0.0
 10
5.406581944444443
 20
2.602254166666666
 10
5.450318055555555
 20
2.643726388888889
  0
LWPOLYLINE
  5
3DE
330
2
100
AcDbEntity
  8
PDF_Layer 1
 62
     7
420
 16777215
370
    70
100
AcDbPolyline
 90
        3
 70
     1
 43
0.0
 10
5.406581944444443
 20
2.643730555555555
 10
5.381193055555554
 20
2.620702777777777
 10
5.381193055555554
 20
2.669119444444444
  0
LWPOLYLINE
  5
3DF
330
2
100
AcDbEntity
  8
PDF_Layer 1
 62
     7
420
 16777215
370
    70
100
AcDbPolyline
 90
        4
 70
     0
 43
0.0
 10
5.57938611111111
 20
2.514702777777777
 10
5.685358333333333
 20
2.408716666666666
 10
5.685358333333333
 20
2.450188888888888
 10
5.600163888888888
 20
2.537744444444444
  0
LWPOLYLINE
  5
3E0
330
2
100
AcDbEntity
  8
PDF_Layer 1
 62
     7
420
 16777215
370
    70
100
AcDbPolyline
 90
        3
 70
     0
 43
0.0
 10
5.620863888888889
 20
2.558533333333333
 10
5.685377777777778
 20
2.494005555555555
 10
5.685377777777778
 20
2.450283333333333
  0
LWPOLYLINE
  5
3E2
330
2
100
AcDbEntity
  8
PDF_Layer 1
 62
     7
420
 16777215
370
    70
100
AcDbPolyline
 90
        2
 70
     0
 43
0.0
 10
5.685377777777778
 20
2.53777361111111
 10
5.685377777777778
 20
2.494051388888887
  0
LWPOLYLINE
  5
3E3
330
2
100
AcDbEntity
  8
PDF_Layer 1
 62
     7
420
 16777215
370
    70
100
AcDbPolyline
 90
        2
 70
     0
 43
0.0
 10
5.620862499999999
 20
2.558484722222222
 10
5.685376388888887
 20
2.623068055555555
  0
LWPOLYLINE
  5
3E4
330
2
100
AcDbEntity
  8
PDF_Layer 1
 62
     7
420
 16777215
370
    70
100
AcDbPolyline
 90
        4
 70
     0
 43
0.0
 10
5.643894444444444
 20
2.579263888888888
 10
5.685366666666666
 20
2.537791666666666
 10
5.685366666666666
 20
2.579263888888888
 10
5.664672222222222
 20
2.602222222222222
  0
LWPOLYLINE
  5
3E5
330
2
100
AcDbEntity
  8
PDF_Layer 1
 62
     7
420
 16777215
370
    70
100
AcDbPolyline
 90
        2
 70
     0
 43
0.0
 10
5.685377777777778
 20
2.623033333333333
 10
5.685377777777778
 20
2.579311111111111
  0
LWPOLYLINE
  5
3E7
330
2
100
AcDbEntity
  8
PDF_Layer 1
 62
     7
420
 16777215
370
    70
100
AcDbPolyline
 90
        4
 70
     0
 43
0.0
 10
5.491824999999999
 20
2.558468055555555
 10
5.514866666666666
 20
2.537787499999999
 10
5.643894444444444
 20
2.666815277777777
 10
5.664672222222222
 20
2.64377361111111
  0
LWPOLYLINE
  5
3E9
330
2
100
AcDbEntity
  8
PDF_Layer 1
 62
     7
420
 16777215
370
    70
100
AcDbPolyline
 90
        4
 70
     0
 43
0.0
 10
5.471056944444443
 20
2.57925
 10
5.491834722222221
 20
2.558486111111111
 10
5.620862499999999
 20
2.6875
 10
5.643904166666666
 20
2.666819444444444
  0
LWPOLYLINE
  5
3EB
330
2
100
AcDbEntity
  8
PDF_Layer 1
 62
     7
420
 16777215
370
    70
100
AcDbPolyline
 90
        4
 70
     0
 43
0.0
 10
5.450319444444443
 20
2.602225
 10
5.471097222222221
 20
2.579266666666666
 10
5.600124999999999
 20
2.708211111111111
 10
5.620902777777777
 20
2.687516666666666
  0
LWPOLYLINE
  5
3ED
330
2
100
AcDbEntity
  8
PDF_Layer 1
 62
     7
420
 16777215
370
    70
100
AcDbPolyline
 90
        4
 70
     0
 43
0.0
 10
5.406538888888889
 20
2.643726388888889
 10
5.450358333333332
 20
2.602254166666666
 10
5.57938611111111
 20
2.731281944444444
 10
5.600163888888888
 20
2.708240277777777
  0
LWPOLYLINE
  5
3EF
330
2
100
AcDbEntity
  8
PDF_Layer 1
 62
     7
420
 16777215
370
    70
100
AcDbPolyline
 90
        2
 70
     0
 43
0.0
 10
5.53561111111111
 20
2.772759722222222
 10
5.579333333333333
 20
2.7312875
  0
LWPOLYLINE
  5
3F0
330
2
100
AcDbEntity
  8
PDF_Layer 1
 62
     7
420
 16777215
370
    70
100
AcDbPolyline
 90
        4
 70
     0
 43
0.0
 10
5.381233333333333
 20
2.754327777777777
 10
5.47113611111111
 20
2.666772222222222
 10
5.450358333333332
 20
2.643730555555555
 10
5.385844444444444
 20
2.708258333333333
  0
LWPOLYLINE
  5
3F2
330
2
100
AcDbEntity
  8
PDF_Layer 1
 62
     7
420
 16777215
370
    70
100
AcDbPolyline
 90
        2
 70
     0
 43
0.0
 10
5.471095833333332
 20
2.666815277777777
 10
5.49187361111111
 20
2.687495833333332
  0
LWPOLYLINE
  5
3F3
330
2
100
AcDbEntity
  8
PDF_Layer 1
 62
     7
420
 16777215
370
    70
100
AcDbPolyline
 90
        2
 70
     0
 43
0.0
 10
5.381224999999999
 20
2.754354166666665
 10
5.381224999999999
 20
2.834951388888888
  0
LWPOLYLINE
  5
3F4
330
2
100
AcDbEntity
  8
PDF_Layer 1
 62
     7
420
 16777215
370
    70
100
AcDbPolyline
 90
        2
 70
     0
 43
0.0
 10
5.385844444444444
 20
2.793470833333333
 10
5.491816666666666
 20
2.687470833333333
  0
LWPOLYLINE
  5
3F5
330
2
100
AcDbEntity
  8
PDF_Layer 1
 62
     7
420
 16777215
370
    70
100
AcDbPolyline
 90
        3
 70
     0
 43
0.0
 10
5.491830555555555
 20
2.687516666666666
 10
5.514872222222222
 20
2.708211111111111
 10
5.57938611111111
 20
2.772794444444444
  0
LWPOLYLINE
  5
3F6
330
2
100
AcDbEntity
  8
PDF_Layer 1
 62
     7
420
 16777215
370
    70
100
AcDbPolyline
 90
        3
 70
     0
 43
0.0
 10
5.533318055555555
 20
2.731281944444444
 10
5.406554166666666
 20
2.858031944444444
 10
5.427331944444444
 20
2.880990277777777
  0
LWPOLYLINE
  5
3F7
330
2
100
AcDbEntity
  8
PDF_Layer 1
 62
     7
420
 16777215
370
    70
100
AcDbPolyline
 90
        6
 70
     0
 43
0.0
 10
5.685358333333333
 20
2.666773611111111
 10
5.685358333333333
 20
2.708162499999999
 10
5.600163888888888
 20
2.793454166666666
 10
5.57938611111111
 20
2.772759722222222
 10
5.685358333333333
 20
2.666773611111111
 10
5.685358333333333
 20
2.623051388888888
  0
LWPOLYLINE
  5
3F9
330
2
100
AcDbEntity
  8
PDF_Layer 1
 62
     7
420
 16777215
370
    70
100
AcDbPolyline
 90
        4
 70
     0
 43
0.0
 10
5.600124999999999
 20
2.793470833333333
 10
5.620902777777777
 20
2.81649861111111
 10
5.685416666666665
 20
2.752081944444444
 10
5.685416666666665
 20
2.708165277777777
  0
LWPOLYLINE
  5
3FA
330
2
100
AcDbEntity
  8
PDF_Layer 1
 62
     7
420
 16777215
370
    70
100
AcDbPolyline
 90
        4
 70
     0
 43
0.0
 10
5.620862499999999
 20
2.816541666666666
 10
5.643904166666666
 20
2.837305555555555
 10
5.685376388888887
 20
2.793499999999999
 10
5.685376388888887
 20
2.752013888888888
  0
LWPOLYLINE
  5
3FB
330
2
100
AcDbEntity
  8
PDF_Layer 1
 62
     7
420
 16777215
370
    70
100
AcDbPolyline
 90
        4
 70
     0
 43
0.0
 10
5.643894444444444
 20
2.837320833333333
 10
5.664672222222222
 20
2.858001388888888
 10
5.685366666666666
 20
2.837320833333333
 10
5.685366666666666
 20
2.793501388888889
  0
LWPOLYLINE
  5
3FC
330
2
100
AcDbEntity
  8
PDF_Layer 1
 62
     7
420
 16777215
370
    70
100
AcDbPolyline
 90
        2
 70
     0
 43
0.0
 10
5.664638888888888
 20
2.858018055555555
 10
5.685333333333333
 20
2.880962499999999
  0
LWPOLYLINE
  5
3FD
330
2
100
AcDbEntity
  8
PDF_Layer 1
 62
     7
420
 16777215
370
    70
100
AcDbPolyline
 90
        3
 70
     0
 43
0.0
 10
5.664638888888888
 20
2.9017875
 10
5.53561111111111
 20
2.772773611111111
 10
5.514833333333332
 20
2.793454166666666
  0
LWPOLYLINE
  5
3FE
330
2
100
AcDbEntity
  8
PDF_Layer 1
 62
     7
420
 16777215
370
    70
100
AcDbPolyline
 90
        3
 70
     0
 43
0.0
 10
5.514866666666666
 20
2.793455555555555
 10
5.643894444444444
 20
2.922566666666666
 10
5.664672222222222
 20
2.901788888888889
  0
LWPOLYLINE
  5
400
330
2
100
AcDbEntity
  8
PDF_Layer 1
 62
     7
420
 16777215
370
    70
100
AcDbPolyline
 90
        2
 70
     0
 43
0.0
 10
5.643894444444444
 20
2.922566666666666
 10
5.620852777777777
 20
2.945524999999999
  0
LWPOLYLINE
  5
401
330
2
100
AcDbEntity
  8
PDF_Layer 1
 62
     7
420
 16777215
370
    70
100
AcDbPolyline
 90
        3
 70
     0
 43
0.0
 10
5.491841666666666
 20
2.816541666666666
 10
5.471063888888888
 20
2.837305555555555
 10
5.600077777777777
 20
2.966249999999999
  0
LWPOLYLINE
  5
402
330
2
100
AcDbEntity
  8
PDF_Layer 1
 62
     7
420
 16777215
370
    70
100
AcDbPolyline
 90
        2
 70
     0
 43
0.0
 10
5.471095833333332
 20
2.837320833333333
 10
5.450318055555554
 20
2.858001388888888
  0
LWPOLYLINE
  5
403
330
2
100
AcDbEntity
  8
PDF_Layer 1
 62
     7
420
 16777215
370
    70
100
AcDbPolyline
 90
        2
 70
     0
 43
0.0
 10
5.57938611111111
 20
2.987047222222222
 10
5.600163888888888
 20
2.966269444444444
  0
LWPOLYLINE
  5
404
330
2
100
AcDbEntity
  8
PDF_Layer 1
 62
     7
420
 16777215
370
    70
100
AcDbPolyline
 90
        3
 70
     0
 43
0.0
 10
5.406622222222222
 20
2.858001388888888
 10
5.385844444444444
 20
2.837320833333333
 10
5.514872222222222
 20
2.708209722222222
  0
LWPOLYLINE
  5
407
330
2
100
AcDbEntity
  8
PDF_Layer 1
 62
     7
420
 16777215
370
    70
100
AcDbPolyline
 90
        3
 70
     0
 43
0.0
 10
5.450358333333332
 20
2.858018055555555
 10
5.57938611111111
 20
2.987045833333333
 10
5.556344444444444
 20
3.01007361111111
  0
LWPOLYLINE
  5
408
330
2
100
AcDbEntity
  8
PDF_Layer 1
 62
     7
420
 16777215
370
    70
100
AcDbPolyline
 90
        6
 70
     0
 43
0.0
 10
5.685358333333333
 20
2.922565277777777
 10
5.685358333333333
 20
2.966218055555554
 10
5.600163888888888
 20
3.051509722222221
 10
5.57938611111111
 20
3.030815277777777
 10
5.685358333333333
 20
2.922565277777777
 10
5.685358333333333
 20
2.881009722222221
  0
LWPOLYLINE
  5
40A
330
2
100
AcDbEntity
  8
PDF_Layer 1
 62
     7
420
 16777215
370
    70
100
AcDbPolyline
 90
        4
 70
     0
 43
0.0
 10
5.600124999999999
 20
3.051513888888888
 10
5.620902777777777
 20
3.074555555555555
 10
5.685416666666665
 20
3.010138888888888
 10
5.685416666666665
 20
2.966222222222221
  0
LWPOLYLINE
  5
40B
330
2
100
AcDbEntity
  8
PDF_Layer 1
 62
     7
420
 16777215
370
    70
100
AcDbPolyline
 90
        4
 70
     0
 43
0.0
 10
5.620862499999999
 20
3.07459861111111
 10
5.643904166666666
 20
3.095362499999999
 10
5.685376388888887
 20
3.051556944444444
 10
5.685376388888887
 20
3.010070833333333
  0
LWPOLYLINE
  5
40C
330
2
100
AcDbEntity
  8
PDF_Layer 1
 62
     7
420
 16777215
370
    70
100
AcDbPolyline
 90
        4
 70
     0
 43
0.0
 10
5.643894444444444
 20
3.095363888888889
 10
5.664672222222222
 20
3.116058333333333
 10
5.685366666666666
 20
3.095363888888889
 10
5.685366666666666
 20
3.051558333333333
  0
LWPOLYLINE
  5
40D
330
2
100
AcDbEntity
  8
PDF_Layer 1
 62
     7
420
 16777215
370
    70
100
AcDbPolyline
 90
        2
 70
     0
 43
0.0
 10
5.664638888888888
 20
3.116075
 10
5.685333333333333
 20
3.139019444444445
  0
LWPOLYLINE
  5
40E
330
2
100
AcDbEntity
  8
PDF_Layer 1
 62
     7
420
 16777215
370
    70
100
AcDbPolyline
 90
        3
 70
     0
 43
0.0
 10
5.556355555555555
 20
3.010119444444444
 10
5.427327777777777
 20
2.881008333333333
 10
5.450369444444444
 20
2.85805
  0
LWPOLYLINE
  5
410
330
2
100
AcDbEntity
  8
PDF_Layer 1
 62
     7
420
 16777215
370
    70
100
AcDbPolyline
 90
        4
 70
     0
 43
0.0
 10
5.600084722222221
 20
2.966251388888889
 10
5.620862499999999
 20
2.945556944444444
 10
5.491834722222221
 20
2.816543055555555
 10
5.514876388888888
 20
2.793501388888889
  0
LWPOLYLINE
  5
412
330
2
100
AcDbEntity
  8
PDF_Layer 1
 62
     7
420
 16777215
370
    70
100
AcDbPolyline
 90
        2
 70
     0
 43
0.0
 10
5.685377777777778
 20
3.139065277777777
 10
5.685377777777778
 20
3.959370833333333
  0
LWPOLYLINE
  5
413
330
2
100
AcDbEntity
  8
PDF_Layer 1
 62
     7
420
 16777215
370
    70
100
AcDbPolyline
 90
        2
 70
     0
 43
0.0
 10
5.424987499999999
 20
2.408759722222221
 10
5.448029166666666
 20
2.385718055555555
  0
LWPOLYLINE
  5
415
330
2
100
AcDbEntity
  8
PDF_Layer 1
 62
     7
420
 16777215
370
    70
100
AcDbPolyline
 90
        2
 70
     0
 43
0.0
 10
5.471095833333332
 20
2.408759722222221
 10
5.448054166666665
 20
2.385718055555555
  0
LWPOLYLINE
  5
416
330
2
100
AcDbEntity
  8
PDF_Layer 1
 62
     7
420
 16777215
370
    70
100
AcDbPolyline
 90
        2
 70
     0
 43
0.0
 10
5.701497222222222
 20
2.383395833333332
 10
5.747566666666666
 20
2.383395833333332
  0
LWPOLYLINE
  5
418
330
2
100
AcDbEntity
  8
PDF_Layer 1
 62
     7
420
 16777215
370
    70
100
AcDbPolyline
 90
        2
 70
     0
 43
0.0
 10
5.701497222222222
 20
2.203722222222222
 10
5.701497222222222
 20
1.998611111111111
  0
LWPOLYLINE
  5
419
330
2
100
AcDbEntity
  8
PDF_Layer 1
 62
     7
420
 16777215
370
    70
100
AcDbPolyline
 90
        2
 70
     0
 43
0.0
 10
5.74989861111111
 20
1.915716666666666
 10
5.74989861111111
 20
1.876508333333333
  0
LWPOLYLINE
  5
41A
330
2
100
AcDbEntity
  8
PDF_Layer 1
 62
     7
420
 16777215
370
    70
100
AcDbPolyline
 90
        2
 70
     0
 43
0.0
 10
5.685377777777778
 20
1.811970833333333
 10
5.678419444444444
 20
1.811970833333333
  0
LWPOLYLINE
  5
41B
330
2
100
AcDbEntity
  8
PDF_Layer 1
 62
     7
420
 16777215
370
    70
100
AcDbPolyline
 90
        5
 70
     0
 43
0.0
 10
5.32822361111111
 20
2.245134722222221
 10
5.325959722222221
 20
2.245134722222221
 10
5.307529166666665
 20
2.265912499999999
 10
5.302918055555554
 20
2.286606944444443
 10
5.302918055555554
 20
2.36502361111111
  0
LWPOLYLINE
  5
41C
330
2
100
AcDbEntity
  8
PDF_Layer 1
 62
     7
420
 16777215
370
    70
100
AcDbPolyline
 90
        5
 70
     0
 43
0.0
 10
5.325965277777775
 20
2.245097222222222
 10
5.328229166666664
 20
2.245097222222222
 10
5.34665972222222
 20
2.224402777777777
 10
5.351270833333331
 20
2.203722222222222
 10
5.351270833333331
 20
1.998611111111111
  0
LWPOLYLINE
  5
41D
330
2
100
AcDbEntity
  8
PDF_Layer 1
 62
     7
420
 16777215
370
    70
100
AcDbPolyline
 90
        2
 70
     0
 43
0.0
 10
5.302918055555554
 20
1.915716666666666
 10
5.302918055555554
 20
1.876508333333333
  0
LWPOLYLINE
  5
41E
330
2
100
AcDbEntity
  8
PDF_Layer 1
 62
     7
420
 16777215
370
    70
100
AcDbPolyline
 90
        3
 70
     0
 43
0.0
 10
5.365105555555555
 20
1.811970833333333
 10
5.374327777777777
 20
1.811970833333333
 10
5.381188888888888
 20
1.811970833333333
  0
LWPOLYLINE
  5
41F
330
2
100
AcDbEntity
  8
PDF_Layer 1
 62
     7
420
 16777215
370
    70
100
AcDbPolyline
 90
        2
 70
     0
 43
0.0
 10
5.678459722222222
 20
2.383395833333332
 10
5.701501388888889
 20
2.383395833333332
  0
LWPOLYLINE
  5
420
330
2
100
AcDbEntity
  8
PDF_Layer 1
 62
     7
420
 16777215
370
    70
100
AcDbPolyline
 90
        5
 70
     0
 43
0.0
 10
5.404283333333332
 20
2.431729166666666
 10
5.424977777777777
 20
2.408770833333332
 10
5.399672222222221
 20
2.383395833333332
 10
5.374366666666666
 20
2.383395833333332
 10
5.302908333333332
 20
2.383395833333332
  0
LWPOLYLINE
  5
421
330
2
100
AcDbEntity
  8
PDF_Layer 1
 62
     7
420
 16777215
370
    70
100
AcDbPolyline
 90
        4
 70
     0
 43
0.0
 10
5.590922222222221
 20
2.238240277777777
 10
5.590922222222221
 20
1.95019861111111
 42
-1.113519355569077
 10
5.461893055555554
 20
1.950236111111111
 10
5.461893055555554
 20
2.238277777777777
  0
LWPOLYLINE
  5
423
330
2
100
AcDbEntity
  8
PDF_Layer 1
 62
     7
420
 16777215
370
    70
100
AcDbPolyline
 90
        2
 70
     0
 43
0.0
 10
5.445780555555554
 20
2.252074999999999
 10
5.445780555555554
 20
1.920297222222221
  0
LWPOLYLINE
  5
424
330
2
100
AcDbEntity
  8
PDF_Layer 1
 62
     7
420
 16777215
370
    70
100
AcDbPolyline
 90
        2
 70
     0
 43
0.0
 10
5.365105555555555
 20
1.920301388888888
 10
5.365105555555555
 20
2.252079166666666
  0
LWPOLYLINE
  5
425
330
2
100
AcDbEntity
  8
PDF_Layer 1
 62
     7
420
 16777215
370
    70
100
AcDbPolyline
 90
        2
 70
     0
 43
0.0
 10
5.607041666666666
 20
2.252074999999999
 10
5.607041666666666
 20
1.920297222222221
  0
LWPOLYLINE
  5
426
330
2
100
AcDbEntity
  8
PDF_Layer 1
 62
     7
420
 16777215
370
    70
100
AcDbPolyline
 90
        2
 70
     0
 43
0.0
 10
5.685377777777778
 20
1.920301388888888
 10
5.685377777777778
 20
2.252079166666666
  0
LWPOLYLINE
  5
427
330
2
100
AcDbEntity
  8
PDF_Layer 1
 62
     7
420
 16777215
370
    70
100
AcDbPolyline
 90
        3
 70
     0
 43
0.0
 10
5.678474999999999
 20
1.811970833333333
 10
5.381224999999999
 20
1.811970833333333
 10
5.381224999999999
 20
1.807373611111111
  0
LWPOLYLINE
  5
429
330
2
100
AcDbEntity
  8
PDF_Layer 1
 62
     7
420
 16777215
370
    70
100
AcDbPolyline
 90
        2
 70
     0
 43
0.0
 10
5.381224999999999
 20
1.807399999999999
 10
5.381224999999999
 20
1.807399999999999
  0
LWPOLYLINE
  5
42A
330
2
100
AcDbEntity
  8
PDF_Layer 1
 62
     7
420
 16777215
370
    70
100
AcDbPolyline
 90
        4
 70
     0
 43
0.0
 10
5.600086111111111
 20
1.807399999999999
 10
5.685377777777778
 20
1.807399999999999
 10
5.685377777777778
 20
1.811997222222221
 10
5.687641666666666
 20
1.811997222222221
  0
LWPOLYLINE
  5
42C
330
2
100
AcDbEntity
  8
PDF_Layer 1
 62
     7
420
 16777215
370
    70
100
AcDbPolyline
 90
        4
 70
     0
 43
0.0
 10
5.381224999999999
 20
2.38339861111111
 10
5.381224999999999
 20
2.411037499999999
 10
5.404266666666666
 20
2.431731944444444
 10
5.381224999999999
 20
2.452509722222221
  0
LWPOLYLINE
  5
42F
330
2
100
AcDbEntity
  8
PDF_Layer 1
 62
     7
420
 16777215
370
    70
100
AcDbPolyline
 90
        3
 70
     0
 43
0.0
 10
5.399672222222221
 20
2.383395833333332
 10
5.445755555555555
 20
2.383395833333332
 10
5.448102777777777
 20
2.385659722222221
  0
LWPOLYLINE
  5
430
330
2
100
AcDbEntity
  8
PDF_Layer 1
 62
     7
420
 16777215
370
    70
100
AcDbPolyline
 90
        3
 70
     0
 43
0.0
 10
5.445780555555554
 20
2.383395833333332
 10
5.491849999999998
 20
2.383395833333332
 10
5.579405555555554
 20
2.473215277777776
  0
LWPOLYLINE
  5
431
330
2
100
AcDbEntity
  8
PDF_Layer 1
 62
     7
420
 16777215
370
    70
100
AcDbPolyline
 90
        4
 70
     0
 43
0.0
 10
5.620902777777777
 20
2.429465277777777
 10
5.602458333333332
 20
2.447909722222221
 10
5.53561111111111
 20
2.383395833333332
 10
5.491874999999999
 20
2.383395833333332
  0
LWPOLYLINE
  5
433
330
2
100
AcDbEntity
  8
PDF_Layer 1
 62
     7
420
 16777215
370
    70
100
AcDbPolyline
 90
        3
 70
     0
 43
0.0
 10
5.581672222222222
 20
2.383395833333332
 10
5.625408333333333
 20
2.427118055555554
 10
5.643922222222221
 20
2.408770833333332
  0
LWPOLYLINE
  5
434
330
2
100
AcDbEntity
  8
PDF_Layer 1
 62
     7
420
 16777215
370
    70
100
AcDbPolyline
 90
        3
 70
     0
 43
0.0
 10
5.62777361111111
 20
2.383395833333332
 10
5.648551388888888
 20
2.40417361111111
 10
5.664634722222221
 20
2.385659722222221
  0
LWPOLYLINE
  5
435
330
2
100
AcDbEntity
  8
PDF_Layer 1
 62
     7
420
 16777215
370
    70
100
AcDbPolyline
 90
        2
 70
     0
 43
0.0
 10
5.66922361111111
 20
2.383395833333332
 10
5.627751388888888
 20
2.383395833333332
  0
LWPOLYLINE
  5
436
330
2
100
AcDbEntity
  8
PDF_Layer 1
 62
     7
420
 16777215
370
    70
100
AcDbPolyline
 90
        3
 70
     0
 43
0.0
 10
5.664638888888888
 20
2.385674999999999
 10
5.669249999999999
 20
2.383424999999999
 10
5.678458333333333
 20
2.383424999999999
  0
LWPOLYLINE
  5
437
330
2
100
AcDbEntity
  8
PDF_Layer 1
 62
     7
420
 16777215
370
    70
100
AcDbPolyline
 90
        2
 70
     0
 43
0.0
 10
5.381224999999999
 20
3.164429166666666
 10
5.381224999999999
 20
3.869443055555555
  0
LWPOLYLINE
  5
438
330
2
100
AcDbEntity
  8
PDF_Layer 1
 62
     7
420
 16777215
370
    70
100
AcDbPolyline
 90
        2
 70
     0
 43
0.0
 10
5.302918055555554
 20
2.383395833333332
 10
5.302918055555554
 20
2.364965277777776
  0
LWPOLYLINE
  5
439
330
2
100
AcDbEntity
  8
PDF_Layer 1
 62
     7
420
 16777215
370
    70
100
AcDbPolyline
 90
        2
 70
     0
 43
0.0
 10
5.072523611111109
 20
5.509901388888888
 10
5.072523611111109
 20
5.671179166666665
  0
LWPOLYLINE
  5
43A
330
2
100
AcDbEntity
  8
PDF_Layer 1
 62
     7
420
 16777215
370
    70
100
AcDbPolyline
 90
        2
 70
     0
 43
0.0
 10
4.989562499999999
 20
3.989312499999999
 10
4.989562499999999
 20
3.539993055555554
  0
LWPOLYLINE
  5
43B
330
2
100
AcDbEntity
  8
PDF_Layer 1
 62
     7
420
 16777215
370
    70
100
AcDbPolyline
 90
        2
 70
     0
 43
0.0
 10
5.11858472222222
 20
3.539970833333333
 10
5.11858472222222
 20
3.989304166666666
  0
LWPOLYLINE
  5
43C
330
2
100
AcDbEntity
  8
PDF_Layer 1
 62
     7
420
 16777215
370
    70
100
AcDbPolyline
 90
        3
 70
     0
 43
0.0
 10
5.05407361111111
 20
4.005424999999999
 10
5.017212499999999
 20
4.005424999999999
 10
4.989559722222221
 20
3.989341666666666
  0
LWPOLYLINE
  5
43E
330
2
100
AcDbEntity
  8
PDF_Layer 1
 62
     7
420
 16777215
370
    70
100
AcDbPolyline
 90
        3
 70
     0
 43
0.0
 10
4.989562499999999
 20
3.539970833333333
 10
5.017201388888888
 20
3.523887499999999
 10
5.054076388888887
 20
3.523887499999999
  0
LWPOLYLINE
  5
43F
330
2
100
AcDbEntity
  8
PDF_Layer 1
 62
     7
420
 16777215
370
    70
100
AcDbPolyline
 90
        4
 70
     0
 43
0.0
 10
4.989556944444443
 20
3.989341666666666
 10
5.019473611111109
 20
4.000730555555555
 10
5.054070833333332
 20
4.005424999999999
 10
5.247612499999998
 20
4.005424999999999
  0
LWPOLYLINE
  5
440
330
2
100
AcDbEntity
  8
PDF_Layer 1
 62
     7
420
 16777215
370
    70
100
AcDbPolyline
 90
        2
 70
     0
 43
0.0
 10
5.072523611111109
 20
3.523858333333333
 10
5.054093055555553
 20
3.523858333333333
  0
LWPOLYLINE
  5
441
330
2
100
AcDbEntity
  8
PDF_Layer 1
 62
     7
420
 16777215
370
    70
100
AcDbPolyline
 90
        2
 70
     0
 43
0.0
 10
5.376641666666666
 20
3.539970833333333
 10
5.376641666666666
 20
3.989304166666666
  0
LWPOLYLINE
  5
442
330
2
100
AcDbEntity
  8
PDF_Layer 1
 62
     7
420
 16777215
370
    70
100
AcDbPolyline
 90
        4
 70
     0
 43
0.0
 10
5.247638888888888
 20
4.005424999999999
 10
5.441097222222221
 20
4.005424999999999
 10
5.480305555555554
 20
4.005424999999999
 10
5.507958333333332
 20
3.989341666666666
  0
LWPOLYLINE
  5
444
330
2
100
AcDbEntity
  8
PDF_Layer 1
 62
     7
420
 16777215
370
    70
100
AcDbPolyline
 90
        2
 70
     0
 43
0.0
 10
5.247605555555555
 20
3.523858333333333
 10
5.381244444444444
 20
3.523858333333333
  0
LWPOLYLINE
  5
445
330
2
100
AcDbEntity
  8
PDF_Layer 1
 62
     7
420
 16777215
370
    70
100
AcDbPolyline
 90
        2
 70
     0
 43
0.0
 10
5.072523611111109
 20
4.744994444444444
 10
5.072523611111109
 20
4.75655
  0
LWPOLYLINE
  5
446
330
2
100
AcDbEntity
  8
PDF_Layer 1
 62
     7
420
 16777215
370
    70
100
AcDbPolyline
 90
        2
 70
     0
 43
0.0
 10
5.088643055555555
 20
4.75652361111111
 10
5.088643055555555
 20
4.744968055555554
  0
LWPOLYLINE
  5
447
330
2
100
AcDbEntity
  8
PDF_Layer 1
 62
     7
420
 16777215
370
    70
100
AcDbPolyline
 90
        3
 70
     0
 43
0.0
 10
5.014951388888888
 20
3.385659722222222
 10
4.989562499999999
 20
3.371840277777777
 10
4.989562499999999
 20
3.164381944444444
  0
LWPOLYLINE
  5
448
330
2
100
AcDbEntity
  8
PDF_Layer 1
 62
     7
420
 16777215
370
    70
100
AcDbPolyline
 90
        2
 70
     0
 43
0.0
 10
5.11858472222222
 20
3.164429166666666
 10
5.11858472222222
 20
3.371873611111111
  0
LWPOLYLINE
  5
449
330
2
100
AcDbEntity
  8
PDF_Layer 1
 62
     7
420
 16777215
370
    70
100
AcDbPolyline
 90
        2
 70
     0
 43
0.0
 10
4.975727777777778
 20
3.164429166666666
 10
4.975727777777778
 20
2.782040277777777
  0
LWPOLYLINE
  5
44B
330
2
100
AcDbEntity
  8
PDF_Layer 1
 62
     7
420
 16777215
370
    70
100
AcDbPolyline
 90
        2
 70
     0
 43
0.0
 10
5.031040277777777
 20
3.390245833333333
 10
5.0725125
 20
3.390245833333333
  0
LWPOLYLINE
  5
44C
330
2
100
AcDbEntity
  8
PDF_Layer 1
 62
     7
420
 16777215
370
    70
100
AcDbPolyline
 90
        3
 70
     0
 43
0.0
 10
5.03101111111111
 20
3.390245833333333
 10
5.021788888888888
 20
3.390245833333333
 10
5.014913888888888
 20
3.385634722222222
  0
LWPOLYLINE
  5
44E
330
2
100
AcDbEntity
  8
PDF_Layer 1
 62
     7
420
 16777215
370
    70
100
AcDbPolyline
 90
        2
 70
     0
 43
0.0
 10
4.975727777777778
 20
2.782009722222221
 10
5.381227777777778
 20
2.782009722222221
  0
LWPOLYLINE
  5
44F
330
2
100
AcDbEntity
  8
PDF_Layer 1
 62
     7
420
 16777215
370
    70
100
AcDbPolyline
 90
        2
 70
     0
 43
0.0
 10
5.376641666666666
 20
3.164429166666666
 10
5.376641666666666
 20
3.371873611111111
  0
LWPOLYLINE
  5
450
330
2
100
AcDbEntity
  8
PDF_Layer 1
 62
     7
420
 16777215
370
    70
100
AcDbPolyline
 90
        2
 70
     0
 43
0.0
 10
5.381224999999999
 20
3.390245833333333
 10
5.24758611111111
 20
3.390245833333333
  0
LWPOLYLINE
  5
451
330
2
100
AcDbEntity
  8
PDF_Layer 1
 62
     7
420
 16777215
370
    70
100
AcDbPolyline
 90
        3
 70
     0
 43
0.0
 10
5.072523611111109
 20
3.390245833333333
 10
5.072523611111109
 20
3.523870833333333
 10
5.088606944444443
 20
3.523870833333333
  0
LWPOLYLINE
  5
452
330
2
100
AcDbEntity
  8
PDF_Layer 1
 62
     7
420
 16777215
370
    70
100
AcDbPolyline
 90
        4
 70
     0
 43
0.0
 10
5.24757361111111
 20
3.523870833333333
 10
5.088643055555555
 20
3.523870833333333
 10
5.088643055555555
 20
3.390245833333333
 10
5.072559722222221
 20
3.390245833333333
  0
LWPOLYLINE
  5
454
330
2
100
AcDbEntity
  8
PDF_Layer 1
 62
     7
420
 16777215
370
    70
100
AcDbPolyline
 90
        4
 70
     0
 43
0.0
 10
5.123188888888888
 20
3.371815277777777
 10
5.185438888888889
 20
3.385634722222222
 10
5.247605555555555
 20
3.390245833333333
 10
5.088675
 20
3.390245833333333
  0
LWPOLYLINE
  5
455
330
2
100
AcDbEntity
  8
PDF_Layer 1
 62
     7
420
 16777215
370
    70
100
AcDbPolyline
 90
        2
 70
     0
 43
0.0
 10
5.072523611111109
 20
4.664320833333332
 10
5.072523611111109
 20
4.745001388888887
  0
LWPOLYLINE
  5
456
330
2
100
AcDbEntity
  8
PDF_Layer 1
 62
     7
420
 16777215
370
    70
100
AcDbPolyline
 90
        2
 70
     0
 43
0.0
 10
5.088643055555555
 20
4.744994444444444
 10
5.088643055555555
 20
4.6643
  0
LWPOLYLINE
  5
457
330
2
100
AcDbEntity
  8
PDF_Layer 1
 62
     7
420
 16777215
370
    70
100
AcDbPolyline
 90
        2
 70
     0
 43
0.0
 10
5.687669444444444
 20
5.509901388888888
 10
5.687669444444444
 20
5.671179166666665
  0
LWPOLYLINE
  5
458
330
2
100
AcDbEntity
  8
PDF_Layer 1
 62
     7
420
 16777215
370
    70
100
AcDbPolyline
 90
        2
 70
     0
 43
0.0
 10
5.383551388888888
 20
5.671169444444444
 10
5.383551388888888
 20
5.509891666666667
  0
LWPOLYLINE
  5
459
330
2
100
AcDbEntity
  8
PDF_Layer 1
 62
     7
420
 16777215
370
    70
100
AcDbPolyline
 90
        3
 70
     0
 43
0.0
 10
6.077040277777776
 20
0.7659694444444445
 10
6.077040277777776
 20
0.8236083333333333
 10
6.104693055555554
 20
0.8236083333333333
  0
LWPOLYLINE
  5
45B
330
2
100
AcDbEntity
  8
PDF_Layer 1
 62
     7
420
 16777215
370
    70
100
AcDbPolyline
 90
        4
 70
     0
 43
0.0
 10
6.104727777777777
 20
1.196856944444443
 10
6.118547222222222
 20
1.183037499999999
 10
6.019436111111111
 20
1.183037499999999
 10
6.019436111111111
 20
1.196856944444443
  0
LWPOLYLINE
  5
45D
330
2
100
AcDbEntity
  8
PDF_Layer 1
 62
     7
420
 16777215
370
    70
100
AcDbPolyline
 90
        2
 70
     0
 43
0.0
 10
6.077040277777776
 20
1.196872222222222
 10
6.019401388888888
 20
1.196872222222222
  0
LWPOLYLINE
  5
45E
330
2
100
AcDbEntity
  8
PDF_Layer 1
 62
     7
420
 16777215
370
    70
100
AcDbPolyline
 90
        2
 70
     0
 43
0.0
 10
6.019436111111111
 20
1.183037499999999
 10
6.019436111111111
 20
1.109301388888888
  0
LWPOLYLINE
  5
45F
330
2
100
AcDbEntity
  8
PDF_Layer 1
 62
     7
420
 16777215
370
    70
100
AcDbPolyline
 90
        3
 70
     0
 43
0.0
 10
6.104704166666665
 20
1.054009722222222
 10
6.118523611111109
 20
1.054009722222222
 10
6.118523611111109
 20
0.8374263888888886
  0
LWPOLYLINE
  5
461
330
2
100
AcDbEntity
  8
PDF_Layer 1
 62
     7
420
 16777215
370
    70
100
AcDbPolyline
 90
        3
 70
     0
 43
0.0
 10
6.104695833333331
 20
1.0540125
 10
6.104695833333331
 20
0.8374430555555555
 10
6.104695833333331
 20
0.8236097222222223
  0
LWPOLYLINE
  5
463
330
2
100
AcDbEntity
  8
PDF_Layer 1
 62
     7
420
 16777215
370
    70
100
AcDbPolyline
 90
        2
 70
     0
 43
0.0
 10
6.118523611111109
 20
0.8374430555555555
 10
6.104704166666665
 20
0.8236097222222223
  0
LWPOLYLINE
  5
464
330
2
100
AcDbEntity
  8
PDF_Layer 1
 62
     7
420
 16777215
370
    70
100
AcDbPolyline
 90
        3
 70
     0
 43
0.0
 10
6.118515277777776
 20
0.8374430555555555
 10
6.104695833333331
 20
0.8374430555555555
 10
5.904195833333331
 20
0.8374430555555555
  0
LWPOLYLINE
  5
466
330
2
100
AcDbEntity
  8
PDF_Layer 1
 62
     7
420
 16777215
370
    70
100
AcDbPolyline
 90
        2
 70
     0
 43
0.0
 10
6.118523611111109
 20
1.054009722222222
 10
6.118523611111109
 20
1.183037499999999
  0
LWPOLYLINE
  5
467
330
2
100
AcDbEntity
  8
PDF_Layer 1
 62
     7
420
 16777215
370
    70
100
AcDbPolyline
 90
        2
 70
     0
 43
0.0
 10
6.104695833333331
 20
1.196872222222222
 10
6.077043055555553
 20
1.196872222222222
  0
LWPOLYLINE
  5
468
330
2
100
AcDbEntity
  8
PDF_Layer 1
 62
     7
420
 16777215
370
    70
100
AcDbPolyline
 90
        3
 70
     0
 43
0.0
 10
6.127726388888888
 20
4.664324999999998
 10
6.127726388888888
 20
4.712755555555554
 10
6.127726388888888
 20
4.745005555555555
  0
LWPOLYLINE
  5
469
330
2
100
AcDbEntity
  8
PDF_Layer 1
 62
     7
420
 16777215
370
    70
100
AcDbPolyline
 90
        2
 70
     0
 43
0.0
 10
6.127726388888888
 20
5.574462499999999
 10
6.127726388888888
 20
5.671143055555554
  0
LWPOLYLINE
  5
46A
330
2
100
AcDbEntity
  8
PDF_Layer 1
 62
     7
420
 16777215
370
    70
100
AcDbPolyline
 90
        2
 70
     0
 43
0.0
 10
6.127726388888888
 20
4.933905555555555
 10
6.127726388888888
 20
4.837127777777777
  0
LWPOLYLINE
  5
46B
330
2
100
AcDbEntity
  8
PDF_Layer 1
 62
     7
420
 16777215
370
    70
100
AcDbPolyline
 90
        2
 70
     0
 43
0.0
 10
6.127726388888888
 20
5.509901388888888
 10
6.127726388888888
 20
5.574484722222221
  0
LWPOLYLINE
  5
46D
330
2
100
AcDbEntity
  8
PDF_Layer 1
 62
     7
420
 16777215
370
    70
100
AcDbPolyline
 90
        2
 70
     0
 43
0.0
 10
5.685377777777778
 20
1.496324999999999
 10
5.381252777777778
 20
1.496324999999999
  0
LWPOLYLINE
  5
46E
330
2
100
AcDbEntity
  8
PDF_Layer 1
 62
     7
420
 16777215
370
    70
100
AcDbPolyline
 90
        2
 70
     0
 43
0.0
 10
5.282179166666666
 20
1.496324999999999
 10
5.277568055555555
 20
1.496324999999999
  0
LWPOLYLINE
  5
470
330
2
100
AcDbEntity
  8
PDF_Layer 1
 62
     7
420
 16777215
370
    70
100
AcDbPolyline
 90
        4
 70
     0
 43
0.0
 10
5.687676388888888
 20
4.664320833333332
 10
5.383551388888888
 20
4.664320833333332
 10
5.383551388888888
 20
4.756556944444443
 10
5.088634722222222
 20
4.756556944444443
  0
LWPOLYLINE
  5
471
330
2
100
AcDbEntity
  8
PDF_Layer 1
 62
     7
420
 16777215
370
    70
100
AcDbPolyline
 90
        2
 70
     0
 43
0.0
 10
4.943494444444443
 20
4.664320833333332
 10
5.383522222222221
 20
4.664320833333332
  0
LWPOLYLINE
  5
472
330
2
100
AcDbEntity
  8
PDF_Layer 1
 62
     7
420
 16777215
370
    70
100
AcDbPolyline
 90
        4
 70
     0
 43
0.0
 10
5.712975
 20
4.664320833333332
 10
5.687669444444444
 20
4.664320833333332
 10
5.687669444444444
 20
4.756556944444443
 10
5.383544444444444
 20
4.756556944444443
  0
LWPOLYLINE
  5
474
330
2
100
AcDbEntity
  8
PDF_Layer 1
 62
     7
420
 16777215
370
    70
100
AcDbPolyline
 90
        3
 70
     0
 43
0.0
 10
5.489502777777777
 20
5.671123611111111
 10
5.445780555555554
 20
5.627401388888888
 10
5.427349999999998
 20
5.645818055555555
  0
LWPOLYLINE
  5
476
330
2
100
AcDbEntity
  8
PDF_Layer 1
 62
     7
420
 16777215
370
    70
100
AcDbPolyline
 90
        4
 70
     0
 43
0.0
 10
5.445801388888888
 20
5.627358333333332
 10
5.448065277777777
 20
5.625094444444443
 10
5.468759722222221
 20
5.604413888888887
 10
5.533356944444443
 20
5.671177777777777
  0
LWPOLYLINE
  5
477
330
2
100
AcDbEntity
  8
PDF_Layer 1
 62
     7
420
 16777215
370
    70
100
AcDbPolyline
 90
        2
 70
     0
 43
0.0
 10
5.57938611111111
 20
5.671169444444444
 10
5.491830555555555
 20
5.58135
  0
LWPOLYLINE
  5
478
330
2
100
AcDbEntity
  8
PDF_Layer 1
 62
     7
420
 16777215
370
    70
100
AcDbPolyline
 90
        4
 70
     0
 43
0.0
 10
5.6692
 20
5.671180555555555
 10
5.643894444444444
 20
5.645805555555554
 10
5.666936111111111
 20
5.622847222222221
 10
5.687630555555555
 20
5.602138888888887
  0
LWPOLYLINE
  5
479
330
2
100
AcDbEntity
  8
PDF_Layer 1
 62
     7
420
 16777215
370
    70
100
AcDbPolyline
 90
        2
 70
     0
 43
0.0
 10
5.666924999999999
 20
5.622816666666667
 10
5.687702777777777
 20
5.643497222222222
  0
LWPOLYLINE
  5
47A
330
2
100
AcDbEntity
  8
PDF_Layer 1
 62
     7
420
 16777215
370
    70
100
AcDbPolyline
 90
        2
 70
     0
 43
0.0
 10
5.597791666666666
 20
4.837118055555555
 10
5.600125
 20
4.834854166666666
  0
LWPOLYLINE
  5
47B
330
2
100
AcDbEntity
  8
PDF_Layer 1
 62
     7
420
 16777215
370
    70
100
AcDbPolyline
 90
        3
 70
     0
 43
0.0
 10
5.563266666666666
 20
5.509901388888888
 10
5.556308333333332
 20
5.516845833333333
 10
5.549433333333332
 20
5.509901388888888
  0
LWPOLYLINE
  5
47C
330
2
100
AcDbEntity
  8
PDF_Layer 1
 62
     7
420
 16777215
370
    70
100
AcDbPolyline
 90
        3
 70
     0
 43
0.0
 10
5.55634861111111
 20
5.516859722222221
 10
5.535570833333332
 20
5.537554166666666
 10
5.507931944444444
 20
5.509901388888888
  0
LWPOLYLINE
  5
47D
330
2
100
AcDbEntity
  8
PDF_Layer 1
 62
     7
420
 16777215
370
    70
100
AcDbPolyline
 90
        2
 70
     0
 43
0.0
 10
5.390462499999999
 20
5.509901388888888
 10
5.383518055555554
 20
5.516845833333333
  0
LWPOLYLINE
  5
47E
330
2
100
AcDbEntity
  8
PDF_Layer 1
 62
     7
420
 16777215
370
    70
100
AcDbPolyline
 90
        2
 70
     0
 43
0.0
 10
5.383551388888888
 20
5.560627777777777
 10
5.434231944444444
 20
5.509947222222222
  0
LWPOLYLINE
  5
47F
330
2
100
AcDbEntity
  8
PDF_Layer 1
 62
     7
420
 16777215
370
    70
100
AcDbPolyline
 90
        2
 70
     0
 43
0.0
 10
5.471095833333332
 20
5.516859722222221
 10
5.383540277777776
 20
5.602151388888888
  0
LWPOLYLINE
  5
480
330
2
100
AcDbEntity
  8
PDF_Layer 1
 62
     7
420
 16777215
370
    70
100
AcDbPolyline
 90
        2
 70
     0
 43
0.0
 10
5.383551388888888
 20
5.645805555555554
 10
5.491801388888888
 20
5.537555555555554
  0
LWPOLYLINE
  5
481
330
2
100
AcDbEntity
  8
PDF_Layer 1
 62
     7
420
 16777215
370
    70
100
AcDbPolyline
 90
        2
 70
     0
 43
0.0
 10
5.53561111111111
 20
5.581326388888888
 10
5.60473611111111
 20
5.509854166666666
  0
LWPOLYLINE
  5
482
330
2
100
AcDbEntity
  8
PDF_Layer 1
 62
     7
420
 16777215
370
    70
100
AcDbPolyline
 90
        4
 70
     0
 43
0.0
 10
5.687640277777777
 20
5.514549999999999
 10
5.577126388888888
 20
5.622799999999999
 10
5.55634861111111
 20
5.602105555555555
 10
5.464195833333333
 20
5.509855555555555
  0
LWPOLYLINE
  5
484
330
2
100
AcDbEntity
  8
PDF_Layer 1
 62
     7
420
 16777215
370
    70
100
AcDbPolyline
 90
        3
 70
     0
 43
0.0
 10
5.577094444444444
 20
5.622816666666667
 10
5.600136111111111
 20
5.645761111111111
 10
5.687677777777778
 20
5.555955555555556
  0
LWPOLYLINE
  5
485
330
2
100
AcDbEntity
  8
PDF_Layer 1
 62
     7
420
 16777215
370
    70
100
AcDbPolyline
 90
        4
 70
     0
 43
0.0
 10
5.53561111111111
 20
5.537556944444443
 10
5.491874999999999
 20
5.581279166666666
 10
5.471097222222222
 20
5.602140277777777
 10
5.468833333333333
 20
5.604404166666665
  0
LWPOLYLINE
  5
487
330
2
100
AcDbEntity
  8
PDF_Layer 1
 62
     7
420
 16777215
370
    70
100
AcDbPolyline
 90
        2
 70
     0
 43
0.0
 10
5.687669444444444
 20
4.839409722222221
 10
5.685322222222222
 20
4.837145833333332
  0
LWPOLYLINE
  5
488
330
2
100
AcDbEntity
  8
PDF_Layer 1
 62
     7
420
 16777215
370
    70
100
AcDbPolyline
 90
        2
 70
     0
 43
0.0
 10
5.427327777777777
 20
5.645805555555554
 10
5.422716666666666
 20
5.650499999999999
  0
LWPOLYLINE
  5
489
330
2
100
AcDbEntity
  8
PDF_Layer 1
 62
     7
420
 16777215
370
    70
100
AcDbPolyline
 90
        3
 70
     0
 43
0.0
 10
5.600124999999999
 20
5.645805555555554
 10
5.620902777777777
 20
5.666583333333332
 10
5.64386111111111
 20
5.645805555555554
  0
LWPOLYLINE
  5
48A
330
2
100
AcDbEntity
  8
PDF_Layer 1
 62
     7
420
 16777215
370
    70
100
AcDbPolyline
 90
        2
 70
     0
 43
0.0
 10
5.620862499999999
 20
5.66658472222222
 10
5.62547361111111
 20
5.671195833333332
  0
LWPOLYLINE
  5
48C
330
2
100
AcDbEntity
  8
PDF_Layer 1
 62
     7
420
 16777215
370
    70
100
AcDbPolyline
 90
        3
 70
     0
 43
0.0
 10
5.443440277777776
 20
5.671169444444444
 10
5.422662499999998
 20
5.650475
 10
5.401968055555554
 20
5.671169444444444
  0
LWPOLYLINE
  5
48E
330
2
100
AcDbEntity
  8
PDF_Layer 1
 62
     7
420
 16777215
370
    70
100
AcDbPolyline
 90
        3
 70
     0
 43
0.0
 10
5.487266666666666
 20
5.355509722222221
 10
4.83058611111111
 20
5.355509722222221
 10
4.83058611111111
 20
5.15502361111111
  0
LWPOLYLINE
  5
490
330
2
100
AcDbEntity
  8
PDF_Layer 1
 62
     7
420
 16777215
370
    70
100
AcDbPolyline
 90
        3
 70
     0
 43
0.0
 10
6.37657361111111
 20
5.15502361111111
 10
6.37657361111111
 20
5.355509722222221
 10
7.12307361111111
 20
5.355509722222221
  0
LWPOLYLINE
  5
491
330
2
100
AcDbEntity
  8
PDF_Layer 1
 62
     7
420
 16777215
370
    70
100
AcDbPolyline
 90
        2
 70
     0
 43
0.0
 10
7.12304722222222
 20
5.509901388888888
 10
4.081769444444443
 20
5.509901388888888
  0
LWPOLYLINE
  5
492
330
2
100
AcDbEntity
  8
PDF_Layer 1
 62
     7
420
 16777215
370
    70
100
AcDbPolyline
 90
        2
 70
     0
 43
0.0
 10
4.05642361111111
 20
5.484537499999999
 10
4.05642361111111
 20
5.38089861111111
  0
LWPOLYLINE
  5
493
330
2
100
AcDbEntity
  8
PDF_Layer 1
 62
     7
420
 16777215
370
    70
100
AcDbPolyline
 90
        2
 70
     0
 43
0.0
 10
4.081787499999999
 20
5.355509722222221
 10
4.830634722222221
 20
5.355509722222221
  0
LWPOLYLINE
  5
494
330
2
100
AcDbEntity
  8
PDF_Layer 1
 62
     7
420
 16777215
370
    70
100
AcDbPolyline
 90
        2
 70
     0
 43
0.0
 10
7.148404166666666
 20
5.38087361111111
 10
7.148404166666666
 20
5.484512499999999
  0
LWPOLYLINE
  5
495
330
2
100
AcDbEntity
  8
PDF_Layer 1
 62
     7
420
 16777215
370
    70
100
AcDbPolyline
 90
        4
 70
     0
 43
0.0
 10
5.975634722222221
 20
4.837127777777777
 10
5.383551388888888
 20
4.837127777777777
 10
5.383551388888888
 20
4.933905555555555
 10
4.855981944444444
 20
4.933905555555555
  0
LWPOLYLINE
  5
496
330
2
100
AcDbEntity
  8
PDF_Layer 1
 62
     7
420
 16777215
370
    70
100
AcDbPolyline
 90
        2
 70
     0
 43
0.0
 10
6.37657361111111
 20
4.959269444444444
 10
6.37657361111111
 20
5.155075
  0
LWPOLYLINE
  5
497
330
2
100
AcDbEntity
  8
PDF_Layer 1
 62
     7
420
 16777215
370
    70
100
AcDbPolyline
 90
        2
 70
     0
 43
0.0
 10
5.487256944444443
 20
5.155056944444444
 10
5.487256944444443
 20
5.355556944444444
  0
LWPOLYLINE
  5
498
330
2
100
AcDbEntity
  8
PDF_Layer 1
 62
     7
420
 16777215
370
    70
100
AcDbPolyline
 90
        2
 70
     0
 43
0.0
 10
5.454976388888888
 20
5.355509722222221
 10
5.717629166666665
 20
5.355509722222221
  0
LWPOLYLINE
  5
499
330
2
100
AcDbEntity
  8
PDF_Layer 1
 62
     7
420
 16777215
370
    70
100
AcDbPolyline
 90
        4
 70
     0
 43
0.0
 10
6.376602777777778
 20
5.355556944444444
 10
5.717658333333333
 20
5.355556944444444
 10
5.717658333333333
 20
5.155056944444444
 10
5.487255555555555
 20
5.155056944444444
  0
LWPOLYLINE
  5
49B
330
2
100
AcDbEntity
  8
PDF_Layer 1
 62
     7
420
 16777215
370
    70
100
AcDbPolyline
 90
        3
 70
     0
 43
0.0
 10
4.83058611111111
 20
4.959251388888889
 10
4.83058611111111
 20
5.155056944444444
 10
4.081738888888888
 20
5.355556944444444
  0
LWPOLYLINE
  5
49D
330
2
100
AcDbEntity
  8
PDF_Layer 1
 62
     7
420
 16777215
370
    70
100
AcDbPolyline
 90
        2
 70
     0
 43
0.0
 10
6.37657361111111
 20
5.155056944444444
 10
7.12307361111111
 20
5.355556944444444
  0
LWPOLYLINE
  5
49F
330
2
100
AcDbEntity
  8
PDF_Layer 1
 62
     7
420
 16777215
370
    70
100
AcDbPolyline
 90
        2
 70
     0
 43
0.0
 10
5.383551388888888
 20
4.480062499999999
 10
5.383551388888888
 20
4.118284722222222
  0
LWPOLYLINE
  5
4A0
330
2
100
AcDbEntity
  8
PDF_Layer 1
 62
     7
420
 16777215
370
    70
100
AcDbPolyline
 90
        3
 70
     0
 43
0.0
 10
5.687669444444444
 20
4.219712499999999
 10
5.687669444444444
 20
4.305004166666666
 10
5.687669444444444
 20
4.477754166666666
  0
LWPOLYLINE
  5
4A1
330
2
100
AcDbEntity
  8
PDF_Layer 1
 62
     7
420
 16777215
370
    70
100
AcDbPolyline
 90
        2
 70
     0
 43
0.0
 10
5.648519444444444
 20
5.509901388888888
 10
5.556366666666666
 20
5.602151388888888
  0
LWPOLYLINE
  5
4A2
330
2
100
AcDbEntity
  8
PDF_Layer 1
 62
     7
420
 16777215
370
    70
100
AcDbPolyline
 90
        2
 70
     0
 43
0.0
 10
5.072523611111109
 20
4.933905555555555
 10
5.072523611111109
 20
4.837127777777777
  0
LWPOLYLINE
  5
4A3
330
2
100
AcDbEntity
  8
PDF_Layer 1
 62
     7
420
 16777215
370
    70
100
AcDbPolyline
 90
        2
 70
     0
 43
0.0
 10
5.088643055555555
 20
4.837118055555555
 10
5.088643055555555
 20
4.933881944444443
  0
LWPOLYLINE
  5
4A4
330
2
100
AcDbEntity
  8
PDF_Layer 1
 62
     7
420
 16777215
370
    70
100
AcDbPolyline
 90
        2
 70
     0
 43
0.0
 10
5.088643055555555
 20
5.509901388888888
 10
5.088643055555555
 20
5.671179166666665
  0
LWPOLYLINE
  5
4A5
330
2
100
AcDbEntity
  8
PDF_Layer 1
 62
     7
420
 16777215
370
    70
100
AcDbPolyline
 90
        2
 70
     0
 43
0.0
 10
5.712991666666666
 20
5.671169444444444
 10
5.712991666666666
 20
5.51458611111111
  0
LWPOLYLINE
  5
4A6
330
2
100
AcDbEntity
  8
PDF_Layer 1
 62
     7
420
 16777215
370
    70
100
AcDbPolyline
 90
        3
 70
     0
 43
0.0
 10
5.712991666666666
 20
5.671169444444444
 10
6.153088888888889
 20
5.671169444444444
 10
5.712991666666666
 20
5.671169444444444
  0
LWPOLYLINE
  5
4A7
330
2
100
AcDbEntity
  8
PDF_Layer 1
 62
     7
420
 16777215
370
    70
100
AcDbPolyline
 90
        3
 70
     0
 43
0.0
 10
6.348894444444444
 20
4.933905555555555
 10
5.712991666666666
 20
4.933905555555555
 10
5.712991666666666
 20
4.839391666666666
  0
LWPOLYLINE
  5
4A9
330
2
100
AcDbEntity
  8
PDF_Layer 1
 62
     7
420
 16777215
370
    70
100
AcDbPolyline
 90
        3
 70
     0
 43
0.0
 10
5.712975
 20
4.933905555555555
 10
5.687669444444444
 20
4.933905555555555
 10
5.687669444444444
 20
4.837127777777777
  0
LWPOLYLINE
  5
4AC
330
2
100
AcDbEntity
  8
PDF_Layer 1
 62
     7
420
 16777215
370
    70
100
AcDbPolyline
 90
        2
 70
     0
 43
0.0
 10
5.687669444444444
 20
4.933905555555555
 10
5.383544444444444
 20
4.933905555555555
  0
LWPOLYLINE
  5
4AD
330
2
100
AcDbEntity
  8
PDF_Layer 1
 62
     7
420
 16777215
370
    70
100
AcDbPolyline
 90
        3
 70
     0
 43
0.0
 10
5.68768611111111
 20
4.75652361111111
 10
5.712991666666666
 20
4.75652361111111
 10
5.712991666666666
 20
4.66427361111111
  0
LWPOLYLINE
  5
4B0
330
2
100
AcDbEntity
  8
PDF_Layer 1
 62
     7
420
 16777215
370
    70
100
AcDbPolyline
 90
        3
 70
     0
 43
0.0
 10
6.318976388888887
 20
9.753886111111112
 10
6.316629166666665
 20
9.816052777777779
 10
6.309754166666665
 20
9.850650000000001
  0
LWPOLYLINE
  5
4B1
330
2
100
AcDbEntity
  8
PDF_Layer 1
 62
     7
420
 16777215
370
    70
100
AcDbPolyline
 90
        6
 70
     0
 43
0.0
 10
6.427259722222221
 20
9.998115277777776
 10
6.443343055555555
 20
10.0464625
 10
6.45264861111111
 20
10.09487916666666
 10
6.450301388888888
 20
10.14322638888889
 10
6.438829166666666
 20
10.19165694444444
 10
6.427259722222221
 20
10.22382361111111
  0
LWPOLYLINE
  5
4B2
330
2
100
AcDbEntity
  8
PDF_Layer 1
 62
     7
420
 16777215
370
    70
100
AcDbPolyline
 90
        7
 70
     0
 43
0.0
 10
5.047159722222221
 20
10.10636388888888
 10
4.987256944444443
 20
10.048725
 10
4.943520833333332
 20
9.986558333333332
 10
4.911270833333332
 20
9.924377777777776
 10
4.892743055555554
 20
9.862141666666666
 10
4.881270833333332
 20
9.799974999999998
 10
4.881270833333332
 20
9.753891666666666
  0
LWPOLYLINE
  5
4B3
330
2
100
AcDbEntity
  8
PDF_Layer 1
 62
     7
420
 16777215
370
    70
100
AcDbPolyline
 90
        7
 70
     0
 43
0.0
 10
6.383497222222222
 20
10.74458194444444
 10
6.081622222222222
 20
10.76535972222222
 10
5.779844444444444
 20
10.77448472222222
 10
5.477983333333333
 20
10.77448472222222
 10
5.176205555555555
 20
10.76762361111111
 10
4.874330555555555
 20
10.74919305555555
 10
4.816774999999999
 20
10.74458194444444
  0
LWPOLYLINE
  5
4B4
330
2
100
AcDbEntity
  8
PDF_Layer 1
 62
     7
420
 16777215
370
    70
100
AcDbPolyline
 90
        7
 70
     0
 43
0.0
 10
8.434013888888888
 20
11.69383472222222
 10
8.452444444444443
 20
11.70530694444444
 10
8.461666666666666
 20
11.7237375
 10
8.461666666666666
 20
11.74225138888888
 10
8.454791666666665
 20
11.7606125
 10
8.438624999999998
 20
11.77443194444444
 10
8.434013888888888
 20
11.77677916666666
  0
LWPOLYLINE
  5
4B5
330
2
100
AcDbEntity
  8
PDF_Layer 1
 62
     7
420
 16777215
370
    70
100
AcDbPolyline
 90
        2
 70
     0
 43
0.0
 10
6.399604166666665
 20
10.74458194444444
 10
6.383520833333331
 20
10.74458194444444
  0
LWPOLYLINE
  5
4B6
330
2
100
AcDbEntity
  8
PDF_Layer 1
 62
     7
420
 16777215
370
    70
100
AcDbPolyline
 90
       12
 70
     0
 43
0.0
 10
12.53972777777777
 20
11.36206111111111
 10
12.46599166666666
 20
11.36439444444444
 10
12.39226944444444
 20
11.35745
 10
12.31853333333333
 20
11.34128333333333
 10
12.24481111111111
 20
11.31363055555555
 10
12.17117222222222
 20
11.27676944444444
 10
12.09743611111111
 20
11.22381111111111
 10
12.02597777777777
 20
11.15243611111111
 10
11.97067222222222
 20
11.07871388888889
 10
11.93146388888888
 20
11.00497777777778
 10
11.903825
 20
10.93117222222222
 10
11.89921388888889
 20
10.915075
  0
LWPOLYLINE
  5
4B7
330
2
100
AcDbEntity
  8
PDF_Layer 1
 62
     7
420
 16777215
370
    70
100
AcDbPolyline
 90
        4
 70
     0
 43
0.0
 10
12.94063333333333
 20
11.64314722222222
 10
12.94759166666666
 20
11.65470277777777
 10
12.94524444444444
 20
11.66618888888888
 10
12.93377222222222
 20
11.67305
  0
LWPOLYLINE
  5
4B8
330
2
100
AcDbEntity
  8
PDF_Layer 1
 62
     7
420
 16777215
370
    70
100
AcDbPolyline
 90
        3
 70
     0
 43
0.0
 10
5.904243055555554
 20
1.2106125
 10
5.837465277777777
 20
1.206001388888888
 10
5.78904861111111
 20
1.196876388888888
  0
LWPOLYLINE
  5
4B9
330
2
100
AcDbEntity
  8
PDF_Layer 1
 62
     7
420
 16777215
370
    70
100
AcDbPolyline
 90
        3
 70
     0
 43
0.0
 10
6.019436111111111
 20
1.196872222222222
 10
5.952658333333333
 20
1.208344444444444
 10
5.904241666666666
 20
1.210608333333333
  0
LWPOLYLINE
  5
4BB
330
2
100
AcDbEntity
  8
PDF_Layer 1
 62
     7
420
 16777215
370
    70
100
AcDbPolyline
 90
        6
 70
     0
 43
0.0
 10
5.708408333333332
 20
1.779744444444444
 10
5.63693611111111
 20
1.79816111111111
 10
5.56556111111111
 20
1.805119444444444
 10
5.494088888888888
 20
1.805119444444444
 10
5.422713888888888
 20
1.795813888888888
 10
5.36281111111111
 20
1.779744444444444
  0
LWPOLYLINE
  5
4BC
330
2
100
AcDbEntity
  8
PDF_Layer 1
 62
     7
420
 16777215
370
    70
100
AcDbPolyline
 90
        4
 70
     0
 43
0.0
 10
5.284470833333331
 20
1.496324999999999
 10
5.321331944444443
 20
1.501019444444444
 10
5.358206944444442
 20
1.519352777777777
 10
5.362804166666665
 20
1.521699999999999
  0
LWPOLYLINE
  5
4BD
330
2
100
AcDbEntity
  8
PDF_Layer 1
 62
     7
420
 16777215
370
    70
100
AcDbPolyline
 90
        6
 70
     0
 43
0.0
 10
5.362806944444444
 20
1.779744444444444
 10
5.325945833333332
 20
1.79816111111111
 10
5.289084722222222
 20
1.805119444444444
 10
5.25222361111111
 20
1.805119444444444
 10
5.21534861111111
 20
1.793563888888888
 10
5.189973611111111
 20
1.779744444444444
  0
LWPOLYLINE
  5
4BE
330
2
100
AcDbEntity
  8
PDF_Layer 1
 62
     7
420
 16777215
370
    70
100
AcDbPolyline
 90
        6
 70
     0
 43
0.0
 10
5.878919444444443
 20
1.78202361111111
 10
5.842058333333332
 20
1.800537499999999
 10
5.805183333333332
 20
1.807412499999999
 10
5.768322222222221
 20
1.805065277777777
 10
5.73146111111111
 20
1.795843055555555
 10
5.708419444444444
 20
1.78202361111111
  0
LWPOLYLINE
  5
4BF
330
2
100
AcDbEntity
  8
PDF_Layer 1
 62
     7
420
 16777215
370
    70
100
AcDbPolyline
 90
        4
 70
     0
 43
0.0
 10
5.192308333333333
 20
1.5216875
 10
5.229169444444444
 20
1.503256944444444
 10
5.266030555555555
 20
1.496298611111111
 10
5.28446111111111
 20
1.496298611111111
  0
LWPOLYLINE
  5
4C0
330
2
100
AcDbEntity
  8
PDF_Layer 1
 62
     7
420
 16777215
370
    70
100
AcDbPolyline
 90
        2
 70
     0
 43
0.0
 10
5.378926388888888
 20
3.542263888888888
 10
5.383537499999999
 20
3.539999999999999
  0
LWPOLYLINE
  5
4C1
330
2
100
AcDbEntity
  8
PDF_Layer 1
 62
     7
420
 16777215
370
    70
100
AcDbPolyline
 90
        3
 70
     0
 43
0.0
 10
5.378926388888888
 20
3.369466666666666
 10
5.314412499999999
 20
3.385633333333333
 10
5.24989861111111
 20
3.387980555555555
  0
LWPOLYLINE
  5
4C2
330
2
100
AcDbEntity
  8
PDF_Layer 1
 62
     7
420
 16777215
370
    70
100
AcDbPolyline
 90
        3
 70
     0
 43
0.0
 10
4.994174999999999
 20
4.450113888888887
 10
5.003397222222221
 20
4.440891666666665
 10
5.008008333333332
 20
4.440891666666665
  0
LWPOLYLINE
  5
4C4
330
2
100
AcDbEntity
  8
PDF_Layer 1
 62
     7
420
 16777215
370
    70
100
AcDbPolyline
 90
        5
 70
     0
 43
0.0
 10
4.945787499999998
 20
4.666598611111109
 10
4.92500972222222
 20
4.661987499999998
 10
4.904315277777776
 20
4.643654166666665
 10
4.897440277777776
 20
4.622945833333331
 10
4.897440277777776
 20
4.618265277777776
  0
LWPOLYLINE
  5
4C5
330
2
100
AcDbEntity
  8
PDF_Layer 1
 62
     7
420
 16777215
370
    70
100
AcDbPolyline
 90
        5
 70
     0
 43
0.0
 10
6.282118055555555
 20
4.505344444444444
 10
6.302812499999999
 20
4.510038888888889
 10
6.323590277777777
 20
4.528372222222222
 10
6.330451388888888
 20
4.549066666666667
 10
6.330451388888888
 20
4.553761111111111
  0
LWPOLYLINE
  5
4C6
330
2
100
AcDbEntity
  8
PDF_Layer 1
 62
     7
420
 16777215
370
    70
100
AcDbPolyline
 90
        5
 70
     0
 43
0.0
 10
6.330470833333332
 20
4.618258333333333
 10
6.325859722222221
 20
4.639022222222222
 10
6.307429166666665
 20
4.659716666666666
 10
6.28673472222222
 20
4.666591666666666
 10
6.282123611111109
 20
4.666591666666666
  0
LWPOLYLINE
  5
4C7
330
2
100
AcDbEntity
  8
PDF_Layer 1
 62
     7
420
 16777215
370
    70
100
AcDbPolyline
 90
        9
 70
     0
 43
0.0
 10
5.590922222222221
 20
2.240533333333333
 10
5.581699999999999
 20
2.263575
 10
5.563269444444443
 20
2.284269444444444
 10
5.540227777777777
 20
2.293561111111111
 10
5.517186111111111
 20
2.295825
 10
5.494144444444444
 20
2.286616666666666
 10
5.473449999999999
 20
2.268186111111111
 10
5.464158333333332
 20
2.245144444444444
 10
5.461894444444443
 20
2.240533333333333
  0
LWPOLYLINE
  5
4C9
330
2
100
AcDbEntity
  8
PDF_Layer 1
 62
     7
420
 16777215
370
    70
100
AcDbPolyline
 90
        8
 70
     0
 43
0.0
 10
5.685377777777778
 20
2.252074999999999
 10
5.685377777777778
 20
2.270505555555555
 10
5.673808333333333
 20
2.28893611111111
 10
5.655461111111111
 20
2.298144444444444
 10
5.636947222222222
 20
2.298144444444444
 10
5.6186
 20
2.28893611111111
 10
5.607030555555556
 20
2.270505555555555
 10
5.607030555555556
 20
2.252074999999999
  0
LWPOLYLINE
  5
4CA
330
2
100
AcDbEntity
  8
PDF_Layer 1
 62
     7
420
 16777215
370
    70
100
AcDbPolyline
 90
        7
 70
     0
 43
0.0
 10
5.607041666666666
 20
1.920301388888888
 10
5.611652777777777
 20
1.901787499999999
 10
5.627736111111111
 20
1.888051388888888
 10
5.64625
 20
1.883440277777777
 10
5.664680555555555
 20
1.888051388888888
 10
5.680763888888888
 20
1.901787499999999
 10
5.685374999999999
 20
1.920301388888888
  0
LWPOLYLINE
  5
4CB
330
2
100
AcDbEntity
  8
PDF_Layer 1
 62
     7
420
 16777215
370
    70
100
AcDbPolyline
 90
        8
 70
     0
 43
0.0
 10
5.367390277777777
 20
1.922594444444444
 10
5.369737499999999
 20
1.904163888888889
 10
5.383556944444443
 20
1.888080555555555
 10
5.401987499999999
 20
1.881122222222222
 10
5.420418055555554
 20
1.883386111111111
 10
5.436515277777776
 20
1.894955555555555
 10
5.445806944444443
 20
1.913386111111111
 10
5.445806944444443
 20
1.922594444444444
  0
LWPOLYLINE
  5
4CC
330
2
100
AcDbEntity
  8
PDF_Layer 1
 62
     7
420
 16777215
370
    70
100
AcDbPolyline
 90
        8
 70
     0
 43
0.0
 10
5.445780555555554
 20
2.254368055555555
 10
5.443433333333332
 20
2.272784722222221
 10
5.429599999999998
 20
2.288965277777777
 10
5.411169444444443
 20
2.295826388888888
 10
5.392738888888887
 20
2.293562499999999
 10
5.376655555555554
 20
2.282006944444443
 10
5.367363888888887
 20
2.263576388888888
 10
5.367363888888887
 20
2.254368055555555
  0
LWPOLYLINE
  5
4CE
330
2
100
AcDbEntity
  8
PDF_Layer 1
 62
     7
420
 16777215
370
    70
100
AcDbPolyline
 90
        3
 70
     0
 43
0.0
 10
5.249905555555554
 20
4.003065277777777
 10
5.180780555555554
 20
3.998454166666665
 10
5.120877777777776
 20
3.986981944444443
  0
LWPOLYLINE
  5
4CF
330
2
100
AcDbEntity
  8
PDF_Layer 1
 62
     7
420
 16777215
370
    70
100
AcDbPolyline
 90
        3
 70
     0
 43
0.0
 10
5.054070833333332
 20
3.526136111111111
 10
5.088681944444443
 20
3.530830555555555
 10
5.11858472222222
 20
3.542219444444444
  0
LWPOLYLINE
  5
4D0
330
2
100
AcDbEntity
  8
PDF_Layer 1
 62
     7
420
 16777215
370
    70
100
AcDbPolyline
 90
        3
 70
     0
 43
0.0
 10
5.11858472222222
 20
3.989312499999999
 10
5.084070833333331
 20
4.003048611111109
 10
5.054070833333332
 20
4.005395833333332
  0
LWPOLYLINE
  5
4D1
330
2
100
AcDbEntity
  8
PDF_Layer 1
 62
     7
420
 16777215
370
    70
100
AcDbPolyline
 90
        4
 70
     1
 43
0.0
 10
5.054076388888887
 20
3.526180555555554
 10
5.024159722222221
 20
3.528527777777777
 10
4.989562499999999
 20
3.542263888888888
 10
5.024159722222221
 20
3.528527777777777
  0
LWPOLYLINE
  5
4D2
330
2
100
AcDbEntity
  8
PDF_Layer 1
 62
     7
420
 16777215
370
    70
100
AcDbPolyline
 90
        3
 70
     0
 43
0.0
 10
5.120869444444444
 20
3.542263888888888
 10
5.189994444444444
 20
3.528527777777777
 10
5.249897222222222
 20
3.526180555555554
  0
LWPOLYLINE
  5
4D5
330
2
100
AcDbEntity
  8
PDF_Layer 1
 62
     7
420
 16777215
370
    70
100
AcDbPolyline
 90
        3
 70
     0
 43
0.0
 10
5.378926388888888
 20
3.986938888888889
 10
5.309801388888888
 20
4.000758333333333
 10
5.24989861111111
 20
4.003022222222222
  0
LWPOLYLINE
  5
4D6
330
2
100
AcDbEntity
  8
PDF_Layer 1
 62
     7
420
 16777215
370
    70
100
AcDbPolyline
 90
        3
 70
     0
 43
0.0
 10
5.443440277777776
 20
4.005424999999999
 10
5.408829166666665
 20
4.000730555555555
 10
5.378926388888888
 20
3.989341666666666
  0
LWPOLYLINE
  5
4D7
330
2
100
AcDbEntity
  8
PDF_Layer 1
 62
     7
420
 16777215
370
    70
100
AcDbPolyline
 90
        3
 70
     0
 43
0.0
 10
5.249905555555554
 20
3.526136111111111
 10
5.319030555555554
 20
3.530830555555555
 10
5.378933333333332
 20
3.542219444444444
  0
LWPOLYLINE
  5
4D8
330
2
100
AcDbEntity
  8
PDF_Layer 1
 62
     7
420
 16777215
370
    70
100
AcDbPolyline
 90
        5
 70
     0
 43
0.0
 10
5.11858472222222
 20
3.371840277777777
 10
5.08633472222222
 20
3.385659722222222
 10
5.054070833333332
 20
3.390256944444443
 10
5.021820833333332
 20
3.385659722222222
 10
4.989556944444442
 20
3.371840277777777
  0
LWPOLYLINE
  5
4DA
330
2
100
AcDbEntity
  8
PDF_Layer 1
 62
     7
420
 16777215
370
    70
100
AcDbPolyline
 90
        2
 70
     0
 43
0.0
 10
5.383551388888888
 20
3.374131944444444
 10
5.378940277777777
 20
3.371868055555555
  0
LWPOLYLINE
  5
4DB
330
2
100
AcDbEntity
  8
PDF_Layer 1
 62
     7
420
 16777215
370
    70
100
AcDbPolyline
 90
        6
 70
     0
 43
0.0
 10
5.708408333333332
 20
1.5216875
 10
5.745269444444444
 20
1.503256944444444
 10
5.782130555555554
 20
1.496298611111111
 10
5.818991666666666
 20
1.496298611111111
 10
5.855866666666666
 20
1.507854166666666
 10
5.881241666666666
 20
1.5216875
  0
LWPOLYLINE
  5
4DC
330
2
100
AcDbEntity
  8
PDF_Layer 1
 62
     7
420
 16777215
370
    70
100
AcDbPolyline
 90
        4
 70
     0
 43
0.0
 10
4.084072222222221
 20
5.509901388888888
 10
4.070252777777777
 20
5.505290277777777
 10
4.061030555555555
 20
5.493818055555554
 10
4.058766666666666
 20
5.484512499999999
  0
LWPOLYLINE
  5
4DD
330
2
100
AcDbEntity
  8
PDF_Layer 1
 62
     7
420
 16777215
370
    70
100
AcDbPolyline
 90
        4
 70
     0
 43
0.0
 10
4.058756944444443
 20
5.383165277777777
 10
4.063368055555554
 20
5.369345833333333
 10
4.074840277777776
 20
5.360220833333332
 10
4.084062499999999
 20
5.357790277777777
  0
LWPOLYLINE
  5
4DE
330
2
100
AcDbEntity
  8
PDF_Layer 1
 62
     7
420
 16777215
370
    70
100
AcDbPolyline
 90
        4
 70
     0
 43
0.0
 10
7.148404166666666
 20
5.484537499999999
 10
7.143793055555555
 20
5.498356944444443
 10
7.132320833333332
 20
5.507579166666666
 10
7.123015277777777
 20
5.509926388888888
  0
LWPOLYLINE
  5
4DF
330
2
100
AcDbEntity
  8
PDF_Layer 1
 62
     7
420
 16777215
370
    70
100
AcDbPolyline
 90
        4
 70
     0
 43
0.0
 10
7.12304722222222
 20
5.357801388888888
 10
7.136866666666665
 20
5.362495833333333
 10
7.146088888888887
 20
5.373968055555555
 10
7.148436111111109
 20
5.383190277777777
  0
LWPOLYLINE
  5
4E0
330
2
100
AcDbEntity
  8
PDF_Layer 1
 62
     7
420
 16777215
370
    70
100
AcDbPolyline
 90
        4
 70
     0
 43
0.0
 10
4.83058611111111
 20
4.959269444444444
 10
4.835197222222221
 20
4.94545
 10
4.846669444444444
 20
4.936227777777777
 10
4.855974999999999
 20
4.933880555555555
  0
LWPOLYLINE
  5
4E1
330
2
100
AcDbEntity
  8
PDF_Layer 1
 62
     7
420
 16777215
370
    70
100
AcDbPolyline
 90
        4
 70
     0
 43
0.0
 10
6.351256944444443
 20
4.933905555555555
 10
6.365076388888888
 20
4.9386
 10
6.374215277777777
 20
4.949988888888888
 10
6.37654861111111
 20
4.959280555555555
  0
LWPOLYLINE
  5
4E3
330
2
100
AcDbEntity
  8
PDF_Layer 1
 62
     7
420
 16777215
370
    70
100
AcDbPolyline
 90
        6
 70
     0
 43
0.0
 10
6.401902777777777
 20
8.31159861111111
 10
6.406513888888888
 20
8.293084722222221
 10
6.422680555555555
 20
8.277001388888887
 10
6.44111111111111
 20
8.272390277777777
 10
6.459541666666665
 20
8.277001388888887
 10
6.464152777777776
 20
8.279251388888887
  0
LWPOLYLINE
  5
4E4
330
2
100
AcDbEntity
  8
PDF_Layer 1
 62
     7
420
 16777215
370
    70
100
AcDbPolyline
 90
        3
 70
     0
 43
0.0
 10
5.701497222222222
 20
1.998602777777777
 10
5.706108333333333
 20
1.977908333333333
 10
5.719927777777778
 20
1.961825
  0
LWPOLYLINE
  5
4E5
330
2
100
AcDbEntity
  8
PDF_Layer 1
 62
     7
420
 16777215
370
    70
100
AcDbPolyline
 90
        5
 70
     0
 43
0.0
 10
5.699163888888889
 20
1.346598611111111
 10
5.703858333333333
 20
1.328168055555555
 10
5.719941666666667
 20
1.312084722222222
 10
5.738372222222222
 20
1.305126388888888
 10
5.740636111111111
 20
1.305126388888888
  0
LWPOLYLINE
  5
4E6
330
2
100
AcDbEntity
  8
PDF_Layer 1
 62
     7
420
 16777215
370
    70
100
AcDbPolyline
 90
        5
 70
     0
 43
0.0
 10
6.070122222222222
 20
1.305108333333333
 10
6.088552777777778
 20
1.309802777777777
 10
6.104733333333333
 20
1.325802777777777
 10
6.111594444444444
 20
1.344316666666666
 10
6.111594444444444
 20
1.346580555555555
  0
LWPOLYLINE
  5
4E7
330
2
100
AcDbEntity
  8
PDF_Layer 1
 62
     7
420
 16777215
370
    70
100
AcDbPolyline
 90
        3
 70
     0
 43
0.0
 10
6.272868055555555
 20
4.75652361111111
 10
6.2844375
 20
4.761134722222221
 10
6.289048611111111
 20
4.772606944444444
  0
LWPOLYLINE
  5
4E8
330
2
100
AcDbEntity
  8
PDF_Layer 1
 62
     7
420
 16777215
370
    70
100
AcDbPolyline
 90
        3
 70
     0
 43
0.0
 10
6.288987499999999
 20
4.820990277777776
 10
6.284376388888888
 20
4.832559722222221
 10
6.272904166666665
 20
4.83707361111111
  0
LWPOLYLINE
  5
4E9
330
2
100
AcDbEntity
  8
PDF_Layer 1
 62
     7
420
 16777215
370
    70
100
AcDbPolyline
 90
        3
 70
     0
 43
0.0
 10
4.913547222222221
 20
4.7726375
 10
4.918158333333332
 20
4.761081944444444
 10
4.929630555555554
 20
4.756554166666666
  0
LWPOLYLINE
  5
4EA
330
2
100
AcDbEntity
  8
PDF_Layer 1
 62
     7
420
 16777215
370
    70
100
AcDbPolyline
 90
        3
 70
     0
 43
0.0
 10
4.929666666666665
 20
4.837118055555555
 10
4.91809722222222
 20
4.832506944444443
 10
4.913569444444442
 20
4.821034722222221
  0
LWPOLYLINE
  5
4EB
330
2
100
AcDbEntity
  8
PDF_Layer 1
 62
     7
420
 16777215
370
    70
100
AcDbPolyline
 90
        5
 70
     0
 43
0.0
 10
5.687669444444444
 20
1.811970833333333
 10
5.710711111111111
 20
1.816665277777778
 10
5.733752777777778
 20
1.832748611111111
 10
5.747572222222221
 20
1.855706944444444
 10
5.752183333333332
 20
1.876568055555555
  0
LWPOLYLINE
  5
4EC
330
2
100
AcDbEntity
  8
PDF_Layer 1
 62
     7
420
 16777215
370
    70
100
AcDbPolyline
 90
        7
 70
     0
 43
0.0
 10
5.701515277777776
 20
2.203741666666666
 10
5.701515277777776
 20
2.205991666666666
 10
5.708390277777776
 20
2.22668611111111
 10
5.726820833333332
 20
2.245116666666666
 10
5.745251388888887
 20
2.263630555555555
 10
5.752209722222221
 20
2.284324999999999
 10
5.752209722222221
 20
2.286588888888888
  0
LWPOLYLINE
  5
4EE
330
2
100
AcDbEntity
  8
PDF_Layer 1
 62
     7
420
 16777215
370
    70
100
AcDbPolyline
 90
        2
 70
     0
 43
0.0
 10
5.719943055555554
 20
1.961777777777777
 10
5.726818055555554
 20
1.957083333333333
  0
LWPOLYLINE
  5
4EF
330
2
100
AcDbEntity
  8
PDF_Layer 1
 62
     7
420
 16777215
370
    70
100
AcDbPolyline
 90
        4
 70
     0
 43
0.0
 10
5.752183333333333
 20
1.915716666666666
 10
5.747572222222222
 20
1.93641111111111
 10
5.729141666666667
 20
1.957091666666666
 10
5.726794444444444
 20
1.957091666666666
  0
LWPOLYLINE
  5
4F0
330
2
100
AcDbEntity
  8
PDF_Layer 1
 62
     7
420
 16777215
370
    70
100
AcDbPolyline
 90
        5
 70
     0
 43
0.0
 10
5.302918055555554
 20
1.876533333333333
 10
5.307529166666665
 20
1.853491666666666
 10
5.323612499999999
 20
1.830449999999999
 10
5.346654166666666
 20
1.816630555555555
 10
5.367431944444443
 20
1.81193611111111
  0
LWPOLYLINE
  5
4F3
330
2
100
AcDbEntity
  8
PDF_Layer 1
 62
     7
420
 16777215
370
    70
100
AcDbPolyline
 90
        4
 70
     0
 43
0.0
 10
5.325954166666665
 20
1.957126388888888
 10
5.344384722222221
 20
1.975640277777777
 10
5.351245833333332
 20
1.996320833333333
 10
5.351245833333332
 20
1.998584722222221
  0
LWPOLYLINE
  5
4F4
330
2
100
AcDbEntity
  8
PDF_Layer 1
 62
     7
420
 16777215
370
    70
100
AcDbPolyline
 90
        4
 70
     0
 43
0.0
 10
5.328240277777776
 20
1.957126388888888
 10
5.309809722222221
 20
1.938695833333333
 10
5.302934722222221
 20
1.918001388888888
 10
5.302934722222221
 20
1.915737499999999
  0
ARC
  5
4F5
330
2
100
AcDbEntity
  8
PDF_Layer 1
 62
     7
420
 16777215
370
    70
100
AcDbCircle
 10
7.172601355478682
 20
7.65664192415169
 30
0.0
 40
0.9636293413323812
100
AcDbArc
 50
144.2681378572447
 51
213.8102350386906
  0
LWPOLYLINE
  5
4F6
330
2
100
AcDbEntity
  8
PDF_Layer 1
 62
     7
420
 16777215
370
    70
100
AcDbPolyline
 90
       43
 70
     0
 43
0.0
 10
5.685377777777778
 20
3.959363888888888
 10
5.680766666666666
 20
3.963974999999999
 10
5.673808333333333
 20
3.97085
 10
5.669197222222222
 20
3.977794444444444
 10
5.662336111111111
 20
3.982322222222222
 10
5.655461111111111
 20
3.986919444444444
 10
5.648516666666666
 20
3.989280555555555
 10
5.641641666666666
 20
3.991613888888888
 10
5.634697222222222
 20
3.991613888888888
 10
5.625475
 20
3.991613888888888
 10
5.6186
 20
3.991613888888888
 10
5.609294444444445
 20
3.989280555555555
 10
5.602433333333333
 20
3.986919444444444
 10
5.590961111111111
 20
3.982322222222222
 10
5.577127777777778
 20
3.977794444444444
 10
5.565572222222222
 20
3.97085
 10
5.55635
 20
3.963974999999999
 10
5.544877777777777
 20
3.957016666666666
 10
5.533308333333333
 20
3.950155555555555
 10
5.5241
 20
3.943197222222222
 10
5.514877777777778
 20
3.936322222222221
 10
5.507933333333333
 20
3.931725
 10
5.498711111111111
 20
3.924766666666666
 10
5.489572222222222
 20
3.915558333333333
 10
5.480280555555555
 20
3.906336111111111
 10
5.473405555555555
 20
3.897127777777777
 10
5.466461111111111
 20
3.887822222222222
 10
5.459586111111111
 20
3.880947222222222
 10
5.452627777777777
 20
3.874072222222222
 10
5.445766666666666
 20
3.871724999999999
 10
5.436544444444444
 20
3.871724999999999
 10
5.431933333333333
 20
3.874072222222222
 10
5.429669444444444
 20
3.876419444444444
 10
5.425058333333333
 20
3.878683333333333
 10
5.420377777777778
 20
3.880947222222222
 10
5.41585
 20
3.883280555555555
 10
5.411238888888889
 20
3.885558333333333
 10
5.406544444444445
 20
3.885558333333333
 10
5.402030555555556
 20
3.883280555555555
 10
5.397336111111111
 20
3.880947222222222
 10
5.392725
 20
3.878683333333333
 10
5.385863888888889
 20
3.874072222222222
 10
5.381252777777778
 20
3.869461111111111
  0
LWPOLYLINE
  5
4F7
330
2
100
AcDbEntity
  8
PDF_Layer 1
 62
     7
420
 16777215
370
    70
100
AcDbPolyline
 90
       43
 70
     0
 43
0.0
 10
5.383551388888888
 20
4.118258333333333
 10
5.390495833333333
 20
4.111397222222222
 10
5.395037499999999
 20
4.104522222222222
 10
5.401981944444444
 20
4.099827777777777
 10
5.408856944444444
 20
4.092966666666666
 10
5.413454166666666
 20
4.088355555555555
 10
5.422676388888889
 20
4.086008333333333
 10
5.429634722222222
 20
4.083744444444444
 10
5.436509722222222
 20
4.083744444444444
 10
5.443454166666666
 20
4.083744444444444
 10
5.452676388888888
 20
4.083744444444444
 10
5.459620833333333
 20
4.086008333333333
 10
5.468843055555555
 20
4.088355555555555
 10
5.480315277777777
 20
4.092966666666666
 10
5.494134722222222
 20
4.099827777777777
 10
5.505704166666666
 20
4.104522222222222
 10
5.514843055555555
 20
4.111397222222222
 10
5.526398611111111
 20
4.118258333333333
 10
5.535606944444444
 20
4.127480555555555
 10
5.544829166666666
 20
4.134425
 10
5.554037499999999
 20
4.143647222222222
 10
5.563259722222221
 20
4.150591666666667
 10
5.572481944444444
 20
4.159730555555555
 10
5.581690277777777
 20
4.17128611111111
 10
5.590912499999999
 20
4.182855555555555
 10
5.595523611111111
 20
4.192063888888888
 10
5.604731944444444
 20
4.201202777777777
 10
5.611606944444444
 20
4.208161111111111
 10
5.618551388888889
 20
4.21503611111111
 10
5.625426388888889
 20
4.217383333333333
 10
5.632384722222222
 20
4.217383333333333
 10
5.636995833333333
 20
4.21503611111111
 10
5.641606944444444
 20
4.212772222222222
 10
5.646204166666666
 20
4.210508333333333
 10
5.650815277777777
 20
4.208161111111111
 10
5.655426388888888
 20
4.205813888888888
 10
5.660037499999999
 20
4.203549999999999
 10
5.664634722222221
 20
4.203549999999999
 10
5.669245833333333
 20
4.205813888888888
 10
5.673856944444444
 20
4.208161111111111
 10
5.678454166666666
 20
4.210508333333333
 10
5.683065277777777
 20
4.21503611111111
 10
5.687676388888888
 20
4.219730555555555
  0
LWPOLYLINE
  5
4F8
330
2
100
AcDbEntity
  8
PDF_Layer 1
 62
     7
420
 16777215
370
    18
100
AcDbPolyline
 90
        2
 70
     0
 43
0.0
 10
2.823838888888889
 20
11.92423472222222
 10
8.026255555555554
 20
11.92423472222222
  0
LWPOLYLINE
  5
4F9
330
2
100
AcDbEntity
  8
PDF_Layer 1
 62
     7
420
 16777215
370
    18
100
AcDbPolyline
 90
        2
 70
     0
 43
0.0
 10
5.600124999999999
 20
4.986925
 10
5.600124999999999
 20
5.671174999999999
  0
LWPOLYLINE
  5
4FA
330
2
100
AcDbEntity
  8
PDF_Layer 1
 62
     7
420
 16777215
370
    18
100
AcDbPolyline
 90
        2
 70
     0
 43
0.0
 10
12.27479444444444
 20
11.05557638888889
 10
12.27479444444444
 20
4.986881944444443
  0
LWPOLYLINE
  5
4FB
330
2
100
AcDbEntity
  8
PDF_Layer 1
 62
     7
420
 16777215
370
    18
100
AcDbPolyline
 90
        2
 70
     0
 43
0.0
 10
14.57649722222222
 20
5.832465277777776
 10
14.57649722222222
 20
11.81596527777778
  0
LWPOLYLINE
  5
4FC
330
2
100
AcDbEntity
  8
PDF_Layer 1
 62
     7
420
 16777215
370
    18
100
AcDbPolyline
 90
        2
 70
     0
 43
0.0
 10
14.64097777777777
 20
5.749552777777777
 10
6.399630555555553
 20
5.749552777777777
  0
LWPOLYLINE
  5
4FD
330
2
100
AcDbEntity
  8
PDF_Layer 1
 62
     7
420
 16777215
370
    18
100
AcDbPolyline
 90
        2
 70
     0
 43
0.0
 10
11.63433194444444
 20
11.8989125
 10
14.64099861111111
 20
11.8989125
  0
LWPOLYLINE
  5
4FE
330
2
100
AcDbEntity
  8
PDF_Layer 1
 62
     7
420
 16777215
370
    18
100
AcDbPolyline
 90
        2
 70
     0
 43
0.0
 10
13.7539875
 20
5.832465277777776
 10
13.7539875
 20
10.97270138888888
  0
LWPOLYLINE
  5
4FF
330
2
100
AcDbEntity
  8
PDF_Layer 1
 62
     7
420
 16777215
370
    18
100
AcDbPolyline
 90
        2
 70
     0
 43
0.0
 10
12.27479444444444
 20
11.05560972222222
 10
13.81612777777778
 20
11.05560972222222
  0
LWPOLYLINE
  5
500
330
2
100
AcDbEntity
  8
PDF_Layer 1
 62
     7
420
 16777215
370
    18
100
AcDbPolyline
 90
        2
 70
     0
 43
0.0
 10
2.890597222222222
 20
1.574327777777777
 10
2.890597222222222
 20
5.666619444444444
  0
LWPOLYLINE
  5
501
330
2
100
AcDbEntity
  8
PDF_Layer 1
 62
     7
420
 16777215
370
    18
100
AcDbPolyline
 90
        2
 70
     0
 43
0.0
 10
2.828409722222221
 20
1.496324999999999
 10
5.302909722222221
 20
1.496324999999999
  0
LWPOLYLINE
  5
502
330
2
100
AcDbEntity
  8
PDF_Layer 1
 62
     7
420
 16777215
370
    18
100
AcDbPolyline
 90
        2
 70
     0
 43
0.0
 10
2.178038888888889
 20
4.829101388888887
 10
5.302927777777778
 20
4.829101388888887
  0
LWPOLYLINE
  5
503
330
2
100
AcDbEntity
  8
PDF_Layer 1
 62
     7
420
 16777215
370
    18
100
AcDbPolyline
 90
        2
 70
     0
 43
0.0
 10
5.365091666666665
 20
1.361720833333333
 10
5.639313888888887
 20
1.361720833333333
  0
LWPOLYLINE
  5
504
330
2
100
AcDbEntity
  8
PDF_Layer 1
 62
     7
420
 16777215
370
    18
100
AcDbPolyline
 90
        2
 70
     0
 43
0.0
 10
5.279601388888887
 20
1.435615277777777
 10
5.279601388888887
 20
1.140365277777777
  0
LWPOLYLINE
  5
505
330
2
100
AcDbEntity
  8
PDF_Layer 1
 62
     7
420
 16777215
370
    18
100
AcDbPolyline
 90
        2
 70
     0
 43
0.0
 10
5.722568055555555
 20
1.435615277777777
 10
5.722568055555555
 20
1.110781944444444
  0
LWPOLYLINE
  5
506
330
2
100
AcDbEntity
  8
PDF_Layer 1
 62
     7
420
 16777215
370
    18
100
AcDbPolyline
 90
        2
 70
     0
 43
0.0
 10
2.217515277777777
 20
5.588256944444444
 10
2.217515277777777
 20
4.969631944444445
  0
LWPOLYLINE
  5
507
330
2
100
AcDbEntity
  8
PDF_Layer 1
 62
     7
420
 16777215
370
    18
100
AcDbPolyline
 90
        2
 70
     0
 43
0.0
 10
2.888305555555555
 20
5.826483333333333
 10
2.888305555555555
 20
11.84131666666666
  0
LWPOLYLINE
  5
508
330
2
100
AcDbEntity
  8
PDF_Layer 1
 62
     7
420
 16777215
370
    18
100
AcDbPolyline
 90
        2
 70
     0
 43
0.0
 10
2.178038888888889
 20
5.743570833333332
 10
5.302927777777778
 20
5.743570833333332
  0
MTEXT
  5
509
330
2
100
AcDbEntity
  8
PDF_Text
 62
     7
420
 16777215
100
AcDbMText
 10
8.4616625
 20
4.656361574999999
 30
0.0
 40
0.2998630940755208
 41
0.0
 46
0.0
 71
     7
 72
     5
  1
210
  7
PDF Arial
 73
     1
 44
1.0
  0
MTEXT
  5
50A
330
2
100
AcDbEntity
  8
PDF_Text
 62
     7
420
 16777215
100
AcDbMText
 10
5.185384722222222
 20
0.8294837972222223
 30
0.0
 40
0.2998630940755208
 41
0.0
 46
0.0
 71
     7
 72
     5
  1
15
  7
PDF Arial
 73
     1
 44
1.0
  0
MTEXT
  5
50B
330
2
100
AcDbEntity
  8
PDF_Text
 62
     7
420
 16777215
100
AcDbMText
 10
14.63299902777777
 20
9.251994158333333
 30
0.0
 40
0.2998630940755208
 41
0.0
 46
0.0
 71
     7
 72
     5
  1
192
  7
PDF Arial
 11
-0.0000000000000002
 21
-1.0
 31
0.0
 73
     1
 44
1.0
  0
MTEXT
  5
50C
330
2
100
AcDbEntity
  8
PDF_Text
 62
     7
420
 16777215
100
AcDbMText
 10
13.80816851944444
 20
8.887125000000001
 30
0.0
 40
0.2998630940755208
 41
0.0
 46
0.0
 71
     7
 72
     5
  1
167
  7
PDF Arial
 11
-0.0000000000000002
 21
-1.0
 31
0.0
 73
     1
 44
1.0
  0
MTEXT
  5
50D
330
2
100
AcDbEntity
  8
PDF_Text
 62
     7
420
 16777215
100
AcDbMText
 10
2.013361036111111
 20
4.517901897222221
 30
0.0
 40
0.2998630940755208
 41
0.0
 46
0.0
 71
     7
 72
     5
  1
MAX 33
  7
PDF Arial
 11
0.0000000000000001
 21
1.0
 31
0.0
 73
     1
 44
1.0
  0
MTEXT
  5
50E
330
2
100
AcDbEntity
  8
PDF_Text
 62
     7
420
 16777215
100
AcDbMText
 10
2.633345369444444
 20
3.232272222222221
 30
0.0
 40
0.2998630940755208
 41
0.0
 46
0.0
 71
     7
 72
     5
  1
350
  7
PDF Arial
 11
0.0000000000000001
 21
1.0
 31
0.0
 73
     1
 44
1.0
  0
MTEXT
  5
50F
330
2
100
AcDbEntity
  8
PDF_Text
 62
     7
420
 16777215
100
AcDbMText
 10
2.831798147222222
 20
8.549166666666666
 30
0.0
 40
0.2998630940755208
 41
0.0
 46
0.0
 71
     7
 72
     5
  1
195
  7
PDF Arial
 11
0.0000000000000001
 21
1.0
 31
0.0
 73
     1
 44
1.0
  0
VIEWPORT
  5
4A
330
C
100
AcDbEntity
 67
     1
  8
0
100
AcDbViewport
 10
17.24759499286355
 20
11.49745669559334
 30
0.0
 40
36.33732196730226
 41
27.12504315869042
 68
     1
 69
     1
 12
17.24759499286355
 22
11.49745669559334
 13
0.0
 23
0.0
 14
0.5
 24
0.5
 15
0.5
 25
0.5
 16
0.0
 26
0.0
 36
1.0
 17
0.0
 27
0.0
 37
0.0
 42
50.0
 43
0.0
 44
0.0
 45
27.12504315869042
 50
0.0
 51
0.0
 72
  1000
 90
    32864
  1

281
     0
 71
     1
 74
     0
110
0.0
120
0.0
130
0.0
111
1.0
121
0.0
131
0.0
112
0.0
122
1.0
132
0.0
 79
     0
146
0.0
170
     0
 61
     5
348
88
292
     1
282
     1
141
0.0
142
0.0
 63
   250
421
  3355443
  0
ENDSEC
  0
SECTION
  2
OBJECTS
  0
DICTIONARY
  5
7
330
0
100
AcDbDictionary
281
     1
  3
ACAD_CIP_PREVIOUS_PRODUCT_INFO
350
CD
  3
ACAD_COLOR
350
55
  3
ACAD_DETAILVIEWSTYLE
350
C5
  3
ACAD_GROUP
350
1F
  3
ACAD_LAYOUT
350
B
  3
ACAD_MATERIAL
350
54
  3
ACAD_MLEADERSTYLE
350
C1
  3
ACAD_MLINESTYLE
350
20
  3
ACAD_PLOTSETTINGS
350
21
  3
ACAD_PLOTSTYLENAME
350
6
  3
ACAD_SCALELIST
350
AF
  3
ACAD_SECTIONVIEWSTYLE
350
C3
  3
ACAD_TABLESTYLE
350
93
  3
ACAD_VISUALSTYLE
350
82
  3
ACDB_RECOMPOSE_DATA
350
535
  3
AcDbVariableDictionary
350
9B
  0
DICTIONARY
  5
511
330
4
100
AcDbDictionary
280
     1
281
     1
  3
ADSK_XREC_LAYER_RECONCILED
360
512
  0
DICTIONARY
  5
513
330
25
100
AcDbDictionary
280
     1
281
     1
  3
ADSK_XREC_LAYER_RECONCILED
360
514
  0
DICTIONARY
  5
515
330
CE
100
AcDbDictionary
280
     1
281
     1
  3
ADSK_XREC_LAYER_RECONCILED
360
516
  0
DICTIONARY
  5
517
330
DF
100
AcDbDictionary
280
     1
281
     1
  3
ADSK_XREC_LAYER_RECONCILED
360
518
  0
XRECORD
  5
CD
102
{ACAD_REACTORS
330
7
102
}
330
7
100
AcDbXrecord
280
     1
300
ACD
300
2017
300
ACD_F_S
  0
DICTIONARY
  5
55
102
{ACAD_REACTORS
330
7
102
}
330
7
100
AcDbDictionary
281
     1
  0
DICTIONARY
  5
C5
102
{ACAD_REACTORS
330
7
102
}
330
7
100
AcDbDictionary
281
     1
  3
Imperial24
350
C6
  0
DICTIONARY
  5
1F
102
{ACAD_REACTORS
330
7
102
}
330
7
100
AcDbDictionary
281
     1
  0
DICTIONARY
  5
B
102
{ACAD_REACTORS
330
7
102
}
330
7
100
AcDbDictionary
281
     1
  3
Generic 24in x 36in Title Block
350
F
  3
Model
350
A
  0
DICTIONARY
  5
54
102
{ACAD_REACTORS
330
7
102
}
330
7
100
AcDbDictionary
281
     1
  3
ByBlock
350
80
  3
ByLayer
350
7F
  3
Global
350
81
  0
DICTIONARY
  5
C1
102
{ACAD_REACTORS
330
7
102
}
330
7
100
AcDbDictionary
281
     1
  3
Standard
350
C2
  0
DICTIONARY
  5
20
102
{ACAD_REACTORS
330
7
102
}
330
7
100
AcDbDictionary
281
     1
  3
Standard
350
22
  0
DICTIONARY
  5
21
102
{ACAD_REACTORS
330
7
102
}
330
7
100
AcDbDictionary
281
     1
  0
ACDBDICTIONARYWDFLT
  5
6
102
{ACAD_REACTORS
330
7
102
}
330
7
100
AcDbDictionary
281
     1
  3
Normal
350
5
100
AcDbDictionaryWithDefault
340
5
  0
DICTIONARY
  5
AF
102
{ACAD_REACTORS
330
7
102
}
330
7
100
AcDbDictionary
281
     1
  3
A0
350
B0
  3
A1
350
B1
  3
A2
350
B2
  3
A3
350
B3
  3
A4
350
B4
  3
A5
350
B5
  3
A6
350
B6
  3
A7
350
B7
  3
A8
350
B8
  3
A9
350
B9
  3
B0
350
BA
  3
B1
350
BB
  3
B2
350
BC
  3
B3
350
BD
  3
B4
350
BE
  3
B5
350
BF
  3
B6
350
C0
  0
DICTIONARY
  5
C3
102
{ACAD_REACTORS
330
7
102
}
330
7
100
AcDbDictionary
281
     1
  3
Imperial24
350
C4
  0
DICTIONARY
  5
93
102
{ACAD_REACTORS
330
7
102
}
330
7
100
AcDbDictionary
281
     1
  3
Standard
350
94
  0
DICTIONARY
  5
82
102
{ACAD_REACTORS
330
7
102
}
330
7
100
AcDbDictionary
281
     1
  3
2dWireframe
350
88
  3
3D Hidden
350
8A
  3
3dWireframe
350
89
  3
Basic
350
87
  3
Brighten
350
8E
  3
ColorChange
350
92
  3
Conceptual
350
8B
  3
Dim
350
8D
  3
EdgeColorOff
350
AE
  3
Facepattern
350
91
  3
Flat
350
83
  3
FlatWithEdges
350
84
  3
Gouraud
350
85
  3
GouraudWithEdges
350
86
  3
Hidden
350
A6
  3
JitterOff
350
AC
  3
Linepattern
350
90
  3
OverhangOff
350
AD
  3
Realistic
350
8C
  3
Shaded
350
AB
  3
Shaded with edges
350
AA
  3
Shades of Gray
350
A7
  3
Sketchy
350
A8
  3
Thicken
350
8F
  3
Wireframe
350
A5
  3
X-Ray
350
A9
  0
XRECORD
  5
535
102
{ACAD_REACTORS
330
7
102
}
330
7
100
AcDbXrecord
280
     1
 90
        1
330
94
330
C4
330
C6
  0
DICTIONARY
  5
9B
102
{ACAD_REACTORS
330
7
102
}
330
7
100
AcDbDictionary
281
     1
  3
CANNOSCALE
350
52B
  3
CMLEADERSTYLE
350
527
  3
CTABLESTYLE
350
9C
  3
CVIEWDETAILSTYLE
350
528
  3
CVIEWSECTIONSTYLE
350
529
  3
LAYEREVAL
350
52D
  3
LAYERNOTIFY
350
52E
  3
LIGHTINGUNITS
350
52C
  3
MSLTSCALE
350
52A
  0
XRECORD
  5
512
102
{ACAD_REACTORS
330
511
102
}
330
511
100
AcDbXrecord
280
     1
290
     1
  0
XRECORD
  5
514
102
{ACAD_REACTORS
330
513
102
}
330
513
100
AcDbXrecord
280
     1
290
     1
  0
XRECORD
  5
516
102
{ACAD_REACTORS
330
515
102
}
330
515
100
AcDbXrecord
280
     1
290
     1
  0
XRECORD
  5
518
102
{ACAD_REACTORS
330
517
102
}
330
517
100
AcDbXrecord
280
     1
290
     1
  0
ACDBDETAILVIEWSTYLE
  5
C6
102
{ACAD_XDICTIONARY
360
533
102
}
102
{ACAD_REACTORS
330
C5
102
}
330
C5
100
AcDbModelDocViewStyle
 70
     0
  3
Imperial24
290
     0
100
AcDbDetailViewStyle
 70
     0
 71
     0
 90
        3
 71
     1
340
12
 62
   256
 40
0.24
340
0
 62
   256
 40
0.24
300

 40
0.36
280
     3
 71
     2
340
8
 90
       25
 62
   256
 71
     3
340
12
 62
   256
 40
0.24
 90
        1
 40
0.75
 90
        1
300
%<\AcVar ViewType \f "%tc1">% %<\AcVar ViewDetailId>%\PSCALE %<\AcVar ViewScale \f "%sn">%
 71
     4
340
8
 90
       25
 62
   256
340
8
 90
       25
 62
   256
280
     0
  0
LAYOUT
  5
F
102
{ACAD_REACTORS
330
B
102
}
330
B
100
AcDbPlotSettings
  1

  2
none_device
  4
ARCH_D_(24.00_x_36.00_Inches)
  6

 40
6.4
 41
19.1
 42
6.4
 43
19.1
 44
609.5999755859375
 45
914.4000244140626
 46
6.095999999999999
 47
-0.254
 48
0.0
 49
0.0
140
0.0
141
0.0
142
1.0
143
1.0
 70
   692
 72
     0
 73
     1
 74
     1
  7

 75
    16
147
1.0
 76
     0
 77
     2
 78
   300
148
0.2650993882970653
149
0.268587724897764
100
AcDbLayout
  1
Generic 24in x 36in Title Block
 70
     1
 71
     1
 10
-0.7524054877282309
 20
-0.5025428238148726
 11
35.24759547345533
 21
23.49745621500156
 12
0.0
 22
0.0
 32
0.0
 14
1.000000000000000E+20
 24
1.000000000000000E+20
 34
1.000000000000000E+20
 15
-1.000000000000000E+20
 25
-1.000000000000000E+20
 35
-1.000000000000000E+20
146
0.0
 13
0.0
 23
0.0
 33
0.0
 16
1.0
 26
0.0
 36
0.0
 17
0.0
 27
1.0
 37
0.0
 76
     0
330
C
331
4A
  0
LAYOUT
  5
A
102
{ACAD_REACTORS
330
B
102
}
330
B
100
AcDbPlotSettings
  1

  2
none_device
  4
Letter_(8.50_x_11.00_Inches)
  6

 40
6.349999904632568
 41
6.349999904632568
 42
6.350006103515625
 43
6.350006103515625
 44
215.8999938964844
 45
279.3999938964844
 46
20.37045378159827
 47
10.87052656611426
 48
0.0
 49
0.0
140
0.0
141
0.0
142
1.0
143
3.59932905303845
 70
 11956
 72
     0
 73
     1
 74
     1
  7

 75
     0
147
0.2778295580271631
 76
     0
 77
     2
 78
   300
148
5.106903281790129
149
0.2718425107115592
100
AcDbLayout
  1
Model
 70
     1
 71
     0
 10
0.0
 20
0.0
 11
12.0
 21
9.0
 12
0.0
 22
0.0
 32
0.0
 14
0.0
 24
0.0
 34
0.0
 15
0.0
 25
0.0
 35
0.0
146
0.0
 13
0.0
 23
0.0
 33
0.0
 16
1.0
 26
0.0
 36
0.0
 17
0.0
 27
1.0
 37
0.0
 76
     0
330
2
331
7D
  0
MATERIAL
  5
80
102
{ACAD_REACTORS
330
54
102
}
330
54
100
AcDbMaterial
  1
ByBlock
 73
     1
 78
     1
172
     1
176
     1
270
     1
274
     1
 94
       63
  0
MATERIAL
  5
7F
102
{ACAD_REACTORS
330
54
102
}
330
54
100
AcDbMaterial
  1
ByLayer
 73
     1
 78
     1
172
     1
176
     1
270
     1
274
     1
 94
       63
  0
MATERIAL
  5
81
102
{ACAD_REACTORS
330
54
102
}
330
54
100
AcDbMaterial
  1
Global
 73
     1
 78
     1
172
     1
176
     1
270
     1
274
     1
 94
       63
  0
MLEADERSTYLE
  5
C2
102
{ACAD_REACTORS
330
C1
102
}
330
C1
100
AcDbMLeaderStyle
179
     2
170
     2
171
     1
172
     0
 90
        2
 40
0.0
 41
0.0
173
     1
 91
-1056964608
340
15
 92
       -2
290
     1
 42
0.09
291
     1
 43
0.36
  3
Standard
 44
0.18
300

342
12
174
     1
178
     6
175
     1
176
     0
 93
-1056964608
 45
0.18
292
     0
297
     0
 46
0.18
 94
-1056964608
 47
1.0
 49
1.0
140
1.0
293
     1
141
0.0
294
     1
177
     0
142
1.0
295
     1
296
     0
143
0.125
271
     0
272
     9
273
     9
298
     1
  0
MLINESTYLE
  5
22
102
{ACAD_REACTORS
330
20
102
}
330
20
100
AcDbMlineStyle
  2
STANDARD
 70
     0
  3

 62
   256
 51
90.0
 52
90.0
 71
     2
 49
0.5
 62
   256
  6
BYLAYER
 49
-0.5
 62
   256
  6
BYLAYER
  0
ACDBPLACEHOLDER
  5
5
102
{ACAD_REACTORS
330
6
102
}
330
6
  0
SCALE
  5
B0
102
{ACAD_REACTORS
330
AF
102
}
330
AF
100
AcDbScale
 70
     0
300
1:1
140
1.0
141
1.0
290
     1
  0
SCALE
  5
B1
102
{ACAD_REACTORS
330
AF
102
}
330
AF
100
AcDbScale
 70
     0
300
1/128" = 1'-0"
140
0.0078125
141
12.0
290
     0
  0
SCALE
  5
B2
102
{ACAD_REACTORS
330
AF
102
}
330
AF
100
AcDbScale
 70
     0
300
1/64" = 1'-0"
140
0.015625
141
12.0
290
     0
  0
SCALE
  5
B3
102
{ACAD_REACTORS
330
AF
102
}
330
AF
100
AcDbScale
 70
     0
300
1/32" = 1'-0"
140
0.03125
141
12.0
290
     0
  0
SCALE
  5
B4
102
{ACAD_REACTORS
330
AF
102
}
330
AF
100
AcDbScale
 70
     0
300
1/16" = 1'-0"
140
0.0625
141
12.0
290
     0
  0
SCALE
  5
B5
102
{ACAD_REACTORS
330
AF
102
}
330
AF
100
AcDbScale
 70
     0
300
3/32" = 1'-0"
140
0.09375
141
12.0
290
     0
  0
SCALE
  5
B6
102
{ACAD_REACTORS
330
AF
102
}
330
AF
100
AcDbScale
 70
     0
300
1/8" = 1'-0"
140
0.125
141
12.0
290
     0
  0
SCALE
  5
B7
102
{ACAD_REACTORS
330
AF
102
}
330
AF
100
AcDbScale
 70
     0
300
3/16" = 1'-0"
140
0.1875
141
12.0
290
     0
  0
SCALE
  5
B8
102
{ACAD_REACTORS
330
AF
102
}
330
AF
100
AcDbScale
 70
     0
300
1/4" = 1'-0"
140
0.25
141
12.0
290
     0
  0
SCALE
  5
B9
102
{ACAD_REACTORS
330
AF
102
}
330
AF
100
AcDbScale
 70
     0
300
3/8" = 1'-0"
140
0.375
141
12.0
290
     0
  0
SCALE
  5
BA
102
{ACAD_REACTORS
330
AF
102
}
330
AF
100
AcDbScale
 70
     0
300
1/2" = 1'-0"
140
0.5
141
12.0
290
     0
  0
SCALE
  5
BB
102
{ACAD_REACTORS
330
AF
102
}
330
AF
100
AcDbScale
 70
     0
300
3/4" = 1'-0"
140
0.75
141
12.0
290
     0
  0
SCALE
  5
BC
102
{ACAD_REACTORS
330
AF
102
}
330
AF
100
AcDbScale
 70
     0
300
1" = 1'-0"
140
1.0
141
12.0
290
     0
  0
SCALE
  5
BD
102
{ACAD_REACTORS
330
AF
102
}
330
AF
100
AcDbScale
 70
     0
300
1-1/2" = 1'-0"
140
1.5
141
12.0
290
     0
  0
SCALE
  5
BE
102
{ACAD_REACTORS
330
AF
102
}
330
AF
100
AcDbScale
 70
     0
300
3" = 1'-0"
140
3.0
141
12.0
290
     0
  0
SCALE
  5
BF
102
{ACAD_REACTORS
330
AF
102
}
330
AF
100
AcDbScale
 70
     0
300
6" = 1'-0"
140
6.0
141
12.0
290
     0
  0
SCALE
  5
C0
102
{ACAD_REACTORS
330
AF
102
}
330
AF
100
AcDbScale
 70
     0
300
1'-0" = 1'-0"
140
12.0
141
12.0
290
     0
  0
ACDBSECTIONVIEWSTYLE
  5
C4
102
{ACAD_XDICTIONARY
360
531
102
}
102
{ACAD_REACTORS
330
C3
102
}
330
C3
100
AcDbModelDocViewStyle
 70
     0
  3
Imperial24
290
     0
100
AcDbSectionViewStyle
 70
     0
 71
     0
 90
       78
 71
     1
340
12
 62
   256
 40
0.24
340
0
340
0
 62
   256
 40
0.24
300
I, O, Q, S, X, Z
 40
0.48
 90
        3
 40
0.18
 90
        1
 71
     2
340
8
 90
       25
 62
   256
340
8
 90
       50
 62
   256
 40
0.24
 40
0.0
 40
0.24
 71
     3
340
12
 62
   256
 40
0.24
 90
        1
 40
0.75
 90
        1
300
%<\AcVar ViewType \f "%tc1">% %<\AcVar ViewSectionStartId>%-%<\AcVar ViewSectionEndId>%\PSCALE %<\AcVar ViewScale \f "%sn">%
 71
     4
 62
   256
 62
   257
300
ANSI31
 40
1.0
 90
        0
290
     0
290
     0
 90
        6
 40
0.0
 40
1.570796326794896
 40
0.2617993877991494
 40
1.308996938995747
 40
-0.2617993877991494
 40
1.832595714594046
  0
TABLESTYLE
  5
94
102
{ACAD_XDICTIONARY
360
52F
102
}
102
{ACAD_REACTORS
330
93
102
}
330
93
100
AcDbTableStyle
280
     0
  3
Standard
 70
     0
 71
     0
 40
0.06
 41
0.06
280
     0
281
     0
  7
Standard
140
0.18
170
     2
 62
     0
 63
     7
283
     0
 90
      512
 91
        0
  1

274
    -2
284
     1
 64
     0
275
    -2
285
     1
 65
     0
276
    -2
286
     1
 66
     0
277
    -2
287
     1
 67
     0
278
    -2
288
     1
 68
     0
279
    -2
289
     1
 69
     0
  7
Standard
140
0.25
170
     5
 62
     0
 63
     7
283
     0
 90
      512
 91
        0
  1

274
    -2
284
     1
 64
     0
275
    -2
285
     1
 65
     0
276
    -2
286
     1
 66
     0
277
    -2
287
     1
 67
     0
278
    -2
288
     1
 68
     0
279
    -2
289
     1
 69
     0
  7
Standard
140
0.18
170
     5
 62
     0
 63
     7
283
     0
 90
      512
 91
        0
  1

274
    -2
284
     1
 64
     0
275
    -2
285
     1
 65
     0
276
    -2
286
     1
 66
     0
277
    -2
287
     1
 67
     0
278
    -2
288
     1
 68
     0
279
    -2
289
     1
 69
     0
  0
VISUALSTYLE
  5
88
102
{ACAD_REACTORS
330
82
102
}
330
82
100
AcDbVisualStyle
  2
2dWireframe
 70
     4
177
     3
291
     0
 70
    58
 90
        0
176
     1
 90
        2
176
     1
 90
        1
176
     1
 90
        0
176
     1
 40
0.6
176
     1
 40
30.0
176
     1
 62
     7
420
 16777215
176
     1
 90
        1
176
     1
 90
        4
176
     1
 62
     7
176
     1
 62
   257
176
     1
 90
        1
176
     1
 90
        1
176
     1
 40
1.0
176
     1
 90
        0
176
     1
 62
   257
176
     1
 40
1.0
176
     1
 90
        1
176
     1
 90
        6
176
     1
 90
        2
176
     1
 62
     7
176
     1
 90
        5
176
     1
 90
        0
176
     1
 90
        0
176
     1
290
     0
176
     1
 90
        1
176
     1
 40
0.0
176
     1
 90
        0
176
     1
290
     1
176
     1
290
     1
176
     1
290
     0
176
     1
290
     0
176
     1
290
     0
176
     1
290
     0
176
     1
290
     0
176
     1
290
     0
176
     1
290
     0
176
     1
 90
       50
176
     1
 40
0.0
176
     1
 40
1.0
176
     1
 90
        0
176
     1
 62
    18
420
        0
176
     1
 90
       50
176
     1
 90
        3
176
     1
 62
     5
420
      255
176
     1
290
     0
176
     1
 90
       50
176
     1
 90
       50
176
     1
 90
       50
176
     1
290
     0
176
     1
 90
       50
176
     1
 62
   256
176
     0
 40
1.0
176
     0
 90
        2
176
     1
  1
strokes_ogs.tif
176
     1
290
     0
176
     1
 40
1.0
176
     1
 40
1.0
176
     1
  0
VISUALSTYLE
  5
8A
102
{ACAD_REACTORS
330
82
102
}
330
82
100
AcDbVisualStyle
  2
3D Hidden
 70
     6
177
     3
291
     0
 70
    58
 90
        1
176
     1
 90
        2
176
     1
 90
        2
176
     1
 90
        0
176
     1
 40
0.6
176
     1
 40
30.0
176
     1
 62
     7
420
 16777215
176
     1
 90
        2
176
     1
 90
       10
176
     1
 62
     7
176
     1
 62
   257
176
     1
 90
        2
176
     1
 90
        2
176
     1
 40
40.0
176
     1
 90
        0
176
     1
 62
   257
176
     1
 40
1.0
176
     1
 90
        1
176
     1
 90
        6
176
     1
 90
        2
176
     1
 62
     7
176
     1
 90
        3
176
     1
 90
        0
176
     1
 90
        0
176
     1
290
     0
176
     1
 90
        1
176
     1
 40
0.0
176
     1
 90
        0
176
     1
290
     0
176
     1
290
     1
176
     1
290
     1
176
     1
290
     0
176
     1
290
     0
176
     1
290
     0
176
     1
290
     0
176
     1
290
     0
176
     1
290
     0
176
     1
 90
       50
176
     1
 40
0.0
176
     1
 40
1.0
176
     1
 90
        0
176
     1
 62
    18
420
        0
176
     1
 90
       50
176
     1
 90
        3
176
     1
 62
     5
420
      255
176
     1
290
     0
176
     1
 90
       50
176
     1
 90
       50
176
     1
 90
       50
176
     1
290
     0
176
     1
 90
       50
176
     1
 62
   256
176
     0
 40
1.0
176
     0
 90
        2
176
     1
  1
strokes_ogs.tif
176
     1
290
     0
176
     1
 40
1.0
176
     1
 40
1.0
176
     1
  0
VISUALSTYLE
  5
89
102
{ACAD_REACTORS
330
82
102
}
330
82
100
AcDbVisualStyle
  2
3dWireframe
 70
     5
177
     3
291
     0
 70
    58
 90
        0
176
     1
 90
        2
176
     1
 90
        1
176
     1
 90
        0
176
     1
 40
0.6
176
     1
 40
30.0
176
     1
 62
     7
420
 16777215
176
     1
 90
        1
176
     1
 90
        4
176
     1
 62
     7
176
     1
 62
   257
176
     1
 90
        1
176
     1
 90
        1
176
     1
 40
1.0
176
     1
 90
        0
176
     1
 62
   257
176
     1
 40
1.0
176
     1
 90
        1
176
     1
 90
        6
176
     1
 90
        2
176
     1
 62
     7
176
     1
 90
        5
176
     1
 90
        0
176
     1
 90
        0
176
     1
290
     0
176
     1
 90
        1
176
     1
 40
0.0
176
     1
 90
        0
176
     1
290
     0
176
     1
290
     1
176
     1
290
     1
176
     1
290
     0
176
     1
290
     0
176
     1
290
     0
176
     1
290
     0
176
     1
290
     0
176
     1
290
     0
176
     1
 90
       50
176
     1
 40
0.0
176
     1
 40
1.0
176
     1
 90
        0
176
     1
 62
    18
420
        0
176
     1
 90
       50
176
     1
 90
        3
176
     1
 62
     5
420
      255
176
     1
290
     0
176
     1
 90
       50
176
     1
 90
       50
176
     1
 90
       50
176
     1
290
     0
176
     1
 90
       50
176
     1
 62
   256
176
     0
 40
1.0
176
     0
 90
        2
176
     1
  1
strokes_ogs.tif
176
     1
290
     0
176
     1
 40
1.0
176
     1
 40
1.0
176
     1
  0
VISUALSTYLE
  5
87
102
{ACAD_REACTORS
330
82
102
}
330
82
100
AcDbVisualStyle
  2
Basic
 70
     7
177
     3
291
     1
 70
    58
 90
        1
176
     1
 90
        0
176
     1
 90
        1
176
     1
 90
        0
176
     1
 40
0.6
176
     1
 40
30.0
176
     1
 62
     7
420
 16777215
176
     1
 90
        0
176
     1
 90
        4
176
     1
 62
     7
176
     1
 62
   257
176
     1
 90
        1
176
     1
 90
        1
176
     1
 40
1.0
176
     1
 90
        8
176
     1
 62
     7
176
     1
 40
1.0
176
     1
 90
        1
176
     1
 90
        6
176
     1
 90
        2
176
     1
 62
     7
176
     1
 90
        5
176
     1
 90
        0
176
     1
 90
        0
176
     1
290
     0
176
     1
 90
        1
176
     1
 40
0.0
176
     1
 90
        0
176
     1
290
     0
176
     1
290
     1
176
     1
290
     1
176
     1
290
     0
176
     1
290
     0
176
     1
290
     0
176
     1
290
     0
176
     1
290
     0
176
     1
290
     0
176
     1
 90
       50
176
     1
 40
0.0
176
     1
 40
1.0
176
     1
 90
        0
176
     1
 62
    18
420
        0
176
     1
 90
       50
176
     1
 90
        3
176
     1
 62
     5
420
      255
176
     1
290
     0
176
     1
 90
       50
176
     1
 90
       50
176
     1
 90
       50
176
     1
290
     0
176
     1
 90
       50
176
     1
 62
   256
176
     0
 40
1.0
176
     0
 90
        2
176
     1
  1
strokes_ogs.tif
176
     1
290
     0
176
     1
 40
1.0
176
     1
 40
1.0
176
     1
  0
VISUALSTYLE
  5
8E
102
{ACAD_REACTORS
330
82
102
}
330
82
100
AcDbVisualStyle
  2
Brighten
 70
    12
177
     3
291
     1
 70
    58
 90
        2
176
     1
 90
        2
176
     1
 90
        1
176
     1
 90
        0
176
     1
 40
0.6
176
     1
 40
30.0
176
     1
 62
     7
420
 16777215
176
     1
 90
        1
176
     1
 90
        4
176
     1
 62
     7
176
     1
 62
   257
176
     1
 90
        1
176
     1
 90
        1
176
     1
 40
1.0
176
     1
 90
        8
176
     1
 62
     7
176
     1
 40
1.0
176
     1
 90
        1
176
     1
 90
        6
176
     1
 90
        2
176
     1
 62
     7
176
     1
 90
        5
176
     1
 90
        0
176
     1
 90
        0
176
     1
290
     0
176
     1
 90
        1
176
     1
 40
50.0
176
     1
 90
        0
176
     1
290
     0
176
     1
290
     1
176
     1
290
     1
176
     1
290
     0
176
     1
290
     0
176
     1
290
     0
176
     1
290
     0
176
     1
290
     0
176
     1
290
     0
176
     1
 90
       50
176
     1
 40
0.0
176
     1
 40
1.0
176
     1
 90
        0
176
     1
 62
    18
420
        0
176
     1
 90
       50
176
     1
 90
        3
176
     1
 62
     5
420
      255
176
     1
290
     0
176
     1
 90
       50
176
     1
 90
       50
176
     1
 90
       50
176
     1
290
     0
176
     1
 90
       50
176
     1
 62
   256
176
     0
 40
1.0
176
     0
 90
        2
176
     1
  1
strokes_ogs.tif
176
     1
290
     0
176
     1
 40
1.0
176
     1
 40
1.0
176
     1
  0
VISUALSTYLE
  5
92
102
{ACAD_REACTORS
330
82
102
}
330
82
100
AcDbVisualStyle
  2
ColorChange
 70
    16
177
     3
291
     1
 70
    58
 90
        2
176
     1
 90
        2
176
     1
 90
        3
176
     1
 90
        0
176
     1
 40
0.6
176
     1
 40
30.0
176
     1
 62
     8
420
  8421504
176
     1
 90
        1
176
     1
 90
        4
176
     1
 62
     7
176
     1
 62
   257
176
     1
 90
        1
176
     1
 90
        1
176
     1
 40
1.0
176
     1
 90
        8
176
     1
 62
     8
420
  8421504
176
     1
 40
1.0
176
     1
 90
        1
176
     1
 90
        6
176
     1
 90
        2
176
     1
 62
     7
176
     1
 90
        5
176
     1
 90
        0
176
     1
 90
        0
176
     1
290
     0
176
     1
 90
        1
176
     1
 40
0.0
176
     1
 90
        0
176
     1
290
     0
176
     1
290
     1
176
     1
290
     1
176
     1
290
     0
176
     1
290
     0
176
     1
290
     0
176
     1
290
     0
176
     1
290
     0
176
     1
290
     0
176
     1
 90
       50
176
     1
 40
0.0
176
     1
 40
1.0
176
     1
 90
        0
176
     1
 62
    18
420
        0
176
     1
 90
       50
176
     1
 90
        3
176
     1
 62
     5
420
      255
176
     1
290
     0
176
     1
 90
       50
176
     1
 90
       50
176
     1
 90
       50
176
     1
290
     0
176
     1
 90
       50
176
     1
 62
   256
176
     0
 40
1.0
176
     0
 90
        2
176
     1
  1
strokes_ogs.tif
176
     1
290
     0
176
     1
 40
1.0
176
     1
 40
1.0
176
     1
  0
VISUALSTYLE
  5
8B
102
{ACAD_REACTORS
330
82
102
}
330
82
100
AcDbVisualStyle
  2
Conceptual
 70
     9
177
     3
291
     0
 70
    58
 90
        3
176
     1
 90
        2
176
     1
 90
        1
176
     1
 90
        0
176
     1
 40
0.6
176
     1
 40
30.0
176
     1
 62
     7
420
 16777215
176
     1
 90
        2
176
     1
 90
        2
176
     1
 62
     7
176
     1
 62
   257
176
     1
 90
        1
176
     1
 90
        1
176
     1
 40
40.0
176
     1
 90
        8
176
     1
 62
     7
176
     1
 40
1.0
176
     1
 90
        1
176
     1
 90
        6
176
     1
 90
        2
176
     1
 62
     7
176
     1
 90
        5
176
     1
 90
        0
176
     1
 90
        0
176
     1
290
     0
176
     1
 90
        1
176
     1
 40
0.0
176
     1
 90
        0
176
     1
290
     0
176
     1
290
     1
176
     1
290
     1
176
     1
290
     0
176
     1
290
     0
176
     1
290
     0
176
     1
290
     0
176
     1
290
     0
176
     1
290
     0
176
     1
 90
       50
176
     1
 40
0.0
176
     1
 40
1.0
176
     1
 90
        0
176
     1
 62
    18
420
        0
176
     1
 90
       50
176
     1
 90
        3
176
     1
 62
     5
420
      255
176
     1
290
     0
176
     1
 90
       50
176
     1
 90
       50
176
     1
 90
       50
176
     1
290
     0
176
     1
 90
       50
176
     1
 62
   256
176
     0
 40
1.0
176
     0
 90
        2
176
     1
  1
strokes_ogs.tif
176
     1
290
     0
176
     1
 40
1.0
176
     1
 40
1.0
176
     1
  0
VISUALSTYLE
  5
8D
102
{ACAD_REACTORS
330
82
102
}
330
82
100
AcDbVisualStyle
  2
Dim
 70
    11
177
     3
291
     1
 70
    58
 90
        2
176
     1
 90
        2
176
     1
 90
        1
176
     1
 90
        0
176
     1
 40
0.6
176
     1
 40
30.0
176
     1
 62
     7
420
 16777215
176
     1
 90
        1
176
     1
 90
        4
176
     1
 62
     7
176
     1
 62
   257
176
     1
 90
        1
176
     1
 90
        1
176
     1
 40
1.0
176
     1
 90
        8
176
     1
 62
     7
176
     1
 40
1.0
176
     1
 90
        1
176
     1
 90
        6
176
     1
 90
        2
176
     1
 62
     7
176
     1
 90
        5
176
     1
 90
        0
176
     1
 90
        0
176
     1
290
     0
176
     1
 90
        1
176
     1
 40
-50.0
176
     1
 90
        0
176
     1
290
     0
176
     1
290
     1
176
     1
290
     1
176
     1
290
     0
176
     1
290
     0
176
     1
290
     0
176
     1
290
     0
176
     1
290
     0
176
     1
290
     0
176
     1
 90
       50
176
     1
 40
0.0
176
     1
 40
1.0
176
     1
 90
        0
176
     1
 62
    18
420
        0
176
     1
 90
       50
176
     1
 90
        3
176
     1
 62
     5
420
      255
176
     1
290
     0
176
     1
 90
       50
176
     1
 90
       50
176
     1
 90
       50
176
     1
290
     0
176
     1
 90
       50
176
     1
 62
   256
176
     0
 40
1.0
176
     0
 90
        2
176
     1
  1
strokes_ogs.tif
176
     1
290
     0
176
     1
 40
1.0
176
     1
 40
1.0
176
     1
  0
VISUALSTYLE
  5
AE
102
{ACAD_REACTORS
330
82
102
}
330
82
100
AcDbVisualStyle
  2
EdgeColorOff
 70
    22
177
     3
291
     1
 70
    58
 90
        2
176
     0
 90
        2
176
     0
 90
        0
176
     0
 90
        0
176
     0
 40
0.6
176
     0
 40
30.0
176
     0
 62
     7
420
 16777215
176
     0
 90
        1
176
     0
 90
        4
176
     0
 62
     7
176
     0
 62
   257
176
     0
 90
        1
176
     0
 90
        1
176
     0
 40
1.0
176
     0
 90
        8
176
     2
 62
     7
176
     0
 40
1.0
176
     0
 90
        1
176
     0
 90
        6
176
     0
 90
        2
176
     0
 62
     7
176
     0
 90
        5
176
     0
 90
        0
176
     0
 90
        0
176
     0
290
     0
176
     0
 90
        1
176
     0
 40
0.0
176
     0
 90
        0
176
     0
290
     0
176
     0
290
     1
176
     0
290
     1
176
     0
290
     0
176
     0
290
     0
176
     0
290
     0
176
     0
290
     0
176
     0
290
     0
176
     0
290
     0
176
     0
 90
       50
176
     0
 40
0.0
176
     0
 40
1.0
176
     0
 90
        0
176
     0
 62
    18
420
        0
176
     0
 90
       50
176
     0
 90
        3
176
     0
 62
     5
420
      255
176
     0
290
     0
176
     0
 90
       50
176
     0
 90
       50
176
     0
 90
       50
176
     0
290
     0
176
     0
 90
       50
176
     0
 62
   256
176
     0
 40
1.0
176
     0
 90
        2
176
     0
  1
strokes_ogs.tif
176
     0
290
     0
176
     0
 40
1.0
176
     0
 40
1.0
176
     0
  0
VISUALSTYLE
  5
91
102
{ACAD_REACTORS
330
82
102
}
330
82
100
AcDbVisualStyle
  2
Facepattern
 70
    15
177
     3
291
     1
 70
    58
 90
        2
176
     1
 90
        2
176
     1
 90
        1
176
     1
 90
        0
176
     1
 40
0.6
176
     1
 40
30.0
176
     1
 62
     7
420
 16777215
176
     1
 90
        1
176
     1
 90
        4
176
     1
 62
     7
176
     1
 62
   257
176
     1
 90
        1
176
     1
 90
        1
176
     1
 40
1.0
176
     1
 90
        8
176
     1
 62
     7
176
     1
 40
1.0
176
     1
 90
        1
176
     1
 90
        6
176
     1
 90
        2
176
     1
 62
     7
176
     1
 90
        5
176
     1
 90
        0
176
     1
 90
        0
176
     1
290
     0
176
     1
 90
        1
176
     1
 40
0.0
176
     1
 90
        0
176
     1
290
     0
176
     1
290
     1
176
     1
290
     1
176
     1
290
     0
176
     1
290
     0
176
     1
290
     0
176
     1
290
     0
176
     1
290
     0
176
     1
290
     0
176
     1
 90
       50
176
     1
 40
0.0
176
     1
 40
1.0
176
     1
 90
        0
176
     1
 62
    18
420
        0
176
     1
 90
       50
176
     1
 90
        3
176
     1
 62
     5
420
      255
176
     1
290
     0
176
     1
 90
       50
176
     1
 90
       50
176
     1
 90
       50
176
     1
290
     0
176
     1
 90
       50
176
     1
 62
   256
176
     0
 40
1.0
176
     0
 90
        2
176
     1
  1
strokes_ogs.tif
176
     1
290
     0
176
     1
 40
1.0
176
     1
 40
1.0
176
     1
  0
VISUALSTYLE
  5
83
102
{ACAD_REACTORS
330
82
102
}
330
82
100
AcDbVisualStyle
  2
Flat
 70
     0
177
     3
291
     1
 70
    58
 90
        2
176
     1
 90
        1
176
     1
 90
        1
176
     1
 90
        2
176
     1
 40
0.6
176
     1
 40
30.0
176
     1
 62
     7
420
 16777215
176
     1
 90
        0
176
     1
 90
        4
176
     1
 62
     7
176
     1
 62
   257
176
     1
 90
        1
176
     1
 90
        1
176
     1
 40
1.0
176
     1
 90
        8
176
     1
 62
     7
176
     1
 40
1.0
176
     1
 90
        1
176
     1
 90
        6
176
     1
 90
        2
176
     1
 62
     7
176
     1
 90
        5
176
     1
 90
        0
176
     1
 90
        0
176
     1
290
     0
176
     1
 90
        1
176
     1
 40
0.0
176
     1
 90
        0
176
     1
290
     0
176
     1
290
     1
176
     1
290
     1
176
     1
290
     0
176
     1
290
     0
176
     1
290
     0
176
     1
290
     0
176
     1
290
     0
176
     1
290
     0
176
     1
 90
       50
176
     1
 40
0.0
176
     1
 40
1.0
176
     1
 90
        0
176
     1
 62
    18
420
        0
176
     1
 90
       50
176
     1
 90
        3
176
     1
 62
     5
420
      255
176
     1
290
     0
176
     1
 90
       50
176
     1
 90
       50
176
     1
 90
       50
176
     1
290
     0
176
     1
 90
       50
176
     1
 62
   256
176
     0
 40
1.0
176
     0
 90
        2
176
     1
  1
strokes_ogs.tif
176
     1
290
     0
176
     1
 40
1.0
176
     1
 40
1.0
176
     1
  0
VISUALSTYLE
  5
84
102
{ACAD_REACTORS
330
82
102
}
330
82
100
AcDbVisualStyle
  2
FlatWithEdges
 70
     1
177
     3
291
     1
 70
    58
 90
        2
176
     1
 90
        1
176
     1
 90
        1
176
     1
 90
        2
176
     1
 40
0.6
176
     1
 40
30.0
176
     1
 62
     7
420
 16777215
176
     1
 90
        1
176
     1
 90
        4
176
     1
 62
     7
176
     1
 62
   257
176
     1
 90
        1
176
     1
 90
        1
176
     1
 40
1.0
176
     1
 90
        0
176
     1
 62
   257
176
     1
 40
1.0
176
     1
 90
        1
176
     1
 90
        6
176
     1
 90
        2
176
     1
 62
     7
176
     1
 90
        5
176
     1
 90
        0
176
     1
 90
        0
176
     1
290
     0
176
     1
 90
        1
176
     1
 40
0.0
176
     1
 90
        0
176
     1
290
     0
176
     1
290
     1
176
     1
290
     1
176
     1
290
     0
176
     1
290
     0
176
     1
290
     0
176
     1
290
     0
176
     1
290
     0
176
     1
290
     0
176
     1
 90
       50
176
     1
 40
0.0
176
     1
 40
1.0
176
     1
 90
        0
176
     1
 62
    18
420
        0
176
     1
 90
       50
176
     1
 90
        3
176
     1
 62
     5
420
      255
176
     1
290
     0
176
     1
 90
       50
176
     1
 90
       50
176
     1
 90
       50
176
     1
290
     0
176
     1
 90
       50
176
     1
 62
   256
176
     0
 40
1.0
176
     0
 90
        2
176
     1
  1
strokes_ogs.tif
176
     1
290
     0
176
     1
 40
1.0
176
     1
 40
1.0
176
     1
  0
VISUALSTYLE
  5
85
102
{ACAD_REACTORS
330
82
102
}
330
82
100
AcDbVisualStyle
  2
Gouraud
 70
     2
177
     3
291
     1
 70
    58
 90
        2
176
     1
 90
        2
176
     1
 90
        1
176
     1
 90
        2
176
     1
 40
0.6
176
     1
 40
30.0
176
     1
 62
     7
420
 16777215
176
     1
 90
        0
176
     1
 90
        4
176
     1
 62
     7
176
     1
 62
   257
176
     1
 90
        1
176
     1
 90
        1
176
     1
 40
1.0
176
     1
 90
        0
176
     1
 62
     7
176
     1
 40
1.0
176
     1
 90
        1
176
     1
 90
        6
176
     1
 90
        2
176
     1
 62
     7
176
     1
 90
        5
176
     1
 90
        0
176
     1
 90
        0
176
     1
290
     0
176
     1
 90
        1
176
     1
 40
0.0
176
     1
 90
        0
176
     1
290
     0
176
     1
290
     1
176
     1
290
     1
176
     1
290
     0
176
     1
290
     0
176
     1
290
     0
176
     1
290
     0
176
     1
290
     0
176
     1
290
     0
176
     1
 90
       50
176
     1
 40
0.0
176
     1
 40
1.0
176
     1
 90
        0
176
     1
 62
    18
420
        0
176
     1
 90
       50
176
     1
 90
        3
176
     1
 62
     5
420
      255
176
     1
290
     0
176
     1
 90
       50
176
     1
 90
       50
176
     1
 90
       50
176
     1
290
     0
176
     1
 90
       50
176
     1
 62
   256
176
     0
 40
1.0
176
     0
 90
        2
176
     1
  1
strokes_ogs.tif
176
     1
290
     0
176
     1
 40
1.0
176
     1
 40
1.0
176
     1
  0
VISUALSTYLE
  5
86
102
{ACAD_REACTORS
330
82
102
}
330
82
100
AcDbVisualStyle
  2
GouraudWithEdges
 70
     3
177
     3
291
     1
 70
    58
 90
        2
176
     1
 90
        2
176
     1
 90
        1
176
     1
 90
        2
176
     1
 40
0.6
176
     1
 40
30.0
176
     1
 62
     7
420
 16777215
176
     1
 90
        1
176
     1
 90
        4
176
     1
 62
     7
176
     1
 62
   257
176
     1
 90
        1
176
     1
 90
        1
176
     1
 40
1.0
176
     1
 90
        0
176
     1
 62
   257
176
     1
 40
1.0
176
     1
 90
        1
176
     1
 90
        6
176
     1
 90
        2
176
     1
 62
     7
176
     1
 90
        5
176
     1
 90
        0
176
     1
 90
        0
176
     1
290
     0
176
     1
 90
        1
176
     1
 40
0.0
176
     1
 90
        0
176
     1
290
     0
176
     1
290
     1
176
     1
290
     1
176
     1
290
     0
176
     1
290
     0
176
     1
290
     0
176
     1
290
     0
176
     1
290
     0
176
     1
290
     0
176
     1
 90
       50
176
     1
 40
0.0
176
     1
 40
1.0
176
     1
 90
        0
176
     1
 62
    18
420
        0
176
     1
 90
       50
176
     1
 90
        3
176
     1
 62
     5
420
      255
176
     1
290
     0
176
     1
 90
       50
176
     1
 90
       50
176
     1
 90
       50
176
     1
290
     0
176
     1
 90
       50
176
     1
 62
   256
176
     0
 40
1.0
176
     0
 90
        2
176
     1
  1
strokes_ogs.tif
176
     1
290
     0
176
     1
 40
1.0
176
     1
 40
1.0
176
     1
  0
VISUALSTYLE
  5
A6
102
{ACAD_REACTORS
330
82
102
}
330
82
100
AcDbVisualStyle
  2
Hidden
 70
     6
177
     3
291
     0
 70
    58
 90
        1
176
     1
 90
        2
176
     1
 90
        2
176
     1
 90
        0
176
     1
 40
0.6
176
     1
 40
30.0
176
     1
 62
     7
420
 16777215
176
     1
 90
        2
176
     1
 90
        2
176
     1
 62
     7
176
     1
 62
   257
176
     1
 90
        2
176
     1
 90
        1
176
     1
 40
40.0
176
     1
 90
        0
176
     1
 62
   257
176
     1
 40
1.0
176
     1
 90
        1
176
     1
 90
        6
176
     1
 90
        2
176
     1
 62
     7
176
     1
 90
        3
176
     1
 90
        0
176
     1
 90
        0
176
     1
290
     0
176
     1
 90
        1
176
     1
 40
0.0
176
     1
 90
        0
176
     1
290
     0
176
     1
290
     1
176
     1
290
     1
176
     1
290
     0
176
     1
290
     0
176
     1
290
     0
176
     1
290
     0
176
     1
290
     0
176
     1
290
     0
176
     1
 90
       50
176
     1
 40
0.0
176
     1
 40
1.0
176
     1
 90
        0
176
     1
 62
    18
420
        0
176
     1
 90
       50
176
     1
 90
        3
176
     1
 62
     5
420
      255
176
     1
290
     0
176
     1
 90
       50
176
     1
 90
       50
176
     1
 90
       50
176
     1
290
     0
176
     1
 90
       50
176
     1
 62
   256
176
     0
 40
1.0
176
     0
 90
        2
176
     1
  1
strokes_ogs.tif
176
     1
290
     0
176
     1
 40
1.0
176
     1
 40
1.0
176
     1
  0
VISUALSTYLE
  5
AC
102
{ACAD_REACTORS
330
82
102
}
330
82
100
AcDbVisualStyle
  2
JitterOff
 70
    20
177
     3
291
     1
 70
    58
 90
        2
176
     0
 90
        2
176
     0
 90
        0
176
     0
 90
        0
176
     0
 40
0.6
176
     0
 40
30.0
176
     0
 62
     7
420
 16777215
176
     0
 90
        1
176
     0
 90
        4
176
     0
 62
     7
176
     0
 62
   257
176
     0
 90
        1
176
     0
 90
        1
176
     0
 40
1.0
176
     0
 90
       10
176
     2
 62
     7
176
     0
 40
1.0
176
     0
 90
        1
176
     0
 90
        6
176
     0
 90
        2
176
     0
 62
     7
176
     0
 90
        5
176
     0
 90
        0
176
     0
 90
        0
176
     0
290
     0
176
     0
 90
        1
176
     0
 40
0.0
176
     0
 90
        0
176
     0
290
     0
176
     0
290
     1
176
     0
290
     1
176
     0
290
     0
176
     0
290
     0
176
     0
290
     0
176
     0
290
     0
176
     0
290
     0
176
     0
290
     0
176
     0
 90
       50
176
     0
 40
0.0
176
     0
 40
1.0
176
     0
 90
        0
176
     0
 62
    18
420
        0
176
     0
 90
       50
176
     0
 90
        3
176
     0
 62
     5
420
      255
176
     0
290
     0
176
     0
 90
       50
176
     0
 90
       50
176
     0
 90
       50
176
     0
290
     0
176
     0
 90
       50
176
     0
 62
   256
176
     0
 40
1.0
176
     0
 90
        2
176
     0
  1
strokes_ogs.tif
176
     0
290
     0
176
     0
 40
1.0
176
     0
 40
1.0
176
     0
  0
VISUALSTYLE
  5
90
102
{ACAD_REACTORS
330
82
102
}
330
82
100
AcDbVisualStyle
  2
Linepattern
 70
    14
177
     3
291
     1
 70
    58
 90
        2
176
     1
 90
        2
176
     1
 90
        1
176
     1
 90
        0
176
     1
 40
0.6
176
     1
 40
30.0
176
     1
 62
     7
420
 16777215
176
     1
 90
        1
176
     1
 90
        4
176
     1
 62
     7
176
     1
 62
   257
176
     1
 90
        7
176
     1
 90
        7
176
     1
 40
1.0
176
     1
 90
        8
176
     1
 62
     7
176
     1
 40
1.0
176
     1
 90
        1
176
     1
 90
        6
176
     1
 90
        2
176
     1
 62
     7
176
     1
 90
        5
176
     1
 90
        0
176
     1
 90
        0
176
     1
290
     0
176
     1
 90
        1
176
     1
 40
0.0
176
     1
 90
        0
176
     1
290
     0
176
     1
290
     1
176
     1
290
     1
176
     1
290
     0
176
     1
290
     0
176
     1
290
     0
176
     1
290
     0
176
     1
290
     0
176
     1
290
     0
176
     1
 90
       50
176
     1
 40
0.0
176
     1
 40
1.0
176
     1
 90
        0
176
     1
 62
    18
420
        0
176
     1
 90
       50
176
     1
 90
        3
176
     1
 62
     5
420
      255
176
     1
290
     0
176
     1
 90
       50
176
     1
 90
       50
176
     1
 90
       50
176
     1
290
     0
176
     1
 90
       50
176
     1
 62
   256
176
     0
 40
1.0
176
     0
 90
        2
176
     1
  1
strokes_ogs.tif
176
     1
290
     0
176
     1
 40
1.0
176
     1
 40
1.0
176
     1
  0
VISUALSTYLE
  5
AD
102
{ACAD_REACTORS
330
82
102
}
330
82
100
AcDbVisualStyle
  2
OverhangOff
 70
    21
177
     3
291
     1
 70
    58
 90
        2
176
     0
 90
        2
176
     0
 90
        0
176
     0
 90
        0
176
     0
 40
0.6
176
     0
 40
30.0
176
     0
 62
     7
420
 16777215
176
     0
 90
        1
176
     0
 90
        4
176
     0
 62
     7
176
     0
 62
   257
176
     0
 90
        1
176
     0
 90
        1
176
     0
 40
1.0
176
     0
 90
        9
176
     2
 62
     7
176
     0
 40
1.0
176
     0
 90
        1
176
     0
 90
        6
176
     0
 90
        2
176
     0
 62
     7
176
     0
 90
        5
176
     0
 90
        0
176
     0
 90
        0
176
     0
290
     0
176
     0
 90
        1
176
     0
 40
0.0
176
     0
 90
        0
176
     0
290
     0
176
     0
290
     1
176
     0
290
     1
176
     0
290
     0
176
     0
290
     0
176
     0
290
     0
176
     0
290
     0
176
     0
290
     0
176
     0
290
     0
176
     0
 90
       50
176
     0
 40
0.0
176
     0
 40
1.0
176
     0
 90
        0
176
     0
 62
    18
420
        0
176
     0
 90
       50
176
     0
 90
        3
176
     0
 62
     5
420
      255
176
     0
290
     0
176
     0
 90
       50
176
     0
 90
       50
176
     0
 90
       50
176
     0
290
     0
176
     0
 90
       50
176
     0
 62
   256
176
     0
 40
1.0
176
     0
 90
        2
176
     0
  1
strokes_ogs.tif
176
     0
290
     0
176
     0
 40
1.0
176
     0
 40
1.0
176
     0
  0
VISUALSTYLE
  5
8C
102
{ACAD_REACTORS
330
82
102
}
330
82
100
AcDbVisualStyle
  2
Realistic
 70
     8
177
     3
291
     0
 70
    58
 90
        2
176
     1
 90
        2
176
     1
 90
        1
176
     1
 90
        0
176
     1
 40
0.6
176
     1
 40
30.0
176
     1
 62
     7
420
 16777215
176
     1
 90
        1
176
     1
 90
        0
176
     1
 62
     7
176
     1
 62
   257
176
     1
 90
        1
176
     1
 90
        1
176
     1
 40
1.0
176
     1
 90
        8
176
     1
 62
     7
176
     1
 40
1.0
176
     1
 90
        1
176
     1
 90
        6
176
     1
 90
        2
176
     1
 62
     7
176
     1
 90
        5
176
     1
 90
        0
176
     1
 90
        0
176
     1
290
     0
176
     1
 90
       13
176
     1
 40
0.0
176
     1
 90
        0
176
     1
290
     0
176
     1
290
     1
176
     1
290
     1
176
     1
290
     0
176
     1
290
     0
176
     1
290
     0
176
     1
290
     0
176
     1
290
     0
176
     1
290
     0
176
     1
 90
       50
176
     1
 40
0.0
176
     1
 40
1.0
176
     1
 90
        0
176
     1
 62
    18
420
        0
176
     1
 90
       50
176
     1
 90
        3
176
     1
 62
     5
420
      255
176
     1
290
     0
176
     1
 90
       50
176
     1
 90
       50
176
     1
 90
       50
176
     1
290
     0
176
     1
 90
       50
176
     1
 62
   256
176
     0
 40
1.0
176
     0
 90
        2
176
     1
  1
strokes_ogs.tif
176
     1
290
     0
176
     1
 40
1.0
176
     1
 40
1.0
176
     1
  0
VISUALSTYLE
  5
AB
102
{ACAD_REACTORS
330
82
102
}
330
82
100
AcDbVisualStyle
  2
Shaded
 70
    27
177
     3
291
     0
 70
    58
 90
        2
176
     1
 90
        2
176
     1
 90
        1
176
     1
 90
        2
176
     1
 40
0.6
176
     1
 40
30.0
176
     1
 62
     7
420
 16777215
176
     1
 90
        0
176
     1
 90
        4
176
     1
 62
     7
176
     1
 62
   257
176
     1
 90
        1
176
     1
 90
        1
176
     1
 40
1.0
176
     1
 90
        8
176
     1
 62
   257
176
     1
 40
1.0
176
     1
 90
        1
176
     1
 90
        6
176
     1
 90
        2
176
     1
 62
     8
420
  7895160
176
     1
 90
        3
176
     1
 90
        0
176
     1
 90
        0
176
     1
290
     0
176
     1
 90
        5
176
     1
 40
0.0
176
     1
 90
        0
176
     1
290
     0
176
     1
290
     1
176
     1
290
     1
176
     1
290
     0
176
     1
290
     0
176
     1
290
     0
176
     1
290
     0
176
     1
290
     0
176
     1
290
     0
176
     1
 90
       50
176
     1
 40
0.0
176
     1
 40
1.0
176
     1
 90
        0
176
     1
 62
    18
420
        0
176
     1
 90
       50
176
     1
 90
        3
176
     1
 62
     5
420
      255
176
     1
290
     0
176
     1
 90
       50
176
     1
 90
       50
176
     1
 90
       50
176
     1
290
     0
176
     1
 90
       50
176
     1
 62
   256
176
     0
 40
1.0
176
     0
 90
        2
176
     1
  1
strokes_ogs.tif
176
     1
290
     0
176
     1
 40
1.0
176
     1
 40
1.0
176
     1
  0
VISUALSTYLE
  5
AA
102
{ACAD_REACTORS
330
82
102
}
330
82
100
AcDbVisualStyle
  2
Shaded with edges
 70
    26
177
     3
291
     0
 70
    58
 90
        2
176
     1
 90
        2
176
     1
 90
        1
176
     1
 90
        2
176
     1
 40
0.6
176
     1
 40
30.0
176
     1
 62
     7
420
 16777215
176
     1
 90
        1
176
     1
 90
        2
176
     1
 62
     7
176
     1
 62
   257
176
     1
 90
        2
176
     1
 90
        1
176
     1
 40
1.0
176
     1
 90
        8
176
     1
 62
   257
176
     1
 40
1.0
176
     1
 90
        1
176
     1
 90
        6
176
     1
 90
        2
176
     1
 62
     7
176
     1
 90
        3
176
     1
 90
        0
176
     1
 90
        0
176
     1
290
     0
176
     1
 90
        5
176
     1
 40
0.0
176
     1
 90
        0
176
     1
290
     0
176
     1
290
     1
176
     1
290
     1
176
     1
290
     0
176
     1
290
     0
176
     1
290
     0
176
     1
290
     0
176
     1
290
     0
176
     1
290
     0
176
     1
 90
       50
176
     1
 40
0.0
176
     1
 40
1.0
176
     1
 90
        0
176
     1
 62
    18
420
        0
176
     1
 90
       50
176
     1
 90
        3
176
     1
 62
     5
420
      255
176
     1
290
     0
176
     1
 90
       50
176
     1
 90
       50
176
     1
 90
       50
176
     1
290
     0
176
     1
 90
       50
176
     1
 62
   256
176
     0
 40
1.0
176
     0
 90
        2
176
     1
  1
strokes_ogs.tif
176
     1
290
     0
176
     1
 40
1.0
176
     1
 40
1.0
176
     1
  0
VISUALSTYLE
  5
A7
102
{ACAD_REACTORS
330
82
102
}
330
82
100
AcDbVisualStyle
  2
Shades of Gray
 70
    23
177
     3
291
     0
 70
    58
 90
        2
176
     1
 90
        2
176
     1
 90
        3
176
     1
 90
        0
176
     1
 40
0.6
176
     1
 40
30.0
176
     1
 62
     7
420
 16777215
176
     1
 90
        2
176
     1
 90
        2
176
     1
 62
     7
176
     1
 62
     7
176
     1
 90
        1
176
     1
 90
        1
176
     1
 40
40.0
176
     1
 90
        8
176
     1
 62
     7
176
     1
 40
1.0
176
     1
 90
        1
176
     1
 90
        6
176
     1
 90
        2
176
     1
 62
     7
176
     1
 90
        3
176
     1
 90
        0
176
     1
 90
        0
176
     1
290
     0
176
     1
 90
        1
176
     1
 40
0.0
176
     1
 90
        0
176
     1
290
     0
176
     1
290
     1
176
     1
290
     1
176
     1
290
     0
176
     1
290
     0
176
     1
290
     0
176
     1
290
     0
176
     1
290
     0
176
     1
290
     0
176
     1
 90
       50
176
     1
 40
0.0
176
     1
 40
1.0
176
     1
 90
        0
176
     1
 62
    18
420
        0
176
     1
 90
       50
176
     1
 90
        3
176
     1
 62
     5
420
      255
176
     1
290
     0
176
     1
 90
       50
176
     1
 90
       50
176
     1
 90
       50
176
     1
290
     0
176
     1
 90
       50
176
     1
 62
   256
176
     0
 40
1.0
176
     0
 90
        2
176
     1
  1
strokes_ogs.tif
176
     1
290
     0
176
     1
 40
1.0
176
     1
 40
1.0
176
     1
  0
VISUALSTYLE
  5
A8
102
{ACAD_REACTORS
330
82
102
}
330
82
100
AcDbVisualStyle
  2
Sketchy
 70
    24
177
     3
291
     0
 70
    58
 90
        1
176
     1
 90
        2
176
     1
 90
        2
176
     1
 90
        0
176
     1
 40
0.6
176
     1
 40
30.0
176
     1
 62
     7
420
 16777215
176
     1
 90
        2
176
     1
 90
        2
176
     1
 62
     7
176
     1
 62
     7
176
     1
 90
        1
176
     1
 90
        1
176
     1
 40
40.0
176
     1
 90
       11
176
     1
 62
     7
176
     1
 40
1.0
176
     1
 90
        1
176
     1
 90
        6
176
     1
 90
        2
176
     1
 62
     7
176
     1
 90
        6
176
     1
 90
        0
176
     1
 90
        0
176
     1
290
     0
176
     1
 90
        1
176
     1
 40
0.0
176
     1
 90
        0
176
     1
290
     0
176
     1
290
     1
176
     1
290
     1
176
     1
290
     0
176
     1
290
     0
176
     1
290
     0
176
     1
290
     0
176
     1
290
     0
176
     1
290
     0
176
     1
 90
       50
176
     1
 40
0.0
176
     1
 40
1.0
176
     1
 90
        0
176
     1
 62
    18
420
        0
176
     1
 90
       50
176
     1
 90
        3
176
     1
 62
     5
420
      255
176
     1
290
     0
176
     1
 90
       50
176
     1
 90
       50
176
     1
 90
       50
176
     1
290
     0
176
     1
 90
       50
176
     1
 62
   256
176
     0
 40
1.0
176
     0
 90
        2
176
     1
  1
strokes_ogs.tif
176
     1
290
     0
176
     1
 40
1.0
176
     1
 40
1.0
176
     1
  0
VISUALSTYLE
  5
8F
102
{ACAD_REACTORS
330
82
102
}
330
82
100
AcDbVisualStyle
  2
Thicken
 70
    13
177
     3
291
     1
 70
    58
 90
        2
176
     1
 90
        2
176
     1
 90
        1
176
     1
 90
        0
176
     1
 40
0.6
176
     1
 40
30.0
176
     1
 62
     7
420
 16777215
176
     1
 90
        1
176
     1
 90
        4
176
     1
 62
     7
176
     1
 62
   257
176
     1
 90
        1
176
     1
 90
        1
176
     1
 40
1.0
176
     1
 90
       12
176
     1
 62
     7
176
     1
 40
1.0
176
     1
 90
        1
176
     1
 90
        6
176
     1
 90
        2
176
     1
 62
     7
176
     1
 90
        5
176
     1
 90
        0
176
     1
 90
        0
176
     1
290
     0
176
     1
 90
        1
176
     1
 40
0.0
176
     1
 90
        0
176
     1
290
     0
176
     1
290
     1
176
     1
290
     1
176
     1
290
     0
176
     1
290
     0
176
     1
290
     0
176
     1
290
     0
176
     1
290
     0
176
     1
290
     0
176
     1
 90
       50
176
     1
 40
0.0
176
     1
 40
1.0
176
     1
 90
        0
176
     1
 62
    18
420
        0
176
     1
 90
       50
176
     1
 90
        3
176
     1
 62
     5
420
      255
176
     1
290
     0
176
     1
 90
       50
176
     1
 90
       50
176
     1
 90
       50
176
     1
290
     0
176
     1
 90
       50
176
     1
 62
   256
176
     0
 40
1.0
176
     0
 90
        2
176
     1
  1
strokes_ogs.tif
176
     1
290
     0
176
     1
 40
1.0
176
     1
 40
1.0
176
     1
  0
VISUALSTYLE
  5
A5
102
{ACAD_REACTORS
330
82
102
}
330
82
100
AcDbVisualStyle
  2
Wireframe
 70
     5
177
     3
291
     0
 70
    58
 90
        0
176
     1
 90
        2
176
     1
 90
        0
176
     1
 90
        0
176
     1
 40
0.6
176
     1
 40
30.0
176
     1
 62
     7
420
 16777215
176
     1
 90
        1
176
     1
 90
        4
176
     1
 62
     7
176
     1
 62
   257
176
     1
 90
        1
176
     1
 90
        1
176
     1
 40
1.0
176
     1
 90
        0
176
     1
 62
   257
176
     1
 40
1.0
176
     1
 90
        1
176
     1
 90
        6
176
     1
 90
        2
176
     1
 62
     7
176
     1
 90
        3
176
     1
 90
        0
176
     1
 90
        0
176
     1
290
     0
176
     1
 90
        1
176
     1
 40
0.0
176
     1
 90
        0
176
     1
290
     0
176
     1
290
     1
176
     1
290
     1
176
     1
290
     0
176
     1
290
     0
176
     1
290
     0
176
     1
290
     0
176
     1
290
     0
176
     1
290
     0
176
     1
 90
       50
176
     1
 40
0.0
176
     1
 40
1.0
176
     1
 90
        0
176
     1
 62
    18
420
        0
176
     1
 90
       50
176
     1
 90
        3
176
     1
 62
     5
420
      255
176
     1
290
     0
176
     1
 90
       50
176
     1
 90
       50
176
     1
 90
       50
176
     1
290
     0
176
     1
 90
       50
176
     1
 62
   256
176
     0
 40
1.0
176
     0
 90
        2
176
     1
  1
strokes_ogs.tif
176
     1
290
     0
176
     1
 40
1.0
176
     1
 40
1.0
176
     1
  0
VISUALSTYLE
  5
A9
102
{ACAD_REACTORS
330
82
102
}
330
82
100
AcDbVisualStyle
  2
X-Ray
 70
    25
177
     3
291
     0
 70
    58
 90
        2
176
     1
 90
        2
176
     1
 90
        1
176
     1
 90
        1
176
     1
 40
0.5
176
     1
 40
30.0
176
     1
 62
     7
420
 16777215
176
     1
 90
        1
176
     1
 90
        0
176
     1
 62
     7
176
     1
 62
   257
176
     1
 90
        1
176
     1
 90
        1
176
     1
 40
1.0
176
     1
 90
        8
176
     1
 62
     7
176
     1
 40
1.0
176
     1
 90
        1
176
     1
 90
        6
176
     1
 90
        2
176
     1
 62
     7
176
     1
 90
        3
176
     1
 90
        0
176
     1
 90
        0
176
     1
290
     0
176
     1
 90
       13
176
     1
 40
0.0
176
     1
 90
        0
176
     1
290
     0
176
     1
290
     1
176
     1
290
     1
176
     1
290
     0
176
     1
290
     0
176
     1
290
     0
176
     1
290
     0
176
     1
290
     0
176
     1
290
     0
176
     1
 90
       50
176
     1
 40
0.0
176
     1
 40
1.0
176
     1
 90
        0
176
     1
 62
    18
420
        0
176
     1
 90
       50
176
     1
 90
        3
176
     1
 62
     5
420
      255
176
     1
290
     0
176
     1
 90
       50
176
     1
 90
       50
176
     1
 90
       50
176
     1
290
     0
176
     1
 90
       50
176
     1
 62
   256
176
     0
 40
1.0
176
     0
 90
        2
176
     1
  1
strokes_ogs.tif
176
     1
290
     0
176
     1
 40
1.0
176
     1
 40
1.0
176
     1
  0
DICTIONARYVAR
  5
52B
102
{ACAD_REACTORS
330
9B
102
}
330
9B
100
DictionaryVariables
280
     0
  1
1:1
  0
DICTIONARYVAR
  5
527
102
{ACAD_REACTORS
330
9B
102
}
330
9B
100
DictionaryVariables
280
     0
  1
STANDARD
  0
DICTIONARYVAR
  5
9C
102
{ACAD_REACTORS
330
9B
102
}
330
9B
100
DictionaryVariables
280
     0
  1
STANDARD
  0
DICTIONARYVAR
  5
528
102
{ACAD_REACTORS
330
9B
102
}
330
9B
100
DictionaryVariables
280
     0
  1
Imperial24
  0
DICTIONARYVAR
  5
529
102
{ACAD_REACTORS
330
9B
102
}
330
9B
100
DictionaryVariables
280
     0
  1
Imperial24
  0
DICTIONARYVAR
  5
52D
102
{ACAD_REACTORS
330
9B
102
}
330
9B
100
DictionaryVariables
280
     0
  1
1
  0
DICTIONARYVAR
  5
52E
102
{ACAD_REACTORS
330
9B
102
}
330
9B
100
DictionaryVariables
280
     0
  1
15
  0
DICTIONARYVAR
  5
52C
102
{ACAD_REACTORS
330
9B
102
}
330
9B
100
DictionaryVariables
280
     0
  1
0
  0
DICTIONARYVAR
  5
52A
102
{ACAD_REACTORS
330
9B
102
}
330
9B
100
DictionaryVariables
280
     0
  1
0
  0
DICTIONARY
  5
533
330
C6
100
AcDbDictionary
280
     1
281
     1
  3
ACAD_XREC_ROUNDTRIP
360
534
  0
DICTIONARY
  5
531
330
C4
100
AcDbDictionary
280
     1
281
     1
  3
ACAD_XREC_ROUNDTRIP
360
532
  0
DICTIONARY
  5
52F
330
94
100
AcDbDictionary
280
     1
281
     1
  3
ACAD_ROUNDTRIP_2008_TABLESTYLE_CELLSTYLEMAP
360
530
  0
XRECORD
  5
534
102
{ACAD_REACTORS
330
533
102
}
330
533
100
AcDbXrecord
280
     1
102
DISPLAYNAME
  1
Imperial24
102
FLAGS
 90
        0
  0
XRECORD
  5
532
102
{ACAD_REACTORS
330
531
102
}
330
531
100
AcDbXrecord
280
     1
102
DISPLAYNAME
  1
Imperial24
102
FLAGS
 90
        0
  0
CELLSTYLEMAP
  5
530
102
{ACAD_REACTORS
330
52F
102
}
330
52F
100
AcDbCellStyleMap
 90
        3
300
CELLSTYLE
  1
TABLEFORMAT_BEGIN
 90
        5
170
     1
 91
        0
 92
    32768
 62
   257
 93
        1
300
CONTENTFORMAT
  1
CONTENTFORMAT_BEGIN
 90
        0
 91
        0
 92
      512
 93
        0
300

 40
0.0
140
1.0
 94
        5
 62
     0
340
12
144
0.25
309
CONTENTFORMAT_END
171
     0
 94
        6
 95
        1
302
GRIDFORMAT
  1
GRIDFORMAT_BEGIN
 90
        0
 91
        1
 62
     0
 92
       -2
340
0
 93
        0
 40
0.045
309
GRIDFORMAT_END
 95
        2
302
GRIDFORMAT
  1
GRIDFORMAT_BEGIN
 90
        0
 91
        1
 62
     0
 92
       -2
340
0
 93
        0
 40
0.045
309
GRIDFORMAT_END
 95
        4
302
GRIDFORMAT
  1
GRIDFORMAT_BEGIN
 90
        0
 91
        1
 62
     0
 92
       -2
340
0
 93
        0
 40
0.045
309
GRIDFORMAT_END
 95
        8
302
GRIDFORMAT
  1
GRIDFORMAT_BEGIN
 90
        0
 91
        1
 62
     0
 92
       -2
340
0
 93
        0
 40
0.045
309
GRIDFORMAT_END
 95
       16
302
GRIDFORMAT
  1
GRIDFORMAT_BEGIN
 90
        0
 91
        1
 62
     0
 92
       -2
340
0
 93
        0
 40
0.045
309
GRIDFORMAT_END
 95
       32
302
GRIDFORMAT
  1
GRIDFORMAT_BEGIN
 90
        0
 91
        1
 62
     0
 92
       -2
340
0
 93
        0
 40
0.045
309
GRIDFORMAT_END
309
TABLEFORMAT_END
  1
CELLSTYLE_BEGIN
 90
        1
 91
        1
300
_TITLE
309
CELLSTYLE_END
300
CELLSTYLE
  1
TABLEFORMAT_BEGIN
 90
        5
170
     1
 91
        0
 92
        0
 62
   257
 93
        1
300
CONTENTFORMAT
  1
CONTENTFORMAT_BEGIN
 90
        0
 91
        0
 92
      512
 93
        0
300

 40
0.0
140
1.0
 94
        5
 62
     0
340
12
144
0.18
309
CONTENTFORMAT_END
171
     0
 94
        6
 95
        1
302
GRIDFORMAT
  1
GRIDFORMAT_BEGIN
 90
        0
 91
        1
 62
     0
 92
       -2
340
0
 93
        0
 40
0.045
309
GRIDFORMAT_END
 95
        2
302
GRIDFORMAT
  1
GRIDFORMAT_BEGIN
 90
        0
 91
        1
 62
     0
 92
       -2
340
0
 93
        0
 40
0.045
309
GRIDFORMAT_END
 95
        4
302
GRIDFORMAT
  1
GRIDFORMAT_BEGIN
 90
        0
 91
        1
 62
     0
 92
       -2
340
0
 93
        0
 40
0.045
309
GRIDFORMAT_END
 95
        8
302
GRIDFORMAT
  1
GRIDFORMAT_BEGIN
 90
        0
 91
        1
 62
     0
 92
       -2
340
0
 93
        0
 40
0.045
309
GRIDFORMAT_END
 95
       16
302
GRIDFORMAT
  1
GRIDFORMAT_BEGIN
 90
        0
 91
        1
 62
     0
 92
       -2
340
0
 93
        0
 40
0.045
309
GRIDFORMAT_END
 95
       32
302
GRIDFORMAT
  1
GRIDFORMAT_BEGIN
 90
        0
 91
        1
 62
     0
 92
       -2
340
0
 93
        0
 40
0.045
309
GRIDFORMAT_END
309
TABLEFORMAT_END
  1
CELLSTYLE_BEGIN
 90
        2
 91
        1
300
_HEADER
309
CELLSTYLE_END
300
CELLSTYLE
  1
TABLEFORMAT_BEGIN
 90
        5
170
     1
 91
        0
 92
        0
 62
   257
 93
        1
300
CONTENTFORMAT
  1
CONTENTFORMAT_BEGIN
 90
        0
 91
        0
 92
      512
 93
        0
300

 40
0.0
140
1.0
 94
        2
 62
     0
340
12
144
0.18
309
CONTENTFORMAT_END
171
     0
 94
        6
 95
        1
302
GRIDFORMAT
  1
GRIDFORMAT_BEGIN
 90
        0
 91
        1
 62
     0
 92
       -2
340
0
 93
        0
 40
0.045
309
GRIDFORMAT_END
 95
        2
302
GRIDFORMAT
  1
GRIDFORMAT_BEGIN
 90
        0
 91
        1
 62
     0
 92
       -2
340
0
 93
        0
 40
0.045
309
GRIDFORMAT_END
 95
        4
302
GRIDFORMAT
  1
GRIDFORMAT_BEGIN
 90
        0
 91
        1
 62
     0
 92
       -2
340
0
 93
        0
 40
0.045
309
GRIDFORMAT_END
 95
        8
302
GRIDFORMAT
  1
GRIDFORMAT_BEGIN
 90
        0
 91
        1
 62
     0
 92
       -2
340
0
 93
        0
 40
0.045
309
GRIDFORMAT_END
 95
       16
302
GRIDFORMAT
  1
GRIDFORMAT_BEGIN
 90
        0
 91
        1
 62
     0
 92
       -2
340
0
 93
        0
 40
0.045
309
GRIDFORMAT_END
 95
       32
302
GRIDFORMAT
  1
GRIDFORMAT_BEGIN
 90
        0
 91
        1
 62
     0
 92
       -2
340
0
 93
        0
 40
0.045
309
GRIDFORMAT_END
309
TABLEFORMAT_END
  1
CELLSTYLE_BEGIN
 90
        3
 91
        2
300
_DATA
309
CELLSTYLE_END
  0
ENDSEC
  0
EOF
