  0
SECTION
  2
HEADER
  9
$ACADVER
  1
AC1027
  9
$ACADMAINTVER
 70
   125
  9
$DWGCODEPAGE
  3
ANSI_1252
  9
$LASTSAVEDBY
  1
fleminab
  9
$REQUIREDVERSIONS
160
                 0
  9
$INSBASE
 10
0.0
 20
0.0
 30
0.0
  9
$EXTMIN
 10
3.868356286185829
 20
0.2221954128646999
 30
-0.0000000349181948
  9
$EXTMAX
 10
12.81969297436136
 20
12.29389009970013
 30
0.0000000814935746
  9
$LIMMIN
 10
0.0
 20
0.0
  9
$LIMMAX
 10
12.0
 20
9.0
  9
$ORTHOMODE
 70
     0
  9
$REGENMODE
 70
     1
  9
$FILLMODE
 70
     1
  9
$QTEXTMODE
 70
     0
  9
$MIRRTEXT
 70
     0
  9
$LTSCALE
 40
1.0
  9
$ATTMODE
 70
     1
  9
$TEXTSIZE
 40
0.2
  9
$TRACEWID
 40
0.05
  9
$TEXTSTYLE
  7
Standard
  9
$CLAYER
  8
0
  9
$CELTYPE
  6
ByLayer
  9
$CECOLOR
 62
   256
  9
$CELTSCALE
 40
1.0
  9
$DISPSILH
 70
     0
  9
$DIMSCALE
 40
1.0
  9
$DIMASZ
 40
0.18
  9
$DIMEXO
 40
0.0625
  9
$DIMDLI
 40
0.38
  9
$DIMRND
 40
0.0
  9
$DIMDLE
 40
0.0
  9
$DIMEXE
 40
0.18
  9
$DIMTP
 40
0.0
  9
$DIMTM
 40
0.0
  9
$DIMTXT
 40
0.18
  9
$DIMCEN
 40
0.09
  9
$DIMTSZ
 40
0.0
  9
$DIMTOL
 70
     0
  9
$DIMLIM
 70
     0
  9
$DIMTIH
 70
     1
  9
$DIMTOH
 70
     1
  9
$DIMSE1
 70
     0
  9
$DIMSE2
 70
     0
  9
$DIMTAD
 70
     0
  9
$DIMZIN
 70
     0
  9
$DIMBLK
  1

  9
$DIMASO
 70
     1
  9
$DIMSHO
 70
     1
  9
$DIMPOST
  1

  9
$DIMAPOST
  1

  9
$DIMALT
 70
     0
  9
$DIMALTD
 70
     2
  9
$DIMALTF
 40
25.4
  9
$DIMLFAC
 40
1.0
  9
$DIMTOFL
 70
     0
  9
$DIMTVP
 40
0.0
  9
$DIMTIX
 70
     0
  9
$DIMSOXD
 70
     0
  9
$DIMSAH
 70
     0
  9
$DIMBLK1
  1

  9
$DIMBLK2
  1

  9
$DIMSTYLE
  2
Standard
  9
$DIMCLRD
 70
     0
  9
$DIMCLRE
 70
     0
  9
$DIMCLRT
 70
     0
  9
$DIMTFAC
 40
1.0
  9
$DIMGAP
 40
0.09
  9
$DIMJUST
 70
     0
  9
$DIMSD1
 70
     0
  9
$DIMSD2
 70
     0
  9
$DIMTOLJ
 70
     1
  9
$DIMTZIN
 70
     0
  9
$DIMALTZ
 70
     0
  9
$DIMALTTZ
 70
     0
  9
$DIMUPT
 70
     0
  9
$DIMDEC
 70
     4
  9
$DIMTDEC
 70
     4
  9
$DIMALTU
 70
     2
  9
$DIMALTTD
 70
     2
  9
$DIMTXSTY
  7
Standard
  9
$DIMAUNIT
 70
     0
  9
$DIMADEC
 70
     0
  9
$DIMALTRND
 40
0.0
  9
$DIMAZIN
 70
     0
  9
$DIMDSEP
 70
    46
  9
$DIMATFIT
 70
     3
  9
$DIMFRAC
 70
     0
  9
$DIMLDRBLK
  1

  9
$DIMLUNIT
 70
     2
  9
$DIMLWD
 70
    -2
  9
$DIMLWE
 70
    -2
  9
$DIMTMOVE
 70
     0
  9
$DIMFXL
 40
1.0
  9
$DIMFXLON
 70
     0
  9
$DIMJOGANG
 40
0.7853981633974483
  9
$DIMTFILL
 70
     0
  9
$DIMTFILLCLR
 70
     0
  9
$DIMARCSYM
 70
     0
  9
$DIMLTYPE
  6

  9
$DIMLTEX1
  6

  9
$DIMLTEX2
  6

  9
$DIMTXTDIRECTION
 70
     0
  9
$LUNITS
 70
     2
  9
$LUPREC
 70
     4
  9
$SKETCHINC
 40
0.1
  9
$FILLETRAD
 40
0.0
  9
$AUNITS
 70
     0
  9
$AUPREC
 70
     0
  9
$MENU
  1
.
  9
$ELEVATION
 40
0.0
  9
$PELEVATION
 40
0.0
  9
$THICKNESS
 40
0.0
  9
$LIMCHECK
 70
     0
  9
$CHAMFERA
 40
0.0
  9
$CHAMFERB
 40
0.0
  9
$CHAMFERC
 40
0.0
  9
$CHAMFERD
 40
0.0
  9
$SKPOLY
 70
     0
  9
$TDCREATE
 40
2458137.476469907
  9
$TDUCREATE
 40
2458137.018136574
  9
$TDUPDATE
 40
2458137.476956019
  9
$TDUUPDATE
 40
2458137.018622685
  9
$TDINDWG
 40
0.0004861111
  9
$TDUSRTIMER
 40
0.0004861111
  9
$USRTIMER
 70
     1
  9
$ANGBASE
 50
0.0
  9
$ANGDIR
 70
     0
  9
$PDMODE
 70
     0
  9
$PDSIZE
 40
0.0
  9
$PLINEWID
 40
0.0
  9
$SPLFRAME
 70
     0
  9
$SPLINETYPE
 70
     6
  9
$SPLINESEGS
 70
     8
  9
$HANDSEED
  5
2D6
  9
$SURFTAB1
 70
     6
  9
$SURFTAB2
 70
     6
  9
$SURFTYPE
 70
     6
  9
$SURFU
 70
     6
  9
$SURFV
 70
     6
  9
$UCSBASE
  2

  9
$UCSNAME
  2

  9
$UCSORG
 10
0.0
 20
0.0
 30
0.0
  9
$UCSXDIR
 10
1.0
 20
0.0
 30
0.0
  9
$UCSYDIR
 10
0.0
 20
1.0
 30
0.0
  9
$UCSORTHOREF
  2

  9
$UCSORTHOVIEW
 70
     0
  9
$UCSORGTOP
 10
0.0
 20
0.0
 30
0.0
  9
$UCSORGBOTTOM
 10
0.0
 20
0.0
 30
0.0
  9
$UCSORGLEFT
 10
0.0
 20
0.0
 30
0.0
  9
$UCSORGRIGHT
 10
0.0
 20
0.0
 30
0.0
  9
$UCSORGFRONT
 10
0.0
 20
0.0
 30
0.0
  9
$UCSORGBACK
 10
0.0
 20
0.0
 30
0.0
  9
$PUCSBASE
  2

  9
$PUCSNAME
  2

  9
$PUCSORG
 10
0.0
 20
0.0
 30
0.0
  9
$PUCSXDIR
 10
1.0
 20
0.0
 30
0.0
  9
$PUCSYDIR
 10
0.0
 20
1.0
 30
0.0
  9
$PUCSORTHOREF
  2

  9
$PUCSORTHOVIEW
 70
     0
  9
$PUCSORGTOP
 10
0.0
 20
0.0
 30
0.0
  9
$PUCSORGBOTTOM
 10
0.0
 20
0.0
 30
0.0
  9
$PUCSORGLEFT
 10
0.0
 20
0.0
 30
0.0
  9
$PUCSORGRIGHT
 10
0.0
 20
0.0
 30
0.0
  9
$PUCSORGFRONT
 10
0.0
 20
0.0
 30
0.0
  9
$PUCSORGBACK
 10
0.0
 20
0.0
 30
0.0
  9
$USERI1
 70
     0
  9
$USERI2
 70
     0
  9
$USERI3
 70
     0
  9
$USERI4
 70
     0
  9
$USERI5
 70
     0
  9
$USERR1
 40
0.0
  9
$USERR2
 40
0.0
  9
$USERR3
 40
0.0
  9
$USERR4
 40
0.0
  9
$USERR5
 40
0.0
  9
$WORLDVIEW
 70
     1
  9
$SHADEDGE
 70
     3
  9
$SHADEDIF
 70
    70
  9
$TILEMODE
 70
     1
  9
$MAXACTVP
 70
    64
  9
$PINSBASE
 10
0.0
 20
0.0
 30
0.0
  9
$PLIMCHECK
 70
     0
  9
$PEXTMIN
 10
1.000000000000000E+20
 20
1.000000000000000E+20
 30
1.000000000000000E+20
  9
$PEXTMAX
 10
-1.000000000000000E+20
 20
-1.000000000000000E+20
 30
-1.000000000000000E+20
  9
$PLIMMIN
 10
-0.7524054877282309
 20
-0.5025428238148726
  9
$PLIMMAX
 10
35.24759547345533
 20
23.49745621500156
  9
$UNITMODE
 70
     0
  9
$VISRETAIN
 70
     1
  9
$PLINEGEN
 70
     0
  9
$PSLTSCALE
 70
     1
  9
$TREEDEPTH
 70
  3020
  9
$CMLSTYLE
  2
Standard
  9
$CMLJUST
 70
     0
  9
$CMLSCALE
 40
1.0
  9
$PROXYGRAPHICS
 70
     1
  9
$MEASUREMENT
 70
     0
  9
$CELWEIGHT
370
    -1
  9
$ENDCAPS
280
     0
  9
$JOINSTYLE
280
     0
  9
$LWDISPLAY
290
     0
  9
$INSUNITS
 70
     1
  9
$HYPERLINKBASE
  1

  9
$STYLESHEET
  1

  9
$XEDIT
290
     1
  9
$CEPSNTYPE
380
     0
  9
$PSTYLEMODE
290
     1
  9
$FINGERPRINTGUID
  2
{95E736E4-9462-074C-A59F-D58B8827135B}
  9
$VERSIONGUID
  2
{8CF086CA-45A6-894E-9FE6-E29549E653F6}
  9
$EXTNAMES
290
     1
  9
$PSVPSCALE
 40
0.0
  9
$OLESTARTUP
290
     0
  9
$SORTENTS
280
   127
  9
$INDEXCTL
280
     0
  9
$HIDETEXT
280
     0
  9
$XCLIPFRAME
280
     0
  9
$HALOGAP
280
     0
  9
$OBSCOLOR
 70
   257
  9
$OBSLTYPE
280
     0
  9
$INTERSECTIONDISPLAY
280
     0
  9
$INTERSECTIONCOLOR
 70
   257
  9
$DIMASSOC
280
     1
  9
$PROJECTNAME
  1

  9
$CAMERADISPLAY
290
     0
  9
$LENSLENGTH
 40
50.0
  9
$CAMERAHEIGHT
 40
0.0
  9
$STEPSPERSEC
 40
2.0
  9
$STEPSIZE
 40
6.0
  9
$3DDWFPREC
 40
2.0
  9
$PSOLWIDTH
 40
0.25
  9
$PSOLHEIGHT
 40
4.0
  9
$LOFTANG1
 40
1.570796326794896
  9
$LOFTANG2
 40
1.570796326794896
  9
$LOFTMAG1
 40
0.0
  9
$LOFTMAG2
 40
0.0
  9
$LOFTPARAM
 70
     7
  9
$LOFTNORMALS
280
     1
  9
$LATITUDE
 40
37.795
  9
$LONGITUDE
 40
-122.394
  9
$NORTHDIRECTION
 40
0.0
  9
$TIMEZONE
 70
 -8000
  9
$LIGHTGLYPHDISPLAY
280
     1
  9
$TILEMODELIGHTSYNCH
280
     1
  9
$CMATERIAL
347
7F
  9
$SOLIDHIST
280
     1
  9
$SHOWHIST
280
     1
  9
$DWFFRAME
280
     2
  9
$DGNFRAME
280
     0
  9
$REALWORLDSCALE
290
     1
  9
$INTERFERECOLOR
 62
     1
  9
$INTERFEREOBJVS
345
8C
  9
$INTERFEREVPVS
346
A5
  9
$CSHADOW
280
     0
  9
$SHADOWPLANELOCATION
 40
0.0
  0
ENDSEC
  0
SECTION
  2
CLASSES
  0
CLASS
  1
ACDBDICTIONARYWDFLT
  2
AcDbDictionaryWithDefault
  3
ObjectDBX Classes
 90
        0
 91
        1
280
     0
281
     0
  0
CLASS
  1
PLOTSETTINGS
  2
AcDbPlotSettings
  3
ObjectDBX Classes
 90
        0
 91
        0
280
     0
281
     0
  0
CLASS
  1
MATERIAL
  2
AcDbMaterial
  3
ObjectDBX Classes
 90
     1153
 91
        3
280
     0
281
     0
  0
CLASS
  1
VISUALSTYLE
  2
AcDbVisualStyle
  3
ObjectDBX Classes
 90
     4095
 91
       26
280
     0
281
     0
  0
CLASS
  1
TABLESTYLE
  2
AcDbTableStyle
  3
ObjectDBX Classes
 90
     4095
 91
        1
280
     0
281
     0
  0
CLASS
  1
DICTIONARYVAR
  2
AcDbDictionaryVar
  3
ObjectDBX Classes
 90
        0
 91
       17
280
     0
281
     0
  0
CLASS
  1
SCALE
  2
AcDbScale
  3
ObjectDBX Classes
 90
     1153
 91
       17
280
     0
281
     0
  0
CLASS
  1
MLEADERSTYLE
  2
AcDbMLeaderStyle
  3
ACDB_MLEADERSTYLE_CLASS
 90
     4095
 91
        1
280
     0
281
     0
  0
CLASS
  1
ACDBSECTIONVIEWSTYLE
  2
AcDbSectionViewStyle
  3
ObjectDBX Classes
 90
     1025
 91
        1
280
     0
281
     0
  0
CLASS
  1
ACDBDETAILVIEWSTYLE
  2
AcDbDetailViewStyle
  3
ObjectDBX Classes
 90
     1025
 91
        1
280
     0
281
     0
  0
CLASS
  1
CELLSTYLEMAP
  2
AcDbCellStyleMap
  3
ObjectDBX Classes
 90
     1152
 91
        1
280
     0
281
     0
  0
ENDSEC
  0
SECTION
  2
TABLES
  0
TABLE
  2
VPORT
  5
19
330
0
100
AcDbSymbolTable
 70
     1
1001
ACAD
1000
DbSaveVer
1071
        5
  0
VPORT
  5
7D
330
19
100
AcDbSymbolTableRecord
100
AcDbViewportTableRecord
  2
*Active
 70
     0
 10
0.0
 20
0.0
 11
1.0
 21
1.0
 12
8.344024630273594
 22
6.258042756282414
 13
0.0
 23
0.0
 14
0.5
 24
0.5
 15
0.5
 25
0.5
 16
0.0
 26
0.0
 36
1.0
 17
0.0
 27
0.0
 37
0.0
 40
12.15812686836408
 41
2.292712066905615
 42
50.0
 43
0.0
 44
0.0
 50
0.0
 51
0.0
 71
     0
 72
  1000
 73
     1
 74
     3
 75
     0
 76
     0
 77
     0
 78
     0
281
     0
 65
     1
110
0.0
120
0.0
130
0.0
111
1.0
121
0.0
131
0.0
112
0.0
122
1.0
132
0.0
 79
     0
146
0.0
348
88
 60
     3
 61
     5
292
     1
282
     1
141
0.0
142
0.0
 63
   250
421
  3355443
1001
ACAD_NAV_VCDISPLAY
1070
     3
  0
ENDTAB
  0
TABLE
  2
LTYPE
  5
14
330
0
100
AcDbSymbolTable
 70
     1
  0
LTYPE
  5
15
330
14
100
AcDbSymbolTableRecord
100
AcDbLinetypeTableRecord
  2
ByBlock
 70
     0
  3

 72
    65
 73
     0
 40
0.0
  0
LTYPE
  5
16
330
14
100
AcDbSymbolTableRecord
100
AcDbLinetypeTableRecord
  2
ByLayer
 70
     0
  3

 72
    65
 73
     0
 40
0.0
  0
LTYPE
  5
8
330
14
100
AcDbSymbolTableRecord
100
AcDbLinetypeTableRecord
  2
Continuous
 70
     0
  3
Solid line
 72
    65
 73
     0
 40
0.0
  0
ENDTAB
  0
TABLE
  2
LAYER
  5
10
330
0
100
AcDbSymbolTable
 70
     4
  0
LAYER
  5
4
102
{ACAD_XDICTIONARY
360
2B1
102
}
330
10
100
AcDbSymbolTableRecord
100
AcDbLayerTableRecord
  2
0
 70
     0
 62
     7
  6
Continuous
370
    -3
390
5
347
81
348
0
  0
LAYER
  5
25
102
{ACAD_XDICTIONARY
360
2B3
102
}
330
10
100
AcDbSymbolTableRecord
100
AcDbLayerTableRecord
  2
Title Block
 70
     0
 62
     7
  6
Continuous
370
    -3
390
5
347
81
348
0
  0
LAYER
  5
CE
102
{ACAD_XDICTIONARY
360
2B5
102
}
330
10
100
AcDbSymbolTableRecord
100
AcDbLayerTableRecord
  2
PDF_Layer 1
 70
     0
 62
   250
420
  2301728
  6
Continuous
370
    -3
390
5
347
81
348
0
  0
LAYER
  5
ED
102
{ACAD_XDICTIONARY
360
2B7
102
}
330
10
100
AcDbSymbolTableRecord
100
AcDbLayerTableRecord
  2
PDF_Text
 70
     0
 62
   250
420
  2301728
  6
Continuous
370
    -3
390
5
347
81
348
0
  0
ENDTAB
  0
TABLE
  2
STYLE
  5
11
330
0
100
AcDbSymbolTable
 70
     3
  0
STYLE
  5
12
330
11
100
AcDbSymbolTableRecord
100
AcDbTextStyleTableRecord
  2
Standard
 70
     0
 40
0.0
 41
1.0
 50
0.0
 71
     0
 42
0.2
  3
txt
  4

  0
STYLE
  5
27
330
11
100
AcDbSymbolTableRecord
100
AcDbTextStyleTableRecord
  2
Roman
 70
     0
 40
0.0
 41
1.0
 50
0.0
 71
     0
 42
0.2
  3
ROMANS.SHX
  4

  0
STYLE
  5
EC
330
11
100
AcDbSymbolTableRecord
100
AcDbTextStyleTableRecord
  2
PDF Arial
 70
     0
 40
0.0
 41
1.0
 50
0.0
 71
     0
 42
0.2
  3
arial.ttf
  4

1001
ACAD
1000
Arial
1071
       34
  0
ENDTAB
  0
TABLE
  2
VIEW
  5
17
330
0
100
AcDbSymbolTable
 70
     0
  0
ENDTAB
  0
TABLE
  2
UCS
  5
18
330
0
100
AcDbSymbolTable
 70
     0
  0
ENDTAB
  0
TABLE
  2
APPID
  5
1B
330
0
100
AcDbSymbolTable
 70
     2
  0
APPID
  5
1C
330
1B
100
AcDbSymbolTableRecord
100
AcDbRegAppTableRecord
  2
ACAD
 70
     0
  0
APPID
  5
2B9
330
1B
100
AcDbSymbolTableRecord
100
AcDbRegAppTableRecord
  2
ACAD_NAV_VCDISPLAY
 70
     0
  0
ENDTAB
  0
TABLE
  2
DIMSTYLE
  5
1D
330
0
100
AcDbSymbolTable
 70
     1
100
AcDbDimStyleTable
 71
     0
  0
DIMSTYLE
105
23
330
1D
100
AcDbSymbolTableRecord
100
AcDbDimStyleTableRecord
  2
Standard
 70
     0
340
12
  0
ENDTAB
  0
TABLE
  2
BLOCK_RECORD
  5
1
330
0
100
AcDbSymbolTable
 70
     0
  0
BLOCK_RECORD
  5
2
330
1
100
AcDbSymbolTableRecord
100
AcDbBlockTableRecord
  2
*Model_Space
340
A
 70
     0
280
     1
281
     0
  0
BLOCK_RECORD
  5
C
330
1
100
AcDbSymbolTableRecord
100
AcDbBlockTableRecord
  2
*Paper_Space
340
F
 70
     0
280
     1
281
     0
  0
ENDTAB
  0
ENDSEC
  0
SECTION
  2
BLOCKS
  0
BLOCK
  5
3
330
2
100
AcDbEntity
  8
0
100
AcDbBlockBegin
  2
*Model_Space
 70
     2
 10
0.0
 20
0.0
 30
0.0
  3
*Model_Space
  1

  0
ENDBLK
  5
9
330
2
100
AcDbEntity
  8
0
100
AcDbBlockEnd
  0
BLOCK
  5
D
330
C
100
AcDbEntity
 67
     1
  8
0
100
AcDbBlockBegin
  2
*Paper_Space
 70
     0
 10
0.0
 20
0.0
 30
0.0
  3
*Paper_Space
  1

  0
ENDBLK
  5
E
330
C
100
AcDbEntity
 67
     1
  8
0
100
AcDbBlockEnd
  0
ENDSEC
  0
SECTION
  2
ENTITIES
  0
SOLID
  5
CF
330
2
100
AcDbEntity
  8
PDF_Layer 1
440
 33554559
370
    35
100
AcDbTrace
 10
8.996291666666666
 20
1.416919444444444
 30
0.0
 11
9.034958333333332
 21
1.457266666666666
 31
0.0
 12
8.995527777777777
 22
1.549238888888888
 32
0.0
 13
9.090833333333332
 23
1.457447222222222
 33
0.0
  0
SOLID
  5
D0
330
2
100
AcDbEntity
  8
PDF_Layer 1
440
 33554559
370
    35
100
AcDbTrace
 10
4.907783333333333
 20
10.98126944444444
 30
0.0
 11
4.901130555555555
 21
10.92578333333333
 31
0.0
 12
4.805019444444444
 22
10.89789444444444
 32
0.0
 13
4.93645
 23
10.88247777777777
 33
0.0
  0
SOLID
  5
D1
330
2
100
AcDbEntity
  8
PDF_Layer 1
440
 33554559
370
    35
100
AcDbTrace
 10
5.335612499999999
 20
10.33368055555555
 30
0.0
 11
5.331279166666666
 21
10.38938888888889
 31
0.0
 12
5.420070833333332
 22
10.43554166666666
 32
0.0
 13
5.288168055555555
 23
10.42494444444444
 33
0.0
  0
SOLID
  5
D2
330
2
100
AcDbEntity
  8
PDF_Layer 1
440
 33554559
370
    35
100
AcDbTrace
 10
4.349515277777777
 20
11.38057222222222
 30
0.0
 11
4.303515277777777
 21
11.41229444444444
 31
0.0
 12
4.323570833333333
 22
11.51033611111111
 32
0.0
 13
4.248737499999999
 23
11.40119722222222
 33
0.0
  0
SOLID
  5
D3
330
2
100
AcDbEntity
  8
PDF_Layer 1
440
 33554559
370
    35
100
AcDbTrace
 10
4.428620833333333
 20
11.96389166666666
 30
0.0
 11
4.406773611111111
 21
12.01532222222222
 31
0.0
 12
4.306704166666666
 22
12.01532222222222
 32
0.0
 13
4.428620833333333
 23
12.06675277777777
 33
0.0
  0
SOLID
  5
D4
330
2
100
AcDbEntity
  8
PDF_Layer 1
440
 33554559
370
    35
100
AcDbTrace
 10
10.77829305555555
 20
11.96389166666666
 30
0.0
 11
10.80014027777777
 21
12.01532222222222
 31
0.0
 12
10.90020972222222
 22
12.01532222222222
 32
0.0
 13
10.77829305555555
 23
12.06675277777777
 33
0.0
  0
SOLID
  5
D5
330
2
100
AcDbEntity
  8
PDF_Layer 1
440
 33554559
370
    35
100
AcDbTrace
 10
7.493322222222221
 20
10.46034305555555
 30
0.0
 11
7.471474999999998
 21
10.51177361111111
 31
0.0
 12
7.371405555555554
 22
10.51177361111111
 32
0.0
 13
7.493322222222221
 23
10.56320416666666
 33
0.0
  0
SOLID
  5
D6
330
2
100
AcDbEntity
  8
PDF_Layer 1
440
 33554559
370
    35
100
AcDbTrace
 10
7.714756944444442
 20
10.46034305555555
 30
0.0
 11
7.736604166666664
 21
10.51177361111111
 31
0.0
 12
7.836673611111108
 22
10.51177361111111
 32
0.0
 13
7.714756944444442
 23
10.56320416666666
 33
0.0
  0
SOLID
  5
D7
330
2
100
AcDbEntity
  8
PDF_Layer 1
440
 33554559
370
    35
100
AcDbTrace
 10
6.642626388888888
 20
9.863876388888888
 30
0.0
 11
6.620779166666665
 21
9.915306944444443
 31
0.0
 12
6.520709722222221
 22
9.915306944444443
 32
0.0
 13
6.642626388888888
 23
9.966737499999998
 33
0.0
  0
SOLID
  5
D8
330
2
100
AcDbEntity
  8
PDF_Layer 1
440
 33554559
370
    35
100
AcDbTrace
 10
8.569294444444443
 20
9.863876388888888
 30
0.0
 11
8.591141666666665
 21
9.915306944444443
 31
0.0
 12
8.69121111111111
 22
9.915306944444443
 32
0.0
 13
8.569294444444443
 23
9.966737499999998
 33
0.0
  0
SOLID
  5
D9
330
2
100
AcDbEntity
  8
PDF_Layer 1
440
 33554559
370
    35
100
AcDbTrace
 10
6.032693055555555
 20
9.395862499999998
 30
0.0
 11
6.010845833333333
 21
9.447293055555553
 31
0.0
 12
5.910776388888889
 22
9.447293055555553
 32
0.0
 13
6.032693055555555
 23
9.498723611111108
 33
0.0
  0
SOLID
  5
DA
330
2
100
AcDbEntity
  8
PDF_Layer 1
440
 33554559
370
    35
100
AcDbTrace
 10
9.177555555555557
 20
9.395862499999998
 30
0.0
 11
9.199402777777779
 21
9.447293055555553
 31
0.0
 12
9.299472222222224
 22
9.447293055555553
 32
0.0
 13
9.177555555555557
 23
9.498723611111108
 33
0.0
  0
SOLID
  5
DB
330
2
100
AcDbEntity
  8
PDF_Layer 1
440
 33554559
370
    35
100
AcDbTrace
 10
5.580126388888888
 20
8.913956944444443
 30
0.0
 11
5.558279166666665
 21
8.965387499999998
 31
0.0
 12
5.458209722222221
 22
8.965387499999998
 32
0.0
 13
5.580126388888888
 23
9.016818055555553
 33
0.0
  0
SOLID
  5
DC
330
2
100
AcDbEntity
  8
PDF_Layer 1
440
 33554559
370
    35
100
AcDbTrace
 10
9.625636111111109
 20
8.913956944444443
 30
0.0
 11
9.647483333333331
 21
8.965387499999998
 31
0.0
 12
9.747552777777777
 22
8.965387499999998
 32
0.0
 13
9.625636111111109
 23
9.016818055555553
 33
0.0
  0
SOLID
  5
DD
330
2
100
AcDbEntity
  8
PDF_Layer 1
440
 33554559
370
    35
100
AcDbTrace
 10
10.44045138888889
 20
8.556172222222221
 30
0.0
 11
10.46229861111111
 21
8.504741666666665
 31
0.0
 12
10.56236805555555
 22
8.504741666666665
 32
0.0
 13
10.44045138888889
 23
8.45331111111111
 33
0.0
  0
SOLID
  5
DE
330
2
100
AcDbEntity
  8
PDF_Layer 1
440
 33554559
370
    35
100
AcDbTrace
 10
4.7653125
 20
8.556172222222221
 30
0.0
 11
4.743465277777778
 21
8.504741666666665
 31
0.0
 12
4.643395833333333
 22
8.504741666666665
 32
0.0
 13
4.7653125
 23
8.45331111111111
 33
0.0
  0
SOLID
  5
DF
330
2
100
AcDbEntity
  8
PDF_Layer 1
440
 33554559
370
    35
100
AcDbTrace
 10
4.511762499999999
 20
7.919144444444445
 30
0.0
 11
4.489915277777777
 21
7.970575000000001
 31
0.0
 12
4.389845833333333
 22
7.970575000000001
 32
0.0
 13
4.511762499999999
 23
8.022005555555557
 33
0.0
  0
SOLID
  5
E0
330
2
100
AcDbEntity
  8
PDF_Layer 1
440
 33554559
370
    35
100
AcDbTrace
 10
10.70665555555555
 20
7.919144444444445
 30
0.0
 11
10.72850277777777
 21
7.970575000000001
 31
0.0
 12
10.82857222222222
 22
7.970575000000001
 32
0.0
 13
10.70665555555555
 23
8.022005555555557
 33
0.0
  0
SOLID
  5
E1
330
2
100
AcDbEntity
  8
PDF_Layer 1
440
 33554559
370
    35
100
AcDbTrace
 10
11.71851805555555
 20
11.4919125
 30
0.0
 11
11.76994861111111
 21
11.51375972222222
 31
0.0
 12
11.76994861111111
 22
11.61382916666666
 32
0.0
 13
11.82137916666667
 23
11.4919125
 33
0.0
  0
SOLID
  5
E2
330
2
100
AcDbEntity
  8
PDF_Layer 1
440
 33554559
370
    35
100
AcDbTrace
 10
11.71851805555555
 20
10.83759861111111
 30
0.0
 11
11.76994861111111
 21
10.81575138888888
 31
0.0
 12
11.76994861111111
 22
10.71568194444444
 32
0.0
 13
11.82137916666667
 23
10.83759861111111
 33
0.0
  0
SOLID
  5
E3
330
2
100
AcDbEntity
  8
PDF_Layer 1
440
 33554559
370
    35
100
AcDbTrace
 10
12.33190555555555
 20
10.61596388888888
 30
0.0
 11
12.28047499999999
 21
10.59411666666666
 31
0.0
 12
12.28047499999999
 22
10.49404722222222
 32
0.0
 13
12.22904444444444
 23
10.61596388888888
 33
0.0
  0
SOLID
  5
E4
330
2
100
AcDbEntity
  8
PDF_Layer 1
440
 33554559
370
    35
100
AcDbTrace
 10
12.33190555555555
 20
11.4919125
 30
0.0
 11
12.28047499999999
 21
11.51375972222222
 31
0.0
 12
12.28047499999999
 22
11.61382916666666
 32
0.0
 13
12.22904444444444
 23
11.4919125
 33
0.0
  0
SOLID
  5
E5
330
2
100
AcDbEntity
  8
PDF_Layer 1
440
 33554559
370
    35
100
AcDbTrace
 10
12.8190125
 20
10.29825555555555
 30
0.0
 11
12.76758194444444
 21
10.27640833333333
 31
0.0
 12
12.76758194444444
 22
10.17633888888889
 32
0.0
 13
12.71615138888889
 23
10.29825555555555
 33
0.0
  0
SOLID
  5
E6
330
2
100
AcDbEntity
  8
PDF_Layer 1
440
 33554559
370
    35
100
AcDbTrace
 10
12.8190125
 20
11.48559722222222
 30
0.0
 11
12.76758194444444
 21
11.50744444444444
 31
0.0
 12
12.76758194444444
 22
11.60751388888889
 32
0.0
 13
12.71615138888889
 23
11.48559722222222
 33
0.0
  0
SOLID
  5
E7
330
2
100
AcDbEntity
  8
PDF_Layer 1
440
 33554559
370
    35
100
AcDbTrace
 10
11.26356527777778
 20
11.76179722222222
 30
0.0
 11
11.21213472222222
 21
11.73995
 31
0.0
 12
11.21213472222222
 22
11.63988055555555
 32
0.0
 13
11.16070416666667
 23
11.76179722222222
 33
0.0
  0
SOLID
  5
E8
330
2
100
AcDbEntity
  8
PDF_Layer 1
440
 33554559
370
    35
100
AcDbTrace
 10
11.16070138888889
 20
11.41889861111111
 30
0.0
 11
11.21213194444444
 21
11.44074583333333
 31
0.0
 12
11.21213194444444
 22
11.54081527777778
 32
0.0
 13
11.2635625
 23
11.41889861111111
 33
0.0
  0
SOLID
  5
E9
330
2
100
AcDbEntity
  8
PDF_Layer 1
440
 33554559
370
    35
100
AcDbTrace
 10
9.531516666666664
 20
4.201241666666666
 30
0.0
 11
9.509669444444442
 21
4.252672222222221
 31
0.0
 12
9.409599999999997
 22
4.252672222222221
 32
0.0
 13
9.531516666666664
 23
4.304102777777777
 33
0.0
  0
SOLID
  5
EA
330
2
100
AcDbEntity
  8
PDF_Layer 1
440
 33554559
370
    35
100
AcDbTrace
 10
10.43350694444444
 20
4.201241666666666
 30
0.0
 11
10.45535416666666
 21
4.252672222222221
 31
0.0
 12
10.55542361111111
 22
4.252672222222221
 32
0.0
 13
10.43350694444444
 23
4.304102777777777
 33
0.0
  0
LWPOLYLINE
  5
EE
330
2
100
AcDbEntity
  8
PDF_Layer 1
 62
   252
420
  9539471
370
    30
100
AcDbPolyline
 90
        2
 70
     0
 43
0.0
 10
4.287643055555554
 20
11.6056125
 10
4.307656944444444
 20
11.62466805555555
  0
LWPOLYLINE
  5
EF
330
2
100
AcDbEntity
  8
PDF_Layer 1
 62
   252
420
  9539471
370
    30
100
AcDbPolyline
 90
        2
 70
     0
 43
0.0
 10
4.287643055555554
 20
11.56844583333333
 10
4.340045833333332
 20
11.6208625
  0
LWPOLYLINE
  5
F0
330
2
100
AcDbEntity
  8
PDF_Layer 1
 62
   252
420
  9539471
370
    30
100
AcDbPolyline
 90
        2
 70
     0
 43
0.0
 10
4.307656944444444
 20
11.55130694444444
 10
4.367684722222221
 20
11.61227916666666
  0
LWPOLYLINE
  5
F1
330
2
100
AcDbEntity
  8
PDF_Layer 1
 62
   252
420
  9539471
370
    30
100
AcDbPolyline
 90
        2
 70
     0
 43
0.0
 10
4.338143055555555
 20
11.54558472222222
 10
4.391504166666665
 20
11.59894583333333
  0
LWPOLYLINE
  5
F2
330
2
100
AcDbEntity
  8
PDF_Layer 1
 62
   252
420
  9539471
370
    30
100
AcDbPolyline
 90
        2
 70
     0
 43
0.0
 10
4.360059722222221
 20
11.53129305555555
 10
4.412462499999999
 20
11.58275138888889
  0
LWPOLYLINE
  5
F3
330
2
100
AcDbEntity
  8
PDF_Layer 1
 62
   252
420
  9539471
370
    30
100
AcDbPolyline
 90
        2
 70
     0
 43
0.0
 10
4.377212499999999
 20
11.51127916666666
 10
4.429615277777776
 20
11.56368194444444
  0
LWPOLYLINE
  5
F4
330
2
100
AcDbEntity
  8
PDF_Layer 1
 62
   252
420
  9539471
370
    30
100
AcDbPolyline
 90
        2
 70
     0
 43
0.0
 10
4.386740277777777
 20
11.48555694444444
 10
4.443906944444443
 20
11.54177916666666
  0
LWPOLYLINE
  5
F5
330
2
100
AcDbEntity
  8
PDF_Layer 1
 62
   252
420
  9539471
370
    30
100
AcDbPolyline
 90
        2
 70
     0
 43
0.0
 10
4.395309722222221
 20
11.45697361111111
 10
4.454393055555555
 20
11.51604305555555
  0
LWPOLYLINE
  5
F6
330
2
100
AcDbEntity
  8
PDF_Layer 1
 62
   252
420
  9539471
370
    30
100
AcDbPolyline
 90
        2
 70
     0
 43
0.0
 10
4.404837499999999
 20
11.42933472222222
 10
4.462962499999999
 20
11.48745972222222
  0
LWPOLYLINE
  5
F7
330
2
100
AcDbEntity
  8
PDF_Layer 1
 62
   252
420
  9539471
370
    30
100
AcDbPolyline
 90
        2
 70
     0
 43
0.0
 10
4.413420833333332
 20
11.40170972222222
 10
4.471531944444444
 20
11.45983472222222
  0
LWPOLYLINE
  5
F8
330
2
100
AcDbEntity
  8
PDF_Layer 1
 62
   252
420
  9539471
370
    30
100
AcDbPolyline
 90
        2
 70
     0
 43
0.0
 10
4.421990277777776
 20
11.37312638888889
 10
4.480115277777777
 20
11.43219583333333
  0
LWPOLYLINE
  5
F9
330
2
100
AcDbEntity
  8
PDF_Layer 1
 62
   252
420
  9539471
370
    30
100
AcDbPolyline
 90
        2
 70
     0
 43
0.0
 10
4.430559722222221
 20
11.3454875
 10
4.488684722222221
 20
11.40457083333333
  0
LWPOLYLINE
  5
FA
330
2
100
AcDbEntity
  8
PDF_Layer 1
 62
   252
420
  9539471
370
    30
100
AcDbPolyline
 90
        2
 70
     0
 43
0.0
 10
4.439143055555555
 20
11.3178625
 10
4.497268055555554
 20
11.3759875
  0
LWPOLYLINE
  5
FB
330
2
100
AcDbEntity
  8
PDF_Layer 1
 62
   252
420
  9539471
370
    30
100
AcDbPolyline
 90
        2
 70
     0
 43
0.0
 10
4.447712499999999
 20
11.29022361111111
 10
4.505837499999999
 20
11.34834861111111
  0
LWPOLYLINE
  5
FC
330
2
100
AcDbEntity
  8
PDF_Layer 1
 62
   252
420
  9539471
370
    30
100
AcDbPolyline
 90
        2
 70
     0
 43
0.0
 10
4.456295833333332
 20
11.26164027777778
 10
4.514420833333332
 20
11.32072361111111
  0
LWPOLYLINE
  5
FD
330
2
100
AcDbEntity
  8
PDF_Layer 1
 62
   252
420
  9539471
370
    30
100
AcDbPolyline
 90
        2
 70
     0
 43
0.0
 10
4.464865277777777
 20
11.23401527777778
 10
4.52394861111111
 20
11.29308472222222
  0
LWPOLYLINE
  5
FE
330
2
100
AcDbEntity
  8
PDF_Layer 1
 62
   252
420
  9539471
370
    30
100
AcDbPolyline
 90
        2
 70
     0
 43
0.0
 10
4.47344861111111
 20
11.20637638888889
 10
4.532518055555555
 20
11.26450138888889
  0
LWPOLYLINE
  5
FF
330
2
100
AcDbEntity
  8
PDF_Layer 1
 62
   252
420
  9539471
370
    30
100
AcDbPolyline
 90
        2
 70
     0
 43
0.0
 10
4.482976388888888
 20
11.17875138888889
 10
4.541087499999999
 20
11.23687638888889
  0
LWPOLYLINE
  5
100
330
2
100
AcDbEntity
  8
PDF_Layer 1
 62
   252
420
  9539471
370
    30
100
AcDbPolyline
 90
        2
 70
     0
 43
0.0
 10
4.492504166666665
 20
11.15207083333333
 10
4.549670833333332
 20
11.2092375
  0
LWPOLYLINE
  5
101
330
2
100
AcDbEntity
  8
PDF_Layer 1
 62
   252
420
  9539471
370
    30
100
AcDbPolyline
 90
        2
 70
     0
 43
0.0
 10
4.502976388888888
 20
11.12634861111111
 10
4.55919861111111
 20
11.18255694444444
  0
LWPOLYLINE
  5
102
330
2
100
AcDbEntity
  8
PDF_Layer 1
 62
   252
420
  9539471
370
    30
100
AcDbPolyline
 90
        2
 70
     0
 43
0.0
 10
4.514420833333332
 20
11.1006125
 10
4.569670833333332
 20
11.15683472222222
  0
LWPOLYLINE
  5
103
330
2
100
AcDbEntity
  8
PDF_Layer 1
 62
   252
420
  9539471
370
    30
100
AcDbPolyline
 90
        2
 70
     0
 43
0.0
 10
4.525851388888888
 20
11.07584861111111
 10
4.581115277777777
 20
11.1311125
  0
LWPOLYLINE
  5
104
330
2
100
AcDbEntity
  8
PDF_Layer 1
 62
   252
420
  9539471
370
    30
100
AcDbPolyline
 90
        2
 70
     0
 43
0.0
 10
4.538240277777776
 20
11.05202916666666
 10
4.592545833333332
 20
11.10633472222222
  0
LWPOLYLINE
  5
105
330
2
100
AcDbEntity
  8
PDF_Layer 1
 62
   252
420
  9539471
370
    30
100
AcDbPolyline
 90
        2
 70
     0
 43
0.0
 10
4.550615277777777
 20
11.02820972222222
 10
4.604934722222221
 20
11.08155694444444
  0
LWPOLYLINE
  5
106
330
2
100
AcDbEntity
  8
PDF_Layer 1
 62
   252
420
  9539471
370
    30
100
AcDbPolyline
 90
        2
 70
     0
 43
0.0
 10
4.563962499999999
 20
11.00437638888889
 10
4.618268055555555
 20
11.05869583333333
  0
LWPOLYLINE
  5
107
330
2
100
AcDbEntity
  8
PDF_Layer 1
 62
   252
420
  9539471
370
    30
100
AcDbPolyline
 90
        2
 70
     0
 43
0.0
 10
4.619226388888888
 20
11.0224875
 10
4.631615277777776
 20
11.03487638888889
  0
LWPOLYLINE
  5
108
330
2
100
AcDbEntity
  8
PDF_Layer 1
 62
   252
420
  9539471
370
    30
100
AcDbPolyline
 90
        2
 70
     0
 43
0.0
 10
5.816920833333332
 20
10.21068194444444
 10
5.86932361111111
 20
10.26308472222222
  0
LWPOLYLINE
  5
109
330
2
100
AcDbEntity
  8
PDF_Layer 1
 62
   252
420
  9539471
370
    30
100
AcDbPolyline
 90
        2
 70
     0
 43
0.0
 10
5.837879166666666
 20
10.19544583333333
 10
5.890281944444443
 20
10.24784861111111
  0
LWPOLYLINE
  5
10A
330
2
100
AcDbEntity
  8
PDF_Layer 1
 62
   252
420
  9539471
370
    30
100
AcDbPolyline
 90
        2
 70
     0
 43
0.0
 10
5.858837499999999
 20
10.18019583333333
 10
5.91219861111111
 20
10.23355694444444
  0
LWPOLYLINE
  5
10B
330
2
100
AcDbEntity
  8
PDF_Layer 1
 62
   252
420
  9539471
370
    30
100
AcDbPolyline
 90
        2
 70
     0
 43
0.0
 10
5.881712499999999
 20
10.16684861111111
 10
5.95507361111111
 20
10.23926527777778
  0
LWPOLYLINE
  5
10C
330
2
100
AcDbEntity
  8
PDF_Layer 1
 62
   252
420
  9539471
370
    30
100
AcDbPolyline
 90
        2
 70
     0
 43
0.0
 10
5.91219861111111
 20
10.16018194444444
 10
5.99794861111111
 20
10.24593194444444
  0
LWPOLYLINE
  5
10D
330
2
100
AcDbEntity
  8
PDF_Layer 1
 62
   252
420
  9539471
370
    30
100
AcDbPolyline
 90
        2
 70
     0
 43
0.0
 10
5.954129166666666
 20
10.16494583333333
 10
6.040837499999999
 20
10.2526125
  0
LWPOLYLINE
  5
10E
330
2
100
AcDbEntity
  8
PDF_Layer 1
 62
   252
420
  9539471
370
    30
100
AcDbPolyline
 90
        2
 70
     0
 43
0.0
 10
5.997004166666665
 20
10.1716125
 10
6.084656944444444
 20
10.25927916666666
  0
LWPOLYLINE
  5
10F
330
2
100
AcDbEntity
  8
PDF_Layer 1
 62
   252
420
  9539471
370
    30
100
AcDbPolyline
 90
        2
 70
     0
 43
0.0
 10
6.039879166666666
 20
10.17829305555555
 10
6.127531944444443
 20
10.26594583333333
  0
LWPOLYLINE
  5
110
330
2
100
AcDbEntity
  8
PDF_Layer 1
 62
   252
420
  9539471
370
    30
100
AcDbPolyline
 90
        2
 70
     0
 43
0.0
 10
6.082754166666665
 20
10.18495972222222
 10
6.170420833333333
 20
10.2726125
  0
LWPOLYLINE
  5
111
330
2
100
AcDbEntity
  8
PDF_Layer 1
 62
   252
420
  9539471
370
    30
100
AcDbPolyline
 90
        2
 70
     0
 43
0.0
 10
6.126587499999999
 20
10.19162638888889
 10
6.213295833333332
 20
10.27929305555555
  0
LWPOLYLINE
  5
112
330
2
100
AcDbEntity
  8
PDF_Layer 1
 62
   252
420
  9539471
370
    30
100
AcDbPolyline
 90
        2
 70
     0
 43
0.0
 10
6.169462499999999
 20
10.19829305555555
 10
6.257115277777777
 20
10.28595972222222
  0
LWPOLYLINE
  5
113
330
2
100
AcDbEntity
  8
PDF_Layer 1
 62
   252
420
  9539471
370
    30
100
AcDbPolyline
 90
        2
 70
     0
 43
0.0
 10
6.212337499999999
 20
10.20497361111111
 10
6.300004166666665
 20
10.29262638888889
  0
LWPOLYLINE
  5
114
330
2
100
AcDbEntity
  8
PDF_Layer 1
 62
   252
420
  9539471
370
    30
100
AcDbPolyline
 90
        2
 70
     0
 43
0.0
 10
6.255212499999998
 20
10.21164027777778
 10
6.342879166666666
 20
10.29929305555555
  0
LWPOLYLINE
  5
115
330
2
100
AcDbEntity
  8
PDF_Layer 1
 62
   252
420
  9539471
370
    30
100
AcDbPolyline
 90
        2
 70
     0
 43
0.0
 10
6.299045833333332
 20
10.21830694444444
 10
6.385754166666665
 20
10.30595972222222
  0
LWPOLYLINE
  5
116
330
2
100
AcDbEntity
  8
PDF_Layer 1
 62
   252
420
  9539471
370
    30
100
AcDbPolyline
 90
        2
 70
     0
 43
0.0
 10
6.341920833333333
 20
10.22497361111111
 10
6.429587499999999
 20
10.31168194444444
  0
LWPOLYLINE
  5
117
330
2
100
AcDbEntity
  8
PDF_Layer 1
 62
   252
420
  9539471
370
    30
100
AcDbPolyline
 90
        2
 70
     0
 43
0.0
 10
6.384795833333332
 20
10.23164027777778
 10
6.472462499999998
 20
10.31834861111111
  0
LWPOLYLINE
  5
118
330
2
100
AcDbEntity
  8
PDF_Layer 1
 62
   252
420
  9539471
370
    30
100
AcDbPolyline
 90
        2
 70
     0
 43
0.0
 10
6.427670833333333
 20
10.23832083333333
 10
6.513434722222221
 20
10.3231125
  0
LWPOLYLINE
  5
119
330
2
100
AcDbEntity
  8
PDF_Layer 1
 62
   252
420
  9539471
370
    30
100
AcDbPolyline
 90
        2
 70
     0
 43
0.0
 10
6.471504166666665
 20
10.24402916666666
 10
6.549643055555554
 20
10.3231125
  0
LWPOLYLINE
  5
11A
330
2
100
AcDbEntity
  8
PDF_Layer 1
 62
   252
420
  9539471
370
    30
100
AcDbPolyline
 90
        2
 70
     0
 43
0.0
 10
6.512476388888888
 20
10.24975138888889
 10
6.585851388888888
 20
10.3231125
  0
LWPOLYLINE
  5
11B
330
2
100
AcDbEntity
  8
PDF_Layer 1
 62
   252
420
  9539471
370
    30
100
AcDbPolyline
 90
        2
 70
     0
 43
0.0
 10
6.549643055555554
 20
10.24975138888889
 10
6.623004166666666
 20
10.3231125
  0
LWPOLYLINE
  5
11C
330
2
100
AcDbEntity
  8
PDF_Layer 1
 62
   252
420
  9539471
370
    30
100
AcDbPolyline
 90
        2
 70
     0
 43
0.0
 10
6.585851388888888
 20
10.24975138888889
 10
6.659212499999998
 20
10.3231125
  0
LWPOLYLINE
  5
11D
330
2
100
AcDbEntity
  8
PDF_Layer 1
 62
   252
420
  9539471
370
    30
100
AcDbPolyline
 90
        2
 70
     0
 43
0.0
 10
6.622045833333332
 20
10.24975138888889
 10
6.695420833333333
 20
10.3231125
  0
LWPOLYLINE
  5
11E
330
2
100
AcDbEntity
  8
PDF_Layer 1
 62
   252
420
  9539471
370
    30
100
AcDbPolyline
 90
        2
 70
     0
 43
0.0
 10
6.659212499999998
 20
10.24975138888889
 10
6.73257361111111
 20
10.3231125
  0
LWPOLYLINE
  5
11F
330
2
100
AcDbEntity
  8
PDF_Layer 1
 62
   252
420
  9539471
370
    30
100
AcDbPolyline
 90
        2
 70
     0
 43
0.0
 10
6.695420833333333
 20
10.24975138888889
 10
6.768781944444443
 20
10.3231125
  0
LWPOLYLINE
  5
120
330
2
100
AcDbEntity
  8
PDF_Layer 1
 62
   252
420
  9539471
370
    30
100
AcDbPolyline
 90
        2
 70
     0
 43
0.0
 10
6.73257361111111
 20
10.24975138888889
 10
6.804990277777775
 20
10.3231125
  0
LWPOLYLINE
  5
121
330
2
100
AcDbEntity
  8
PDF_Layer 1
 62
   252
420
  9539471
370
    30
100
AcDbPolyline
 90
        2
 70
     0
 43
0.0
 10
6.768781944444443
 20
10.24975138888889
 10
6.842156944444443
 20
10.3231125
  0
LWPOLYLINE
  5
122
330
2
100
AcDbEntity
  8
PDF_Layer 1
 62
   252
420
  9539471
370
    30
100
AcDbPolyline
 90
        2
 70
     0
 43
0.0
 10
6.804990277777775
 20
10.24975138888889
 10
6.878365277777777
 20
10.3231125
  0
LWPOLYLINE
  5
123
330
2
100
AcDbEntity
  8
PDF_Layer 1
 62
   252
420
  9539471
370
    30
100
AcDbPolyline
 90
        2
 70
     0
 43
0.0
 10
6.842156944444443
 20
10.24975138888889
 10
6.91457361111111
 20
10.3231125
  0
LWPOLYLINE
  5
124
330
2
100
AcDbEntity
  8
PDF_Layer 1
 62
   252
420
  9539471
370
    30
100
AcDbPolyline
 90
        2
 70
     0
 43
0.0
 10
6.878365277777777
 20
10.24975138888889
 10
6.951726388888888
 20
10.3231125
  0
LWPOLYLINE
  5
125
330
2
100
AcDbEntity
  8
PDF_Layer 1
 62
   252
420
  9539471
370
    30
100
AcDbPolyline
 90
        2
 70
     0
 43
0.0
 10
6.91457361111111
 20
10.24975138888889
 10
6.987934722222221
 20
10.3231125
  0
LWPOLYLINE
  5
126
330
2
100
AcDbEntity
  8
PDF_Layer 1
 62
   252
420
  9539471
370
    30
100
AcDbPolyline
 90
        2
 70
     0
 43
0.0
 10
6.951726388888888
 20
10.24975138888889
 10
7.024143055555555
 20
10.3231125
  0
LWPOLYLINE
  5
127
330
2
100
AcDbEntity
  8
PDF_Layer 1
 62
   252
420
  9539471
370
    30
100
AcDbPolyline
 90
        2
 70
     0
 43
0.0
 10
6.987934722222221
 20
10.24975138888889
 10
7.061295833333332
 20
10.3231125
  0
LWPOLYLINE
  5
128
330
2
100
AcDbEntity
  8
PDF_Layer 1
 62
   252
420
  9539471
370
    30
100
AcDbPolyline
 90
        2
 70
     0
 43
0.0
 10
7.024143055555555
 20
10.24975138888889
 10
7.097504166666666
 20
10.3231125
  0
LWPOLYLINE
  5
129
330
2
100
AcDbEntity
  8
PDF_Layer 1
 62
   252
420
  9539471
370
    30
100
AcDbPolyline
 90
        2
 70
     0
 43
0.0
 10
7.061295833333332
 20
10.24975138888889
 10
7.133712499999999
 20
10.3231125
  0
LWPOLYLINE
  5
12A
330
2
100
AcDbEntity
  8
PDF_Layer 1
 62
   252
420
  9539471
370
    30
100
AcDbPolyline
 90
        2
 70
     0
 43
0.0
 10
7.097504166666666
 20
10.24975138888889
 10
7.170879166666665
 20
10.3231125
  0
LWPOLYLINE
  5
12B
330
2
100
AcDbEntity
  8
PDF_Layer 1
 62
   252
420
  9539471
370
    30
100
AcDbPolyline
 90
        2
 70
     0
 43
0.0
 10
7.133712499999999
 20
10.24975138888889
 10
7.207087499999999
 20
10.3231125
  0
LWPOLYLINE
  5
12C
330
2
100
AcDbEntity
  8
PDF_Layer 1
 62
   252
420
  9539471
370
    30
100
AcDbPolyline
 90
        2
 70
     0
 43
0.0
 10
7.170879166666665
 20
10.24975138888889
 10
7.243295833333332
 20
10.3231125
  0
LWPOLYLINE
  5
12D
330
2
100
AcDbEntity
  8
PDF_Layer 1
 62
   252
420
  9539471
370
    30
100
AcDbPolyline
 90
        2
 70
     0
 43
0.0
 10
7.207087499999999
 20
10.24975138888889
 10
7.28044861111111
 20
10.3231125
  0
LWPOLYLINE
  5
12E
330
2
100
AcDbEntity
  8
PDF_Layer 1
 62
   252
420
  9539471
370
    30
100
AcDbPolyline
 90
        2
 70
     0
 43
0.0
 10
7.243295833333332
 20
10.24975138888889
 10
7.316656944444443
 20
10.3231125
  0
LWPOLYLINE
  5
12F
330
2
100
AcDbEntity
  8
PDF_Layer 1
 62
   252
420
  9539471
370
    30
100
AcDbPolyline
 90
        2
 70
     0
 43
0.0
 10
7.28044861111111
 20
10.24975138888889
 10
7.35382361111111
 20
10.3231125
  0
LWPOLYLINE
  5
130
330
2
100
AcDbEntity
  8
PDF_Layer 1
 62
   252
420
  9539471
370
    30
100
AcDbPolyline
 90
        2
 70
     0
 43
0.0
 10
7.316656944444443
 20
10.24975138888889
 10
7.359531944444443
 20
10.29262638888889
  0
LWPOLYLINE
  5
131
330
2
100
AcDbEntity
  8
PDF_Layer 1
 62
   252
420
  9539471
370
    30
100
AcDbPolyline
 90
        2
 70
     0
 43
0.0
 10
7.352865277777777
 20
10.24975138888889
 10
7.359531944444443
 20
10.25641805555555
  0
LWPOLYLINE
  5
132
330
2
100
AcDbEntity
  8
PDF_Layer 1
 62
   252
420
  9539471
370
    30
100
AcDbPolyline
 90
        2
 70
     0
 43
0.0
 10
7.847379166666665
 20
10.30595972222222
 10
7.864531944444443
 20
10.3231125
  0
LWPOLYLINE
  5
133
330
2
100
AcDbEntity
  8
PDF_Layer 1
 62
   252
420
  9539471
370
    30
100
AcDbPolyline
 90
        2
 70
     0
 43
0.0
 10
7.847379166666665
 20
10.26880694444444
 10
7.901684722222221
 20
10.3231125
  0
LWPOLYLINE
  5
134
330
2
100
AcDbEntity
  8
PDF_Layer 1
 62
   252
420
  9539471
370
    30
100
AcDbPolyline
 90
        2
 70
     0
 43
0.0
 10
7.864531944444443
 20
10.24975138888889
 10
7.937893055555554
 20
10.3231125
  0
LWPOLYLINE
  5
135
330
2
100
AcDbEntity
  8
PDF_Layer 1
 62
   252
420
  9539471
370
    30
100
AcDbPolyline
 90
        2
 70
     0
 43
0.0
 10
7.901684722222221
 20
10.24975138888889
 10
7.974101388888887
 20
10.3231125
  0
LWPOLYLINE
  5
136
330
2
100
AcDbEntity
  8
PDF_Layer 1
 62
   252
420
  9539471
370
    30
100
AcDbPolyline
 90
        2
 70
     0
 43
0.0
 10
7.937893055555554
 20
10.24975138888889
 10
8.011268055555554
 20
10.3231125
  0
LWPOLYLINE
  5
137
330
2
100
AcDbEntity
  8
PDF_Layer 1
 62
   252
420
  9539471
370
    30
100
AcDbPolyline
 90
        2
 70
     0
 43
0.0
 10
7.974101388888887
 20
10.24975138888889
 10
8.047476388888888
 20
10.3231125
  0
LWPOLYLINE
  5
138
330
2
100
AcDbEntity
  8
PDF_Layer 1
 62
   252
420
  9539471
370
    30
100
AcDbPolyline
 90
        2
 70
     0
 43
0.0
 10
8.011268055555554
 20
10.24975138888889
 10
8.083684722222221
 20
10.3231125
  0
LWPOLYLINE
  5
139
330
2
100
AcDbEntity
  8
PDF_Layer 1
 62
   252
420
  9539471
370
    30
100
AcDbPolyline
 90
        2
 70
     0
 43
0.0
 10
8.047476388888888
 20
10.24975138888889
 10
8.120837499999998
 20
10.3231125
  0
LWPOLYLINE
  5
13A
330
2
100
AcDbEntity
  8
PDF_Layer 1
 62
   252
420
  9539471
370
    30
100
AcDbPolyline
 90
        2
 70
     0
 43
0.0
 10
8.083684722222221
 20
10.24975138888889
 10
8.157045833333331
 20
10.3231125
  0
LWPOLYLINE
  5
13B
330
2
100
AcDbEntity
  8
PDF_Layer 1
 62
   252
420
  9539471
370
    30
100
AcDbPolyline
 90
        2
 70
     0
 43
0.0
 10
8.120837499999998
 20
10.24975138888889
 10
8.193254166666665
 20
10.3231125
  0
LWPOLYLINE
  5
13C
330
2
100
AcDbEntity
  8
PDF_Layer 1
 62
   252
420
  9539471
370
    30
100
AcDbPolyline
 90
        2
 70
     0
 43
0.0
 10
8.157045833333331
 20
10.24975138888889
 10
8.230406944444442
 20
10.3231125
  0
LWPOLYLINE
  5
13D
330
2
100
AcDbEntity
  8
PDF_Layer 1
 62
   252
420
  9539471
370
    30
100
AcDbPolyline
 90
        2
 70
     0
 43
0.0
 10
8.193254166666665
 20
10.24975138888889
 10
8.266615277777775
 20
10.3231125
  0
LWPOLYLINE
  5
13E
330
2
100
AcDbEntity
  8
PDF_Layer 1
 62
   252
420
  9539471
370
    30
100
AcDbPolyline
 90
        2
 70
     0
 43
0.0
 10
8.230406944444442
 20
10.24975138888889
 10
8.302823611111108
 20
10.3231125
  0
LWPOLYLINE
  5
13F
330
2
100
AcDbEntity
  8
PDF_Layer 1
 62
   252
420
  9539471
370
    30
100
AcDbPolyline
 90
        2
 70
     0
 43
0.0
 10
8.266615277777775
 20
10.24975138888889
 10
8.339990277777776
 20
10.3231125
  0
LWPOLYLINE
  5
140
330
2
100
AcDbEntity
  8
PDF_Layer 1
 62
   252
420
  9539471
370
    30
100
AcDbPolyline
 90
        2
 70
     0
 43
0.0
 10
8.302823611111108
 20
10.24975138888889
 10
8.37619861111111
 20
10.3231125
  0
LWPOLYLINE
  5
141
330
2
100
AcDbEntity
  8
PDF_Layer 1
 62
   252
420
  9539471
370
    30
100
AcDbPolyline
 90
        2
 70
     0
 43
0.0
 10
8.339990277777776
 20
10.24975138888889
 10
8.412406944444441
 20
10.3231125
  0
LWPOLYLINE
  5
142
330
2
100
AcDbEntity
  8
PDF_Layer 1
 62
   252
420
  9539471
370
    30
100
AcDbPolyline
 90
        2
 70
     0
 43
0.0
 10
8.37619861111111
 20
10.24975138888889
 10
8.449559722222222
 20
10.3231125
  0
LWPOLYLINE
  5
143
330
2
100
AcDbEntity
  8
PDF_Layer 1
 62
   252
420
  9539471
370
    30
100
AcDbPolyline
 90
        2
 70
     0
 43
0.0
 10
8.412406944444441
 20
10.24975138888889
 10
8.485768055555553
 20
10.3231125
  0
LWPOLYLINE
  5
144
330
2
100
AcDbEntity
  8
PDF_Layer 1
 62
   252
420
  9539471
370
    30
100
AcDbPolyline
 90
        2
 70
     0
 43
0.0
 10
8.449559722222222
 20
10.24975138888889
 10
8.522920833333332
 20
10.3231125
  0
LWPOLYLINE
  5
145
330
2
100
AcDbEntity
  8
PDF_Layer 1
 62
   252
420
  9539471
370
    30
100
AcDbPolyline
 90
        2
 70
     0
 43
0.0
 10
8.485768055555553
 20
10.24975138888889
 10
8.559129166666664
 20
10.3231125
  0
LWPOLYLINE
  5
146
330
2
100
AcDbEntity
  8
PDF_Layer 1
 62
   252
420
  9539471
370
    30
100
AcDbPolyline
 90
        2
 70
     0
 43
0.0
 10
8.521976388888887
 20
10.24975138888889
 10
8.595337499999999
 20
10.3231125
  0
LWPOLYLINE
  5
147
330
2
100
AcDbEntity
  8
PDF_Layer 1
 62
   252
420
  9539471
370
    30
100
AcDbPolyline
 90
        2
 70
     0
 43
0.0
 10
8.559129166666664
 20
10.24975138888889
 10
8.632504166666665
 20
10.3231125
  0
LWPOLYLINE
  5
148
330
2
100
AcDbEntity
  8
PDF_Layer 1
 62
   252
420
  9539471
370
    30
100
AcDbPolyline
 90
        2
 70
     0
 43
0.0
 10
8.595337499999999
 20
10.24975138888889
 10
8.668712499999998
 20
10.3231125
  0
LWPOLYLINE
  5
149
330
2
100
AcDbEntity
  8
PDF_Layer 1
 62
   252
420
  9539471
370
    30
100
AcDbPolyline
 90
        2
 70
     0
 43
0.0
 10
8.631545833333332
 20
10.24975138888889
 10
8.704920833333332
 20
10.3231125
  0
LWPOLYLINE
  5
14A
330
2
100
AcDbEntity
  8
PDF_Layer 1
 62
   252
420
  9539471
370
    30
100
AcDbPolyline
 90
        2
 70
     0
 43
0.0
 10
8.668712499999998
 20
10.24975138888889
 10
8.737309722222221
 20
10.31834861111111
  0
LWPOLYLINE
  5
14B
330
2
100
AcDbEntity
  8
PDF_Layer 1
 62
   252
420
  9539471
370
    30
100
AcDbPolyline
 90
        2
 70
     0
 43
0.0
 10
8.704920833333332
 20
10.24975138888889
 10
8.768754166666667
 20
10.31358472222222
  0
LWPOLYLINE
  5
14C
330
2
100
AcDbEntity
  8
PDF_Layer 1
 62
   252
420
  9539471
370
    30
100
AcDbPolyline
 90
        2
 70
     0
 43
0.0
 10
8.736365277777776
 20
10.24402916666666
 10
8.80019861111111
 20
10.30882083333333
  0
LWPOLYLINE
  5
14D
330
2
100
AcDbEntity
  8
PDF_Layer 1
 62
   252
420
  9539471
370
    30
100
AcDbPolyline
 90
        2
 70
     0
 43
0.0
 10
8.76779583333333
 20
10.23926527777778
 10
8.832587499999998
 20
10.30405694444444
  0
LWPOLYLINE
  5
14E
330
2
100
AcDbEntity
  8
PDF_Layer 1
 62
   252
420
  9539471
370
    30
100
AcDbPolyline
 90
        2
 70
     0
 43
0.0
 10
8.799240277777776
 20
10.23450138888889
 10
8.864031944444443
 20
10.29929305555555
  0
LWPOLYLINE
  5
14F
330
2
100
AcDbEntity
  8
PDF_Layer 1
 62
   252
420
  9539471
370
    30
100
AcDbPolyline
 90
        2
 70
     0
 43
0.0
 10
8.831643055555554
 20
10.2297375
 10
8.895476388888887
 20
10.29452916666667
  0
LWPOLYLINE
  5
150
330
2
100
AcDbEntity
  8
PDF_Layer 1
 62
   252
420
  9539471
370
    30
100
AcDbPolyline
 90
        2
 70
     0
 43
0.0
 10
8.863087499999998
 20
10.22497361111111
 10
8.926920833333332
 20
10.28976527777778
  0
LWPOLYLINE
  5
151
330
2
100
AcDbEntity
  8
PDF_Layer 1
 62
   252
420
  9539471
370
    30
100
AcDbPolyline
 90
        2
 70
     0
 43
0.0
 10
8.894531944444443
 20
10.22020972222222
 10
8.959323611111109
 20
10.28405694444444
  0
LWPOLYLINE
  5
152
330
2
100
AcDbEntity
  8
PDF_Layer 1
 62
   252
420
  9539471
370
    30
100
AcDbPolyline
 90
        2
 70
     0
 43
0.0
 10
8.926920833333332
 20
10.21544583333333
 10
8.990768055555555
 20
10.27929305555555
  0
LWPOLYLINE
  5
153
330
2
100
AcDbEntity
  8
PDF_Layer 1
 62
   252
420
  9539471
370
    30
100
AcDbPolyline
 90
        2
 70
     0
 43
0.0
 10
8.958365277777776
 20
10.21068194444444
 10
9.022198611111109
 20
10.27452916666666
  0
LWPOLYLINE
  5
154
330
2
100
AcDbEntity
  8
PDF_Layer 1
 62
   252
420
  9539471
370
    30
100
AcDbPolyline
 90
        2
 70
     0
 43
0.0
 10
8.98980972222222
 20
10.20591805555555
 10
9.054601388888887
 20
10.26976527777778
  0
LWPOLYLINE
  5
155
330
2
100
AcDbEntity
  8
PDF_Layer 1
 62
   252
420
  9539471
370
    30
100
AcDbPolyline
 90
        2
 70
     0
 43
0.0
 10
9.021254166666665
 20
10.20115416666667
 10
9.086045833333331
 20
10.26500138888889
  0
LWPOLYLINE
  5
156
330
2
100
AcDbEntity
  8
PDF_Layer 1
 62
   252
420
  9539471
370
    30
100
AcDbPolyline
 90
        2
 70
     0
 43
0.0
 10
9.053643055555554
 20
10.19639027777778
 10
9.117490277777775
 20
10.26022361111111
  0
LWPOLYLINE
  5
157
330
2
100
AcDbEntity
  8
PDF_Layer 1
 62
   252
420
  9539471
370
    30
100
AcDbPolyline
 90
        2
 70
     0
 43
0.0
 10
9.085087499999998
 20
10.19162638888889
 10
9.148934722222222
 20
10.25545972222222
  0
LWPOLYLINE
  5
158
330
2
100
AcDbEntity
  8
PDF_Layer 1
 62
   252
420
  9539471
370
    30
100
AcDbPolyline
 90
        2
 70
     0
 43
0.0
 10
9.116531944444442
 20
10.18590416666667
 10
9.18132361111111
 20
10.25069583333333
  0
LWPOLYLINE
  5
159
330
2
100
AcDbEntity
  8
PDF_Layer 1
 62
   252
420
  9539471
370
    30
100
AcDbPolyline
 90
        2
 70
     0
 43
0.0
 10
9.147976388888888
 20
10.18114027777778
 10
9.212768055555555
 20
10.24593194444444
  0
LWPOLYLINE
  5
15A
330
2
100
AcDbEntity
  8
PDF_Layer 1
 62
   252
420
  9539471
370
    30
100
AcDbPolyline
 90
        2
 70
     0
 43
0.0
 10
9.180379166666664
 20
10.17637638888889
 10
9.244212499999999
 20
10.24116805555555
  0
LWPOLYLINE
  5
15B
330
2
100
AcDbEntity
  8
PDF_Layer 1
 62
   252
420
  9539471
370
    30
100
AcDbPolyline
 90
        2
 70
     0
 43
0.0
 10
9.21180972222222
 20
10.1716125
 10
9.275656944444442
 20
10.23640416666666
  0
LWPOLYLINE
  5
15C
330
2
100
AcDbEntity
  8
PDF_Layer 1
 62
   252
420
  9539471
370
    30
100
AcDbPolyline
 90
        2
 70
     0
 43
0.0
 10
9.243254166666666
 20
10.16684861111111
 10
9.344254166666665
 20
10.26784861111111
  0
LWPOLYLINE
  5
15D
330
2
100
AcDbEntity
  8
PDF_Layer 1
 62
   252
420
  9539471
370
    30
100
AcDbPolyline
 90
        2
 70
     0
 43
0.0
 10
9.274698611111109
 20
10.16208472222222
 10
9.365226388888887
 20
10.2526125
  0
LWPOLYLINE
  5
15E
330
2
100
AcDbEntity
  8
PDF_Layer 1
 62
   252
420
  9539471
370
    30
100
AcDbPolyline
 90
        2
 70
     0
 43
0.0
 10
9.311865277777776
 20
10.16208472222222
 10
9.381420833333333
 20
10.23164027777778
  0
LWPOLYLINE
  5
15F
330
2
100
AcDbEntity
  8
PDF_Layer 1
 62
   252
420
  9539471
370
    30
100
AcDbPolyline
 90
        2
 70
     0
 43
0.0
 10
10.76300416666666
 20
11.54082083333333
 10
10.83065694444444
 20
11.60751527777778
  0
LWPOLYLINE
  5
160
330
2
100
AcDbEntity
  8
PDF_Layer 1
 62
   252
420
  9539471
370
    30
100
AcDbPolyline
 90
        2
 70
     0
 43
0.0
 10
10.74300416666666
 20
11.48459861111111
 10
10.88305972222222
 20
11.62370972222222
  0
LWPOLYLINE
  5
161
330
2
100
AcDbEntity
  8
PDF_Layer 1
 62
   252
420
  9539471
370
    30
100
AcDbPolyline
 90
        2
 70
     0
 43
0.0
 10
10.72679583333333
 20
11.43125138888889
 10
10.91926805555555
 20
11.62370972222222
  0
LWPOLYLINE
  5
162
330
2
100
AcDbEntity
  8
PDF_Layer 1
 62
   252
420
  9539471
370
    30
100
AcDbPolyline
 90
        2
 70
     0
 43
0.0
 10
10.71060138888888
 20
11.37789027777778
 10
10.82112916666666
 20
11.4893625
  0
LWPOLYLINE
  5
163
330
2
100
AcDbEntity
  8
PDF_Layer 1
 62
   252
420
  9539471
370
    30
100
AcDbPolyline
 90
        2
 70
     0
 43
0.0
 10
10.88115694444444
 20
11.54939027777778
 10
10.91926805555555
 20
11.58751527777778
  0
LWPOLYLINE
  5
164
330
2
100
AcDbEntity
  8
PDF_Layer 1
 62
   252
420
  9539471
370
    30
100
AcDbPolyline
 90
        2
 70
     0
 43
0.0
 10
10.69440694444444
 20
11.3254875
 10
10.80493472222222
 20
11.43695972222222
  0
LWPOLYLINE
  5
165
330
2
100
AcDbEntity
  8
PDF_Layer 1
 62
   252
420
  9539471
370
    30
100
AcDbPolyline
 90
        2
 70
     0
 43
0.0
 10
10.67725416666666
 20
11.27212638888889
 10
10.78874027777777
 20
11.3836125
  0
LWPOLYLINE
  5
166
330
2
100
AcDbEntity
  8
PDF_Layer 1
 62
   252
420
  9539471
370
    30
100
AcDbPolyline
 90
        2
 70
     0
 43
0.0
 10
10.66105972222222
 20
11.21876527777778
 10
10.77253194444444
 20
11.33025138888889
  0
LWPOLYLINE
  5
167
330
2
100
AcDbEntity
  8
PDF_Layer 1
 62
   252
420
  9539471
370
    30
100
AcDbPolyline
 90
        2
 70
     0
 43
0.0
 10
10.63914305555555
 20
11.16159861111111
 10
10.7563375
 20
11.27784861111111
  0
LWPOLYLINE
  5
168
330
2
100
AcDbEntity
  8
PDF_Layer 1
 62
   252
420
  9539471
370
    30
100
AcDbPolyline
 90
        2
 70
     0
 43
0.0
 10
10.60865694444444
 20
11.09394583333333
 10
10.73918472222222
 20
11.2244875
  0
LWPOLYLINE
  5
169
330
2
100
AcDbEntity
  8
PDF_Layer 1
 62
   252
420
  9539471
370
    30
100
AcDbPolyline
 90
        2
 70
     0
 43
0.0
 10
10.58005972222222
 20
11.02820972222222
 10
10.7210875
 20
11.17016805555555
  0
LWPOLYLINE
  5
16A
330
2
100
AcDbEntity
  8
PDF_Layer 1
 62
   252
420
  9539471
370
    30
100
AcDbPolyline
 90
        2
 70
     0
 43
0.0
 10
10.60197638888888
 20
11.0148625
 10
10.69630972222222
 20
11.10919583333333
  0
LWPOLYLINE
  5
16B
330
2
100
AcDbEntity
  8
PDF_Layer 1
 62
   252
420
  9539471
370
    30
100
AcDbPolyline
 90
        2
 70
     0
 43
0.0
 10
10.62485138888889
 20
11.00057083333333
 10
10.66105972222222
 20
11.03677916666666
  0
LWPOLYLINE
  5
16C
330
2
100
AcDbEntity
  8
PDF_Layer 1
370
   106
100
AcDbPolyline
 90
       37
 70
     0
 43
0.0
 10
4.30669861111111
 20
11.55130138888889
 10
4.287645833333332
 20
11.55130694444444
 10
4.287645833333332
 20
11.62466805555555
 10
10.91927083333333
 20
11.62466805555555
 10
10.91927083333333
 20
11.55130694444444
 10
10.90117361111111
 20
11.55130694444444
 10
10.88402083333333
 20
11.54939027777778
 10
10.8678125
 20
11.54462638888889
 10
10.85257638888889
 20
11.53605694444444
 10
10.8401875
 20
11.52366805555555
 10
10.82970138888889
 20
11.51033472222222
 10
10.82303472222222
 20
11.49412638888889
 10
10.73538194444444
 20
11.21114027777777
 42
-0.2562836673675258
 10
10.05602083333333
 20
10.5603625
 10
9.83590972222222
 20
10.50129305555555
 10
9.799701388888887
 20
10.4898625
 10
9.765409722222221
 20
10.47557083333333
 10
9.733006944444444
 20
10.45745972222222
 10
9.701562499999999
 20
10.43745972222222
 10
9.342354166666666
 20
10.17543194444444
 10
9.329020833333332
 20
10.16780694444444
 10
9.313770833333332
 20
10.16208472222222
 10
9.298520833333332
 20
10.16018194444444
 10
9.282326388888888
 20
10.16114027777778
 10
8.7020625
 20
10.24975138888889
 10
7.603462499999999
 20
10.24974583333333
 10
6.504851388888887
 20
10.24974583333333
 10
5.924587499999999
 20
10.16113472222222
 10
5.909337499999999
 20
10.16017638888889
 10
5.893143055555555
 20
10.16209305555555
 10
5.878851388888888
 20
10.16780138888889
 10
5.865518055555554
 20
10.17542638888889
 10
5.505351388888888
 20
10.43745416666666
 10
5.474851388888888
 20
10.45746805555555
 10
5.441504166666665
 20
10.47556527777778
 10
5.407212499999999
 20
10.48985694444444
 10
5.371948611111109
 20
10.5012875
  0
SPLINE
  5
170
330
2
100
AcDbEntity
  8
PDF_Layer 1
370
   106
100
AcDbSpline
210
0.0
220
0.0
230
1.0
 70
     8
 71
     3
 72
     8
 73
     4
 74
     0
 42
0.000000001
 43
0.0000000001
 40
0.0
 40
0.0
 40
0.0
 40
0.0
 40
1.0
 40
1.0
 40
1.0
 40
1.0
 10
10.91927083333333
 20
11.62466805555555
 30
0.0
 10
10.87528472222222
 20
11.62601527777777
 30
0.0
 10
10.84588194444444
 20
11.61980694444444
 30
0.0
 10
10.80874305555555
 20
11.59512638888889
 30
0.0
  0
LWPOLYLINE
  5
171
330
2
100
AcDbEntity
  8
PDF_Layer 1
370
   106
100
AcDbPolyline
 90
       24
 70
     0
 43
0.0
 10
10.80874305555555
 20
11.59512638888889
 10
10.79064583333333
 20
11.57893194444444
 10
10.7744375
 20
11.55987638888889
 10
10.76204861111111
 20
11.53891805555555
 10
10.75347916666666
 20
11.51604305555555
 10
10.66582638888889
 20
11.23305694444444
 42
-0.2562654234263488
 10
10.03696527777777
 20
10.63087638888889
 10
9.816854166666665
 20
10.57180694444444
 10
9.774937499999998
 20
10.55845972222222
 10
9.733965277777777
 20
10.54130694444444
 10
9.694895833333331
 20
10.52034861111111
 10
9.658687499999999
 20
10.49652916666666
 10
9.299479166666666
 20
10.23450138888889
 10
9.292812499999998
 20
10.23355694444444
 10
8.707770833333331
 20
10.3231125
 10
7.603462499999999
 20
10.32312083333333
 10
6.500087499999999
 20
10.32312083333333
 10
5.914101388888887
 20
10.23355138888889
 10
5.908393055555555
 20
10.23450972222222
 10
5.549170833333332
 20
10.49652361111111
 10
5.512018055555554
 20
10.52034305555555
 10
5.47294861111111
 20
10.54131527777778
 10
5.432934722222221
 20
10.55846805555555
 10
5.391004166666665
 20
10.57180138888889
  0
LWPOLYLINE
  5
175
330
2
100
AcDbEntity
  8
PDF_Layer 1
370
    35
100
AcDbPolyline
 90
        2
 70
     0
 43
0.0
 10
9.334730555555553
 20
10.16018333333333
 10
12.78459166666666
 20
10.16018333333333
  0
LWPOLYLINE
  5
176
330
2
100
AcDbEntity
  8
PDF_Layer 1
370
    35
100
AcDbPolyline
 90
        2
 70
     0
 43
0.0
 10
10.96024444444444
 20
11.62466944444444
 10
12.78459166666666
 20
11.62466944444444
  0
LWPOLYLINE
  5
178
330
2
100
AcDbEntity
  8
PDF_Layer 1
370
    35
100
AcDbPolyline
 90
        2
 70
     0
 43
0.0
 10
10.39236111111111
 20
10.16018333333333
 10
9.294708333333332
 20
10.16018333333333
  0
SPLINE
  5
17A
330
2
100
AcDbEntity
  8
PDF_Layer 1
370
   106
100
AcDbSpline
210
0.0
220
0.0
230
1.0
 70
     8
 71
     3
 72
     8
 73
     4
 74
     0
 42
0.000000001
 43
0.0000000001
 40
0.0
 40
0.0
 40
0.0
 40
0.0
 40
1.0
 40
1.0
 40
1.0
 40
1.0
 10
4.383879166666665
 20
11.49413472222222
 30
0.0
 10
4.373059722222221
 20
11.52931527777778
 30
0.0
 10
4.343615277777777
 20
11.55123194444444
 30
0.0
 10
4.30669861111111
 20
11.55130138888889
 30
0.0
  0
LWPOLYLINE
  5
17B
330
2
100
AcDbEntity
  8
PDF_Layer 1
370
   106
100
AcDbPolyline
 90
        5
 70
     0
 43
0.0
 10
4.383879166666665
 20
11.49413472222222
 10
4.472490277777777
 20
11.21114861111111
 10
4.492504166666665
 20
11.15302361111111
 10
4.51632361111111
 20
11.09680138888889
 10
4.543004166666666
 20
11.0415375
  0
SPLINE
  5
17C
330
2
100
AcDbEntity
  8
PDF_Layer 1
370
   106
100
AcDbSpline
210
0.0
220
0.0
230
1.0
 70
     8
 71
     3
 72
     8
 73
     4
 74
     0
 42
0.000000001
 43
0.0000000001
 40
0.0
 40
0.0
 40
0.0
 40
0.0
 40
1.0
 40
1.0
 40
1.0
 40
1.0
 10
4.543004166666666
 20
11.0415375
 30
0.0
 10
4.595309722222221
 20
10.94902361111111
 30
0.0
 10
4.650851388888888
 20
10.87239861111111
 30
0.0
 10
4.727851388888888
 20
10.79857916666666
 30
0.0
  0
SPLINE
  5
17D
330
2
100
AcDbEntity
  8
PDF_Layer 1
370
   106
100
AcDbSpline
210
0.0
220
0.0
230
1.0
 70
     8
 71
     3
 72
     8
 73
     4
 74
     0
 42
0.000000001
 43
0.0000000001
 40
0.0
 40
0.0
 40
0.0
 40
0.0
 40
1.0
 40
1.0
 40
1.0
 40
1.0
 10
4.727851388888888
 20
10.79857916666666
 30
0.0
 10
4.92507361111111
 20
10.61067638888889
 30
0.0
 10
5.110615277777776
 20
10.56594027777778
 30
0.0
 10
5.371948611111109
 20
10.5012875
 30
0.0
  0
LWPOLYLINE
  5
180
330
2
100
AcDbEntity
  8
PDF_Layer 1
370
   106
100
AcDbPolyline
 90
        3
 70
     0
 43
0.0
 10
4.287643055555554
 20
11.6246625
 10
4.30669861111111
 20
11.6246625
 42
-0.330869052888676
 10
4.454393055555555
 20
11.51605138888889
  0
SPLINE
  5
181
330
2
100
AcDbEntity
  8
PDF_Layer 1
370
   106
100
AcDbSpline
210
0.0
220
0.0
230
1.0
 70
     8
 71
     3
 72
     8
 73
     4
 74
     0
 42
0.000000001
 43
0.0000000001
 40
0.0
 40
0.0
 40
0.0
 40
0.0
 40
1.0
 40
1.0
 40
1.0
 40
1.0
 10
4.454393055555555
 20
11.51605138888889
 30
0.0
 10
4.533962499999999
 20
11.25832916666666
 30
0.0
 10
4.568545833333332
 20
11.06584305555555
 30
0.0
 10
4.757379166666665
 20
10.87289861111111
 30
0.0
  0
SPLINE
  5
182
330
2
100
AcDbEntity
  8
PDF_Layer 1
370
   106
100
AcDbSpline
210
0.0
220
0.0
230
1.0
 70
     8
 71
     3
 72
     8
 73
     4
 74
     0
 42
0.000000001
 43
0.0000000001
 40
0.0
 40
0.0
 40
0.0
 40
0.0
 40
1.0
 40
1.0
 40
1.0
 40
1.0
 10
4.757379166666665
 20
10.87289861111111
 30
0.0
 10
4.924893055555554
 20
10.69363472222222
 30
0.0
 10
5.157712499999999
 20
10.62195416666666
 30
0.0
 10
5.391004166666665
 20
10.57180138888889
 30
0.0
  0
LWPOLYLINE
  5
185
330
2
100
AcDbEntity
  8
PDF_Layer 1
370
   106
100
AcDbPolyline
 90
        4
 70
     1
 43
0.0
 10
7.359531944444443
 20
10.32312083333333
 10
7.847379166666665
 20
10.32312083333333
 10
7.847379166666665
 20
10.24975972222222
 10
7.359531944444443
 20
10.24975972222222
  0
LWPOLYLINE
  5
187
330
2
100
AcDbEntity
  8
PDF_Layer 1
370
    35
100
AcDbPolyline
 90
        2
 70
     0
 43
0.0
 10
4.287643055555554
 20
11.66563888888888
 10
4.287643055555554
 20
12.03152777777777
  0
LWPOLYLINE
  5
188
330
2
100
AcDbEntity
  8
PDF_Layer 1
370
    35
100
AcDbPolyline
 90
        2
 70
     0
 43
0.0
 10
10.91926805555555
 20
11.66563888888888
 10
10.91926805555555
 20
12.03152777777777
  0
LWPOLYLINE
  5
189
330
2
100
AcDbEntity
  8
PDF_Layer 1
370
    35
100
AcDbPolyline
 90
        2
 70
     0
 43
0.0
 10
7.359534722222221
 20
10.36313472222222
 10
7.359534722222221
 20
10.52796805555555
  0
LWPOLYLINE
  5
18A
330
2
100
AcDbEntity
  8
PDF_Layer 1
370
    35
100
AcDbPolyline
 90
        2
 70
     0
 43
0.0
 10
7.847381944444443
 20
10.36313472222222
 10
7.847381944444443
 20
10.52796805555555
  0
LWPOLYLINE
  5
18B
330
2
100
AcDbEntity
  8
PDF_Layer 1
370
    35
100
AcDbPolyline
 90
        2
 70
     0
 43
0.0
 10
6.504855555555556
 20
10.20877777777777
 10
6.504855555555556
 20
9.899111111111109
  0
LWPOLYLINE
  5
18C
330
2
100
AcDbEntity
  8
PDF_Layer 1
370
    35
100
AcDbPolyline
 90
        2
 70
     0
 43
0.0
 10
8.70206388888889
 20
10.20877777777777
 10
8.70206388888889
 20
9.899111111111109
  0
LWPOLYLINE
  5
18D
330
2
100
AcDbEntity
  8
PDF_Layer 1
 62
   252
420
  9539471
370
    30
100
AcDbPolyline
 90
        2
 70
     0
 43
0.0
 10
5.917918055555554
 20
10.16018333333333
 10
5.907431944444443
 20
10.15828055555555
  0
LWPOLYLINE
  5
18E
330
2
100
AcDbEntity
  8
PDF_Layer 1
 62
   252
420
  9539471
370
    30
100
AcDbPolyline
 90
        3
 70
     0
 43
0.0
 10
5.902668055555554
 20
10.15732222222222
 10
5.892195833333332
 20
10.15637777777778
 10
5.883612499999999
 20
10.16208611111111
  0
LWPOLYLINE
  5
18F
330
2
100
AcDbEntity
  8
PDF_Layer 1
 62
   252
420
  9539471
370
    30
100
AcDbPolyline
 90
        3
 70
     0
 43
0.0
 10
5.432931944444443
 20
10.4851
 10
5.444362499999998
 20
10.48128055555555
 10
5.45484861111111
 20
10.47461388888889
  0
LWPOLYLINE
  5
190
330
2
100
AcDbEntity
  8
PDF_Layer 1
 62
   252
420
  9539471
370
    30
100
AcDbPolyline
 90
        2
 70
     0
 43
0.0
 10
5.458654166666665
 20
10.47175277777777
 10
5.467237499999998
 20
10.46508611111111
  0
LWPOLYLINE
  5
191
330
2
100
AcDbEntity
  8
PDF_Layer 1
 62
   252
420
  9539471
370
    30
100
AcDbPolyline
 90
        2
 70
     0
 43
0.0
 10
5.471043055555553
 20
10.462225
 10
5.479626388888887
 20
10.45651666666666
  0
LWPOLYLINE
  5
192
330
2
100
AcDbEntity
  8
PDF_Layer 1
 62
   252
420
  9539471
370
    30
100
AcDbPolyline
 90
        2
 70
     0
 43
0.0
 10
5.483431944444443
 20
10.45365555555555
 10
5.493918055555553
 20
10.44603055555555
  0
LWPOLYLINE
  5
193
330
2
100
AcDbEntity
  8
PDF_Layer 1
 62
   252
420
  9539471
370
    30
100
AcDbPolyline
 90
        2
 70
     0
 43
0.0
 10
5.870279166666665
 20
10.17161388888889
 10
5.879806944444442
 20
10.16494722222222
  0
LWPOLYLINE
  5
195
330
2
100
AcDbEntity
  8
PDF_Layer 1
 62
   252
420
  9539471
370
    30
100
AcDbPolyline
 90
        3
 70
     0
 43
0.0
 10
4.625890277777776
 20
10.71568333333333
 10
4.630654166666665
 20
10.699475
 10
4.647806944444442
 20
10.69566944444444
  0
LWPOLYLINE
  5
196
330
2
100
AcDbEntity
  8
PDF_Layer 1
 62
   252
420
  9539471
370
    30
100
AcDbPolyline
 90
        2
 70
     0
 43
0.0
 10
4.657334722222221
 20
10.69280833333333
 10
4.677348611111109
 20
10.6871
  0
LWPOLYLINE
  5
197
330
2
100
AcDbEntity
  8
PDF_Layer 1
 62
   252
420
  9539471
370
    30
100
AcDbPolyline
 90
        2
 70
     0
 43
0.0
 10
4.686876388888888
 20
10.68518333333333
 10
4.706890277777776
 20
10.679475
  0
LWPOLYLINE
  5
198
330
2
100
AcDbEntity
  8
PDF_Layer 1
 62
   252
420
  9539471
370
    30
100
AcDbPolyline
 90
        2
 70
     0
 43
0.0
 10
4.716418055555553
 20
10.67661388888889
 10
4.735473611111109
 20
10.67185
  0
LWPOLYLINE
  5
199
330
2
100
AcDbEntity
  8
PDF_Layer 1
 62
   252
420
  9539471
370
    30
100
AcDbPolyline
 90
        2
 70
     0
 43
0.0
 10
4.745945833333331
 20
10.66898888888889
 10
4.765001388888887
 20
10.66326666666666
  0
LWPOLYLINE
  5
19A
330
2
100
AcDbEntity
  8
PDF_Layer 1
 62
   252
420
  9539471
370
    30
100
AcDbPolyline
 90
        2
 70
     0
 43
0.0
 10
4.775487499999998
 20
10.66136388888889
 10
4.794543055555553
 20
10.65565555555555
  0
LWPOLYLINE
  5
19B
330
2
100
AcDbEntity
  8
PDF_Layer 1
 62
   252
420
  9539471
370
    30
100
AcDbPolyline
 90
        2
 70
     0
 43
0.0
 10
4.805029166666665
 20
10.65279444444444
 10
4.82408472222222
 20
10.64803055555555
  0
LWPOLYLINE
  5
19C
330
2
100
AcDbEntity
  8
PDF_Layer 1
 62
   252
420
  9539471
370
    30
100
AcDbPolyline
 90
        2
 70
     0
 43
0.0
 10
4.834556944444443
 20
10.64516944444444
 10
4.853612499999998
 20
10.64040555555555
  0
LWPOLYLINE
  5
19D
330
2
100
AcDbEntity
  8
PDF_Layer 1
 62
   252
420
  9539471
370
    30
100
AcDbPolyline
 90
        2
 70
     0
 43
0.0
 10
4.86409861111111
 20
10.63754444444444
 10
4.880293055555553
 20
10.63278055555555
  0
LWPOLYLINE
  5
19E
330
2
100
AcDbEntity
  8
PDF_Layer 1
 62
   252
420
  9539471
370
    30
100
AcDbPolyline
 90
        2
 70
     0
 43
0.0
 10
5.386251388888887
 20
10.497475
 10
5.398626388888887
 20
10.49366944444444
  0
LWPOLYLINE
  5
19F
330
2
100
AcDbEntity
  8
PDF_Layer 1
 62
   252
420
  9539471
370
    30
100
AcDbPolyline
 90
        2
 70
     0
 43
0.0
 10
5.403390277777776
 20
10.492725
 10
5.412918055555554
 20
10.48986388888889
  0
LWPOLYLINE
  5
1A0
330
2
100
AcDbEntity
  8
PDF_Layer 1
 62
   252
420
  9539471
370
    30
100
AcDbPolyline
 90
        2
 70
     0
 43
0.0
 10
5.417681944444443
 20
10.48890555555555
 10
5.428168055555554
 20
10.48604444444444
  0
LWPOLYLINE
  5
1A2
330
2
100
AcDbEntity
  8
PDF_Layer 1
 62
   252
420
  9539471
370
    30
100
AcDbPolyline
 90
        3
 70
     0
 43
0.0
 10
4.360056944444442
 20
11.55130833333333
 10
4.366723611111109
 20
11.55130833333333
 10
4.368626388888887
 20
11.54558611111111
  0
LWPOLYLINE
  5
1A3
330
2
100
AcDbEntity
  8
PDF_Layer 1
 62
   252
420
  9539471
370
    30
100
AcDbPolyline
 90
        2
 70
     0
 43
0.0
 10
4.369584722222221
 20
11.54082222222222
 10
4.372445833333332
 20
11.53129444444444
  0
LWPOLYLINE
  5
1A4
330
2
100
AcDbEntity
  8
PDF_Layer 1
 62
   252
420
  9539471
370
    30
100
AcDbPolyline
 90
        2
 70
     0
 43
0.0
 10
4.374348611111109
 20
11.52653055555555
 10
4.37720972222222
 20
11.51700277777777
  0
LWPOLYLINE
  5
1A5
330
2
100
AcDbEntity
  8
PDF_Layer 1
 62
   252
420
  9539471
370
    30
100
AcDbPolyline
 90
        2
 70
     0
 43
0.0
 10
4.379112499999998
 20
11.51128055555555
 10
4.381015277777776
 20
11.50557222222222
  0
LWPOLYLINE
  5
1A6
330
2
100
AcDbEntity
  8
PDF_Layer 1
 62
   252
420
  9539471
370
    30
100
AcDbPolyline
 90
        2
 70
     0
 43
0.0
 10
4.554431944444443
 20
10.94530833333333
 10
4.559195833333332
 20
10.92911388888889
  0
LWPOLYLINE
  5
1A7
330
2
100
AcDbEntity
  8
PDF_Layer 1
 62
   252
420
  9539471
370
    30
100
AcDbPolyline
 90
        2
 70
     0
 43
0.0
 10
4.562056944444443
 20
10.91958611111111
 10
4.568723611111109
 20
10.90053055555555
  0
LWPOLYLINE
  5
1A8
330
2
100
AcDbEntity
  8
PDF_Layer 1
 62
   252
420
  9539471
370
    30
100
AcDbPolyline
 90
        2
 70
     0
 43
0.0
 10
4.571584722222221
 20
10.89004444444444
 10
4.577306944444442
 20
10.87098888888889
  0
LWPOLYLINE
  5
1A9
330
2
100
AcDbEntity
  8
PDF_Layer 1
 62
   252
420
  9539471
370
    30
100
AcDbPolyline
 90
        2
 70
     0
 43
0.0
 10
4.580154166666665
 20
10.86146111111111
 10
4.586834722222221
 20
10.84240555555555
  0
LWPOLYLINE
  5
1AA
330
2
100
AcDbEntity
  8
PDF_Layer 1
 62
   252
420
  9539471
370
    30
100
AcDbPolyline
 90
        2
 70
     0
 43
0.0
 10
4.589681944444443
 20
10.83191944444444
 10
4.595404166666665
 20
10.81286388888889
  0
LWPOLYLINE
  5
1AB
330
2
100
AcDbEntity
  8
PDF_Layer 1
 62
   252
420
  9539471
370
    30
100
AcDbPolyline
 90
        2
 70
     0
 43
0.0
 10
4.598265277777776
 20
10.80333611111111
 10
4.604931944444443
 20
10.78332222222222
  0
LWPOLYLINE
  5
1AC
330
2
100
AcDbEntity
  8
PDF_Layer 1
 62
   252
420
  9539471
370
    30
100
AcDbPolyline
 90
        2
 70
     0
 43
0.0
 10
4.607793055555553
 20
10.77379444444444
 10
4.613501388888887
 20
10.75473888888889
  0
LWPOLYLINE
  5
1AD
330
2
100
AcDbEntity
  8
PDF_Layer 1
 62
   252
420
  9539471
370
    30
100
AcDbPolyline
 90
        2
 70
     0
 43
0.0
 10
4.616362499999998
 20
10.74521111111111
 10
4.623029166666665
 20
10.72521111111111
  0
LWPOLYLINE
  5
1AF
330
2
100
AcDbEntity
  8
PDF_Layer 1
 62
   252
420
  9539471
370
    30
100
AcDbPolyline
 90
        2
 70
     0
 43
0.0
 10
4.318126388888887
 20
11.55130833333333
 10
4.324806944444443
 20
11.55130833333333
  0
LWPOLYLINE
  5
1B0
330
2
100
AcDbEntity
  8
PDF_Layer 1
 62
   252
420
  9539471
370
    30
100
AcDbPolyline
 90
        2
 70
     0
 43
0.0
 10
4.329570833333331
 20
11.55130833333333
 10
4.340043055555554
 20
11.55130833333333
  0
LWPOLYLINE
  5
1B1
330
2
100
AcDbEntity
  8
PDF_Layer 1
 62
   252
420
  9539471
370
    30
100
AcDbPolyline
 90
        2
 70
     0
 43
0.0
 10
4.344806944444442
 20
11.55130833333333
 10
4.355293055555554
 20
11.55130833333333
  0
LWPOLYLINE
  5
1B3
330
2
100
AcDbEntity
  8
PDF_Layer 1
 62
   252
420
  9539471
370
    30
100
AcDbPolyline
 90
        2
 70
     0
 43
0.0
 10
9.289001388888888
 20
10.16018333333333
 10
9.299473611111109
 20
10.15828055555555
  0
LWPOLYLINE
  5
1B4
330
2
100
AcDbEntity
  8
PDF_Layer 1
 62
   252
420
  9539471
370
    30
100
AcDbPolyline
 90
        3
 70
     0
 43
0.0
 10
9.304237499999999
 20
10.15732222222222
 10
9.314723611111109
 20
10.15541944444444
 10
9.324251388888887
 20
10.16208611111111
  0
LWPOLYLINE
  5
1B5
330
2
100
AcDbEntity
  8
PDF_Layer 1
 62
   252
420
  9539471
370
    30
100
AcDbPolyline
 90
        3
 70
     0
 43
0.0
 10
9.774931944444443
 20
10.4851
 10
9.762543055555553
 20
10.48128055555555
 10
9.753015277777777
 20
10.47461388888889
  0
LWPOLYLINE
  5
1B6
330
2
100
AcDbEntity
  8
PDF_Layer 1
 62
   252
420
  9539471
370
    30
100
AcDbPolyline
 90
        2
 70
     0
 43
0.0
 10
9.748251388888887
 20
10.47080833333333
 10
9.740626388888886
 20
10.46508611111111
  0
LWPOLYLINE
  5
1B7
330
2
100
AcDbEntity
  8
PDF_Layer 1
 62
   252
420
  9539471
370
    30
100
AcDbPolyline
 90
        2
 70
     0
 43
0.0
 10
9.735862499999997
 20
10.462225
 10
9.728251388888887
 20
10.45651666666666
  0
LWPOLYLINE
  5
1B8
330
2
100
AcDbEntity
  8
PDF_Layer 1
 62
   252
420
  9539471
370
    30
100
AcDbPolyline
 90
        2
 70
     0
 43
0.0
 10
9.723487499999997
 20
10.45365555555555
 10
9.713945833333331
 20
10.44603055555555
  0
LWPOLYLINE
  5
1B9
330
2
100
AcDbEntity
  8
PDF_Layer 1
 62
   252
420
  9539471
370
    30
100
AcDbPolyline
 90
        2
 70
     0
 43
0.0
 10
9.336640277777775
 20
10.17161388888889
 10
9.328056944444442
 20
10.16494722222222
  0
LWPOLYLINE
  5
1BB
330
2
100
AcDbEntity
  8
PDF_Layer 1
 62
   252
420
  9539471
370
    30
100
AcDbPolyline
 90
        3
 70
     0
 43
0.0
 10
10.58197361111111
 20
10.71568333333333
 10
10.57625138888888
 20
10.699475
 10
10.56005694444444
 20
10.69471111111111
  0
LWPOLYLINE
  5
1BC
330
2
100
AcDbEntity
  8
PDF_Layer 1
 62
   252
420
  9539471
370
    30
100
AcDbPolyline
 90
        2
 70
     0
 43
0.0
 10
10.55052916666666
 20
10.69186388888889
 10
10.53051527777777
 20
10.6871
  0
LWPOLYLINE
  5
1BD
330
2
100
AcDbEntity
  8
PDF_Layer 1
 62
   252
420
  9539471
370
    30
100
AcDbPolyline
 90
        2
 70
     0
 43
0.0
 10
10.52098749999999
 20
10.68423888888889
 10
10.5009875
 20
10.679475
  0
LWPOLYLINE
  5
1BE
330
2
100
AcDbEntity
  8
PDF_Layer 1
 62
   252
420
  9539471
370
    30
100
AcDbPolyline
 90
        2
 70
     0
 43
0.0
 10
10.49145972222222
 20
10.67661388888889
 10
10.47144583333333
 20
10.67089166666666
  0
LWPOLYLINE
  5
1BF
330
2
100
AcDbEntity
  8
PDF_Layer 1
 62
   252
420
  9539471
370
    30
100
AcDbPolyline
 90
        2
 70
     0
 43
0.0
 10
10.46191805555555
 20
10.66898888888889
 10
10.44190416666666
 20
10.66326666666666
  0
LWPOLYLINE
  5
1C0
330
2
100
AcDbEntity
  8
PDF_Layer 1
 62
   252
420
  9539471
370
    30
100
AcDbPolyline
 90
        2
 70
     0
 43
0.0
 10
10.43237638888888
 20
10.66041944444444
 10
10.41237638888889
 20
10.65565555555555
  0
LWPOLYLINE
  5
1C1
330
2
100
AcDbEntity
  8
PDF_Layer 1
 62
   252
420
  9539471
370
    30
100
AcDbPolyline
 90
        2
 70
     0
 43
0.0
 10
10.40284861111111
 20
10.65279444444444
 10
10.38283472222222
 20
10.64803055555555
  0
LWPOLYLINE
  5
1C2
330
2
100
AcDbEntity
  8
PDF_Layer 1
 62
   252
420
  9539471
370
    30
100
AcDbPolyline
 90
        2
 70
     0
 43
0.0
 10
10.37330694444444
 20
10.64516944444444
 10
10.35329305555555
 20
10.63944722222222
  0
LWPOLYLINE
  5
1C3
330
2
100
AcDbEntity
  8
PDF_Layer 1
 62
   252
420
  9539471
370
    30
100
AcDbPolyline
 90
        2
 70
     0
 43
0.0
 10
10.34376527777777
 20
10.6366
 10
10.3266125
 20
10.63278055555555
  0
LWPOLYLINE
  5
1C4
330
2
100
AcDbEntity
  8
PDF_Layer 1
 62
   252
420
  9539471
370
    30
100
AcDbPolyline
 90
        2
 70
     0
 43
0.0
 10
9.820668055555552
 20
10.497475
 10
9.809237499999998
 20
10.49366944444444
  0
LWPOLYLINE
  5
1C5
330
2
100
AcDbEntity
  8
PDF_Layer 1
 62
   252
420
  9539471
370
    30
100
AcDbPolyline
 90
        2
 70
     0
 43
0.0
 10
9.804473611111109
 20
10.492725
 10
9.793987499999998
 20
10.48986388888889
  0
LWPOLYLINE
  5
1C6
330
2
100
AcDbEntity
  8
PDF_Layer 1
 62
   252
420
  9539471
370
    30
100
AcDbPolyline
 90
        2
 70
     0
 43
0.0
 10
9.789223611111108
 20
10.48890555555555
 10
9.779695833333331
 20
10.48604444444444
  0
LWPOLYLINE
  5
1C8
330
2
100
AcDbEntity
  8
PDF_Layer 1
 62
   252
420
  9539471
370
    30
100
AcDbPolyline
 90
        3
 70
     0
 43
0.0
 10
10.8468625
 20
11.55130833333333
 10
10.84114027777777
 20
11.55130833333333
 10
10.8392375
 20
11.54558611111111
  0
LWPOLYLINE
  5
1C9
330
2
100
AcDbEntity
  8
PDF_Layer 1
 62
   252
420
  9539471
370
    30
100
AcDbPolyline
 90
        2
 70
     0
 43
0.0
 10
10.83732083333333
 20
11.54082222222222
 10
10.83447361111111
 20
11.53033611111111
  0
LWPOLYLINE
  5
1CA
330
2
100
AcDbEntity
  8
PDF_Layer 1
 62
   252
420
  9539471
370
    30
100
AcDbPolyline
 90
        2
 70
     0
 43
0.0
 10
10.83351527777777
 20
11.52557222222222
 10
10.82970972222222
 20
11.51604444444444
  0
LWPOLYLINE
  5
1CB
330
2
100
AcDbEntity
  8
PDF_Layer 1
 62
   252
420
  9539471
370
    30
100
AcDbPolyline
 90
        2
 70
     0
 43
0.0
 10
10.82875138888888
 20
11.51128055555555
 10
10.82684861111111
 20
11.50557222222222
  0
LWPOLYLINE
  5
1CC
330
2
100
AcDbEntity
  8
PDF_Layer 1
 62
   252
420
  9539471
370
    30
100
AcDbPolyline
 90
        2
 70
     0
 43
0.0
 10
10.6524875
 20
10.94530833333333
 10
10.64772361111111
 20
10.92911388888889
  0
LWPOLYLINE
  5
1CD
330
2
100
AcDbEntity
  8
PDF_Layer 1
 62
   252
420
  9539471
370
    30
100
AcDbPolyline
 90
        2
 70
     0
 43
0.0
 10
10.6448625
 20
10.91958611111111
 10
10.63914027777777
 20
10.89957222222222
  0
LWPOLYLINE
  5
1CE
330
2
100
AcDbEntity
  8
PDF_Layer 1
 62
   252
420
  9539471
370
    30
100
AcDbPolyline
 90
        2
 70
     0
 43
0.0
 10
10.63627916666666
 20
10.89004444444444
 10
10.6296125
 20
10.87098888888889
  0
LWPOLYLINE
  5
1CF
330
2
100
AcDbEntity
  8
PDF_Layer 1
 62
   252
420
  9539471
370
    30
100
AcDbPolyline
 90
        2
 70
     0
 43
0.0
 10
10.62675138888888
 20
10.86146111111111
 10
10.62104305555555
 20
10.84144722222222
  0
LWPOLYLINE
  5
1D0
330
2
100
AcDbEntity
  8
PDF_Layer 1
 62
   252
420
  9539471
370
    30
100
AcDbPolyline
 90
        2
 70
     0
 43
0.0
 10
10.61818194444444
 20
10.83191944444444
 10
10.61151527777777
 20
10.81286388888889
  0
LWPOLYLINE
  5
1D1
330
2
100
AcDbEntity
  8
PDF_Layer 1
 62
   252
420
  9539471
370
    30
100
AcDbPolyline
 90
        2
 70
     0
 43
0.0
 10
10.60865416666666
 20
10.80237777777777
 10
10.60293194444444
 20
10.78332222222222
  0
LWPOLYLINE
  5
1D2
330
2
100
AcDbEntity
  8
PDF_Layer 1
 62
   252
420
  9539471
370
    30
100
AcDbPolyline
 90
        2
 70
     0
 43
0.0
 10
10.60007083333333
 20
10.77379444444444
 10
10.59340416666666
 20
10.75379444444444
  0
LWPOLYLINE
  5
1D3
330
2
100
AcDbEntity
  8
PDF_Layer 1
 62
   252
420
  9539471
370
    30
100
AcDbPolyline
 90
        2
 70
     0
 43
0.0
 10
10.59054305555555
 20
10.74426666666666
 10
10.58483472222222
 20
10.72521111111111
  0
LWPOLYLINE
  5
1D5
330
2
100
AcDbEntity
  8
PDF_Layer 1
 62
   252
420
  9539471
370
    30
100
AcDbPolyline
 90
        2
 70
     0
 43
0.0
 10
10.88877916666666
 20
11.55130833333333
 10
10.88305694444444
 20
11.55130833333333
  0
LWPOLYLINE
  5
1D6
330
2
100
AcDbEntity
  8
PDF_Layer 1
 62
   252
420
  9539471
370
    30
100
AcDbPolyline
 90
        2
 70
     0
 43
0.0
 10
10.87734861111111
 20
11.55130833333333
 10
10.86782083333333
 20
11.55130833333333
  0
LWPOLYLINE
  5
1D7
330
2
100
AcDbEntity
  8
PDF_Layer 1
 62
   252
420
  9539471
370
    30
100
AcDbPolyline
 90
        2
 70
     0
 43
0.0
 10
10.86209861111111
 20
11.55130833333333
 10
10.85257083333333
 20
11.55130833333333
  0
LWPOLYLINE
  5
1D9
330
2
100
AcDbEntity
  8
PDF_Layer 1
370
    35
100
AcDbPolyline
 90
        2
 70
     0
 43
0.0
 10
5.892193055555554
 20
10.11540138888888
 10
5.892193055555554
 20
9.426915277777776
  0
LWPOLYLINE
  5
1DA
330
2
100
AcDbEntity
  8
PDF_Layer 1
370
    35
100
AcDbPolyline
 90
        2
 70
     0
 43
0.0
 10
9.314720833333332
 20
10.11540138888888
 10
9.314720833333332
 20
9.426915277777776
  0
LWPOLYLINE
  5
1DB
330
2
100
AcDbEntity
  8
PDF_Layer 1
370
    35
100
AcDbPolyline
 90
        2
 70
     0
 43
0.0
 10
5.444366666666666
 20
10.44126527777778
 10
5.444366666666666
 20
8.943112499999999
  0
LWPOLYLINE
  5
1DC
330
2
100
AcDbEntity
  8
PDF_Layer 1
370
    35
100
AcDbPolyline
 90
        2
 70
     0
 43
0.0
 10
9.76254722222222
 20
10.44009861111111
 10
9.76254722222222
 20
8.943112499999999
  0
LWPOLYLINE
  5
1DD
330
2
100
AcDbEntity
  8
PDF_Layer 1
370
    35
100
AcDbPolyline
 90
        2
 70
     0
 43
0.0
 10
10.57625555555555
 20
10.65832222222222
 10
10.57625555555555
 20
8.479280555555554
  0
LWPOLYLINE
  5
1DE
330
2
100
AcDbEntity
  8
PDF_Layer 1
370
    35
100
AcDbPolyline
 90
        2
 70
     0
 43
0.0
 10
4.630658333333333
 20
10.65946111111111
 10
4.630658333333333
 20
8.479280555555554
  0
LWPOLYLINE
  5
1DF
330
2
100
AcDbEntity
  8
PDF_Layer 1
370
    35
100
AcDbPolyline
 90
        2
 70
     0
 43
0.0
 10
4.366727777777777
 20
11.51128333333333
 10
4.366727777777777
 20
7.961630555555553
  0
LWPOLYLINE
  5
1E0
330
2
100
AcDbEntity
  8
PDF_Layer 1
370
    35
100
AcDbPolyline
 90
        2
 70
     0
 43
0.0
 10
10.84114444444444
 20
11.51018611111111
 10
10.84114444444444
 20
7.961630555555553
  0
LWPOLYLINE
  5
1E1
330
2
100
AcDbEntity
  8
PDF_Layer 1
370
    35
100
AcDbPolyline
 90
        2
 70
     0
 43
0.0
 10
10.58197222222222
 20
10.69947916666666
 10
11.79501388888889
 20
10.69947916666666
  0
LWPOLYLINE
  5
1E2
330
2
100
AcDbEntity
  8
PDF_Layer 1
370
    35
100
AcDbPolyline
 90
        2
 70
     0
 43
0.0
 10
9.921840277777777
 20
10.48128472222222
 10
12.31236805555555
 20
10.48128472222222
  0
SPLINE
  5
1E7
330
2
100
AcDbEntity
  8
PDF_Layer 1
370
   106
100
AcDbSpline
210
0.0
220
0.0
230
1.0
 70
     8
 71
     3
 72
     8
 73
     4
 74
     0
 42
0.000000001
 43
0.0000000001
 40
0.0
 40
0.0
 40
0.0
 40
0.0
 40
1.0
 40
1.0
 40
1.0
 40
1.0
 10
7.848337500000001
 20
3.958252777777777
 30
0.0
 10
7.833573611111111
 20
4.282197222222221
 30
0.0
 10
7.374768055555556
 20
4.282058333333332
 30
0.0
 10
7.360490277777778
 20
3.958252777777777
 30
0.0
  0
SPLINE
  5
1E8
330
2
100
AcDbEntity
  8
PDF_Layer 1
370
   106
100
AcDbSpline
210
0.0
220
0.0
230
1.0
 70
     8
 71
     3
 72
     8
 73
     4
 74
     0
 42
0.000000001
 43
0.0000000001
 40
0.0
 40
0.0
 40
0.0
 40
0.0
 40
1.0
 40
1.0
 40
1.0
 40
1.0
 10
7.360490277777778
 20
3.958252777777777
 30
0.0
 10
7.374490277777779
 20
3.633530555555554
 30
0.0
 10
7.833906944444445
 20
3.633516666666666
 30
0.0
 10
7.848337500000001
 20
3.958252777777777
 30
0.0
  0
SPLINE
  5
1E9
330
2
100
AcDbEntity
  8
PDF_Layer 1
370
   106
100
AcDbSpline
210
0.0
220
0.0
230
1.0
 70
     8
 71
     3
 72
     8
 73
     4
 74
     0
 42
0.000000001
 43
0.0000000001
 40
0.0
 40
0.0
 40
0.0
 40
0.0
 40
1.0
 40
1.0
 40
1.0
 40
1.0
 10
10.57435138888889
 20
3.958252777777777
 30
0.0
 10
10.57451805555555
 20
4.045974999999999
 30
0.0
 10
10.49992083333333
 20
4.122738888888887
 30
0.0
 10
10.41142083333333
 20
4.120238888888888
 30
0.0
  0
LWPOLYLINE
  5
1EA
330
2
100
AcDbEntity
  8
PDF_Layer 1
370
   106
100
AcDbPolyline
 90
        6
 70
     0
 43
0.0
 10
9.394754166666666
 20
3.958252777777777
 10
9.393809722222222
 20
3.958252777777777
 42
0.4142869320604042
 10
9.556740277777779
 20
3.795322222222221
 10
10.41142083333333
 20
3.795322222222221
 42
0.4122411412399777
 10
10.57435138888889
 20
3.958252777777777
 10
10.57529583333333
 20
3.958252777777777
  0
SPLINE
  5
1ED
330
2
100
AcDbEntity
  8
PDF_Layer 1
370
   106
100
AcDbSpline
210
0.0
220
0.0
230
1.0
 70
     8
 71
     3
 72
     8
 73
     4
 74
     0
 42
0.000000001
 43
0.0000000001
 40
0.0
 40
0.0
 40
0.0
 40
0.0
 40
1.0
 40
1.0
 40
1.0
 40
1.0
 10
9.556740277777779
 20
4.120238888888888
 30
0.0
 10
9.469073611111111
 20
4.123224999999999
 30
0.0
 10
9.392601388888889
 20
4.045447222222221
 30
0.0
 10
9.393809722222222
 20
3.958252777777777
 30
0.0
  0
LWPOLYLINE
  5
1EE
330
2
100
AcDbEntity
  8
PDF_Layer 1
370
   106
100
AcDbPolyline
 90
        2
 70
     0
 43
0.0
 10
9.556740277777779
 20
4.120238888888888
 10
10.41142083333333
 20
4.120238888888888
  0
LWPOLYLINE
  5
1EF
330
2
100
AcDbEntity
  8
PDF_Layer 1
370
   106
100
AcDbPolyline
 90
        5
 70
     0
 43
0.0
 10
9.286143055555543
 20
4.569961111111106
 42
-0.4143886334822896
 10
9.383323611111112
 20
4.778627777777777
 10
10.18654583333333
 20
5.071141666666676
 42
-0.4129904913575144
 10
10.3952125
 20
4.97396111111111
 10
10.39617083333333
 20
4.97396111111111
  0
LWPOLYLINE
  5
1F0
330
2
100
AcDbEntity
  8
PDF_Layer 1
370
   106
100
AcDbPolyline
 90
        5
 70
     0
 43
0.0
 10
10.39521249999998
 20
4.973961111111102
 42
-0.4123727631298746
 10
10.29803194444444
 20
4.765294444444443
 10
9.494809722222223
 20
4.472780555555554
 42
-0.4134840459707735
 10
9.286143055555555
 20
4.56996111111111
 10
9.2870875
 20
4.56996111111111
  0
SPLINE
  5
1F3
330
2
100
AcDbEntity
  8
PDF_Layer 1
370
   106
100
AcDbSpline
210
0.0
220
0.0
230
1.0
 70
     8
 71
     3
 72
     8
 73
     4
 74
     0
 42
0.000000001
 43
0.0000000001
 40
0.0
 40
0.0
 40
0.0
 40
0.0
 40
1.0
 40
1.0
 40
1.0
 40
1.0
 10
9.878795833333333
 20
5.866752777777777
 30
0.0
 10
9.825309722222222
 20
5.93521111111111
 30
0.0
 10
9.714781944444444
 20
5.94471111111111
 30
0.0
 10
9.650115277777778
 20
5.886766666666666
 30
0.0
  0
LWPOLYLINE
  5
1F4
330
2
100
AcDbEntity
  8
PDF_Layer 1
370
   106
100
AcDbPolyline
 90
        2
 70
     0
 43
0.0
 10
9.878795833333333
 20
5.866752777777777
 10
9.879740277777777
 20
5.866752777777777
  0
SPLINE
  5
1F5
330
2
100
AcDbEntity
  8
PDF_Layer 1
370
   106
100
AcDbSpline
210
0.0
220
0.0
230
1.0
 70
     8
 71
     3
 72
     8
 73
     4
 74
     0
 42
0.000000001
 43
0.0000000001
 40
0.0
 40
0.0
 40
0.0
 40
0.0
 40
1.0
 40
1.0
 40
1.0
 40
1.0
 10
9.858781944444444
 20
5.637127777777776
 30
0.0
 10
9.927656944444445
 20
5.693322222222221
 30
0.0
 10
9.937045833333334
 20
5.799863888888888
 30
0.0
 10
9.878795833333333
 20
5.866752777777777
 30
0.0
  0
LWPOLYLINE
  5
1F6
330
2
100
AcDbEntity
  8
PDF_Layer 1
370
   106
100
AcDbPolyline
 90
        2
 70
     0
 43
0.0
 10
9.858781944444444
 20
5.637127777777776
 10
9.204198611111111
 20
5.088294444444443
  0
SPLINE
  5
1F7
330
2
100
AcDbEntity
  8
PDF_Layer 1
370
   106
100
AcDbSpline
210
0.0
220
0.0
230
1.0
 70
     8
 71
     3
 72
     8
 73
     4
 74
     0
 42
0.000000001
 43
0.0000000001
 40
0.0
 40
0.0
 40
0.0
 40
0.0
 40
1.0
 40
1.0
 40
1.0
 40
1.0
 10
8.975518055555555
 20
5.108308333333332
 30
0.0
 10
9.0312125
 20
5.040738888888888
 30
0.0
 10
9.137990277777777
 20
5.030169444444443
 30
0.0
 10
9.204198611111111
 20
5.088294444444443
 30
0.0
  0
LWPOLYLINE
  5
1F8
330
2
100
AcDbEntity
  8
PDF_Layer 1
370
   106
100
AcDbPolyline
 90
        2
 70
     0
 43
0.0
 10
8.975518055555555
 20
5.108308333333332
 10
8.976476388888888
 20
5.108308333333332
  0
SPLINE
  5
1F9
330
2
100
AcDbEntity
  8
PDF_Layer 1
370
   106
100
AcDbSpline
210
0.0
220
0.0
230
1.0
 70
     8
 71
     3
 72
     8
 73
     4
 74
     0
 42
0.000000001
 43
0.0000000001
 40
0.0
 40
0.0
 40
0.0
 40
0.0
 40
1.0
 40
1.0
 40
1.0
 40
1.0
 10
8.995531944444444
 20
5.337933333333332
 30
0.0
 10
8.927031944444445
 20
5.282238888888888
 30
0.0
 10
8.91722638888889
 20
5.176169444444443
 30
0.0
 10
8.975518055555555
 20
5.108308333333332
 30
0.0
  0
LWPOLYLINE
  5
1FA
330
2
100
AcDbEntity
  8
PDF_Layer 1
370
   106
100
AcDbPolyline
 90
        2
 70
     0
 43
0.0
 10
8.995531944444444
 20
5.337933333333332
 10
9.650115277777778
 20
5.886766666666666
  0
LWPOLYLINE
  5
1FB
330
2
100
AcDbEntity
  8
PDF_Layer 1
370
   106
100
AcDbPolyline
 90
        4
 70
     0
 43
0.0
 10
8.440031944444445
 20
5.730502777777776
 10
8.866893055555575
 20
6.469891666666654
 42
-0.4154842533139858
 10
9.088906944444445
 20
6.529919444444443
 10
9.08985138888889
 20
6.529919444444443
  0
LWPOLYLINE
  5
1FC
330
2
100
AcDbEntity
  8
PDF_Layer 1
370
   106
100
AcDbPolyline
 90
        3
 70
     0
 43
0.0
 10
9.088906944444458
 20
6.529919444444463
 42
-0.4141428889071012
 10
9.148934722222222
 20
6.307905555555555
 10
8.721115277777778
 20
5.567572222222221
  0
SPLINE
  5
1FD
330
2
100
AcDbEntity
  8
PDF_Layer 1
370
   106
100
AcDbSpline
210
0.0
220
0.0
230
1.0
 70
     8
 71
     3
 72
     8
 73
     4
 74
     0
 42
0.000000001
 43
0.0000000001
 40
0.0
 40
0.0
 40
0.0
 40
0.0
 40
1.0
 40
1.0
 40
1.0
 40
1.0
 10
8.499101388888888
 20
5.508488888888888
 30
0.0
 10
8.573823611111112
 20
5.46208611111111
 30
0.0
 10
8.678948611111112
 20
5.49083611111111
 30
0.0
 10
8.721115277777778
 20
5.567572222222221
 30
0.0
  0
LWPOLYLINE
  5
1FE
330
2
100
AcDbEntity
  8
PDF_Layer 1
370
   106
100
AcDbPolyline
 90
        2
 70
     0
 43
0.0
 10
8.499101388888888
 20
5.508488888888888
 10
8.500059722222221
 20
5.508488888888888
  0
SPLINE
  5
1FF
330
2
100
AcDbEntity
  8
PDF_Layer 1
370
   106
100
AcDbSpline
210
0.0
220
0.0
230
1.0
 70
     8
 71
     3
 72
     8
 73
     4
 74
     0
 42
0.000000001
 43
0.0000000001
 40
0.0
 40
0.0
 40
0.0
 40
0.0
 40
1.0
 40
1.0
 40
1.0
 40
1.0
 10
8.440031944444445
 20
5.730502777777776
 30
0.0
 10
8.394434722222223
 20
5.65446111111111
 30
0.0
 10
8.421615277777778
 20
5.551641666666665
 30
0.0
 10
8.499101388888888
 20
5.508488888888888
 30
0.0
  0
SPLINE
  5
201
330
2
100
AcDbEntity
  8
PDF_Layer 1
370
   106
100
AcDbSpline
210
0.0
220
0.0
230
1.0
 70
     8
 71
     3
 72
     8
 73
     4
 74
     0
 42
0.000000001
 43
0.0000000001
 40
0.0
 40
0.0
 40
0.0
 40
0.0
 40
1.0
 40
1.0
 40
1.0
 40
1.0
 10
8.119879166666667
 20
6.88246111111111
 30
0.0
 10
8.034768055555556
 20
6.899391666666666
 30
0.0
 10
7.945448611111111
 20
6.837447222222222
 30
0.0
 10
7.931226388888889
 20
6.750974999999998
 30
0.0
  0
LWPOLYLINE
  5
202
330
2
100
AcDbEntity
  8
PDF_Layer 1
370
   106
100
AcDbPolyline
 90
        4
 70
     0
 43
0.0
 10
8.103684722222222
 20
5.85246111111111
 10
8.252323611111112
 20
6.693794444444444
 42
0.4130882810052424
 10
8.119879166666667
 20
6.88246111111111
 10
8.1208375
 20
6.88246111111111
  0
SPLINE
  5
204
330
2
100
AcDbEntity
  8
PDF_Layer 1
370
   106
100
AcDbSpline
210
0.0
220
0.0
230
1.0
 70
     8
 71
     3
 72
     8
 73
     4
 74
     0
 42
0.000000001
 43
0.0000000001
 40
0.0
 40
0.0
 40
0.0
 40
0.0
 40
1.0
 40
1.0
 40
1.0
 40
1.0
 10
7.915031944444445
 20
5.720974999999999
 30
0.0
 10
8.000629166666668
 20
5.702766666666665
 30
0.0
 10
8.090004166666666
 20
5.76671111111111
 30
0.0
 10
8.103684722222222
 20
5.85246111111111
 30
0.0
  0
LWPOLYLINE
  5
205
330
2
100
AcDbEntity
  8
PDF_Layer 1
370
   106
100
AcDbPolyline
 90
        4
 70
     0
 43
0.0
 10
7.931226388888889
 20
6.750974999999998
 10
7.783545833333334
 20
5.909627777777776
 42
0.4196480514513538
 10
7.915031944444445
 20
5.720974999999999
 10
7.915976388888889
 20
5.720974999999999
  0
SPLINE
  5
207
330
2
100
AcDbEntity
  8
PDF_Layer 1
370
   106
100
AcDbSpline
210
0.0
220
0.0
230
1.0
 70
     8
 71
     3
 72
     8
 73
     4
 74
     0
 42
0.000000001
 43
0.0000000001
 40
0.0
 40
0.0
 40
0.0
 40
0.0
 40
1.0
 40
1.0
 40
1.0
 40
1.0
 10
7.088934722222223
 20
6.88246111111111
 30
0.0
 10
6.999226388888889
 20
6.867655555555554
 30
0.0
 10
6.9420875
 20
6.782544444444443
 30
0.0
 10
6.956490277777778
 20
6.693794444444444
 30
0.0
  0
LWPOLYLINE
  5
208
330
2
100
AcDbEntity
  8
PDF_Layer 1
370
   106
100
AcDbPolyline
 90
        2
 70
     0
 43
0.0
 10
7.088934722222223
 20
6.88246111111111
 10
7.089893055555555
 20
6.88246111111111
  0
SPLINE
  5
209
330
2
100
AcDbEntity
  8
PDF_Layer 1
370
   106
100
AcDbSpline
210
0.0
220
0.0
230
1.0
 70
     8
 71
     3
 72
     8
 73
     4
 74
     0
 42
0.000000001
 43
0.0000000001
 40
0.0
 40
0.0
 40
0.0
 40
0.0
 40
1.0
 40
1.0
 40
1.0
 40
1.0
 10
7.2775875
 20
6.750974999999998
 30
0.0
 10
7.261851388888889
 20
6.83833611111111
 30
0.0
 10
7.175045833333333
 20
6.898724999999998
 30
0.0
 10
7.088934722222223
 20
6.88246111111111
 30
0.0
  0
LWPOLYLINE
  5
20A
330
2
100
AcDbEntity
  8
PDF_Layer 1
370
   106
100
AcDbPolyline
 90
        4
 70
     0
 43
0.0
 10
7.2775875
 20
6.750974999999998
 10
7.425281944444445
 20
5.909627777777776
 42
-0.4193413811280075
 10
7.293795833333334
 20
5.720974999999999
 10
7.294740277777778
 20
5.720974999999999
  0
LWPOLYLINE
  5
20C
330
2
100
AcDbEntity
  8
PDF_Layer 1
370
   106
100
AcDbPolyline
 90
        3
 70
     0
 43
0.0
 10
7.293795833333343
 20
5.720974999999945
 42
-0.4180526857760897
 10
7.105129166666667
 20
5.85246111111111
 10
6.956490277777778
 20
6.693794444444444
  0
LWPOLYLINE
  5
20D
330
2
100
AcDbEntity
  8
PDF_Layer 1
370
   106
100
AcDbPolyline
 90
        4
 70
     0
 43
0.0
 10
6.486754166666667
 20
5.567572222222221
 10
6.059893055555509
 20
6.307905555555527
 42
-0.4151099474490568
 10
6.119920833333334
 20
6.529919444444443
 10
6.120865277777778
 20
6.529919444444443
  0
SPLINE
  5
20E
330
2
100
AcDbEntity
  8
PDF_Layer 1
370
   106
100
AcDbSpline
210
0.0
220
0.0
230
1.0
 70
     8
 71
     3
 72
     8
 73
     4
 74
     0
 42
0.000000001
 43
0.0000000001
 40
0.0
 40
0.0
 40
0.0
 40
0.0
 40
1.0
 40
1.0
 40
1.0
 40
1.0
 10
6.341920833333334
 20
6.469891666666666
 30
0.0
 10
6.299198611111112
 20
6.547058333333332
 30
0.0
 10
6.195643055555556
 20
6.575474999999999
 30
0.0
 10
6.119920833333334
 20
6.529919444444443
 30
0.0
  0
LWPOLYLINE
  5
20F
330
2
100
AcDbEntity
  8
PDF_Layer 1
370
   106
100
AcDbPolyline
 90
        4
 70
     0
 43
0.0
 10
6.341920833333334
 20
6.469891666666666
 10
6.768781944444445
 20
5.730502777777776
 42
-0.4145739431812573
 10
6.709712500000001
 20
5.508488888888888
 10
6.710670833333335
 20
5.508488888888888
  0
SPLINE
  5
211
330
2
100
AcDbEntity
  8
PDF_Layer 1
370
   106
100
AcDbSpline
210
0.0
220
0.0
230
1.0
 70
     8
 71
     3
 72
     8
 73
     4
 74
     0
 42
0.000000001
 43
0.0000000001
 40
0.0
 40
0.0
 40
0.0
 40
0.0
 40
1.0
 40
1.0
 40
1.0
 40
1.0
 10
6.486754166666667
 20
5.567572222222221
 30
0.0
 10
6.531115277777778
 20
5.490530555555555
 30
0.0
 10
6.633643055555555
 20
5.462169444444443
 30
0.0
 10
6.709712500000001
 20
5.508488888888888
 30
0.0
  0
SPLINE
  5
213
330
2
100
AcDbEntity
  8
PDF_Layer 1
370
   106
100
AcDbSpline
210
0.0
220
0.0
230
1.0
 70
     8
 71
     3
 72
     8
 73
     4
 74
     0
 42
0.000000001
 43
0.0000000001
 40
0.0
 40
0.0
 40
0.0
 40
0.0
 40
1.0
 40
1.0
 40
1.0
 40
1.0
 10
5.329073611111112
 20
5.866752777777777
 30
0.0
 10
5.271893055555556
 20
5.79508611111111
 30
0.0
 10
5.280768055555556
 20
5.697933333333332
 30
0.0
 10
5.3490875
 20
5.637127777777776
 30
0.0
  0
LWPOLYLINE
  5
214
330
2
100
AcDbEntity
  8
PDF_Layer 1
370
   106
100
AcDbPolyline
 90
        4
 70
     0
 43
0.0
 10
6.213295833333334
 20
5.337933333333332
 10
5.558698611111112
 20
5.886766666666666
 42
0.4146977054528025
 10
5.329073611111112
 20
5.866752777777777
 10
5.330031944444445
 20
5.866752777777777
  0
SPLINE
  5
216
330
2
100
AcDbEntity
  8
PDF_Layer 1
370
   106
100
AcDbSpline
210
0.0
220
0.0
230
1.0
 70
     8
 71
     3
 72
     8
 73
     4
 74
     0
 42
0.000000001
 43
0.0000000001
 40
0.0
 40
0.0
 40
0.0
 40
0.0
 40
1.0
 40
1.0
 40
1.0
 40
1.0
 10
6.233295833333333
 20
5.108308333333332
 30
0.0
 10
6.29144861111111
 20
5.176683333333333
 30
0.0
 10
6.281240277777778
 20
5.280183333333332
 30
0.0
 10
6.213295833333334
 20
5.337933333333332
 30
0.0
  0
LWPOLYLINE
  5
217
330
2
100
AcDbEntity
  8
PDF_Layer 1
370
   106
100
AcDbPolyline
 90
        4
 70
     0
 43
0.0
 10
5.3490875
 20
5.637127777777776
 10
6.003670833333334
 20
5.088294444444443
 42
0.4117159261518595
 10
6.233295833333333
 20
5.108308333333332
 10
6.234254166666667
 20
5.108308333333332
  0
LWPOLYLINE
  5
219
330
2
100
AcDbEntity
  8
PDF_Layer 1
370
   106
100
AcDbPolyline
 90
        4
 70
     0
 43
0.0
 10
5.714018055555556
 20
4.472780555555554
 10
4.910781944444448
 20
4.765294444444452
 42
-0.4143285176656033
 10
4.813601388888889
 20
4.97396111111111
 10
4.814545833333334
 20
4.97396111111111
  0
LWPOLYLINE
  5
21A
330
2
100
AcDbEntity
  8
PDF_Layer 1
370
   106
100
AcDbPolyline
 90
        5
 70
     0
 43
0.0
 10
4.813601388888886
 20
4.973961111111111
 42
-0.4130287908412085
 10
5.022268055555556
 20
5.071141666666665
 10
5.825490277777778
 20
4.778627777777777
 42
-0.4123594960967575
 10
5.922684722222223
 20
4.56996111111111
 10
5.923629166666668
 20
4.56996111111111
  0
SPLINE
  5
21C
330
2
100
AcDbEntity
  8
PDF_Layer 1
370
   106
100
AcDbSpline
210
0.0
220
0.0
230
1.0
 70
     8
 71
     3
 72
     8
 73
     4
 74
     0
 42
0.000000001
 43
0.0000000001
 40
0.0
 40
0.0
 40
0.0
 40
0.0
 40
1.0
 40
1.0
 40
1.0
 40
1.0
 10
5.714018055555556
 20
4.472780555555554
 30
0.0
 10
5.797434722222223
 20
4.441377777777777
 30
0.0
 10
5.892226388888889
 20
4.486502777777777
 30
0.0
 10
5.922684722222223
 20
4.56996111111111
 30
0.0
  0
LWPOLYLINE
  5
21E
330
2
100
AcDbEntity
  8
PDF_Layer 1
370
   106
100
AcDbPolyline
 90
        4
 70
     0
 43
0.0
 10
5.6520875
 20
3.795322222222221
 10
4.797406944444445
 20
3.795322222222228
 42
-0.4142692743864694
 10
4.634462500000001
 20
3.958252777777777
 10
4.635420833333333
 20
3.958252777777777
  0
SPLINE
  5
21F
330
2
100
AcDbEntity
  8
PDF_Layer 1
370
   106
100
AcDbSpline
210
0.0
220
0.0
230
1.0
 70
     8
 71
     3
 72
     8
 73
     4
 74
     0
 42
0.000000001
 43
0.0000000001
 40
0.0
 40
0.0
 40
0.0
 40
0.0
 40
1.0
 40
1.0
 40
1.0
 40
1.0
 10
4.797406944444445
 20
4.120238888888888
 30
0.0
 10
4.709740277777779
 20
4.123224999999999
 30
0.0
 10
4.633268055555556
 20
4.045447222222221
 30
0.0
 10
4.634462500000001
 20
3.958252777777777
 30
0.0
  0
LWPOLYLINE
  5
220
330
2
100
AcDbEntity
  8
PDF_Layer 1
370
   106
100
AcDbPolyline
 90
        2
 70
     0
 43
0.0
 10
4.797406944444445
 20
4.120238888888888
 10
5.6520875
 20
4.120238888888888
  0
SPLINE
  5
221
330
2
100
AcDbEntity
  8
PDF_Layer 1
370
   106
100
AcDbSpline
210
0.0
220
0.0
230
1.0
 70
     8
 71
     3
 72
     8
 73
     4
 74
     0
 42
0.000000001
 43
0.0000000001
 40
0.0
 40
0.0
 40
0.0
 40
0.0
 40
1.0
 40
1.0
 40
1.0
 40
1.0
 10
5.814059722222222
 20
3.958252777777777
 30
0.0
 10
5.81747638888889
 20
4.044849999999999
 30
0.0
 10
5.7383375
 20
4.123502777777777
 30
0.0
 10
5.6520875
 20
4.120238888888888
 30
0.0
  0
LWPOLYLINE
  5
222
330
2
100
AcDbEntity
  8
PDF_Layer 1
370
   106
100
AcDbPolyline
 90
        2
 70
     0
 43
0.0
 10
5.814059722222222
 20
3.958252777777777
 10
5.815018055555556
 20
3.958252777777777
  0
SPLINE
  5
223
330
2
100
AcDbEntity
  8
PDF_Layer 1
370
   106
100
AcDbSpline
210
0.0
220
0.0
230
1.0
 70
     8
 71
     3
 72
     8
 73
     4
 74
     0
 42
0.000000001
 43
0.0000000001
 40
0.0
 40
0.0
 40
0.0
 40
0.0
 40
1.0
 40
1.0
 40
1.0
 40
1.0
 10
5.6520875
 20
3.795322222222221
 30
0.0
 10
5.739837500000001
 20
3.794155555555554
 30
0.0
 10
5.816781944444445
 20
3.870308333333332
 30
0.0
 10
5.814059722222222
 20
3.958252777777777
 30
0.0
  0
LWPOLYLINE
  5
225
330
2
100
AcDbEntity
  8
PDF_Layer 1
370
   106
100
AcDbPolyline
 90
        5
 70
     0
 43
0.0
 10
5.922684722222209
 20
3.345586111111105
 42
-0.4098447656814307
 10
5.825490277777778
 20
3.136919444444443
 10
5.022268055555555
 20
2.845363888888893
 42
-0.415418461693584
 10
4.813601388888889
 20
2.942544444444443
 10
4.814545833333334
 20
2.942544444444443
  0
SPLINE
  5
226
330
2
100
AcDbEntity
  8
PDF_Layer 1
370
   106
100
AcDbSpline
210
0.0
220
0.0
230
1.0
 70
     8
 71
     3
 72
     8
 73
     4
 74
     0
 42
0.000000001
 43
0.0000000001
 40
0.0
 40
0.0
 40
0.0
 40
0.0
 40
1.0
 40
1.0
 40
1.0
 40
1.0
 10
4.910781944444445
 20
3.15121111111111
 30
0.0
 10
4.827323611111111
 20
3.120752777777777
 30
0.0
 10
4.782198611111112
 20
3.02596111111111
 30
0.0
 10
4.813601388888889
 20
2.942544444444443
 30
0.0
  0
LWPOLYLINE
  5
227
330
2
100
AcDbEntity
  8
PDF_Layer 1
370
   106
100
AcDbPolyline
 90
        4
 70
     0
 43
0.0
 10
4.910781944444445
 20
3.15121111111111
 10
5.714018055555556
 20
3.442780555555555
 42
-0.4140922465195775
 10
5.922684722222223
 20
3.34558611111111
 10
5.923629166666668
 20
3.34558611111111
  0
LWPOLYLINE
  5
22A
330
2
100
AcDbEntity
  8
PDF_Layer 1
370
   106
100
AcDbPolyline
 90
        4
 70
     0
 43
0.0
 10
6.213295833333334
 20
2.578572222222221
 10
5.558698611111116
 20
2.028794444444438
 42
-0.4117903642861213
 10
5.329073611111112
 20
2.048808333333332
 10
5.330031944444445
 20
2.048808333333332
  0
SPLINE
  5
22B
330
2
100
AcDbEntity
  8
PDF_Layer 1
370
   106
100
AcDbSpline
210
0.0
220
0.0
230
1.0
 70
     8
 71
     3
 72
     8
 73
     4
 74
     0
 42
0.000000001
 43
0.0000000001
 40
0.0
 40
0.0
 40
0.0
 40
0.0
 40
1.0
 40
1.0
 40
1.0
 40
1.0
 10
5.3490875
 20
2.278433333333332
 30
0.0
 10
5.280004166666667
 20
2.21783611111111
 30
0.0
 10
5.272587500000001
 20
2.120724999999999
 30
0.0
 10
5.329073611111112
 20
2.048808333333332
 30
0.0
  0
LWPOLYLINE
  5
22C
330
2
100
AcDbEntity
  8
PDF_Layer 1
370
   106
100
AcDbPolyline
 90
        2
 70
     0
 43
0.0
 10
5.3490875
 20
2.278433333333332
 10
6.003670833333334
 20
2.827252777777776
  0
SPLINE
  5
22D
330
2
100
AcDbEntity
  8
PDF_Layer 1
370
   106
100
AcDbSpline
210
0.0
220
0.0
230
1.0
 70
     8
 71
     3
 72
     8
 73
     4
 74
     0
 42
0.000000001
 43
0.0000000001
 40
0.0
 40
0.0
 40
0.0
 40
0.0
 40
1.0
 40
1.0
 40
1.0
 40
1.0
 10
6.233295833333333
 20
2.807252777777777
 30
0.0
 10
6.177323611111111
 20
2.876863888888888
 30
0.0
 10
6.070781944444445
 20
2.884822222222221
 30
0.0
 10
6.003670833333334
 20
2.827252777777776
 30
0.0
  0
LWPOLYLINE
  5
22E
330
2
100
AcDbEntity
  8
PDF_Layer 1
370
   106
100
AcDbPolyline
 90
        2
 70
     0
 43
0.0
 10
6.233295833333333
 20
2.807252777777777
 10
6.234254166666667
 20
2.807252777777777
  0
SPLINE
  5
22F
330
2
100
AcDbEntity
  8
PDF_Layer 1
370
   106
100
AcDbSpline
210
0.0
220
0.0
230
1.0
 70
     8
 71
     3
 72
     8
 73
     4
 74
     0
 42
0.000000001
 43
0.0000000001
 40
0.0
 40
0.0
 40
0.0
 40
0.0
 40
1.0
 40
1.0
 40
1.0
 40
1.0
 10
6.213295833333334
 20
2.578572222222221
 30
0.0
 10
6.281420833333333
 20
2.635988888888888
 30
0.0
 10
6.291281944444444
 20
2.739113888888888
 30
0.0
 10
6.233295833333333
 20
2.807252777777777
 30
0.0
  0
LWPOLYLINE
  5
231
330
2
100
AcDbEntity
  8
PDF_Layer 1
370
   106
100
AcDbPolyline
 90
        4
 70
     0
 43
0.0
 10
6.768781944444445
 20
2.186002777777777
 10
6.341920833333331
 20
1.445669444444445
 42
-0.4103109634260513
 10
6.119920833333334
 20
1.385641666666665
 10
6.120865277777778
 20
1.385641666666665
  0
SPLINE
  5
232
330
2
100
AcDbEntity
  8
PDF_Layer 1
370
   106
100
AcDbSpline
210
0.0
220
0.0
230
1.0
 70
     8
 71
     3
 72
     8
 73
     4
 74
     0
 42
0.000000001
 43
0.0000000001
 40
0.0
 40
0.0
 40
0.0
 40
0.0
 40
1.0
 40
1.0
 40
1.0
 40
1.0
 10
6.059893055555556
 20
1.608599999999999
 30
0.0
 10
6.0143375
 20
1.532197222222221
 30
0.0
 10
6.042670833333334
 20
1.429141666666666
 30
0.0
 10
6.119920833333334
 20
1.385641666666665
 30
0.0
  0
LWPOLYLINE
  5
233
330
2
100
AcDbEntity
  8
PDF_Layer 1
370
   106
100
AcDbPolyline
 90
        4
 70
     0
 43
0.0
 10
6.059893055555556
 20
1.608599999999999
 10
6.486754166666667
 20
2.347988888888888
 42
-0.4151082761522675
 10
6.709712500000001
 20
2.408016666666665
 10
6.710670833333335
 20
2.408016666666665
  0
SPLINE
  5
235
330
2
100
AcDbEntity
  8
PDF_Layer 1
370
   106
100
AcDbSpline
210
0.0
220
0.0
230
1.0
 70
     8
 71
     3
 72
     8
 73
     4
 74
     0
 42
0.000000001
 43
0.0000000001
 40
0.0
 40
0.0
 40
0.0
 40
0.0
 40
1.0
 40
1.0
 40
1.0
 40
1.0
 10
6.768781944444445
 20
2.186002777777777
 30
0.0
 10
6.814240277777778
 20
2.263197222222221
 30
0.0
 10
6.786629166666667
 20
2.362905555555554
 30
0.0
 10
6.709712500000001
 20
2.408016666666665
 30
0.0
  0
LWPOLYLINE
  5
237
330
2
100
AcDbEntity
  8
PDF_Layer 1
370
   106
100
AcDbPolyline
 90
        4
 70
     0
 43
0.0
 10
7.425281944444445
 20
2.006877777777777
 10
7.2775875
 20
1.165544444444444
 42
-0.4101117512197354
 10
7.088934722222223
 20
1.033099999999999
 10
7.089893055555555
 20
1.033099999999999
  0
SPLINE
  5
238
330
2
100
AcDbEntity
  8
PDF_Layer 1
370
   106
100
AcDbSpline
210
0.0
220
0.0
230
1.0
 70
     8
 71
     3
 72
     8
 73
     4
 74
     0
 42
0.000000001
 43
0.0000000001
 40
0.0
 40
0.0
 40
0.0
 40
0.0
 40
1.0
 40
1.0
 40
1.0
 40
1.0
 10
6.956490277777778
 20
1.221752777777777
 30
0.0
 10
6.942156944444445
 20
1.133183333333332
 30
0.0
 10
6.999920833333333
 20
1.048280555555554
 30
0.0
 10
7.088934722222223
 20
1.033099999999999
 30
0.0
  0
LWPOLYLINE
  5
239
330
2
100
AcDbEntity
  8
PDF_Layer 1
370
   106
100
AcDbPolyline
 90
        4
 70
     0
 43
0.0
 10
6.956490277777778
 20
1.221752777777777
 10
7.105129166666667
 20
2.063099999999999
 42
-0.413065575695507
 10
7.293795833333334
 20
2.195530555555555
 10
7.294740277777778
 20
2.195530555555555
  0
SPLINE
  5
23B
330
2
100
AcDbEntity
  8
PDF_Layer 1
370
   106
100
AcDbSpline
210
0.0
220
0.0
230
1.0
 70
     8
 71
     3
 72
     8
 73
     4
 74
     0
 42
0.000000001
 43
0.0000000001
 40
0.0
 40
0.0
 40
0.0
 40
0.0
 40
1.0
 40
1.0
 40
1.0
 40
1.0
 10
7.425281944444445
 20
2.006877777777777
 30
0.0
 10
7.443004166666667
 20
2.09233611111111
 30
0.0
 10
7.379712500000001
 20
2.181974999999999
 30
0.0
 10
7.293795833333334
 20
2.195530555555555
 30
0.0
  0
LWPOLYLINE
  5
23D
330
2
100
AcDbEntity
  8
PDF_Layer 1
370
   106
100
AcDbPolyline
 90
        6
 70
     0
 43
0.0
 10
7.915976388888889
 20
2.195530555555555
 10
7.915031944444447
 20
2.195530555555541
 42
-0.4111727010867809
 10
8.103684722222222
 20
2.063099999999999
 10
8.252323611111123
 20
1.221752777777779
 42
-0.4109738907219698
 10
8.119879166666667
 20
1.033099999999999
 10
8.1208375
 20
1.033099999999999
  0
LWPOLYLINE
  5
23E
330
2
100
AcDbEntity
  8
PDF_Layer 1
370
   106
100
AcDbPolyline
 90
        3
 70
     0
 43
0.0
 10
8.119879166666665
 20
1.033100000000005
 42
-0.4109436031870948
 10
7.931226388888889
 20
1.165544444444444
 10
7.783545833333334
 20
2.006877777777777
  0
SPLINE
  5
23F
330
2
100
AcDbEntity
  8
PDF_Layer 1
370
   106
100
AcDbSpline
210
0.0
220
0.0
230
1.0
 70
     8
 71
     3
 72
     8
 73
     4
 74
     0
 42
0.000000001
 43
0.0000000001
 40
0.0
 40
0.0
 40
0.0
 40
0.0
 40
1.0
 40
1.0
 40
1.0
 40
1.0
 10
7.915031944444445
 20
2.195530555555555
 30
0.0
 10
7.828045833333334
 20
2.180322222222221
 30
0.0
 10
7.766184722222222
 20
2.094516666666666
 30
0.0
 10
7.783545833333334
 20
2.006877777777777
 30
0.0
  0
SPLINE
  5
242
330
2
100
AcDbEntity
  8
PDF_Layer 1
370
   106
100
AcDbSpline
210
0.0
220
0.0
230
1.0
 70
     8
 71
     3
 72
     8
 73
     4
 74
     0
 42
0.000000001
 43
0.0000000001
 40
0.0
 40
0.0
 40
0.0
 40
0.0
 40
1.0
 40
1.0
 40
1.0
 40
1.0
 10
9.088906944444445
 20
1.385641666666665
 30
0.0
 10
9.167393055555557
 20
1.433072222222222
 30
0.0
 10
9.193295833333333
 20
1.528280555555554
 30
0.0
 10
9.148934722222222
 20
1.608599999999999
 30
0.0
  0
LWPOLYLINE
  5
243
330
2
100
AcDbEntity
  8
PDF_Layer 1
370
   106
100
AcDbPolyline
 90
        4
 70
     0
 43
0.0
 10
8.440031944444445
 20
2.186002777777777
 10
8.866893055555555
 20
1.445669444444444
 42
0.4112783868163222
 10
9.088906944444445
 20
1.385641666666665
 10
9.08985138888889
 20
1.385641666666665
  0
SPLINE
  5
245
330
2
100
AcDbEntity
  8
PDF_Layer 1
370
   106
100
AcDbSpline
210
0.0
220
0.0
230
1.0
 70
     8
 71
     3
 72
     8
 73
     4
 74
     0
 42
0.000000001
 43
0.0000000001
 40
0.0
 40
0.0
 40
0.0
 40
0.0
 40
1.0
 40
1.0
 40
1.0
 40
1.0
 10
8.499101388888888
 20
2.408016666666665
 30
0.0
 10
8.421906944444444
 20
2.36308611111111
 30
0.0
 10
8.394184722222222
 20
2.262905555555555
 30
0.0
 10
8.440031944444445
 20
2.186002777777777
 30
0.0
  0
LWPOLYLINE
  5
246
330
2
100
AcDbEntity
  8
PDF_Layer 1
370
   106
100
AcDbPolyline
 90
        2
 70
     0
 43
0.0
 10
8.499101388888888
 20
2.408016666666665
 10
8.500059722222221
 20
2.408016666666665
  0
SPLINE
  5
247
330
2
100
AcDbEntity
  8
PDF_Layer 1
370
   106
100
AcDbSpline
210
0.0
220
0.0
230
1.0
 70
     8
 71
     3
 72
     8
 73
     4
 74
     0
 42
0.000000001
 43
0.0000000001
 40
0.0
 40
0.0
 40
0.0
 40
0.0
 40
1.0
 40
1.0
 40
1.0
 40
1.0
 10
8.721115277777778
 20
2.347988888888888
 30
0.0
 10
8.678059722222222
 20
2.426502777777777
 30
0.0
 10
8.576573611111111
 20
2.452627777777776
 30
0.0
 10
8.499101388888888
 20
2.408016666666665
 30
0.0
  0
LWPOLYLINE
  5
248
330
2
100
AcDbEntity
  8
PDF_Layer 1
370
   106
100
AcDbPolyline
 90
        2
 70
     0
 43
0.0
 10
8.721115277777778
 20
2.347988888888888
 10
9.148934722222222
 20
1.608599999999999
  0
SPLINE
  5
249
330
2
100
AcDbEntity
  8
PDF_Layer 1
370
   106
100
AcDbSpline
210
0.0
220
0.0
230
1.0
 70
     8
 71
     3
 72
     8
 73
     4
 74
     0
 42
0.000000001
 43
0.0000000001
 40
0.0
 40
0.0
 40
0.0
 40
0.0
 40
1.0
 40
1.0
 40
1.0
 40
1.0
 10
9.878795833333333
 20
2.048808333333332
 30
0.0
 10
9.936351388888889
 20
2.115933333333332
 30
0.0
 10
9.928379166666667
 20
2.222447222222221
 30
0.0
 10
9.858781944444444
 20
2.278433333333332
 30
0.0
  0
LWPOLYLINE
  5
24A
330
2
100
AcDbEntity
  8
PDF_Layer 1
370
   106
100
AcDbPolyline
 90
        4
 70
     0
 43
0.0
 10
8.995531944444444
 20
2.578572222222221
 10
9.650115277777778
 20
2.028794444444443
 42
0.4136784096159043
 10
9.878795833333333
 20
2.048808333333332
 10
9.879740277777777
 20
2.048808333333332
  0
SPLINE
  5
24C
330
2
100
AcDbEntity
  8
PDF_Layer 1
370
   106
100
AcDbSpline
210
0.0
220
0.0
230
1.0
 70
     8
 71
     3
 72
     8
 73
     4
 74
     0
 42
0.000000001
 43
0.0000000001
 40
0.0
 40
0.0
 40
0.0
 40
0.0
 40
1.0
 40
1.0
 40
1.0
 40
1.0
 10
8.975518055555555
 20
2.807252777777777
 30
0.0
 10
8.917420833333334
 20
2.739405555555554
 30
0.0
 10
8.926754166666666
 20
2.634294444444444
 30
0.0
 10
8.995531944444444
 20
2.578572222222221
 30
0.0
  0
LWPOLYLINE
  5
24D
330
2
100
AcDbEntity
  8
PDF_Layer 1
370
   106
100
AcDbPolyline
 90
        2
 70
     0
 43
0.0
 10
8.975518055555555
 20
2.807252777777777
 10
8.976476388888888
 20
2.807252777777777
  0
SPLINE
  5
24E
330
2
100
AcDbEntity
  8
PDF_Layer 1
370
   106
100
AcDbSpline
210
0.0
220
0.0
230
1.0
 70
     8
 71
     3
 72
     8
 73
     4
 74
     0
 42
0.000000001
 43
0.0000000001
 40
0.0
 40
0.0
 40
0.0
 40
0.0
 40
1.0
 40
1.0
 40
1.0
 40
1.0
 10
9.204198611111111
 20
2.827252777777776
 30
0.0
 10
9.139920833333334
 20
2.885280555555555
 30
0.0
 10
9.028726388888889
 20
2.876044444444443
 30
0.0
 10
8.975518055555555
 20
2.807252777777777
 30
0.0
  0
LWPOLYLINE
  5
24F
330
2
100
AcDbEntity
  8
PDF_Layer 1
370
   106
100
AcDbPolyline
 90
        2
 70
     0
 43
0.0
 10
9.204198611111111
 20
2.827252777777776
 10
9.858781944444444
 20
2.278433333333332
  0
LWPOLYLINE
  5
250
330
2
100
AcDbEntity
  8
PDF_Layer 1
370
   106
100
AcDbPolyline
 90
        6
 70
     0
 43
0.0
 10
9.2870875
 20
3.34558611111111
 10
9.286143055555568
 20
3.345586111111106
 42
-0.4150909592293026
 10
9.494809722222223
 20
3.442780555555555
 10
10.29803194444443
 20
3.151211111111087
 42
-0.4099125233942744
 10
10.3952125
 20
2.942544444444443
 10
10.39617083333333
 20
2.942544444444443
  0
LWPOLYLINE
  5
251
330
2
100
AcDbEntity
  8
PDF_Layer 1
370
   106
100
AcDbPolyline
 90
        3
 70
     0
 43
0.0
 10
10.39521250000001
 20
2.942544444444439
 42
-0.4153364191494723
 10
10.18654583333333
 20
2.845363888888888
 10
9.383323611111112
 20
3.136919444444443
  0
SPLINE
  5
252
330
2
100
AcDbEntity
  8
PDF_Layer 1
370
   106
100
AcDbSpline
210
0.0
220
0.0
230
1.0
 70
     8
 71
     3
 72
     8
 73
     4
 74
     0
 42
0.000000001
 43
0.0000000001
 40
0.0
 40
0.0
 40
0.0
 40
0.0
 40
1.0
 40
1.0
 40
1.0
 40
1.0
 10
9.286143055555555
 20
3.34558611111111
 30
0.0
 10
9.254740277777777
 20
3.262169444444444
 30
0.0
 10
9.299851388888889
 20
3.167377777777777
 30
0.0
 10
9.383323611111112
 20
3.136919444444443
 30
0.0
  0
LWPOLYLINE
  5
255
330
2
100
AcDbEntity
  8
PDF_Layer 1
370
   106
100
AcDbPolyline
 90
        2
 70
     0
 43
0.0
 10
9.393809722222222
 20
10.21354444444444
 10
9.350934722222222
 20
10.27261388888889
  0
LWPOLYLINE
  5
256
330
2
100
AcDbEntity
  8
PDF_Layer 1
370
   106
100
AcDbPolyline
 90
        2
 70
     0
 43
0.0
 10
10.57435138888889
 20
11.03201666666666
 10
10.63628194444444
 20
10.99390555555555
  0
LWPOLYLINE
  5
257
330
2
100
AcDbEntity
  8
PDF_Layer 1
370
   106
100
AcDbPolyline
 90
        2
 70
     0
 43
0.0
 10
5.81310138888889
 20
10.21354444444444
 10
5.855990277777778
 20
10.27261388888889
  0
LWPOLYLINE
  5
286
330
2
100
AcDbEntity
  8
PDF_Layer 1
370
   106
100
AcDbPolyline
 90
        2
 70
     0
 43
0.0
 10
4.633518055555557
 20
11.03201666666666
 10
4.570629166666667
 20
10.99294722222222
  0
LWPOLYLINE
  5
287
330
2
100
AcDbEntity
  8
PDF_Layer 1
370
    35
100
AcDbPolyline
 90
        3
 70
     0
 43
0.0
 10
9.028194444444443
 20
1.473037499999999
 10
9.559597222222221
 20
0.2333986111111108
 10
10.04501388888888
 20
0.2333986111111108
  0
LWPOLYLINE
  5
288
330
2
100
AcDbEntity
  8
PDF_Layer 1
370
    35
100
AcDbPolyline
 90
        2
 70
     0
 43
0.0
 10
9.393805555555553
 20
3.998270833333332
 10
9.393805555555553
 20
4.268868055555555
  0
LWPOLYLINE
  5
289
330
2
100
AcDbEntity
  8
PDF_Layer 1
370
    35
100
AcDbPolyline
 90
        2
 70
     0
 43
0.0
 10
10.57434722222222
 20
3.998270833333332
 10
10.57434722222222
 20
4.268868055555555
  0
LWPOLYLINE
  5
28A
330
2
100
AcDbEntity
  8
PDF_Layer 1
370
    35
100
AcDbPolyline
 90
        2
 70
     0
 43
0.0
 10
5.429795833333332
 20
11.07917916666666
 10
4.884656944444444
 20
10.92099861111111
  0
LWPOLYLINE
  5
28B
330
2
100
AcDbEntity
  8
PDF_Layer 1
370
    35
100
AcDbPolyline
 90
        2
 70
     0
 43
0.0
 10
4.86409861111111
 20
10.14654861111111
 10
5.346501388888888
 20
10.39731249999999
  0
LWPOLYLINE
  5
28C
330
2
100
AcDbEntity
  8
PDF_Layer 1
370
    35
100
AcDbPolyline
 90
        3
 70
     0
 43
0.0
 10
3.870583333333333
 20
11.2677375
 10
4.273916666666666
 20
11.2677375
 10
4.306944444444444
 20
11.42909861111111
  0
LWPOLYLINE
  5
28D
330
2
100
AcDbEntity
  8
PDF_Layer 1
370
    35
100
AcDbPolyline
 90
        2
 70
     0
 43
0.0
 10
10.96024166666666
 20
11.55130138888889
 10
11.25514444444444
 20
11.55130138888889
  0
LWPOLYLINE
  5
28E
330
2
100
AcDbEntity
  8
PDF_Layer 1
370
    35
100
AcDbPolyline
 90
        2
 70
     0
 43
0.0
 10
11.21213055555555
 20
11.55130138888889
 10
11.21213055555555
 20
11.6246625
  0
LWPOLYLINE
  5
28F
330
2
100
AcDbEntity
  8
PDF_Layer 1
370
    35
100
AcDbPolyline
 90
        2
 70
     0
 43
0.0
 10
4.3896125
 20
12.01532361111111
 10
10.81730694444444
 20
12.01532361111111
  0
LWPOLYLINE
  5
290
330
2
100
AcDbEntity
  8
PDF_Layer 1
370
    35
100
AcDbPolyline
 90
        2
 70
     0
 43
0.0
 10
7.454313888888888
 20
10.511775
 10
7.753758333333332
 20
10.511775
  0
LWPOLYLINE
  5
291
330
2
100
AcDbEntity
  8
PDF_Layer 1
370
    35
100
AcDbPolyline
 90
        2
 70
     0
 43
0.0
 10
6.603618055555554
 20
9.91530972222222
 10
8.608298611111109
 20
9.91530972222222
  0
LWPOLYLINE
  5
292
330
2
100
AcDbEntity
  8
PDF_Layer 1
370
    35
100
AcDbPolyline
 90
        2
 70
     0
 43
0.0
 10
5.993684722222221
 20
9.447294444444443
 10
9.216559722222221
 20
9.447294444444443
  0
LWPOLYLINE
  5
293
330
2
100
AcDbEntity
  8
PDF_Layer 1
370
    35
100
AcDbPolyline
 90
        2
 70
     0
 43
0.0
 10
5.541118055555554
 20
8.965390277777776
 10
9.664645833333331
 20
8.965390277777776
  0
LWPOLYLINE
  5
294
330
2
100
AcDbEntity
  8
PDF_Layer 1
370
    35
100
AcDbPolyline
 90
        2
 70
     0
 43
0.0
 10
10.47945972222222
 20
8.504738888888885
 10
4.726306944444442
 20
8.504738888888885
  0
LWPOLYLINE
  5
295
330
2
100
AcDbEntity
  8
PDF_Layer 1
370
    35
100
AcDbPolyline
 90
        2
 70
     0
 43
0.0
 10
4.472754166666665
 20
7.970577777777776
 10
10.74565694444444
 20
7.970577777777776
  0
LWPOLYLINE
  5
296
330
2
100
AcDbEntity
  8
PDF_Layer 1
370
    35
100
AcDbPolyline
 90
        2
 70
     0
 43
0.0
 10
11.76995
 20
11.53092083333333
 10
11.76995
 20
10.7985875
  0
LWPOLYLINE
  5
297
330
2
100
AcDbEntity
  8
PDF_Layer 1
370
    35
100
AcDbPolyline
 90
        2
 70
     0
 43
0.0
 10
12.28047361111111
 20
10.57695555555555
 10
12.28047361111111
 20
11.53092777777777
  0
LWPOLYLINE
  5
298
330
2
100
AcDbEntity
  8
PDF_Layer 1
370
    35
100
AcDbPolyline
 90
        2
 70
     0
 43
0.0
 10
12.76757916666666
 20
10.25924722222222
 10
12.76757916666666
 20
11.52460833333333
  0
LWPOLYLINE
  5
299
330
2
100
AcDbEntity
  8
PDF_Layer 1
370
    35
100
AcDbPolyline
 90
        2
 70
     0
 43
0.0
 10
11.21213333333333
 20
11.72278888888889
 10
11.21213333333333
 20
12.203025
  0
LWPOLYLINE
  5
29A
330
2
100
AcDbEntity
  8
PDF_Layer 1
370
    35
100
AcDbPolyline
 90
        2
 70
     0
 43
0.0
 10
11.21213333333333
 20
11.45790694444444
 10
11.21213333333333
 20
11.25642083333333
  0
LWPOLYLINE
  5
29B
330
2
100
AcDbEntity
  8
PDF_Layer 1
370
    35
100
AcDbPolyline
 90
        2
 70
     0
 43
0.0
 10
9.492508333333331
 20
4.252674999999999
 10
10.47250833333333
 20
4.252674999999999
  0
MTEXT
  5
29C
330
2
100
AcDbEntity
  8
PDF_Text
100
AcDbMText
 10
7.28045
 20
12.05916111111111
 30
0.0
 40
0.178955078125
 41
0.0
 46
0.0
 71
     7
 72
     5
  1
Ø81.5
  7
PDF Arial
 73
     1
 44
1.0
  0
MTEXT
  5
29D
330
2
100
AcDbEntity
  8
PDF_Text
100
AcDbMText
 10
3.910658333333333
 20
11.30175833333333
 30
0.0
 40
0.178955078125
 41
0.0
 46
0.0
 71
     7
 72
     5
  1
R1
  7
PDF Arial
 73
     1
 44
1.0
  0
MTEXT
  5
29E
330
2
100
AcDbEntity
  8
PDF_Text
100
AcDbMText
 10
7.44845
 20
10.59916111111111
 30
0.0
 40
0.178955078125
 41
0.0
 46
0.0
 71
     7
 72
     5
  1
Ø6
  7
PDF Arial
 73
     1
 44
1.0
  0
MTEXT
  5
29F
330
2
100
AcDbEntity
  8
PDF_Text
100
AcDbMText
 10
7.383949999999999
 20
9.94816111111111
 30
0.0
 40
0.178955078125
 41
0.0
 46
0.0
 71
     7
 72
     5
  1
Ø27
  7
PDF Arial
 73
     1
 44
1.0
  0
MTEXT
  5
2A0
330
2
100
AcDbEntity
  8
PDF_Text
100
AcDbMText
 10
7.2072
 20
9.46866111111111
 30
0.0
 40
0.178955078125
 41
0.0
 46
0.0
 71
     7
 72
     5
  1
Ø42.07
  7
PDF Arial
 73
     1
 44
1.0
  0
MTEXT
  5
2A1
330
2
100
AcDbEntity
  8
PDF_Text
100
AcDbMText
 10
7.2072
 20
8.991911111111109
 30
0.0
 40
0.178955078125
 41
0.0
 46
0.0
 71
     7
 72
     5
  1
Ø53.07
  7
PDF Arial
 73
     1
 44
1.0
  0
MTEXT
  5
2A2
330
2
100
AcDbEntity
  8
PDF_Text
100
AcDbMText
 10
7.2072
 20
8.529161111111111
 30
0.0
 40
0.178955078125
 41
0.0
 46
0.0
 71
     7
 72
     5
  1
Ø73.08
  7
PDF Arial
 73
     1
 44
1.0
  0
MTEXT
  5
2A3
330
2
100
AcDbEntity
  8
PDF_Text
100
AcDbMText
 10
7.225699999999999
 20
8.005661111111111
 30
0.0
 40
0.178955078125
 41
0.0
 46
0.0
 71
     7
 72
     5
  1
Ø79.57
  7
PDF Arial
 73
     1
 44
1.0
  0
MTEXT
  5
2A4
330
2
100
AcDbEntity
  8
PDF_Text
100
AcDbMText
 10
9.736199999999998
 20
4.29041111111111
 30
0.0
 40
0.178955078125
 41
0.0
 46
0.0
 71
     7
 72
     5
  1
14.5
  7
PDF Arial
 73
     1
 44
1.0
  0
MTEXT
  5
2A5
330
2
100
AcDbEntity
  8
PDF_Text
100
AcDbMText
 10
9.608949999999998
 20
0.273161111111111
 30
0.0
 40
0.178955078125
 41
0.0
 46
0.0
 71
     7
 72
     5
  1
x18
  7
PDF Arial
 73
     1
 44
1.0
  0
MTEXT
  5
2A6
330
2
100
AcDbEntity
  8
PDF_Text
100
AcDbMText
 10
11.1872861111111
 20
11.81627083333333
 30
0.0
 40
0.178955078125
 41
0.0
 46
0.0
 71
     7
 72
     5
  1
0.9
  7
PDF Arial
 11
0.0000000000000001
 21
1.0
 31
0.0
 73
     1
 44
1.0
  0
MTEXT
  5
2A7
330
2
100
AcDbEntity
  8
PDF_Text
100
AcDbMText
 10
11.73428611111111
 20
10.86152083333333
 30
0.0
 40
0.178955078125
 41
0.0
 46
0.0
 71
     7
 72
     5
  1
11.37
  7
PDF Arial
 11
0.0000000000000001
 21
1.0
 31
0.0
 73
     1
 44
1.0
  0
MTEXT
  5
2A8
330
2
100
AcDbEntity
  8
PDF_Text
100
AcDbMText
 10
12.25678611111111
 20
10.74427083333333
 30
0.0
 40
0.178955078125
 41
0.0
 46
0.0
 71
     7
 72
     5
  1
14.05
  7
PDF Arial
 11
0.0000000000000001
 21
1.0
 31
0.0
 73
     1
 44
1.0
  0
MTEXT
  5
2A9
330
2
100
AcDbEntity
  8
PDF_Text
100
AcDbMText
 10
12.74453611111111
 20
10.77377083333333
 30
0.0
 40
0.178955078125
 41
0.0
 46
0.0
 71
     7
 72
     5
  1
18
  7
PDF Arial
 11
0.0000000000000001
 21
1.0
 31
0.0
 73
     1
 44
1.0
  0
MTEXT
  5
2AA
330
2
100
AcDbEntity
  8
PDF_Text
100
AcDbMText
 10
4.945706944444443
 20
10.97871805555555
 30
0.0
 40
0.178955078125
 41
0.0
 46
0.0
 71
     7
 72
     5
  1
R12
  7
PDF Arial
 11
0.9615834641955707
 21
0.2745127344689965
 31
0.0
 73
     1
 44
1.0
  0
MTEXT
  5
2AB
330
2
100
AcDbEntity
  8
PDF_Text
100
AcDbMText
 10
4.889948177777776
 20
10.2005065125
 30
0.0
 40
0.178955078125
 41
0.0
 46
0.0
 71
     7
 72
     5
  1
R5
  7
PDF Arial
 11
0.8948323808598585
 21
0.4464022963254972
 31
0.0
 73
     1
 44
1.0
  0
LWPOLYLINE
  5
2AC
330
2
100
AcDbEntity
  8
PDF_Layer 1
370
   106
100
AcDbPolyline
 90
        4
 70
     1
 43
0.0
 10
10.91927083333333
 20
3.958252777777777
 42
0.4139658266221947
 10
7.604409722222222
 20
7.274072222222217
 42
0.4140740554942063
 10
4.288590277777773
 20
3.958252777777777
 42
0.4142515467937395
 10
7.604409722222222
 20
0.6424333333333335
 42
0.41415275113695
  0
LWPOLYLINE
  5
2AD
330
2
100
AcDbEntity
  8
PDF_Layer 1
370
   106
100
AcDbPolyline
 90
        4
 70
     1
 43
0.0
 10
10.69630972222222
 20
3.958252777777777
 42
0.4139306525212629
 10
7.604406944444445
 20
7.050155555555553
 42
0.4141378519610139
 10
4.512504166666666
 20
3.958252777777776
 42
0.4143180889792607
 10
7.604406944444443
 20
0.8663500000000009
 42
0.4140249931034444
  0
LWPOLYLINE
  5
2AE
330
2
100
AcDbEntity
  8
PDF_Layer 1
370
   106
100
AcDbPolyline
 90
        4
 70
     0
 43
0.0
 10
5.914101388888889
 20
3.958252777777777
 42
0.4141184678591367
 10
7.604406944444445
 20
2.267002777777777
 42
0.4140476065606597
 10
9.294712500000001
 20
3.958252777777777
 42
1.000150880946922
 10
5.914101388888889
 20
3.958252777777777
  0
LWPOLYLINE
  5
2AF
330
2
100
AcDbEntity
  8
PDF_Layer 1
370
   106
100
AcDbPolyline
 90
        3
 70
     1
 43
0.0
 10
8.703004166666667
 20
3.958252777777777
 42
0.9991706554615291
 10
6.494346424804607
 20
3.958148994425566
 42
0.4139993246536425
 10
7.598698611111111
 20
2.853933333333333
 42
0.4139924938919601
  0
VIEWPORT
  5
4A
330
C
100
AcDbEntity
 67
     1
  8
0
100
AcDbViewport
 10
17.24759499286355
 20
11.49745669559334
 30
0.0
 40
36.33732196730226
 41
27.12504315869042
 68
     1
 69
     1
 12
17.24759499286355
 22
11.49745669559334
 13
0.0
 23
0.0
 14
0.5
 24
0.5
 15
0.5
 25
0.5
 16
0.0
 26
0.0
 36
1.0
 17
0.0
 27
0.0
 37
0.0
 42
50.0
 43
0.0
 44
0.0
 45
27.12504315869042
 50
0.0
 51
0.0
 72
  1000
 90
    32864
  1

281
     0
 71
     1
 74
     0
110
0.0
120
0.0
130
0.0
111
1.0
121
0.0
131
0.0
112
0.0
122
1.0
132
0.0
 79
     0
146
0.0
170
     0
 61
     5
348
88
292
     1
282
     1
141
0.0
142
0.0
 63
   250
421
  3355443
  0
ENDSEC
  0
SECTION
  2
OBJECTS
  0
DICTIONARY
  5
7
330
0
100
AcDbDictionary
281
     1
  3
ACAD_CIP_PREVIOUS_PRODUCT_INFO
350
CD
  3
ACAD_COLOR
350
55
  3
ACAD_DETAILVIEWSTYLE
350
C5
  3
ACAD_GROUP
350
1F
  3
ACAD_LAYOUT
350
B
  3
ACAD_MATERIAL
350
54
  3
ACAD_MLEADERSTYLE
350
C1
  3
ACAD_MLINESTYLE
350
20
  3
ACAD_PLOTSETTINGS
350
21
  3
ACAD_PLOTSTYLENAME
350
6
  3
ACAD_SCALELIST
350
AF
  3
ACAD_SECTIONVIEWSTYLE
350
C3
  3
ACAD_TABLESTYLE
350
93
  3
ACAD_VISUALSTYLE
350
82
  3
ACDB_RECOMPOSE_DATA
350
2D5
  3
AcDbVariableDictionary
350
9B
  0
DICTIONARY
  5
2B1
330
4
100
AcDbDictionary
280
     1
281
     1
  3
ADSK_XREC_LAYER_RECONCILED
360
2B2
  0
DICTIONARY
  5
2B3
330
25
100
AcDbDictionary
280
     1
281
     1
  3
ADSK_XREC_LAYER_RECONCILED
360
2B4
  0
DICTIONARY
  5
2B5
330
CE
100
AcDbDictionary
280
     1
281
     1
  3
ADSK_XREC_LAYER_RECONCILED
360
2B6
  0
DICTIONARY
  5
2B7
330
ED
100
AcDbDictionary
280
     1
281
     1
  3
ADSK_XREC_LAYER_RECONCILED
360
2B8
  0
XRECORD
  5
CD
102
{ACAD_REACTORS
330
7
102
}
330
7
100
AcDbXrecord
280
     1
300
ACD
300
2017
300
ACD_F_S
  0
DICTIONARY
  5
55
102
{ACAD_REACTORS
330
7
102
}
330
7
100
AcDbDictionary
281
     1
  0
DICTIONARY
  5
C5
102
{ACAD_REACTORS
330
7
102
}
330
7
100
AcDbDictionary
281
     1
  3
Imperial24
350
C6
  0
DICTIONARY
  5
1F
102
{ACAD_REACTORS
330
7
102
}
330
7
100
AcDbDictionary
281
     1
  0
DICTIONARY
  5
B
102
{ACAD_REACTORS
330
7
102
}
330
7
100
AcDbDictionary
281
     1
  3
Generic 24in x 36in Title Block
350
F
  3
Model
350
A
  0
DICTIONARY
  5
54
102
{ACAD_REACTORS
330
7
102
}
330
7
100
AcDbDictionary
281
     1
  3
ByBlock
350
80
  3
ByLayer
350
7F
  3
Global
350
81
  0
DICTIONARY
  5
C1
102
{ACAD_REACTORS
330
7
102
}
330
7
100
AcDbDictionary
281
     1
  3
Standard
350
C2
  0
DICTIONARY
  5
20
102
{ACAD_REACTORS
330
7
102
}
330
7
100
AcDbDictionary
281
     1
  3
Standard
350
22
  0
DICTIONARY
  5
21
102
{ACAD_REACTORS
330
7
102
}
330
7
100
AcDbDictionary
281
     1
  0
ACDBDICTIONARYWDFLT
  5
6
102
{ACAD_REACTORS
330
7
102
}
330
7
100
AcDbDictionary
281
     1
  3
Normal
350
5
100
AcDbDictionaryWithDefault
340
5
  0
DICTIONARY
  5
AF
102
{ACAD_REACTORS
330
7
102
}
330
7
100
AcDbDictionary
281
     1
  3
A0
350
B0
  3
A1
350
B1
  3
A2
350
B2
  3
A3
350
B3
  3
A4
350
B4
  3
A5
350
B5
  3
A6
350
B6
  3
A7
350
B7
  3
A8
350
B8
  3
A9
350
B9
  3
B0
350
BA
  3
B1
350
BB
  3
B2
350
BC
  3
B3
350
BD
  3
B4
350
BE
  3
B5
350
BF
  3
B6
350
C0
  0
DICTIONARY
  5
C3
102
{ACAD_REACTORS
330
7
102
}
330
7
100
AcDbDictionary
281
     1
  3
Imperial24
350
C4
  0
DICTIONARY
  5
93
102
{ACAD_REACTORS
330
7
102
}
330
7
100
AcDbDictionary
281
     1
  3
Standard
350
94
  0
DICTIONARY
  5
82
102
{ACAD_REACTORS
330
7
102
}
330
7
100
AcDbDictionary
281
     1
  3
2dWireframe
350
88
  3
3D Hidden
350
8A
  3
3dWireframe
350
89
  3
Basic
350
87
  3
Brighten
350
8E
  3
ColorChange
350
92
  3
Conceptual
350
8B
  3
Dim
350
8D
  3
EdgeColorOff
350
AE
  3
Facepattern
350
91
  3
Flat
350
83
  3
FlatWithEdges
350
84
  3
Gouraud
350
85
  3
GouraudWithEdges
350
86
  3
Hidden
350
A6
  3
JitterOff
350
AC
  3
Linepattern
350
90
  3
OverhangOff
350
AD
  3
Realistic
350
8C
  3
Shaded
350
AB
  3
Shaded with edges
350
AA
  3
Shades of Gray
350
A7
  3
Sketchy
350
A8
  3
Thicken
350
8F
  3
Wireframe
350
A5
  3
X-Ray
350
A9
  0
XRECORD
  5
2D5
102
{ACAD_REACTORS
330
7
102
}
330
7
100
AcDbXrecord
280
     1
 90
        1
330
94
330
C4
330
C6
  0
DICTIONARY
  5
9B
102
{ACAD_REACTORS
330
7
102
}
330
7
100
AcDbDictionary
281
     1
  3
CANNOSCALE
350
2CB
  3
CMLEADERSTYLE
350
2C7
  3
CTABLESTYLE
350
9C
  3
CVIEWDETAILSTYLE
350
2C8
  3
CVIEWSECTIONSTYLE
350
2C9
  3
LAYEREVAL
350
2CD
  3
LAYERNOTIFY
350
2CE
  3
LIGHTINGUNITS
350
2CC
  3
MSLTSCALE
350
2CA
  0
XRECORD
  5
2B2
102
{ACAD_REACTORS
330
2B1
102
}
330
2B1
100
AcDbXrecord
280
     1
290
     1
  0
XRECORD
  5
2B4
102
{ACAD_REACTORS
330
2B3
102
}
330
2B3
100
AcDbXrecord
280
     1
290
     1
  0
XRECORD
  5
2B6
102
{ACAD_REACTORS
330
2B5
102
}
330
2B5
100
AcDbXrecord
280
     1
290
     1
  0
XRECORD
  5
2B8
102
{ACAD_REACTORS
330
2B7
102
}
330
2B7
100
AcDbXrecord
280
     1
290
     1
  0
ACDBDETAILVIEWSTYLE
  5
C6
102
{ACAD_XDICTIONARY
360
2D3
102
}
102
{ACAD_REACTORS
330
C5
102
}
330
C5
100
AcDbModelDocViewStyle
 70
     0
  3
Imperial24
290
     0
100
AcDbDetailViewStyle
 70
     0
 71
     0
 90
        3
 71
     1
340
12
 62
   256
 40
0.24
340
0
 62
   256
 40
0.24
300

 40
0.36
280
     3
 71
     2
340
8
 90
       25
 62
   256
 71
     3
340
12
 62
   256
 40
0.24
 90
        1
 40
0.75
 90
        1
300
%<\AcVar ViewType \f "%tc1">% %<\AcVar ViewDetailId>%\PSCALE %<\AcVar ViewScale \f "%sn">%
 71
     4
340
8
 90
       25
 62
   256
340
8
 90
       25
 62
   256
280
     0
  0
LAYOUT
  5
F
102
{ACAD_REACTORS
330
B
102
}
330
B
100
AcDbPlotSettings
  1

  2
none_device
  4
ARCH_D_(24.00_x_36.00_Inches)
  6

 40
6.4
 41
19.1
 42
6.4
 43
19.1
 44
609.5999755859375
 45
914.4000244140626
 46
6.095999999999999
 47
-0.254
 48
0.0
 49
0.0
140
0.0
141
0.0
142
1.0
143
1.0
 70
   692
 72
     0
 73
     1
 74
     1
  7

 75
    16
147
1.0
 76
     0
 77
     2
 78
   300
148
0.2650993882970653
149
0.268587724897764
100
AcDbLayout
  1
Generic 24in x 36in Title Block
 70
     1
 71
     1
 10
-0.7524054877282309
 20
-0.5025428238148726
 11
35.24759547345533
 21
23.49745621500156
 12
0.0
 22
0.0
 32
0.0
 14
1.000000000000000E+20
 24
1.000000000000000E+20
 34
1.000000000000000E+20
 15
-1.000000000000000E+20
 25
-1.000000000000000E+20
 35
-1.000000000000000E+20
146
0.0
 13
0.0
 23
0.0
 33
0.0
 16
1.0
 26
0.0
 36
0.0
 17
0.0
 27
1.0
 37
0.0
 76
     0
330
C
331
4A
  0
LAYOUT
  5
A
102
{ACAD_REACTORS
330
B
102
}
330
B
100
AcDbPlotSettings
  1

  2
none_device
  4
Letter_(8.50_x_11.00_Inches)
  6

 40
6.349999904632568
 41
6.349999904632568
 42
6.350006103515625
 43
6.350006103515625
 44
215.8999938964844
 45
279.3999938964844
 46
20.37045378159827
 47
10.87052656611426
 48
0.0
 49
0.0
140
0.0
141
0.0
142
1.0
143
3.59932905303845
 70
 11956
 72
     0
 73
     1
 74
     1
  7

 75
     0
147
0.2778295580271631
 76
     0
 77
     2
 78
   300
148
5.106903281790129
149
0.2718425107115592
100
AcDbLayout
  1
Model
 70
     1
 71
     0
 10
0.0
 20
0.0
 11
12.0
 21
9.0
 12
0.0
 22
0.0
 32
0.0
 14
0.0
 24
0.0
 34
0.0
 15
0.0
 25
0.0
 35
0.0
146
0.0
 13
0.0
 23
0.0
 33
0.0
 16
1.0
 26
0.0
 36
0.0
 17
0.0
 27
1.0
 37
0.0
 76
     0
330
2
331
7D
  0
MATERIAL
  5
80
102
{ACAD_REACTORS
330
54
102
}
330
54
100
AcDbMaterial
  1
ByBlock
 73
     1
 78
     1
172
     1
176
     1
270
     1
274
     1
 94
       63
  0
MATERIAL
  5
7F
102
{ACAD_REACTORS
330
54
102
}
330
54
100
AcDbMaterial
  1
ByLayer
 73
     1
 78
     1
172
     1
176
     1
270
     1
274
     1
 94
       63
  0
MATERIAL
  5
81
102
{ACAD_REACTORS
330
54
102
}
330
54
100
AcDbMaterial
  1
Global
 73
     1
 78
     1
172
     1
176
     1
270
     1
274
     1
 94
       63
  0
MLEADERSTYLE
  5
C2
102
{ACAD_REACTORS
330
C1
102
}
330
C1
100
AcDbMLeaderStyle
179
     2
170
     2
171
     1
172
     0
 90
        2
 40
0.0
 41
0.0
173
     1
 91
-1056964608
340
15
 92
       -2
290
     1
 42
0.09
291
     1
 43
0.36
  3
Standard
 44
0.18
300

342
12
174
     1
178
     6
175
     1
176
     0
 93
-1056964608
 45
0.18
292
     0
297
     0
 46
0.18
 94
-1056964608
 47
1.0
 49
1.0
140
1.0
293
     1
141
0.0
294
     1
177
     0
142
1.0
295
     1
296
     0
143
0.125
271
     0
272
     9
273
     9
298
     1
  0
MLINESTYLE
  5
22
102
{ACAD_REACTORS
330
20
102
}
330
20
100
AcDbMlineStyle
  2
STANDARD
 70
     0
  3

 62
   256
 51
90.0
 52
90.0
 71
     2
 49
0.5
 62
   256
  6
BYLAYER
 49
-0.5
 62
   256
  6
BYLAYER
  0
ACDBPLACEHOLDER
  5
5
102
{ACAD_REACTORS
330
6
102
}
330
6
  0
SCALE
  5
B0
102
{ACAD_REACTORS
330
AF
102
}
330
AF
100
AcDbScale
 70
     0
300
1:1
140
1.0
141
1.0
290
     1
  0
SCALE
  5
B1
102
{ACAD_REACTORS
330
AF
102
}
330
AF
100
AcDbScale
 70
     0
300
1/128" = 1'-0"
140
0.0078125
141
12.0
290
     0
  0
SCALE
  5
B2
102
{ACAD_REACTORS
330
AF
102
}
330
AF
100
AcDbScale
 70
     0
300
1/64" = 1'-0"
140
0.015625
141
12.0
290
     0
  0
SCALE
  5
B3
102
{ACAD_REACTORS
330
AF
102
}
330
AF
100
AcDbScale
 70
     0
300
1/32" = 1'-0"
140
0.03125
141
12.0
290
     0
  0
SCALE
  5
B4
102
{ACAD_REACTORS
330
AF
102
}
330
AF
100
AcDbScale
 70
     0
300
1/16" = 1'-0"
140
0.0625
141
12.0
290
     0
  0
SCALE
  5
B5
102
{ACAD_REACTORS
330
AF
102
}
330
AF
100
AcDbScale
 70
     0
300
3/32" = 1'-0"
140
0.09375
141
12.0
290
     0
  0
SCALE
  5
B6
102
{ACAD_REACTORS
330
AF
102
}
330
AF
100
AcDbScale
 70
     0
300
1/8" = 1'-0"
140
0.125
141
12.0
290
     0
  0
SCALE
  5
B7
102
{ACAD_REACTORS
330
AF
102
}
330
AF
100
AcDbScale
 70
     0
300
3/16" = 1'-0"
140
0.1875
141
12.0
290
     0
  0
SCALE
  5
B8
102
{ACAD_REACTORS
330
AF
102
}
330
AF
100
AcDbScale
 70
     0
300
1/4" = 1'-0"
140
0.25
141
12.0
290
     0
  0
SCALE
  5
B9
102
{ACAD_REACTORS
330
AF
102
}
330
AF
100
AcDbScale
 70
     0
300
3/8" = 1'-0"
140
0.375
141
12.0
290
     0
  0
SCALE
  5
BA
102
{ACAD_REACTORS
330
AF
102
}
330
AF
100
AcDbScale
 70
     0
300
1/2" = 1'-0"
140
0.5
141
12.0
290
     0
  0
SCALE
  5
BB
102
{ACAD_REACTORS
330
AF
102
}
330
AF
100
AcDbScale
 70
     0
300
3/4" = 1'-0"
140
0.75
141
12.0
290
     0
  0
SCALE
  5
BC
102
{ACAD_REACTORS
330
AF
102
}
330
AF
100
AcDbScale
 70
     0
300
1" = 1'-0"
140
1.0
141
12.0
290
     0
  0
SCALE
  5
BD
102
{ACAD_REACTORS
330
AF
102
}
330
AF
100
AcDbScale
 70
     0
300
1-1/2" = 1'-0"
140
1.5
141
12.0
290
     0
  0
SCALE
  5
BE
102
{ACAD_REACTORS
330
AF
102
}
330
AF
100
AcDbScale
 70
     0
300
3" = 1'-0"
140
3.0
141
12.0
290
     0
  0
SCALE
  5
BF
102
{ACAD_REACTORS
330
AF
102
}
330
AF
100
AcDbScale
 70
     0
300
6" = 1'-0"
140
6.0
141
12.0
290
     0
  0
SCALE
  5
C0
102
{ACAD_REACTORS
330
AF
102
}
330
AF
100
AcDbScale
 70
     0
300
1'-0" = 1'-0"
140
12.0
141
12.0
290
     0
  0
ACDBSECTIONVIEWSTYLE
  5
C4
102
{ACAD_XDICTIONARY
360
2D1
102
}
102
{ACAD_REACTORS
330
C3
102
}
330
C3
100
AcDbModelDocViewStyle
 70
     0
  3
Imperial24
290
     0
100
AcDbSectionViewStyle
 70
     0
 71
     0
 90
       78
 71
     1
340
12
 62
   256
 40
0.24
340
0
340
0
 62
   256
 40
0.24
300
I, O, Q, S, X, Z
 40
0.48
 90
        3
 40
0.18
 90
        1
 71
     2
340
8
 90
       25
 62
   256
340
8
 90
       50
 62
   256
 40
0.24
 40
0.0
 40
0.24
 71
     3
340
12
 62
   256
 40
0.24
 90
        1
 40
0.75
 90
        1
300
%<\AcVar ViewType \f "%tc1">% %<\AcVar ViewSectionStartId>%-%<\AcVar ViewSectionEndId>%\PSCALE %<\AcVar ViewScale \f "%sn">%
 71
     4
 62
   256
 62
   257
300
ANSI31
 40
1.0
 90
        0
290
     0
290
     0
 90
        6
 40
0.0
 40
1.570796326794896
 40
0.2617993877991494
 40
1.308996938995747
 40
-0.2617993877991494
 40
1.832595714594046
  0
TABLESTYLE
  5
94
102
{ACAD_XDICTIONARY
360
2CF
102
}
102
{ACAD_REACTORS
330
93
102
}
330
93
100
AcDbTableStyle
280
     0
  3
Standard
 70
     0
 71
     0
 40
0.06
 41
0.06
280
     0
281
     0
  7
Standard
140
0.18
170
     2
 62
     0
 63
     7
283
     0
 90
      512
 91
        0
  1

274
    -2
284
     1
 64
     0
275
    -2
285
     1
 65
     0
276
    -2
286
     1
 66
     0
277
    -2
287
     1
 67
     0
278
    -2
288
     1
 68
     0
279
    -2
289
     1
 69
     0
  7
Standard
140
0.25
170
     5
 62
     0
 63
     7
283
     0
 90
      512
 91
        0
  1

274
    -2
284
     1
 64
     0
275
    -2
285
     1
 65
     0
276
    -2
286
     1
 66
     0
277
    -2
287
     1
 67
     0
278
    -2
288
     1
 68
     0
279
    -2
289
     1
 69
     0
  7
Standard
140
0.18
170
     5
 62
     0
 63
     7
283
     0
 90
      512
 91
        0
  1

274
    -2
284
     1
 64
     0
275
    -2
285
     1
 65
     0
276
    -2
286
     1
 66
     0
277
    -2
287
     1
 67
     0
278
    -2
288
     1
 68
     0
279
    -2
289
     1
 69
     0
  0
VISUALSTYLE
  5
88
102
{ACAD_REACTORS
330
82
102
}
330
82
100
AcDbVisualStyle
  2
2dWireframe
 70
     4
177
     3
291
     0
 70
    58
 90
        0
176
     1
 90
        2
176
     1
 90
        1
176
     1
 90
        0
176
     1
 40
0.6
176
     1
 40
30.0
176
     1
 62
     7
420
 16777215
176
     1
 90
        1
176
     1
 90
        4
176
     1
 62
     7
176
     1
 62
   257
176
     1
 90
        1
176
     1
 90
        1
176
     1
 40
1.0
176
     1
 90
        0
176
     1
 62
   257
176
     1
 40
1.0
176
     1
 90
        1
176
     1
 90
        6
176
     1
 90
        2
176
     1
 62
     7
176
     1
 90
        5
176
     1
 90
        0
176
     1
 90
        0
176
     1
290
     0
176
     1
 90
        1
176
     1
 40
0.0
176
     1
 90
        0
176
     1
290
     1
176
     1
290
     1
176
     1
290
     0
176
     1
290
     0
176
     1
290
     0
176
     1
290
     0
176
     1
290
     0
176
     1
290
     0
176
     1
290
     0
176
     1
 90
       50
176
     1
 40
0.0
176
     1
 40
1.0
176
     1
 90
        0
176
     1
 62
    18
420
        0
176
     1
 90
       50
176
     1
 90
        3
176
     1
 62
     5
420
      255
176
     1
290
     0
176
     1
 90
       50
176
     1
 90
       50
176
     1
 90
       50
176
     1
290
     0
176
     1
 90
       50
176
     1
 62
   256
176
     0
 40
1.0
176
     0
 90
        2
176
     1
  1
strokes_ogs.tif
176
     1
290
     0
176
     1
 40
1.0
176
     1
 40
1.0
176
     1
  0
VISUALSTYLE
  5
8A
102
{ACAD_REACTORS
330
82
102
}
330
82
100
AcDbVisualStyle
  2
3D Hidden
 70
     6
177
     3
291
     0
 70
    58
 90
        1
176
     1
 90
        2
176
     1
 90
        2
176
     1
 90
        0
176
     1
 40
0.6
176
     1
 40
30.0
176
     1
 62
     7
420
 16777215
176
     1
 90
        2
176
     1
 90
       10
176
     1
 62
     7
176
     1
 62
   257
176
     1
 90
        2
176
     1
 90
        2
176
     1
 40
40.0
176
     1
 90
        0
176
     1
 62
   257
176
     1
 40
1.0
176
     1
 90
        1
176
     1
 90
        6
176
     1
 90
        2
176
     1
 62
     7
176
     1
 90
        3
176
     1
 90
        0
176
     1
 90
        0
176
     1
290
     0
176
     1
 90
        1
176
     1
 40
0.0
176
     1
 90
        0
176
     1
290
     0
176
     1
290
     1
176
     1
290
     1
176
     1
290
     0
176
     1
290
     0
176
     1
290
     0
176
     1
290
     0
176
     1
290
     0
176
     1
290
     0
176
     1
 90
       50
176
     1
 40
0.0
176
     1
 40
1.0
176
     1
 90
        0
176
     1
 62
    18
420
        0
176
     1
 90
       50
176
     1
 90
        3
176
     1
 62
     5
420
      255
176
     1
290
     0
176
     1
 90
       50
176
     1
 90
       50
176
     1
 90
       50
176
     1
290
     0
176
     1
 90
       50
176
     1
 62
   256
176
     0
 40
1.0
176
     0
 90
        2
176
     1
  1
strokes_ogs.tif
176
     1
290
     0
176
     1
 40
1.0
176
     1
 40
1.0
176
     1
  0
VISUALSTYLE
  5
89
102
{ACAD_REACTORS
330
82
102
}
330
82
100
AcDbVisualStyle
  2
3dWireframe
 70
     5
177
     3
291
     0
 70
    58
 90
        0
176
     1
 90
        2
176
     1
 90
        1
176
     1
 90
        0
176
     1
 40
0.6
176
     1
 40
30.0
176
     1
 62
     7
420
 16777215
176
     1
 90
        1
176
     1
 90
        4
176
     1
 62
     7
176
     1
 62
   257
176
     1
 90
        1
176
     1
 90
        1
176
     1
 40
1.0
176
     1
 90
        0
176
     1
 62
   257
176
     1
 40
1.0
176
     1
 90
        1
176
     1
 90
        6
176
     1
 90
        2
176
     1
 62
     7
176
     1
 90
        5
176
     1
 90
        0
176
     1
 90
        0
176
     1
290
     0
176
     1
 90
        1
176
     1
 40
0.0
176
     1
 90
        0
176
     1
290
     0
176
     1
290
     1
176
     1
290
     1
176
     1
290
     0
176
     1
290
     0
176
     1
290
     0
176
     1
290
     0
176
     1
290
     0
176
     1
290
     0
176
     1
 90
       50
176
     1
 40
0.0
176
     1
 40
1.0
176
     1
 90
        0
176
     1
 62
    18
420
        0
176
     1
 90
       50
176
     1
 90
        3
176
     1
 62
     5
420
      255
176
     1
290
     0
176
     1
 90
       50
176
     1
 90
       50
176
     1
 90
       50
176
     1
290
     0
176
     1
 90
       50
176
     1
 62
   256
176
     0
 40
1.0
176
     0
 90
        2
176
     1
  1
strokes_ogs.tif
176
     1
290
     0
176
     1
 40
1.0
176
     1
 40
1.0
176
     1
  0
VISUALSTYLE
  5
87
102
{ACAD_REACTORS
330
82
102
}
330
82
100
AcDbVisualStyle
  2
Basic
 70
     7
177
     3
291
     1
 70
    58
 90
        1
176
     1
 90
        0
176
     1
 90
        1
176
     1
 90
        0
176
     1
 40
0.6
176
     1
 40
30.0
176
     1
 62
     7
420
 16777215
176
     1
 90
        0
176
     1
 90
        4
176
     1
 62
     7
176
     1
 62
   257
176
     1
 90
        1
176
     1
 90
        1
176
     1
 40
1.0
176
     1
 90
        8
176
     1
 62
     7
176
     1
 40
1.0
176
     1
 90
        1
176
     1
 90
        6
176
     1
 90
        2
176
     1
 62
     7
176
     1
 90
        5
176
     1
 90
        0
176
     1
 90
        0
176
     1
290
     0
176
     1
 90
        1
176
     1
 40
0.0
176
     1
 90
        0
176
     1
290
     0
176
     1
290
     1
176
     1
290
     1
176
     1
290
     0
176
     1
290
     0
176
     1
290
     0
176
     1
290
     0
176
     1
290
     0
176
     1
290
     0
176
     1
 90
       50
176
     1
 40
0.0
176
     1
 40
1.0
176
     1
 90
        0
176
     1
 62
    18
420
        0
176
     1
 90
       50
176
     1
 90
        3
176
     1
 62
     5
420
      255
176
     1
290
     0
176
     1
 90
       50
176
     1
 90
       50
176
     1
 90
       50
176
     1
290
     0
176
     1
 90
       50
176
     1
 62
   256
176
     0
 40
1.0
176
     0
 90
        2
176
     1
  1
strokes_ogs.tif
176
     1
290
     0
176
     1
 40
1.0
176
     1
 40
1.0
176
     1
  0
VISUALSTYLE
  5
8E
102
{ACAD_REACTORS
330
82
102
}
330
82
100
AcDbVisualStyle
  2
Brighten
 70
    12
177
     3
291
     1
 70
    58
 90
        2
176
     1
 90
        2
176
     1
 90
        1
176
     1
 90
        0
176
     1
 40
0.6
176
     1
 40
30.0
176
     1
 62
     7
420
 16777215
176
     1
 90
        1
176
     1
 90
        4
176
     1
 62
     7
176
     1
 62
   257
176
     1
 90
        1
176
     1
 90
        1
176
     1
 40
1.0
176
     1
 90
        8
176
     1
 62
     7
176
     1
 40
1.0
176
     1
 90
        1
176
     1
 90
        6
176
     1
 90
        2
176
     1
 62
     7
176
     1
 90
        5
176
     1
 90
        0
176
     1
 90
        0
176
     1
290
     0
176
     1
 90
        1
176
     1
 40
50.0
176
     1
 90
        0
176
     1
290
     0
176
     1
290
     1
176
     1
290
     1
176
     1
290
     0
176
     1
290
     0
176
     1
290
     0
176
     1
290
     0
176
     1
290
     0
176
     1
290
     0
176
     1
 90
       50
176
     1
 40
0.0
176
     1
 40
1.0
176
     1
 90
        0
176
     1
 62
    18
420
        0
176
     1
 90
       50
176
     1
 90
        3
176
     1
 62
     5
420
      255
176
     1
290
     0
176
     1
 90
       50
176
     1
 90
       50
176
     1
 90
       50
176
     1
290
     0
176
     1
 90
       50
176
     1
 62
   256
176
     0
 40
1.0
176
     0
 90
        2
176
     1
  1
strokes_ogs.tif
176
     1
290
     0
176
     1
 40
1.0
176
     1
 40
1.0
176
     1
  0
VISUALSTYLE
  5
92
102
{ACAD_REACTORS
330
82
102
}
330
82
100
AcDbVisualStyle
  2
ColorChange
 70
    16
177
     3
291
     1
 70
    58
 90
        2
176
     1
 90
        2
176
     1
 90
        3
176
     1
 90
        0
176
     1
 40
0.6
176
     1
 40
30.0
176
     1
 62
     8
420
  8421504
176
     1
 90
        1
176
     1
 90
        4
176
     1
 62
     7
176
     1
 62
   257
176
     1
 90
        1
176
     1
 90
        1
176
     1
 40
1.0
176
     1
 90
        8
176
     1
 62
     8
420
  8421504
176
     1
 40
1.0
176
     1
 90
        1
176
     1
 90
        6
176
     1
 90
        2
176
     1
 62
     7
176
     1
 90
        5
176
     1
 90
        0
176
     1
 90
        0
176
     1
290
     0
176
     1
 90
        1
176
     1
 40
0.0
176
     1
 90
        0
176
     1
290
     0
176
     1
290
     1
176
     1
290
     1
176
     1
290
     0
176
     1
290
     0
176
     1
290
     0
176
     1
290
     0
176
     1
290
     0
176
     1
290
     0
176
     1
 90
       50
176
     1
 40
0.0
176
     1
 40
1.0
176
     1
 90
        0
176
     1
 62
    18
420
        0
176
     1
 90
       50
176
     1
 90
        3
176
     1
 62
     5
420
      255
176
     1
290
     0
176
     1
 90
       50
176
     1
 90
       50
176
     1
 90
       50
176
     1
290
     0
176
     1
 90
       50
176
     1
 62
   256
176
     0
 40
1.0
176
     0
 90
        2
176
     1
  1
strokes_ogs.tif
176
     1
290
     0
176
     1
 40
1.0
176
     1
 40
1.0
176
     1
  0
VISUALSTYLE
  5
8B
102
{ACAD_REACTORS
330
82
102
}
330
82
100
AcDbVisualStyle
  2
Conceptual
 70
     9
177
     3
291
     0
 70
    58
 90
        3
176
     1
 90
        2
176
     1
 90
        1
176
     1
 90
        0
176
     1
 40
0.6
176
     1
 40
30.0
176
     1
 62
     7
420
 16777215
176
     1
 90
        2
176
     1
 90
        2
176
     1
 62
     7
176
     1
 62
   257
176
     1
 90
        1
176
     1
 90
        1
176
     1
 40
40.0
176
     1
 90
        8
176
     1
 62
     7
176
     1
 40
1.0
176
     1
 90
        1
176
     1
 90
        6
176
     1
 90
        2
176
     1
 62
     7
176
     1
 90
        5
176
     1
 90
        0
176
     1
 90
        0
176
     1
290
     0
176
     1
 90
        1
176
     1
 40
0.0
176
     1
 90
        0
176
     1
290
     0
176
     1
290
     1
176
     1
290
     1
176
     1
290
     0
176
     1
290
     0
176
     1
290
     0
176
     1
290
     0
176
     1
290
     0
176
     1
290
     0
176
     1
 90
       50
176
     1
 40
0.0
176
     1
 40
1.0
176
     1
 90
        0
176
     1
 62
    18
420
        0
176
     1
 90
       50
176
     1
 90
        3
176
     1
 62
     5
420
      255
176
     1
290
     0
176
     1
 90
       50
176
     1
 90
       50
176
     1
 90
       50
176
     1
290
     0
176
     1
 90
       50
176
     1
 62
   256
176
     0
 40
1.0
176
     0
 90
        2
176
     1
  1
strokes_ogs.tif
176
     1
290
     0
176
     1
 40
1.0
176
     1
 40
1.0
176
     1
  0
VISUALSTYLE
  5
8D
102
{ACAD_REACTORS
330
82
102
}
330
82
100
AcDbVisualStyle
  2
Dim
 70
    11
177
     3
291
     1
 70
    58
 90
        2
176
     1
 90
        2
176
     1
 90
        1
176
     1
 90
        0
176
     1
 40
0.6
176
     1
 40
30.0
176
     1
 62
     7
420
 16777215
176
     1
 90
        1
176
     1
 90
        4
176
     1
 62
     7
176
     1
 62
   257
176
     1
 90
        1
176
     1
 90
        1
176
     1
 40
1.0
176
     1
 90
        8
176
     1
 62
     7
176
     1
 40
1.0
176
     1
 90
        1
176
     1
 90
        6
176
     1
 90
        2
176
     1
 62
     7
176
     1
 90
        5
176
     1
 90
        0
176
     1
 90
        0
176
     1
290
     0
176
     1
 90
        1
176
     1
 40
-50.0
176
     1
 90
        0
176
     1
290
     0
176
     1
290
     1
176
     1
290
     1
176
     1
290
     0
176
     1
290
     0
176
     1
290
     0
176
     1
290
     0
176
     1
290
     0
176
     1
290
     0
176
     1
 90
       50
176
     1
 40
0.0
176
     1
 40
1.0
176
     1
 90
        0
176
     1
 62
    18
420
        0
176
     1
 90
       50
176
     1
 90
        3
176
     1
 62
     5
420
      255
176
     1
290
     0
176
     1
 90
       50
176
     1
 90
       50
176
     1
 90
       50
176
     1
290
     0
176
     1
 90
       50
176
     1
 62
   256
176
     0
 40
1.0
176
     0
 90
        2
176
     1
  1
strokes_ogs.tif
176
     1
290
     0
176
     1
 40
1.0
176
     1
 40
1.0
176
     1
  0
VISUALSTYLE
  5
AE
102
{ACAD_REACTORS
330
82
102
}
330
82
100
AcDbVisualStyle
  2
EdgeColorOff
 70
    22
177
     3
291
     1
 70
    58
 90
        2
176
     0
 90
        2
176
     0
 90
        0
176
     0
 90
        0
176
     0
 40
0.6
176
     0
 40
30.0
176
     0
 62
     7
420
 16777215
176
     0
 90
        1
176
     0
 90
        4
176
     0
 62
     7
176
     0
 62
   257
176
     0
 90
        1
176
     0
 90
        1
176
     0
 40
1.0
176
     0
 90
        8
176
     2
 62
     7
176
     0
 40
1.0
176
     0
 90
        1
176
     0
 90
        6
176
     0
 90
        2
176
     0
 62
     7
176
     0
 90
        5
176
     0
 90
        0
176
     0
 90
        0
176
     0
290
     0
176
     0
 90
        1
176
     0
 40
0.0
176
     0
 90
        0
176
     0
290
     0
176
     0
290
     1
176
     0
290
     1
176
     0
290
     0
176
     0
290
     0
176
     0
290
     0
176
     0
290
     0
176
     0
290
     0
176
     0
290
     0
176
     0
 90
       50
176
     0
 40
0.0
176
     0
 40
1.0
176
     0
 90
        0
176
     0
 62
    18
420
        0
176
     0
 90
       50
176
     0
 90
        3
176
     0
 62
     5
420
      255
176
     0
290
     0
176
     0
 90
       50
176
     0
 90
       50
176
     0
 90
       50
176
     0
290
     0
176
     0
 90
       50
176
     0
 62
   256
176
     0
 40
1.0
176
     0
 90
        2
176
     0
  1
strokes_ogs.tif
176
     0
290
     0
176
     0
 40
1.0
176
     0
 40
1.0
176
     0
  0
VISUALSTYLE
  5
91
102
{ACAD_REACTORS
330
82
102
}
330
82
100
AcDbVisualStyle
  2
Facepattern
 70
    15
177
     3
291
     1
 70
    58
 90
        2
176
     1
 90
        2
176
     1
 90
        1
176
     1
 90
        0
176
     1
 40
0.6
176
     1
 40
30.0
176
     1
 62
     7
420
 16777215
176
     1
 90
        1
176
     1
 90
        4
176
     1
 62
     7
176
     1
 62
   257
176
     1
 90
        1
176
     1
 90
        1
176
     1
 40
1.0
176
     1
 90
        8
176
     1
 62
     7
176
     1
 40
1.0
176
     1
 90
        1
176
     1
 90
        6
176
     1
 90
        2
176
     1
 62
     7
176
     1
 90
        5
176
     1
 90
        0
176
     1
 90
        0
176
     1
290
     0
176
     1
 90
        1
176
     1
 40
0.0
176
     1
 90
        0
176
     1
290
     0
176
     1
290
     1
176
     1
290
     1
176
     1
290
     0
176
     1
290
     0
176
     1
290
     0
176
     1
290
     0
176
     1
290
     0
176
     1
290
     0
176
     1
 90
       50
176
     1
 40
0.0
176
     1
 40
1.0
176
     1
 90
        0
176
     1
 62
    18
420
        0
176
     1
 90
       50
176
     1
 90
        3
176
     1
 62
     5
420
      255
176
     1
290
     0
176
     1
 90
       50
176
     1
 90
       50
176
     1
 90
       50
176
     1
290
     0
176
     1
 90
       50
176
     1
 62
   256
176
     0
 40
1.0
176
     0
 90
        2
176
     1
  1
strokes_ogs.tif
176
     1
290
     0
176
     1
 40
1.0
176
     1
 40
1.0
176
     1
  0
VISUALSTYLE
  5
83
102
{ACAD_REACTORS
330
82
102
}
330
82
100
AcDbVisualStyle
  2
Flat
 70
     0
177
     3
291
     1
 70
    58
 90
        2
176
     1
 90
        1
176
     1
 90
        1
176
     1
 90
        2
176
     1
 40
0.6
176
     1
 40
30.0
176
     1
 62
     7
420
 16777215
176
     1
 90
        0
176
     1
 90
        4
176
     1
 62
     7
176
     1
 62
   257
176
     1
 90
        1
176
     1
 90
        1
176
     1
 40
1.0
176
     1
 90
        8
176
     1
 62
     7
176
     1
 40
1.0
176
     1
 90
        1
176
     1
 90
        6
176
     1
 90
        2
176
     1
 62
     7
176
     1
 90
        5
176
     1
 90
        0
176
     1
 90
        0
176
     1
290
     0
176
     1
 90
        1
176
     1
 40
0.0
176
     1
 90
        0
176
     1
290
     0
176
     1
290
     1
176
     1
290
     1
176
     1
290
     0
176
     1
290
     0
176
     1
290
     0
176
     1
290
     0
176
     1
290
     0
176
     1
290
     0
176
     1
 90
       50
176
     1
 40
0.0
176
     1
 40
1.0
176
     1
 90
        0
176
     1
 62
    18
420
        0
176
     1
 90
       50
176
     1
 90
        3
176
     1
 62
     5
420
      255
176
     1
290
     0
176
     1
 90
       50
176
     1
 90
       50
176
     1
 90
       50
176
     1
290
     0
176
     1
 90
       50
176
     1
 62
   256
176
     0
 40
1.0
176
     0
 90
        2
176
     1
  1
strokes_ogs.tif
176
     1
290
     0
176
     1
 40
1.0
176
     1
 40
1.0
176
     1
  0
VISUALSTYLE
  5
84
102
{ACAD_REACTORS
330
82
102
}
330
82
100
AcDbVisualStyle
  2
FlatWithEdges
 70
     1
177
     3
291
     1
 70
    58
 90
        2
176
     1
 90
        1
176
     1
 90
        1
176
     1
 90
        2
176
     1
 40
0.6
176
     1
 40
30.0
176
     1
 62
     7
420
 16777215
176
     1
 90
        1
176
     1
 90
        4
176
     1
 62
     7
176
     1
 62
   257
176
     1
 90
        1
176
     1
 90
        1
176
     1
 40
1.0
176
     1
 90
        0
176
     1
 62
   257
176
     1
 40
1.0
176
     1
 90
        1
176
     1
 90
        6
176
     1
 90
        2
176
     1
 62
     7
176
     1
 90
        5
176
     1
 90
        0
176
     1
 90
        0
176
     1
290
     0
176
     1
 90
        1
176
     1
 40
0.0
176
     1
 90
        0
176
     1
290
     0
176
     1
290
     1
176
     1
290
     1
176
     1
290
     0
176
     1
290
     0
176
     1
290
     0
176
     1
290
     0
176
     1
290
     0
176
     1
290
     0
176
     1
 90
       50
176
     1
 40
0.0
176
     1
 40
1.0
176
     1
 90
        0
176
     1
 62
    18
420
        0
176
     1
 90
       50
176
     1
 90
        3
176
     1
 62
     5
420
      255
176
     1
290
     0
176
     1
 90
       50
176
     1
 90
       50
176
     1
 90
       50
176
     1
290
     0
176
     1
 90
       50
176
     1
 62
   256
176
     0
 40
1.0
176
     0
 90
        2
176
     1
  1
strokes_ogs.tif
176
     1
290
     0
176
     1
 40
1.0
176
     1
 40
1.0
176
     1
  0
VISUALSTYLE
  5
85
102
{ACAD_REACTORS
330
82
102
}
330
82
100
AcDbVisualStyle
  2
Gouraud
 70
     2
177
     3
291
     1
 70
    58
 90
        2
176
     1
 90
        2
176
     1
 90
        1
176
     1
 90
        2
176
     1
 40
0.6
176
     1
 40
30.0
176
     1
 62
     7
420
 16777215
176
     1
 90
        0
176
     1
 90
        4
176
     1
 62
     7
176
     1
 62
   257
176
     1
 90
        1
176
     1
 90
        1
176
     1
 40
1.0
176
     1
 90
        0
176
     1
 62
     7
176
     1
 40
1.0
176
     1
 90
        1
176
     1
 90
        6
176
     1
 90
        2
176
     1
 62
     7
176
     1
 90
        5
176
     1
 90
        0
176
     1
 90
        0
176
     1
290
     0
176
     1
 90
        1
176
     1
 40
0.0
176
     1
 90
        0
176
     1
290
     0
176
     1
290
     1
176
     1
290
     1
176
     1
290
     0
176
     1
290
     0
176
     1
290
     0
176
     1
290
     0
176
     1
290
     0
176
     1
290
     0
176
     1
 90
       50
176
     1
 40
0.0
176
     1
 40
1.0
176
     1
 90
        0
176
     1
 62
    18
420
        0
176
     1
 90
       50
176
     1
 90
        3
176
     1
 62
     5
420
      255
176
     1
290
     0
176
     1
 90
       50
176
     1
 90
       50
176
     1
 90
       50
176
     1
290
     0
176
     1
 90
       50
176
     1
 62
   256
176
     0
 40
1.0
176
     0
 90
        2
176
     1
  1
strokes_ogs.tif
176
     1
290
     0
176
     1
 40
1.0
176
     1
 40
1.0
176
     1
  0
VISUALSTYLE
  5
86
102
{ACAD_REACTORS
330
82
102
}
330
82
100
AcDbVisualStyle
  2
GouraudWithEdges
 70
     3
177
     3
291
     1
 70
    58
 90
        2
176
     1
 90
        2
176
     1
 90
        1
176
     1
 90
        2
176
     1
 40
0.6
176
     1
 40
30.0
176
     1
 62
     7
420
 16777215
176
     1
 90
        1
176
     1
 90
        4
176
     1
 62
     7
176
     1
 62
   257
176
     1
 90
        1
176
     1
 90
        1
176
     1
 40
1.0
176
     1
 90
        0
176
     1
 62
   257
176
     1
 40
1.0
176
     1
 90
        1
176
     1
 90
        6
176
     1
 90
        2
176
     1
 62
     7
176
     1
 90
        5
176
     1
 90
        0
176
     1
 90
        0
176
     1
290
     0
176
     1
 90
        1
176
     1
 40
0.0
176
     1
 90
        0
176
     1
290
     0
176
     1
290
     1
176
     1
290
     1
176
     1
290
     0
176
     1
290
     0
176
     1
290
     0
176
     1
290
     0
176
     1
290
     0
176
     1
290
     0
176
     1
 90
       50
176
     1
 40
0.0
176
     1
 40
1.0
176
     1
 90
        0
176
     1
 62
    18
420
        0
176
     1
 90
       50
176
     1
 90
        3
176
     1
 62
     5
420
      255
176
     1
290
     0
176
     1
 90
       50
176
     1
 90
       50
176
     1
 90
       50
176
     1
290
     0
176
     1
 90
       50
176
     1
 62
   256
176
     0
 40
1.0
176
     0
 90
        2
176
     1
  1
strokes_ogs.tif
176
     1
290
     0
176
     1
 40
1.0
176
     1
 40
1.0
176
     1
  0
VISUALSTYLE
  5
A6
102
{ACAD_REACTORS
330
82
102
}
330
82
100
AcDbVisualStyle
  2
Hidden
 70
     6
177
     3
291
     0
 70
    58
 90
        1
176
     1
 90
        2
176
     1
 90
        2
176
     1
 90
        0
176
     1
 40
0.6
176
     1
 40
30.0
176
     1
 62
     7
420
 16777215
176
     1
 90
        2
176
     1
 90
        2
176
     1
 62
     7
176
     1
 62
   257
176
     1
 90
        2
176
     1
 90
        1
176
     1
 40
40.0
176
     1
 90
        0
176
     1
 62
   257
176
     1
 40
1.0
176
     1
 90
        1
176
     1
 90
        6
176
     1
 90
        2
176
     1
 62
     7
176
     1
 90
        3
176
     1
 90
        0
176
     1
 90
        0
176
     1
290
     0
176
     1
 90
        1
176
     1
 40
0.0
176
     1
 90
        0
176
     1
290
     0
176
     1
290
     1
176
     1
290
     1
176
     1
290
     0
176
     1
290
     0
176
     1
290
     0
176
     1
290
     0
176
     1
290
     0
176
     1
290
     0
176
     1
 90
       50
176
     1
 40
0.0
176
     1
 40
1.0
176
     1
 90
        0
176
     1
 62
    18
420
        0
176
     1
 90
       50
176
     1
 90
        3
176
     1
 62
     5
420
      255
176
     1
290
     0
176
     1
 90
       50
176
     1
 90
       50
176
     1
 90
       50
176
     1
290
     0
176
     1
 90
       50
176
     1
 62
   256
176
     0
 40
1.0
176
     0
 90
        2
176
     1
  1
strokes_ogs.tif
176
     1
290
     0
176
     1
 40
1.0
176
     1
 40
1.0
176
     1
  0
VISUALSTYLE
  5
AC
102
{ACAD_REACTORS
330
82
102
}
330
82
100
AcDbVisualStyle
  2
JitterOff
 70
    20
177
     3
291
     1
 70
    58
 90
        2
176
     0
 90
        2
176
     0
 90
        0
176
     0
 90
        0
176
     0
 40
0.6
176
     0
 40
30.0
176
     0
 62
     7
420
 16777215
176
     0
 90
        1
176
     0
 90
        4
176
     0
 62
     7
176
     0
 62
   257
176
     0
 90
        1
176
     0
 90
        1
176
     0
 40
1.0
176
     0
 90
       10
176
     2
 62
     7
176
     0
 40
1.0
176
     0
 90
        1
176
     0
 90
        6
176
     0
 90
        2
176
     0
 62
     7
176
     0
 90
        5
176
     0
 90
        0
176
     0
 90
        0
176
     0
290
     0
176
     0
 90
        1
176
     0
 40
0.0
176
     0
 90
        0
176
     0
290
     0
176
     0
290
     1
176
     0
290
     1
176
     0
290
     0
176
     0
290
     0
176
     0
290
     0
176
     0
290
     0
176
     0
290
     0
176
     0
290
     0
176
     0
 90
       50
176
     0
 40
0.0
176
     0
 40
1.0
176
     0
 90
        0
176
     0
 62
    18
420
        0
176
     0
 90
       50
176
     0
 90
        3
176
     0
 62
     5
420
      255
176
     0
290
     0
176
     0
 90
       50
176
     0
 90
       50
176
     0
 90
       50
176
     0
290
     0
176
     0
 90
       50
176
     0
 62
   256
176
     0
 40
1.0
176
     0
 90
        2
176
     0
  1
strokes_ogs.tif
176
     0
290
     0
176
     0
 40
1.0
176
     0
 40
1.0
176
     0
  0
VISUALSTYLE
  5
90
102
{ACAD_REACTORS
330
82
102
}
330
82
100
AcDbVisualStyle
  2
Linepattern
 70
    14
177
     3
291
     1
 70
    58
 90
        2
176
     1
 90
        2
176
     1
 90
        1
176
     1
 90
        0
176
     1
 40
0.6
176
     1
 40
30.0
176
     1
 62
     7
420
 16777215
176
     1
 90
        1
176
     1
 90
        4
176
     1
 62
     7
176
     1
 62
   257
176
     1
 90
        7
176
     1
 90
        7
176
     1
 40
1.0
176
     1
 90
        8
176
     1
 62
     7
176
     1
 40
1.0
176
     1
 90
        1
176
     1
 90
        6
176
     1
 90
        2
176
     1
 62
     7
176
     1
 90
        5
176
     1
 90
        0
176
     1
 90
        0
176
     1
290
     0
176
     1
 90
        1
176
     1
 40
0.0
176
     1
 90
        0
176
     1
290
     0
176
     1
290
     1
176
     1
290
     1
176
     1
290
     0
176
     1
290
     0
176
     1
290
     0
176
     1
290
     0
176
     1
290
     0
176
     1
290
     0
176
     1
 90
       50
176
     1
 40
0.0
176
     1
 40
1.0
176
     1
 90
        0
176
     1
 62
    18
420
        0
176
     1
 90
       50
176
     1
 90
        3
176
     1
 62
     5
420
      255
176
     1
290
     0
176
     1
 90
       50
176
     1
 90
       50
176
     1
 90
       50
176
     1
290
     0
176
     1
 90
       50
176
     1
 62
   256
176
     0
 40
1.0
176
     0
 90
        2
176
     1
  1
strokes_ogs.tif
176
     1
290
     0
176
     1
 40
1.0
176
     1
 40
1.0
176
     1
  0
VISUALSTYLE
  5
AD
102
{ACAD_REACTORS
330
82
102
}
330
82
100
AcDbVisualStyle
  2
OverhangOff
 70
    21
177
     3
291
     1
 70
    58
 90
        2
176
     0
 90
        2
176
     0
 90
        0
176
     0
 90
        0
176
     0
 40
0.6
176
     0
 40
30.0
176
     0
 62
     7
420
 16777215
176
     0
 90
        1
176
     0
 90
        4
176
     0
 62
     7
176
     0
 62
   257
176
     0
 90
        1
176
     0
 90
        1
176
     0
 40
1.0
176
     0
 90
        9
176
     2
 62
     7
176
     0
 40
1.0
176
     0
 90
        1
176
     0
 90
        6
176
     0
 90
        2
176
     0
 62
     7
176
     0
 90
        5
176
     0
 90
        0
176
     0
 90
        0
176
     0
290
     0
176
     0
 90
        1
176
     0
 40
0.0
176
     0
 90
        0
176
     0
290
     0
176
     0
290
     1
176
     0
290
     1
176
     0
290
     0
176
     0
290
     0
176
     0
290
     0
176
     0
290
     0
176
     0
290
     0
176
     0
290
     0
176
     0
 90
       50
176
     0
 40
0.0
176
     0
 40
1.0
176
     0
 90
        0
176
     0
 62
    18
420
        0
176
     0
 90
       50
176
     0
 90
        3
176
     0
 62
     5
420
      255
176
     0
290
     0
176
     0
 90
       50
176
     0
 90
       50
176
     0
 90
       50
176
     0
290
     0
176
     0
 90
       50
176
     0
 62
   256
176
     0
 40
1.0
176
     0
 90
        2
176
     0
  1
strokes_ogs.tif
176
     0
290
     0
176
     0
 40
1.0
176
     0
 40
1.0
176
     0
  0
VISUALSTYLE
  5
8C
102
{ACAD_REACTORS
330
82
102
}
330
82
100
AcDbVisualStyle
  2
Realistic
 70
     8
177
     3
291
     0
 70
    58
 90
        2
176
     1
 90
        2
176
     1
 90
        1
176
     1
 90
        0
176
     1
 40
0.6
176
     1
 40
30.0
176
     1
 62
     7
420
 16777215
176
     1
 90
        1
176
     1
 90
        0
176
     1
 62
     7
176
     1
 62
   257
176
     1
 90
        1
176
     1
 90
        1
176
     1
 40
1.0
176
     1
 90
        8
176
     1
 62
     7
176
     1
 40
1.0
176
     1
 90
        1
176
     1
 90
        6
176
     1
 90
        2
176
     1
 62
     7
176
     1
 90
        5
176
     1
 90
        0
176
     1
 90
        0
176
     1
290
     0
176
     1
 90
       13
176
     1
 40
0.0
176
     1
 90
        0
176
     1
290
     0
176
     1
290
     1
176
     1
290
     1
176
     1
290
     0
176
     1
290
     0
176
     1
290
     0
176
     1
290
     0
176
     1
290
     0
176
     1
290
     0
176
     1
 90
       50
176
     1
 40
0.0
176
     1
 40
1.0
176
     1
 90
        0
176
     1
 62
    18
420
        0
176
     1
 90
       50
176
     1
 90
        3
176
     1
 62
     5
420
      255
176
     1
290
     0
176
     1
 90
       50
176
     1
 90
       50
176
     1
 90
       50
176
     1
290
     0
176
     1
 90
       50
176
     1
 62
   256
176
     0
 40
1.0
176
     0
 90
        2
176
     1
  1
strokes_ogs.tif
176
     1
290
     0
176
     1
 40
1.0
176
     1
 40
1.0
176
     1
  0
VISUALSTYLE
  5
AB
102
{ACAD_REACTORS
330
82
102
}
330
82
100
AcDbVisualStyle
  2
Shaded
 70
    27
177
     3
291
     0
 70
    58
 90
        2
176
     1
 90
        2
176
     1
 90
        1
176
     1
 90
        2
176
     1
 40
0.6
176
     1
 40
30.0
176
     1
 62
     7
420
 16777215
176
     1
 90
        0
176
     1
 90
        4
176
     1
 62
     7
176
     1
 62
   257
176
     1
 90
        1
176
     1
 90
        1
176
     1
 40
1.0
176
     1
 90
        8
176
     1
 62
   257
176
     1
 40
1.0
176
     1
 90
        1
176
     1
 90
        6
176
     1
 90
        2
176
     1
 62
     8
420
  7895160
176
     1
 90
        3
176
     1
 90
        0
176
     1
 90
        0
176
     1
290
     0
176
     1
 90
        5
176
     1
 40
0.0
176
     1
 90
        0
176
     1
290
     0
176
     1
290
     1
176
     1
290
     1
176
     1
290
     0
176
     1
290
     0
176
     1
290
     0
176
     1
290
     0
176
     1
290
     0
176
     1
290
     0
176
     1
 90
       50
176
     1
 40
0.0
176
     1
 40
1.0
176
     1
 90
        0
176
     1
 62
    18
420
        0
176
     1
 90
       50
176
     1
 90
        3
176
     1
 62
     5
420
      255
176
     1
290
     0
176
     1
 90
       50
176
     1
 90
       50
176
     1
 90
       50
176
     1
290
     0
176
     1
 90
       50
176
     1
 62
   256
176
     0
 40
1.0
176
     0
 90
        2
176
     1
  1
strokes_ogs.tif
176
     1
290
     0
176
     1
 40
1.0
176
     1
 40
1.0
176
     1
  0
VISUALSTYLE
  5
AA
102
{ACAD_REACTORS
330
82
102
}
330
82
100
AcDbVisualStyle
  2
Shaded with edges
 70
    26
177
     3
291
     0
 70
    58
 90
        2
176
     1
 90
        2
176
     1
 90
        1
176
     1
 90
        2
176
     1
 40
0.6
176
     1
 40
30.0
176
     1
 62
     7
420
 16777215
176
     1
 90
        1
176
     1
 90
        2
176
     1
 62
     7
176
     1
 62
   257
176
     1
 90
        2
176
     1
 90
        1
176
     1
 40
1.0
176
     1
 90
        8
176
     1
 62
   257
176
     1
 40
1.0
176
     1
 90
        1
176
     1
 90
        6
176
     1
 90
        2
176
     1
 62
     7
176
     1
 90
        3
176
     1
 90
        0
176
     1
 90
        0
176
     1
290
     0
176
     1
 90
        5
176
     1
 40
0.0
176
     1
 90
        0
176
     1
290
     0
176
     1
290
     1
176
     1
290
     1
176
     1
290
     0
176
     1
290
     0
176
     1
290
     0
176
     1
290
     0
176
     1
290
     0
176
     1
290
     0
176
     1
 90
       50
176
     1
 40
0.0
176
     1
 40
1.0
176
     1
 90
        0
176
     1
 62
    18
420
        0
176
     1
 90
       50
176
     1
 90
        3
176
     1
 62
     5
420
      255
176
     1
290
     0
176
     1
 90
       50
176
     1
 90
       50
176
     1
 90
       50
176
     1
290
     0
176
     1
 90
       50
176
     1
 62
   256
176
     0
 40
1.0
176
     0
 90
        2
176
     1
  1
strokes_ogs.tif
176
     1
290
     0
176
     1
 40
1.0
176
     1
 40
1.0
176
     1
  0
VISUALSTYLE
  5
A7
102
{ACAD_REACTORS
330
82
102
}
330
82
100
AcDbVisualStyle
  2
Shades of Gray
 70
    23
177
     3
291
     0
 70
    58
 90
        2
176
     1
 90
        2
176
     1
 90
        3
176
     1
 90
        0
176
     1
 40
0.6
176
     1
 40
30.0
176
     1
 62
     7
420
 16777215
176
     1
 90
        2
176
     1
 90
        2
176
     1
 62
     7
176
     1
 62
     7
176
     1
 90
        1
176
     1
 90
        1
176
     1
 40
40.0
176
     1
 90
        8
176
     1
 62
     7
176
     1
 40
1.0
176
     1
 90
        1
176
     1
 90
        6
176
     1
 90
        2
176
     1
 62
     7
176
     1
 90
        3
176
     1
 90
        0
176
     1
 90
        0
176
     1
290
     0
176
     1
 90
        1
176
     1
 40
0.0
176
     1
 90
        0
176
     1
290
     0
176
     1
290
     1
176
     1
290
     1
176
     1
290
     0
176
     1
290
     0
176
     1
290
     0
176
     1
290
     0
176
     1
290
     0
176
     1
290
     0
176
     1
 90
       50
176
     1
 40
0.0
176
     1
 40
1.0
176
     1
 90
        0
176
     1
 62
    18
420
        0
176
     1
 90
       50
176
     1
 90
        3
176
     1
 62
     5
420
      255
176
     1
290
     0
176
     1
 90
       50
176
     1
 90
       50
176
     1
 90
       50
176
     1
290
     0
176
     1
 90
       50
176
     1
 62
   256
176
     0
 40
1.0
176
     0
 90
        2
176
     1
  1
strokes_ogs.tif
176
     1
290
     0
176
     1
 40
1.0
176
     1
 40
1.0
176
     1
  0
VISUALSTYLE
  5
A8
102
{ACAD_REACTORS
330
82
102
}
330
82
100
AcDbVisualStyle
  2
Sketchy
 70
    24
177
     3
291
     0
 70
    58
 90
        1
176
     1
 90
        2
176
     1
 90
        2
176
     1
 90
        0
176
     1
 40
0.6
176
     1
 40
30.0
176
     1
 62
     7
420
 16777215
176
     1
 90
        2
176
     1
 90
        2
176
     1
 62
     7
176
     1
 62
     7
176
     1
 90
        1
176
     1
 90
        1
176
     1
 40
40.0
176
     1
 90
       11
176
     1
 62
     7
176
     1
 40
1.0
176
     1
 90
        1
176
     1
 90
        6
176
     1
 90
        2
176
     1
 62
     7
176
     1
 90
        6
176
     1
 90
        0
176
     1
 90
        0
176
     1
290
     0
176
     1
 90
        1
176
     1
 40
0.0
176
     1
 90
        0
176
     1
290
     0
176
     1
290
     1
176
     1
290
     1
176
     1
290
     0
176
     1
290
     0
176
     1
290
     0
176
     1
290
     0
176
     1
290
     0
176
     1
290
     0
176
     1
 90
       50
176
     1
 40
0.0
176
     1
 40
1.0
176
     1
 90
        0
176
     1
 62
    18
420
        0
176
     1
 90
       50
176
     1
 90
        3
176
     1
 62
     5
420
      255
176
     1
290
     0
176
     1
 90
       50
176
     1
 90
       50
176
     1
 90
       50
176
     1
290
     0
176
     1
 90
       50
176
     1
 62
   256
176
     0
 40
1.0
176
     0
 90
        2
176
     1
  1
strokes_ogs.tif
176
     1
290
     0
176
     1
 40
1.0
176
     1
 40
1.0
176
     1
  0
VISUALSTYLE
  5
8F
102
{ACAD_REACTORS
330
82
102
}
330
82
100
AcDbVisualStyle
  2
Thicken
 70
    13
177
     3
291
     1
 70
    58
 90
        2
176
     1
 90
        2
176
     1
 90
        1
176
     1
 90
        0
176
     1
 40
0.6
176
     1
 40
30.0
176
     1
 62
     7
420
 16777215
176
     1
 90
        1
176
     1
 90
        4
176
     1
 62
     7
176
     1
 62
   257
176
     1
 90
        1
176
     1
 90
        1
176
     1
 40
1.0
176
     1
 90
       12
176
     1
 62
     7
176
     1
 40
1.0
176
     1
 90
        1
176
     1
 90
        6
176
     1
 90
        2
176
     1
 62
     7
176
     1
 90
        5
176
     1
 90
        0
176
     1
 90
        0
176
     1
290
     0
176
     1
 90
        1
176
     1
 40
0.0
176
     1
 90
        0
176
     1
290
     0
176
     1
290
     1
176
     1
290
     1
176
     1
290
     0
176
     1
290
     0
176
     1
290
     0
176
     1
290
     0
176
     1
290
     0
176
     1
290
     0
176
     1
 90
       50
176
     1
 40
0.0
176
     1
 40
1.0
176
     1
 90
        0
176
     1
 62
    18
420
        0
176
     1
 90
       50
176
     1
 90
        3
176
     1
 62
     5
420
      255
176
     1
290
     0
176
     1
 90
       50
176
     1
 90
       50
176
     1
 90
       50
176
     1
290
     0
176
     1
 90
       50
176
     1
 62
   256
176
     0
 40
1.0
176
     0
 90
        2
176
     1
  1
strokes_ogs.tif
176
     1
290
     0
176
     1
 40
1.0
176
     1
 40
1.0
176
     1
  0
VISUALSTYLE
  5
A5
102
{ACAD_REACTORS
330
82
102
}
330
82
100
AcDbVisualStyle
  2
Wireframe
 70
     5
177
     3
291
     0
 70
    58
 90
        0
176
     1
 90
        2
176
     1
 90
        0
176
     1
 90
        0
176
     1
 40
0.6
176
     1
 40
30.0
176
     1
 62
     7
420
 16777215
176
     1
 90
        1
176
     1
 90
        4
176
     1
 62
     7
176
     1
 62
   257
176
     1
 90
        1
176
     1
 90
        1
176
     1
 40
1.0
176
     1
 90
        0
176
     1
 62
   257
176
     1
 40
1.0
176
     1
 90
        1
176
     1
 90
        6
176
     1
 90
        2
176
     1
 62
     7
176
     1
 90
        3
176
     1
 90
        0
176
     1
 90
        0
176
     1
290
     0
176
     1
 90
        1
176
     1
 40
0.0
176
     1
 90
        0
176
     1
290
     0
176
     1
290
     1
176
     1
290
     1
176
     1
290
     0
176
     1
290
     0
176
     1
290
     0
176
     1
290
     0
176
     1
290
     0
176
     1
290
     0
176
     1
 90
       50
176
     1
 40
0.0
176
     1
 40
1.0
176
     1
 90
        0
176
     1
 62
    18
420
        0
176
     1
 90
       50
176
     1
 90
        3
176
     1
 62
     5
420
      255
176
     1
290
     0
176
     1
 90
       50
176
     1
 90
       50
176
     1
 90
       50
176
     1
290
     0
176
     1
 90
       50
176
     1
 62
   256
176
     0
 40
1.0
176
     0
 90
        2
176
     1
  1
strokes_ogs.tif
176
     1
290
     0
176
     1
 40
1.0
176
     1
 40
1.0
176
     1
  0
VISUALSTYLE
  5
A9
102
{ACAD_REACTORS
330
82
102
}
330
82
100
AcDbVisualStyle
  2
X-Ray
 70
    25
177
     3
291
     0
 70
    58
 90
        2
176
     1
 90
        2
176
     1
 90
        1
176
     1
 90
        1
176
     1
 40
0.5
176
     1
 40
30.0
176
     1
 62
     7
420
 16777215
176
     1
 90
        1
176
     1
 90
        0
176
     1
 62
     7
176
     1
 62
   257
176
     1
 90
        1
176
     1
 90
        1
176
     1
 40
1.0
176
     1
 90
        8
176
     1
 62
     7
176
     1
 40
1.0
176
     1
 90
        1
176
     1
 90
        6
176
     1
 90
        2
176
     1
 62
     7
176
     1
 90
        3
176
     1
 90
        0
176
     1
 90
        0
176
     1
290
     0
176
     1
 90
       13
176
     1
 40
0.0
176
     1
 90
        0
176
     1
290
     0
176
     1
290
     1
176
     1
290
     1
176
     1
290
     0
176
     1
290
     0
176
     1
290
     0
176
     1
290
     0
176
     1
290
     0
176
     1
290
     0
176
     1
 90
       50
176
     1
 40
0.0
176
     1
 40
1.0
176
     1
 90
        0
176
     1
 62
    18
420
        0
176
     1
 90
       50
176
     1
 90
        3
176
     1
 62
     5
420
      255
176
     1
290
     0
176
     1
 90
       50
176
     1
 90
       50
176
     1
 90
       50
176
     1
290
     0
176
     1
 90
       50
176
     1
 62
   256
176
     0
 40
1.0
176
     0
 90
        2
176
     1
  1
strokes_ogs.tif
176
     1
290
     0
176
     1
 40
1.0
176
     1
 40
1.0
176
     1
  0
DICTIONARYVAR
  5
2CB
102
{ACAD_REACTORS
330
9B
102
}
330
9B
100
DictionaryVariables
280
     0
  1
1:1
  0
DICTIONARYVAR
  5
2C7
102
{ACAD_REACTORS
330
9B
102
}
330
9B
100
DictionaryVariables
280
     0
  1
STANDARD
  0
DICTIONARYVAR
  5
9C
102
{ACAD_REACTORS
330
9B
102
}
330
9B
100
DictionaryVariables
280
     0
  1
STANDARD
  0
DICTIONARYVAR
  5
2C8
102
{ACAD_REACTORS
330
9B
102
}
330
9B
100
DictionaryVariables
280
     0
  1
Imperial24
  0
DICTIONARYVAR
  5
2C9
102
{ACAD_REACTORS
330
9B
102
}
330
9B
100
DictionaryVariables
280
     0
  1
Imperial24
  0
DICTIONARYVAR
  5
2CD
102
{ACAD_REACTORS
330
9B
102
}
330
9B
100
DictionaryVariables
280
     0
  1
1
  0
DICTIONARYVAR
  5
2CE
102
{ACAD_REACTORS
330
9B
102
}
330
9B
100
DictionaryVariables
280
     0
  1
15
  0
DICTIONARYVAR
  5
2CC
102
{ACAD_REACTORS
330
9B
102
}
330
9B
100
DictionaryVariables
280
     0
  1
0
  0
DICTIONARYVAR
  5
2CA
102
{ACAD_REACTORS
330
9B
102
}
330
9B
100
DictionaryVariables
280
     0
  1
0
  0
DICTIONARY
  5
2D3
330
C6
100
AcDbDictionary
280
     1
281
     1
  3
ACAD_XREC_ROUNDTRIP
360
2D4
  0
DICTIONARY
  5
2D1
330
C4
100
AcDbDictionary
280
     1
281
     1
  3
ACAD_XREC_ROUNDTRIP
360
2D2
  0
DICTIONARY
  5
2CF
330
94
100
AcDbDictionary
280
     1
281
     1
  3
ACAD_ROUNDTRIP_2008_TABLESTYLE_CELLSTYLEMAP
360
2D0
  0
XRECORD
  5
2D4
102
{ACAD_REACTORS
330
2D3
102
}
330
2D3
100
AcDbXrecord
280
     1
102
DISPLAYNAME
  1
Imperial24
102
FLAGS
 90
        0
  0
XRECORD
  5
2D2
102
{ACAD_REACTORS
330
2D1
102
}
330
2D1
100
AcDbXrecord
280
     1
102
DISPLAYNAME
  1
Imperial24
102
FLAGS
 90
        0
  0
CELLSTYLEMAP
  5
2D0
102
{ACAD_REACTORS
330
2CF
102
}
330
2CF
100
AcDbCellStyleMap
 90
        3
300
CELLSTYLE
  1
TABLEFORMAT_BEGIN
 90
        5
170
     1
 91
        0
 92
    32768
 62
   257
 93
        1
300
CONTENTFORMAT
  1
CONTENTFORMAT_BEGIN
 90
        0
 91
        0
 92
      512
 93
        0
300

 40
0.0
140
1.0
 94
        5
 62
     0
340
12
144
0.25
309
CONTENTFORMAT_END
171
     0
 94
        6
 95
        1
302
GRIDFORMAT
  1
GRIDFORMAT_BEGIN
 90
        0
 91
        1
 62
     0
 92
       -2
340
0
 93
        0
 40
0.045
309
GRIDFORMAT_END
 95
        2
302
GRIDFORMAT
  1
GRIDFORMAT_BEGIN
 90
        0
 91
        1
 62
     0
 92
       -2
340
0
 93
        0
 40
0.045
309
GRIDFORMAT_END
 95
        4
302
GRIDFORMAT
  1
GRIDFORMAT_BEGIN
 90
        0
 91
        1
 62
     0
 92
       -2
340
0
 93
        0
 40
0.045
309
GRIDFORMAT_END
 95
        8
302
GRIDFORMAT
  1
GRIDFORMAT_BEGIN
 90
        0
 91
        1
 62
     0
 92
       -2
340
0
 93
        0
 40
0.045
309
GRIDFORMAT_END
 95
       16
302
GRIDFORMAT
  1
GRIDFORMAT_BEGIN
 90
        0
 91
        1
 62
     0
 92
       -2
340
0
 93
        0
 40
0.045
309
GRIDFORMAT_END
 95
       32
302
GRIDFORMAT
  1
GRIDFORMAT_BEGIN
 90
        0
 91
        1
 62
     0
 92
       -2
340
0
 93
        0
 40
0.045
309
GRIDFORMAT_END
309
TABLEFORMAT_END
  1
CELLSTYLE_BEGIN
 90
        1
 91
        1
300
_TITLE
309
CELLSTYLE_END
300
CELLSTYLE
  1
TABLEFORMAT_BEGIN
 90
        5
170
     1
 91
        0
 92
        0
 62
   257
 93
        1
300
CONTENTFORMAT
  1
CONTENTFORMAT_BEGIN
 90
        0
 91
        0
 92
      512
 93
        0
300

 40
0.0
140
1.0
 94
        5
 62
     0
340
12
144
0.18
309
CONTENTFORMAT_END
171
     0
 94
        6
 95
        1
302
GRIDFORMAT
  1
GRIDFORMAT_BEGIN
 90
        0
 91
        1
 62
     0
 92
       -2
340
0
 93
        0
 40
0.045
309
GRIDFORMAT_END
 95
        2
302
GRIDFORMAT
  1
GRIDFORMAT_BEGIN
 90
        0
 91
        1
 62
     0
 92
       -2
340
0
 93
        0
 40
0.045
309
GRIDFORMAT_END
 95
        4
302
GRIDFORMAT
  1
GRIDFORMAT_BEGIN
 90
        0
 91
        1
 62
     0
 92
       -2
340
0
 93
        0
 40
0.045
309
GRIDFORMAT_END
 95
        8
302
GRIDFORMAT
  1
GRIDFORMAT_BEGIN
 90
        0
 91
        1
 62
     0
 92
       -2
340
0
 93
        0
 40
0.045
309
GRIDFORMAT_END
 95
       16
302
GRIDFORMAT
  1
GRIDFORMAT_BEGIN
 90
        0
 91
        1
 62
     0
 92
       -2
340
0
 93
        0
 40
0.045
309
GRIDFORMAT_END
 95
       32
302
GRIDFORMAT
  1
GRIDFORMAT_BEGIN
 90
        0
 91
        1
 62
     0
 92
       -2
340
0
 93
        0
 40
0.045
309
GRIDFORMAT_END
309
TABLEFORMAT_END
  1
CELLSTYLE_BEGIN
 90
        2
 91
        1
300
_HEADER
309
CELLSTYLE_END
300
CELLSTYLE
  1
TABLEFORMAT_BEGIN
 90
        5
170
     1
 91
        0
 92
        0
 62
   257
 93
        1
300
CONTENTFORMAT
  1
CONTENTFORMAT_BEGIN
 90
        0
 91
        0
 92
      512
 93
        0
300

 40
0.0
140
1.0
 94
        2
 62
     0
340
12
144
0.18
309
CONTENTFORMAT_END
171
     0
 94
        6
 95
        1
302
GRIDFORMAT
  1
GRIDFORMAT_BEGIN
 90
        0
 91
        1
 62
     0
 92
       -2
340
0
 93
        0
 40
0.045
309
GRIDFORMAT_END
 95
        2
302
GRIDFORMAT
  1
GRIDFORMAT_BEGIN
 90
        0
 91
        1
 62
     0
 92
       -2
340
0
 93
        0
 40
0.045
309
GRIDFORMAT_END
 95
        4
302
GRIDFORMAT
  1
GRIDFORMAT_BEGIN
 90
        0
 91
        1
 62
     0
 92
       -2
340
0
 93
        0
 40
0.045
309
GRIDFORMAT_END
 95
        8
302
GRIDFORMAT
  1
GRIDFORMAT_BEGIN
 90
        0
 91
        1
 62
     0
 92
       -2
340
0
 93
        0
 40
0.045
309
GRIDFORMAT_END
 95
       16
302
GRIDFORMAT
  1
GRIDFORMAT_BEGIN
 90
        0
 91
        1
 62
     0
 92
       -2
340
0
 93
        0
 40
0.045
309
GRIDFORMAT_END
 95
       32
302
GRIDFORMAT
  1
GRIDFORMAT_BEGIN
 90
        0
 91
        1
 62
     0
 92
       -2
340
0
 93
        0
 40
0.045
309
GRIDFORMAT_END
309
TABLEFORMAT_END
  1
CELLSTYLE_BEGIN
 90
        3
 91
        2
300
_DATA
309
CELLSTYLE_END
  0
ENDSEC
  0
EOF
