  0
SECTION
  2
HEADER
  9
$ACADVER
  1
AC1018
  9
$ACADMAINTVER
 70
     0
  9
$DWGCODEPAGE
  3
ANSI_1252
  9
$INSBASE
 10
0.0
 20
0.0
 30
0.0
  9
$EXTMIN
 10
1.000000000000000E+20
 20
1.000000000000000E+20
 30
1.000000000000000E+20
  9
$EXTMAX
 10
-1.000000000000000E+20
 20
-1.000000000000000E+20
 30
-1.000000000000000E+20
  9
$LIMMIN
 10
0.0
 20
0.0
  9
$LIMMAX
 10
12.0
 20
9.0
  9
$ORTHOMODE
 70
     0
  9
$REGENMODE
 70
     1
  9
$FILLMODE
 70
     1
  9
$QTEXTMODE
 70
     0
  9
$MIRRTEXT
 70
     1
  9
$LTSCALE
 40
1.0
  9
$ATTMODE
 70
     1
  9
$TEXTSIZE
 40
0.2
  9
$TRACEWID
 40
0.05
  9
$TEXTSTYLE
  7
Standard
  9
$CLAYER
  8
0
  9
$CELTYPE
  6
ByLayer
  9
$CECOLOR
 62
   256
  9
$CELTSCALE
 40
1.0
  9
$DISPSILH
 70
     0
  9
$DIMSCALE
 40
1.0
  9
$DIMASZ
 40
0.18
  9
$DIMEXO
 40
0.0625
  9
$DIMDLI
 40
0.38
  9
$DIMRND
 40
0.0
  9
$DIMDLE
 40
0.0
  9
$DIMEXE
 40
0.18
  9
$DIMTP
 40
0.0
  9
$DIMTM
 40
0.0
  9
$DIMTXT
 40
0.18
  9
$DIMCEN
 40
0.09
  9
$DIMTSZ
 40
0.0
  9
$DIMTOL
 70
     0
  9
$DIMLIM
 70
     0
  9
$DIMTIH
 70
     1
  9
$DIMTOH
 70
     1
  9
$DIMSE1
 70
     0
  9
$DIMSE2
 70
     0
  9
$DIMTAD
 70
     0
  9
$DIMZIN
 70
     0
  9
$DIMBLK
  1

  9
$DIMASO
 70
     1
  9
$DIMSHO
 70
     1
  9
$DIMPOST
  1

  9
$DIMAPOST
  1

  9
$DIMALT
 70
     0
  9
$DIMALTD
 70
     2
  9
$DIMALTF
 40
25.4
  9
$DIMLFAC
 40
1.0
  9
$DIMTOFL
 70
     0
  9
$DIMTVP
 40
0.0
  9
$DIMTIX
 70
     0
  9
$DIMSOXD
 70
     0
  9
$DIMSAH
 70
     0
  9
$DIMBLK1
  1

  9
$DIMBLK2
  1

  9
$DIMSTYLE
  2
Standard
  9
$DIMCLRD
 70
     0
  9
$DIMCLRE
 70
     0
  9
$DIMCLRT
 70
     0
  9
$DIMTFAC
 40
1.0
  9
$DIMGAP
 40
0.09
  9
$DIMJUST
 70
     0
  9
$DIMSD1
 70
     0
  9
$DIMSD2
 70
     0
  9
$DIMTOLJ
 70
     1
  9
$DIMTZIN
 70
     0
  9
$DIMALTZ
 70
     0
  9
$DIMALTTZ
 70
     0
  9
$DIMUPT
 70
     0
  9
$DIMDEC
 70
     4
  9
$DIMTDEC
 70
     4
  9
$DIMALTU
 70
     2
  9
$DIMALTTD
 70
     2
  9
$DIMTXSTY
  7
Standard
  9
$DIMAUNIT
 70
     0
  9
$DIMADEC
 70
     0
  9
$DIMALTRND
 40
0.0
  9
$DIMAZIN
 70
     0
  9
$DIMDSEP
 70
    46
  9
$DIMATFIT
 70
     3
  9
$DIMFRAC
 70
     0
  9
$DIMLDRBLK
  1

  9
$DIMLUNIT
 70
     2
  9
$DIMLWD
 70
    -2
  9
$DIMLWE
 70
    -2
  9
$DIMTMOVE
 70
     0
  9
$LUNITS
 70
     2
  9
$LUPREC
 70
     4
  9
$SKETCHINC
 40
0.1
  9
$FILLETRAD
 40
0.5
  9
$AUNITS
 70
     0
  9
$AUPREC
 70
     0
  9
$MENU
  1
.
  9
$ELEVATION
 40
0.0
  9
$PELEVATION
 40
0.0
  9
$THICKNESS
 40
0.0
  9
$LIMCHECK
 70
     0
  9
$CHAMFERA
 40
0.5
  9
$CHAMFERB
 40
0.5
  9
$CHAMFERC
 40
1.0
  9
$CHAMFERD
 40
0.0
  9
$SKPOLY
 70
     0
  9
$TDCREATE
 40
2456150.510598738
  9
$TDUCREATE
 40
2456150.093932072
  9
$TDUPDATE
 40
2456150.51059875
  9
$TDUUPDATE
 40
2456150.093932083
  9
$TDINDWG
 40
0.0000000116
  9
$TDUSRTIMER
 40
0.0000000116
  9
$USRTIMER
 70
     1
  9
$ANGBASE
 50
0.0
  9
$ANGDIR
 70
     0
  9
$PDMODE
 70
     0
  9
$PDSIZE
 40
0.0
  9
$PLINEWID
 40
0.0
  9
$SPLFRAME
 70
     0
  9
$SPLINETYPE
 70
     6
  9
$SPLINESEGS
 70
     8
  9
$HANDSEED
  5
68B
  9
$SURFTAB1
 70
     6
  9
$SURFTAB2
 70
     6
  9
$SURFTYPE
 70
     6
  9
$SURFU
 70
     6
  9
$SURFV
 70
     6
  9
$UCSBASE
  2

  9
$UCSNAME
  2

  9
$UCSORG
 10
0.0
 20
0.0
 30
0.0
  9
$UCSXDIR
 10
1.0
 20
0.0
 30
0.0
  9
$UCSYDIR
 10
0.0
 20
1.0
 30
0.0
  9
$UCSORTHOREF
  2

  9
$UCSORTHOVIEW
 70
     0
  9
$UCSORGTOP
 10
0.0
 20
0.0
 30
0.0
  9
$UCSORGBOTTOM
 10
0.0
 20
0.0
 30
0.0
  9
$UCSORGLEFT
 10
0.0
 20
0.0
 30
0.0
  9
$UCSORGRIGHT
 10
0.0
 20
0.0
 30
0.0
  9
$UCSORGFRONT
 10
0.0
 20
0.0
 30
0.0
  9
$UCSORGBACK
 10
0.0
 20
0.0
 30
0.0
  9
$PUCSBASE
  2

  9
$PUCSNAME
  2

  9
$PUCSORG
 10
0.0
 20
0.0
 30
0.0
  9
$PUCSXDIR
 10
1.0
 20
0.0
 30
0.0
  9
$PUCSYDIR
 10
0.0
 20
1.0
 30
0.0
  9
$PUCSORTHOREF
  2

  9
$PUCSORTHOVIEW
 70
     0
  9
$PUCSORGTOP
 10
0.0
 20
0.0
 30
0.0
  9
$PUCSORGBOTTOM
 10
0.0
 20
0.0
 30
0.0
  9
$PUCSORGLEFT
 10
0.0
 20
0.0
 30
0.0
  9
$PUCSORGRIGHT
 10
0.0
 20
0.0
 30
0.0
  9
$PUCSORGFRONT
 10
0.0
 20
0.0
 30
0.0
  9
$PUCSORGBACK
 10
0.0
 20
0.0
 30
0.0
  9
$USERI1
 70
     0
  9
$USERI2
 70
     0
  9
$USERI3
 70
     0
  9
$USERI4
 70
     0
  9
$USERI5
 70
     0
  9
$USERR1
 40
0.0
  9
$USERR2
 40
0.0
  9
$USERR3
 40
0.0
  9
$USERR4
 40
0.0
  9
$USERR5
 40
0.0
  9
$WORLDVIEW
 70
     1
  9
$SHADEDGE
 70
     3
  9
$SHADEDIF
 70
    70
  9
$TILEMODE
 70
     1
  9
$MAXACTVP
 70
    64
  9
$PINSBASE
 10
0.0
 20
0.0
 30
0.0
  9
$PLIMCHECK
 70
     0
  9
$PEXTMIN
 10
1.000000000000000E+20
 20
1.000000000000000E+20
 30
1.000000000000000E+20
  9
$PEXTMAX
 10
-1.000000000000000E+20
 20
-1.000000000000000E+20
 30
-1.000000000000000E+20
  9
$PLIMMIN
 10
0.0
 20
0.0
  9
$PLIMMAX
 10
12.0
 20
9.0
  9
$UNITMODE
 70
     0
  9
$VISRETAIN
 70
     1
  9
$PLINEGEN
 70
     0
  9
$PSLTSCALE
 70
     1
  9
$TREEDEPTH
 70
  3020
  9
$CMLSTYLE
  2
Standard
  9
$CMLJUST
 70
     0
  9
$CMLSCALE
 40
1.0
  9
$PROXYGRAPHICS
 70
     1
  9
$MEASUREMENT
 70
     0
  9
$CELWEIGHT
370
    -1
  9
$ENDCAPS
280
     0
  9
$JOINSTYLE
280
     0
  9
$LWDISPLAY
290
     1
  9
$INSUNITS
 70
     1
  9
$HYPERLINKBASE
  1

  9
$STYLESHEET
  1

  9
$XEDIT
290
     1
  9
$CEPSNTYPE
380
     0
  9
$PSTYLEMODE
290
     1
  9
$FINGERPRINTGUID
  2
{4BFC3AD1-F65E-4C7C-B286-D6FA0A16A335}
  9
$VERSIONGUID
  2
{FAEB1C32-E019-11D5-929B-00C0DF256EC4}
  9
$EXTNAMES
290
     1
  9
$PSVPSCALE
 40
0.0
  9
$OLESTARTUP
290
     0
  9
$SORTENTS
280
   127
  9
$INDEXCTL
280
     0
  9
$HIDETEXT
280
     1
  9
$XCLIPFRAME
290
     0
  9
$HALOGAP
280
     0
  9
$OBSCOLOR
 70
   257
  9
$OBSLTYPE
280
     0
  9
$INTERSECTIONDISPLAY
280
     0
  9
$INTERSECTIONCOLOR
 70
   257
  9
$DIMASSOC
280
     2
  9
$PROJECTNAME
  1

  0
ENDSEC
  0
SECTION
  2
CLASSES
  0
CLASS
  1
ACDBDICTIONARYWDFLT
  2
AcDbDictionaryWithDefault
  3
ObjectDBX Classes
 90
        0
 91
        3
280
     0
281
     0
  0
CLASS
  1
VISUALSTYLE
  2
AcDbVisualStyle
  3
ObjectDBX Classes
 90
     4095
 91
        3
280
     0
281
     0
  0
ENDSEC
  0
SECTION
  2
TABLES
  0
TABLE
  2
VPORT
  5
8
330
0
100
AcDbSymbolTable
 70
     1
  0
VPORT
  5
29
330
8
100
AcDbSymbolTableRecord
100
AcDbViewportTableRecord
  2
*Active
 70
     0
 10
0.0
 20
0.0
 11
1.0
 21
1.0
 12
0.0
 22
0.0
 13
0.0
 23
0.0
 14
0.5
 24
0.5
 15
0.5
 25
0.5
 16
0.0
 26
0.0
 36
1.0
 17
148.5194444073146
 27
104.951388862651
 37
0.0
 40
209.9027777253021
 41
1.415126050420168
 42
50.0
 43
0.0
 44
0.0
 50
0.0
 51
0.0
 71
     0
 72
   100
 73
     1
 74
     3
 75
     0
 76
     0
 77
     0
 78
     0
281
     0
 65
     1
110
0.0
120
0.0
130
0.0
111
1.0
121
0.0
131
0.0
112
0.0
122
1.0
132
0.0
 79
     0
146
0.0
  0
ENDTAB
  0
TABLE
  2
LTYPE
  5
5
330
0
100
AcDbSymbolTable
 70
     5
  0
LTYPE
  5
14
330
5
100
AcDbSymbolTableRecord
100
AcDbLinetypeTableRecord
  2
ByBlock
 70
     0
  3

 72
    65
 73
     0
 40
0.0
  0
LTYPE
  5
15
330
5
100
AcDbSymbolTableRecord
100
AcDbLinetypeTableRecord
  2
ByLayer
 70
     0
  3

 72
    65
 73
     0
 40
0.0
  0
LTYPE
  5
16
330
5
100
AcDbSymbolTableRecord
100
AcDbLinetypeTableRecord
  2
Continuous
 70
     0
  3
Solid line
 72
    65
 73
     0
 40
0.0
  0
LTYPE
  5
26F
330
5
100
AcDbSymbolTableRecord
100
AcDbLinetypeTableRecord
  2
AI-Linetype-1
 70
     0
  3
Adobe Illustrator Linetype No. 1
 72
    65
 73
     4
 40
20.3200002977116
 49
12.699999996825
 74
     0
 49
-2.540000100295532
 74
     0
 49
2.540000100295532
 74
     0
 49
-2.540000100295532
 74
     0
  0
LTYPE
  5
274
330
5
100
AcDbSymbolTableRecord
100
AcDbLinetypeTableRecord
  2
AI-Linetype-2
 70
     0
  3
Adobe Illustrator Linetype No. 2
 72
    65
 73
     4
 40
20.3200002977116
 49
12.699999996825
 74
     0
 49
-2.540000100295532
 74
     0
 49
2.540000100295532
 74
     0
 49
-2.540000100295532
 74
     0
  0
LTYPE
  5
279
330
5
100
AcDbSymbolTableRecord
100
AcDbLinetypeTableRecord
  2
AI-Linetype-3
 70
     0
  3
Adobe Illustrator Linetype No. 3
 72
    65
 73
     4
 40
20.3200002977116
 49
12.699999996825
 74
     0
 49
-2.540000100295532
 74
     0
 49
2.540000100295532
 74
     0
 49
-2.540000100295532
 74
     0
  0
LTYPE
  5
286
330
5
100
AcDbSymbolTableRecord
100
AcDbLinetypeTableRecord
  2
AI-Linetype-4
 70
     0
  3
Adobe Illustrator Linetype No. 4
 72
    65
 73
     4
 40
20.3200002977116
 49
12.699999996825
 74
     0
 49
-2.540000100295532
 74
     0
 49
2.540000100295532
 74
     0
 49
-2.540000100295532
 74
     0
  0
ENDTAB
  0
TABLE
  2
LAYER
  5
2
330
0
100
AcDbSymbolTable
 70
     2
  0
LAYER
  5
10
330
2
100
AcDbSymbolTableRecord
100
AcDbLayerTableRecord
  2
0
 70
     0
 62
     7
  6
Continuous
370
    -3
390
F
  0
LAYER
  5
3B
330
2
100
AcDbSymbolTableRecord
100
AcDbLayerTableRecord
  2
Layer 1
 70
     0
 62
     7
  6
Continuous
370
    -3
390
F
  0
ENDTAB
  0
TABLE
  2
STYLE
  5
3
330
0
100
AcDbSymbolTable
 70
     1
  0
STYLE
  5
11
330
3
100
AcDbSymbolTableRecord
100
AcDbTextStyleTableRecord
  2
Standard
 70
     0
 40
0.0
 41
1.0
 50
0.0
 71
     0
 42
0.2
  3
txt
  4

  0
ENDTAB
  0
TABLE
  2
VIEW
  5
6
330
0
100
AcDbSymbolTable
 70
     0
  0
ENDTAB
  0
TABLE
  2
UCS
  5
7
330
0
100
AcDbSymbolTable
 70
     0
  0
ENDTAB
  0
TABLE
  2
APPID
  5
9
330
0
100
AcDbSymbolTable
 70
     1
  0
APPID
  5
12
330
9
100
AcDbSymbolTableRecord
100
AcDbRegAppTableRecord
  2
ACAD
 70
     0
  0
ENDTAB
  0
TABLE
  2
DIMSTYLE
  5
A
330
0
100
AcDbSymbolTable
 70
     1
100
AcDbDimStyleTable
  0
DIMSTYLE
105
27
330
A
100
AcDbSymbolTableRecord
100
AcDbDimStyleTableRecord
  2
Standard
 70
     0
340
11
  0
ENDTAB
  0
TABLE
  2
BLOCK_RECORD
  5
1
330
0
100
AcDbSymbolTable
 70
     3
  0
BLOCK_RECORD
  5
1F
330
1
100
AcDbSymbolTableRecord
100
AcDbBlockTableRecord
  2
*Model_Space
340
22
  0
BLOCK_RECORD
  5
1B
330
1
100
AcDbSymbolTableRecord
100
AcDbBlockTableRecord
  2
*Paper_Space
340
1E
  0
BLOCK_RECORD
  5
23
330
1
100
AcDbSymbolTableRecord
100
AcDbBlockTableRecord
  2
*Paper_Space0
340
26
  0
BLOCK_RECORD
  5
3C
330
1
100
AcDbSymbolTableRecord
100
AcDbBlockTableRecord
  2
block 2
340
0
102
{BLKREFS
331
3D
102
}
  0
BLOCK_RECORD
  5
44
330
1
100
AcDbSymbolTableRecord
100
AcDbBlockTableRecord
  2
block 3
340
0
102
{BLKREFS
331
45
102
}
  0
ENDTAB
  0
ENDSEC
  0
SECTION
  2
BLOCKS
  0
BLOCK
  5
20
330
1F
100
AcDbEntity
  8
0
100
AcDbBlockBegin
  2
*Model_Space
 70
     0
 71
     0
 10
0.0
 20
0.0
 30
0.0
  3
*Model_Space
  1

  0
ENDBLK
  5
21
330
1F
100
AcDbEntity
  8
0
100
AcDbBlockEnd
  0
BLOCK
  5
1C
330
1B
100
AcDbEntity
 67
     1
  8
0
100
AcDbBlockBegin
  2
*Paper_Space
 70
     0
 71
     0
 10
0.0
 20
0.0
 30
0.0
  3
*Paper_Space
  1

  0
ENDBLK
  5
1D
330
1B
100
AcDbEntity
 67
     1
  8
0
100
AcDbBlockEnd
  0
BLOCK
  5
24
330
23
100
AcDbEntity
  8
0
100
AcDbBlockBegin
  2
*Paper_Space0
 70
     0
 71
     0
 10
0.0
 20
0.0
 30
0.0
  3
*Paper_Space0
  1

  0
ENDBLK
  5
25
330
23
100
AcDbEntity
  8
0
100
AcDbBlockEnd
  0
BLOCK
  5
3E
330
3C
100
AcDbEntity
  8
0
100
AcDbBlockBegin
  2
block 2
 70
     0
 71
     0
 10
0.0
 20
0.0
 30
0.0
  3
block 2
  1

  0
POLYLINE
  5
40
330
3C
100
AcDbEntity
  8
Layer 1
 62
     7
420
 16777215
370
    18
100
AcDb2dPolyline
 66
     1
 10
0.0
 20
0.0
 30
0.0
  0
VERTEX
  5
41
330
40
100
AcDbEntity
  8
Layer 1
 62
     7
420
 16777215
370
    18
100
AcDbVertex
100
AcDb2dVertex
 10
190.3373914454712
 20
56.48854165254453
 30
0.0
  0
VERTEX
  5
42
330
40
100
AcDbEntity
  8
Layer 1
 62
     7
420
 16777215
370
    18
100
AcDbVertex
100
AcDb2dVertex
 10
189.2266926610267
 20
56.48854165254453
 30
0.0
  0
SEQEND
  5
43
330
40
100
AcDbEntity
  8
Layer 1
370
    18
  0
ENDBLK
  5
3F
330
3C
100
AcDbEntity
  8
0
100
AcDbBlockEnd
  0
BLOCK
  5
46
330
44
100
AcDbEntity
  8
0
100
AcDbBlockBegin
  2
block 3
 70
     0
 71
     0
 10
0.0
 20
0.0
 30
0.0
  3
block 3
  1

  0
POLYLINE
  5
48
330
44
100
AcDbEntity
  8
Layer 1
370
     0
100
AcDb2dPolyline
 66
     1
 10
0.0
 20
0.0
 30
0.0
  0
VERTEX
  5
49
330
48
100
AcDbEntity
  8
Layer 1
370
     0
100
AcDbVertex
100
AcDb2dVertex
 10
37.0409776383092
 20
59.86542424718643
 30
0.0
  0
VERTEX
  5
4A
330
48
100
AcDbEntity
  8
Layer 1
370
     0
100
AcDbVertex
100
AcDb2dVertex
 10
11.99013807208927
 20
59.86542424718643
 30
0.0
  0
VERTEX
  5
4B
330
48
100
AcDbEntity
  8
Layer 1
370
     0
100
AcDbVertex
100
AcDb2dVertex
 10
11.99013807208927
 20
64.37333168963583
 30
0.0
  0
VERTEX
  5
4C
330
48
100
AcDbEntity
  8
Layer 1
370
     0
100
AcDbVertex
100
AcDb2dVertex
 10
37.0409776383092
 20
64.37333168963583
 30
0.0
  0
VERTEX
  5
4D
330
48
100
AcDbEntity
  8
Layer 1
370
     0
100
AcDbVertex
100
AcDb2dVertex
 10
37.0409776383092
 20
59.86542424718643
 30
0.0
  0
SEQEND
  5
4E
330
48
100
AcDbEntity
  8
Layer 1
370
     0
  0
HATCH
  5
4F
330
44
100
AcDbEntity
  8
Layer 1
 62
   254
420
 15066597
100
AcDbHatch
 10
0.0
 20
0.0
 30
0.0
210
0.0
220
0.0
230
1.0
  2
SOLID
 70
     1
 71
     0
 91
        1
 92
        1
 93
        4
 72
     1
 10
37.0409776383092
 20
59.86542424718643
 11
11.99013807208927
 21
59.86542424718643
 72
     1
 10
11.99013807208927
 20
59.86542424718643
 11
11.99013807208927
 21
64.37333168963583
 72
     1
 10
11.99013807208927
 20
64.37333168963583
 11
37.0409776383092
 21
64.37333168963583
 72
     1
 10
37.0409776383092
 20
64.37333168963583
 11
37.0409776383092
 21
59.86542424718643
 97
        0
 75
     2
 76
     1
 98
        0
  0
POLYLINE
  5
50
330
44
100
AcDbEntity
  8
Layer 1
370
     0
100
AcDb2dPolyline
 66
     1
 10
0.0
 20
0.0
 30
0.0
  0
VERTEX
  5
51
330
50
100
AcDbEntity
  8
Layer 1
370
     0
100
AcDbVertex
100
AcDb2dVertex
 10
83.04178735988192
 20
59.86542424718643
 30
0.0
  0
VERTEX
  5
52
330
50
100
AcDbEntity
  8
Layer 1
370
     0
100
AcDbVertex
100
AcDb2dVertex
 10
52.21248913625244
 20
59.86542424718643
 30
0.0
  0
VERTEX
  5
53
330
50
100
AcDbEntity
  8
Layer 1
370
     0
100
AcDbVertex
100
AcDb2dVertex
 10
52.21248913625244
 20
64.37333168963583
 30
0.0
  0
VERTEX
  5
54
330
50
100
AcDbEntity
  8
Layer 1
370
     0
100
AcDbVertex
100
AcDb2dVertex
 10
83.04178735988192
 20
64.37333168963583
 30
0.0
  0
VERTEX
  5
55
330
50
100
AcDbEntity
  8
Layer 1
370
     0
100
AcDbVertex
100
AcDb2dVertex
 10
83.04178735988192
 20
59.86542424718643
 30
0.0
  0
SEQEND
  5
56
330
50
100
AcDbEntity
  8
Layer 1
370
     0
  0
HATCH
  5
57
330
44
100
AcDbEntity
  8
Layer 1
 62
   254
420
 15066597
100
AcDbHatch
 10
0.0
 20
0.0
 30
0.0
210
0.0
220
0.0
230
1.0
  2
SOLID
 70
     1
 71
     0
 91
        1
 92
        1
 93
        4
 72
     1
 10
83.04178735988192
 20
59.86542424718643
 11
52.21248913625244
 21
59.86542424718643
 72
     1
 10
52.21248913625244
 20
59.86542424718643
 11
52.21248913625244
 21
64.37333168963583
 72
     1
 10
52.21248913625244
 20
64.37333168963583
 11
83.04178735988192
 21
64.37333168963583
 72
     1
 10
83.04178735988192
 20
64.37333168963583
 11
83.04178735988192
 21
59.86542424718643
 97
        0
 75
     2
 76
     1
 98
        0
  0
POLYLINE
  5
58
330
44
100
AcDbEntity
  8
Layer 1
370
     0
100
AcDb2dPolyline
 66
     1
 10
0.0
 20
0.0
 30
0.0
  0
VERTEX
  5
59
330
58
100
AcDbEntity
  8
Layer 1
370
     0
100
AcDbVertex
100
AcDb2dVertex
 10
160.2999484191264
 20
59.86542424718643
 30
0.0
  0
VERTEX
  5
5A
330
58
100
AcDbEntity
  8
Layer 1
370
     0
100
AcDbVertex
100
AcDb2dVertex
 10
144.5439764721105
 20
59.86542424718643
 30
0.0
  0
VERTEX
  5
5B
330
58
100
AcDbEntity
  8
Layer 1
370
     0
100
AcDbVertex
100
AcDb2dVertex
 10
144.5439764721105
 20
64.37333168963583
 30
0.0
  0
VERTEX
  5
5C
330
58
100
AcDbEntity
  8
Layer 1
370
     0
100
AcDbVertex
100
AcDb2dVertex
 10
160.2999484191264
 20
64.37333168963583
 30
0.0
  0
VERTEX
  5
5D
330
58
100
AcDbEntity
  8
Layer 1
370
     0
100
AcDbVertex
100
AcDb2dVertex
 10
160.2999484191264
 20
59.86542424718643
 30
0.0
  0
SEQEND
  5
5E
330
58
100
AcDbEntity
  8
Layer 1
370
     0
  0
HATCH
  5
5F
330
44
100
AcDbEntity
  8
Layer 1
 62
   254
420
 15066597
100
AcDbHatch
 10
0.0
 20
0.0
 30
0.0
210
0.0
220
0.0
230
1.0
  2
SOLID
 70
     1
 71
     0
 91
        1
 92
        1
 93
        4
 72
     1
 10
160.2999484191264
 20
59.86542424718643
 11
144.5439764721105
 21
59.86542424718643
 72
     1
 10
144.5439764721105
 20
59.86542424718643
 11
144.5439764721105
 21
64.37333168963583
 72
     1
 10
144.5439764721105
 20
64.37333168963583
 11
160.2999484191264
 21
64.37333168963583
 72
     1
 10
160.2999484191264
 20
64.37333168963583
 11
160.2999484191264
 21
59.86542424718643
 97
        0
 75
     2
 76
     1
 98
        0
  0
POLYLINE
  5
60
330
44
100
AcDbEntity
  8
Layer 1
370
     0
100
AcDb2dPolyline
 66
     1
 10
0.0
 20
0.0
 30
0.0
  0
VERTEX
  5
61
330
60
100
AcDbEntity
  8
Layer 1
370
     0
100
AcDbVertex
100
AcDb2dVertex
 10
206.3446831081361
 20
59.86542424718643
 30
0.0
  0
VERTEX
  5
62
330
60
100
AcDbEntity
  8
Layer 1
370
     0
100
AcDbVertex
100
AcDb2dVertex
 10
175.1627793615912
 20
59.86542424718643
 30
0.0
  0
VERTEX
  5
63
330
60
100
AcDbEntity
  8
Layer 1
370
     0
100
AcDbVertex
100
AcDb2dVertex
 10
175.1627793615912
 20
64.37333168963583
 30
0.0
  0
VERTEX
  5
64
330
60
100
AcDbEntity
  8
Layer 1
370
     0
100
AcDbVertex
100
AcDb2dVertex
 10
206.3446831081361
 20
64.37333168963583
 30
0.0
  0
VERTEX
  5
65
330
60
100
AcDbEntity
  8
Layer 1
370
     0
100
AcDbVertex
100
AcDb2dVertex
 10
206.3446831081361
 20
59.86542424718643
 30
0.0
  0
SEQEND
  5
66
330
60
100
AcDbEntity
  8
Layer 1
370
     0
  0
HATCH
  5
67
330
44
100
AcDbEntity
  8
Layer 1
 62
   254
420
 15066597
100
AcDbHatch
 10
0.0
 20
0.0
 30
0.0
210
0.0
220
0.0
230
1.0
  2
SOLID
 70
     1
 71
     0
 91
        1
 92
        1
 93
        4
 72
     1
 10
206.3446831081361
 20
59.86542424718643
 11
175.1627793615912
 21
59.86542424718643
 72
     1
 10
175.1627793615912
 20
59.86542424718643
 11
175.1627793615912
 21
64.37333168963583
 72
     1
 10
175.1627793615912
 20
64.37333168963583
 11
206.3446831081361
 21
64.37333168963583
 72
     1
 10
206.3446831081361
 20
64.37333168963583
 11
206.3446831081361
 21
59.86542424718643
 97
        0
 75
     2
 76
     1
 98
        0
  0
POLYLINE
  5
68
330
44
100
AcDbEntity
  8
Layer 1
370
     0
100
AcDb2dPolyline
 66
     1
 10
0.0
 20
0.0
 30
0.0
  0
VERTEX
  5
69
330
68
100
AcDbEntity
  8
Layer 1
370
     0
100
AcDbVertex
100
AcDb2dVertex
 10
254.0713134130447
 20
59.86542424718643
 30
0.0
  0
VERTEX
  5
6A
330
68
100
AcDbEntity
  8
Layer 1
370
     0
100
AcDbVertex
100
AcDb2dVertex
 10
222.8894096664999
 20
59.86542424718643
 30
0.0
  0
VERTEX
  5
6B
330
68
100
AcDbEntity
  8
Layer 1
370
     0
100
AcDbVertex
100
AcDb2dVertex
 10
222.8894096664999
 20
64.37333168963583
 30
0.0
  0
VERTEX
  5
6C
330
68
100
AcDbEntity
  8
Layer 1
370
     0
100
AcDbVertex
100
AcDb2dVertex
 10
254.0713134130447
 20
64.37333168963583
 30
0.0
  0
VERTEX
  5
6D
330
68
100
AcDbEntity
  8
Layer 1
370
     0
100
AcDbVertex
100
AcDb2dVertex
 10
254.0713134130447
 20
59.86542424718643
 30
0.0
  0
SEQEND
  5
6E
330
68
100
AcDbEntity
  8
Layer 1
370
     0
  0
HATCH
  5
6F
330
44
100
AcDbEntity
  8
Layer 1
 62
   254
420
 15066597
100
AcDbHatch
 10
0.0
 20
0.0
 30
0.0
210
0.0
220
0.0
230
1.0
  2
SOLID
 70
     1
 71
     0
 91
        1
 92
        1
 93
        4
 72
     1
 10
254.0713134130447
 20
59.86542424718643
 11
222.8894096664999
 21
59.86542424718643
 72
     1
 10
222.8894096664999
 20
59.86542424718643
 11
222.8894096664999
 21
64.37333168963583
 72
     1
 10
222.8894096664999
 20
64.37333168963583
 11
254.0713134130447
 21
64.37333168963583
 72
     1
 10
254.0713134130447
 20
64.37333168963583
 11
254.0713134130447
 21
59.86542424718643
 97
        0
 75
     2
 76
     1
 98
        0
  0
POLYLINE
  5
70
330
44
100
AcDbEntity
  8
Layer 1
370
     0
100
AcDb2dPolyline
 66
     1
 10
0.0
 20
0.0
 30
0.0
  0
VERTEX
  5
71
330
70
100
AcDbEntity
  8
Layer 1
370
     0
100
AcDbVertex
100
AcDb2dVertex
 10
276.7410752346342
 20
59.86542424718643
 30
0.0
  0
VERTEX
  5
72
330
70
100
AcDbEntity
  8
Layer 1
370
     0
100
AcDbVertex
100
AcDb2dVertex
 10
269.2872666427476
 20
59.86542424718643
 30
0.0
  0
VERTEX
  5
73
330
70
100
AcDbEntity
  8
Layer 1
370
     0
100
AcDbVertex
100
AcDb2dVertex
 10
269.2872666427476
 20
64.37333168963583
 30
0.0
  0
VERTEX
  5
74
330
70
100
AcDbEntity
  8
Layer 1
370
     0
100
AcDbVertex
100
AcDb2dVertex
 10
276.7410752346342
 20
64.37333168963583
 30
0.0
  0
VERTEX
  5
75
330
70
100
AcDbEntity
  8
Layer 1
370
     0
100
AcDbVertex
100
AcDb2dVertex
 10
276.7410752346342
 20
59.86542424718643
 30
0.0
  0
SEQEND
  5
76
330
70
100
AcDbEntity
  8
Layer 1
370
     0
  0
HATCH
  5
77
330
44
100
AcDbEntity
  8
Layer 1
 62
   254
420
 15066597
100
AcDbHatch
 10
0.0
 20
0.0
 30
0.0
210
0.0
220
0.0
230
1.0
  2
SOLID
 70
     1
 71
     0
 91
        1
 92
        1
 93
        4
 72
     1
 10
276.7410752346342
 20
59.86542424718643
 11
269.2872666427476
 21
59.86542424718643
 72
     1
 10
269.2872666427476
 20
59.86542424718643
 11
269.2872666427476
 21
64.37333168963583
 72
     1
 10
269.2872666427476
 20
64.37333168963583
 11
276.7410752346342
 21
64.37333168963583
 72
     1
 10
276.7410752346342
 20
64.37333168963583
 11
276.7410752346342
 21
59.86542424718643
 97
        0
 75
     2
 76
     1
 98
        0
  0
POLYLINE
  5
78
330
44
100
AcDbEntity
  8
Layer 1
370
     0
100
AcDb2dPolyline
 66
     1
 10
0.0
 20
0.0
 30
0.0
  0
VERTEX
  5
79
330
78
100
AcDbEntity
  8
Layer 1
370
     0
100
AcDbVertex
100
AcDb2dVertex
 10
143.5802110101119
 20
64.33130152471578
 30
0.0
  0
VERTEX
  5
7A
330
78
100
AcDbEntity
  8
Layer 1
370
     0
100
AcDbVertex
100
AcDb2dVertex
 10
277.9888888193917
 20
64.33130152471578
 30
0.0
  0
SEQEND
  5
7B
330
78
100
AcDbEntity
  8
Layer 1
370
     0
  0
POLYLINE
  5
7C
330
44
100
AcDbEntity
  8
Layer 1
 62
     7
420
 16777215
370
    53
100
AcDb2dPolyline
 66
     1
 10
0.0
 20
0.0
 30
0.0
  0
VERTEX
  5
7D
330
7C
100
AcDbEntity
  8
Layer 1
 62
     7
420
 16777215
370
    53
100
AcDbVertex
100
AcDb2dVertex
 10
143.5802110101119
 20
64.33130152471578
 30
0.0
  0
VERTEX
  5
7E
330
7C
100
AcDbEntity
  8
Layer 1
 62
     7
420
 16777215
370
    53
100
AcDbVertex
100
AcDb2dVertex
 10
277.9888888193917
 20
64.33130152471578
 30
0.0
  0
SEQEND
  5
7F
330
7C
100
AcDbEntity
  8
Layer 1
370
    53
  0
POLYLINE
  5
80
330
44
100
AcDbEntity
  8
Layer 1
370
     0
100
AcDb2dPolyline
 66
     1
 10
0.0
 20
0.0
 30
0.0
  0
VERTEX
  5
81
330
80
100
AcDbEntity
  8
Layer 1
370
     0
100
AcDbVertex
100
AcDb2dVertex
 10
11.28888888606667
 20
64.33130152471578
 30
0.0
  0
VERTEX
  5
82
330
80
100
AcDbEntity
  8
Layer 1
370
     0
100
AcDbVertex
100
AcDb2dVertex
 10
83.96111109012084
 20
64.33130152471578
 30
0.0
  0
SEQEND
  5
83
330
80
100
AcDbEntity
  8
Layer 1
370
     0
  0
POLYLINE
  5
84
330
44
100
AcDbEntity
  8
Layer 1
 62
     7
420
 16777215
370
    53
100
AcDb2dPolyline
 66
     1
 10
0.0
 20
0.0
 30
0.0
  0
VERTEX
  5
85
330
84
100
AcDbEntity
  8
Layer 1
 62
     7
420
 16777215
370
    53
100
AcDbVertex
100
AcDb2dVertex
 10
11.28888888606667
 20
64.33130152471578
 30
0.0
  0
VERTEX
  5
86
330
84
100
AcDbEntity
  8
Layer 1
 62
     7
420
 16777215
370
    53
100
AcDbVertex
100
AcDb2dVertex
 10
83.96111109012084
 20
64.33130152471578
 30
0.0
  0
SEQEND
  5
87
330
84
100
AcDbEntity
  8
Layer 1
370
    53
  0
POLYLINE
  5
88
330
44
100
AcDbEntity
  8
Layer 1
370
     0
100
AcDb2dPolyline
 66
     1
 10
0.0
 20
0.0
 30
0.0
  0
VERTEX
  5
89
330
88
100
AcDbEntity
  8
Layer 1
370
     0
100
AcDbVertex
100
AcDb2dVertex
 10
143.5805555196604
 20
59.74519041475121
 30
0.0
  0
VERTEX
  5
8A
330
88
100
AcDbEntity
  8
Layer 1
370
     0
100
AcDbVertex
100
AcDb2dVertex
 10
277.9888888193917
 20
59.74519041475121
 30
0.0
  0
SEQEND
  5
8B
330
88
100
AcDbEntity
  8
Layer 1
370
     0
  0
POLYLINE
  5
8C
330
44
100
AcDbEntity
  8
Layer 1
 62
     7
420
 16777215
370
    53
100
AcDb2dPolyline
 66
     1
 10
0.0
 20
0.0
 30
0.0
  0
VERTEX
  5
8D
330
8C
100
AcDbEntity
  8
Layer 1
 62
     7
420
 16777215
370
    53
100
AcDbVertex
100
AcDb2dVertex
 10
143.5805555196604
 20
59.74519041475121
 30
0.0
  0
VERTEX
  5
8E
330
8C
100
AcDbEntity
  8
Layer 1
 62
     7
420
 16777215
370
    53
100
AcDbVertex
100
AcDb2dVertex
 10
277.9888888193917
 20
59.74519041475121
 30
0.0
  0
SEQEND
  5
8F
330
8C
100
AcDbEntity
  8
Layer 1
370
    53
  0
POLYLINE
  5
90
330
44
100
AcDbEntity
  8
Layer 1
370
     0
100
AcDb2dPolyline
 66
     1
 10
0.0
 20
0.0
 30
0.0
  0
VERTEX
  5
91
330
90
100
AcDbEntity
  8
Layer 1
370
     0
100
AcDbVertex
100
AcDb2dVertex
 10
11.28888888606667
 20
59.74519041475121
 30
0.0
  0
VERTEX
  5
92
330
90
100
AcDbEntity
  8
Layer 1
370
     0
100
AcDbVertex
100
AcDb2dVertex
 10
83.96111109012084
 20
59.74519041475121
 30
0.0
  0
SEQEND
  5
93
330
90
100
AcDbEntity
  8
Layer 1
370
     0
  0
POLYLINE
  5
94
330
44
100
AcDbEntity
  8
Layer 1
 62
     7
420
 16777215
370
    53
100
AcDb2dPolyline
 66
     1
 10
0.0
 20
0.0
 30
0.0
  0
VERTEX
  5
95
330
94
100
AcDbEntity
  8
Layer 1
 62
     7
420
 16777215
370
    53
100
AcDbVertex
100
AcDb2dVertex
 10
11.28888888606667
 20
59.74519041475121
 30
0.0
  0
VERTEX
  5
96
330
94
100
AcDbEntity
  8
Layer 1
 62
     7
420
 16777215
370
    53
100
AcDbVertex
100
AcDb2dVertex
 10
83.96111109012084
 20
59.74519041475121
 30
0.0
  0
SEQEND
  5
97
330
94
100
AcDbEntity
  8
Layer 1
370
    53
  0
MTEXT
  5
98
330
44
100
AcDbEntity
  8
Layer 1
 62
     7
420
 16777215
100
AcDbMText
 10
12.67553981887973
 20
131.6229735999068
 30
0.0
 40
2.973614601027633
 41
0.0
 71
     7
 72
     1
  1
\fArial|b0|i0|c0|p34;\W1;297
 11
-4.371139000186241E-8
 21
0.999999999999999
 31
0.0
 73
     1
 44
1.0
  0
POLYLINE
  5
99
330
44
100
AcDbEntity
  8
Layer 1
 62
     7
420
 16777215
370
    18
100
AcDb2dPolyline
 66
     1
 10
0.0
 20
0.0
 30
0.0
  0
VERTEX
  5
9A
330
99
100
AcDbEntity
  8
Layer 1
 62
     7
420
 16777215
370
    18
100
AcDbVertex
100
AcDb2dVertex
 10
14.10801052164661
 20
204.9058389787215
 30
0.0
  0
VERTEX
  5
9B
330
99
100
AcDbEntity
  8
Layer 1
 62
     7
420
 16777215
370
    18
100
AcDbVertex
100
AcDb2dVertex
 10
14.10801052164661
 20
64.90628796120399
 30
0.0
  0
SEQEND
  5
9C
330
99
100
AcDbEntity
  8
Layer 1
370
    18
  0
POLYLINE
  5
9D
330
44
100
AcDbEntity
  8
Layer 1
 62
     7
420
 16777215
370
    18
100
AcDb2dPolyline
 66
     1
 10
0.0
 20
0.0
 30
0.0
  0
VERTEX
  5
9E
330
9D
100
AcDbEntity
  8
Layer 1
 62
     7
420
 16777215
370
    18
100
AcDbVertex
100
AcDb2dVertex
 10
78.08067760634789
 20
204.9058389787215
 30
0.0
  0
VERTEX
  5
9F
330
9D
100
AcDbEntity
  8
Layer 1
 62
     7
420
 16777215
370
    18
100
AcDbVertex
100
AcDb2dVertex
 10
12.1126112165899
 20
204.9058389787215
 30
0.0
  0
SEQEND
  5
A0
330
9D
100
AcDbEntity
  8
Layer 1
370
    18
  0
POLYLINE
  5
A1
330
44
100
AcDbEntity
  8
Layer 1
 62
     7
420
 16777215
370
    18
100
AcDb2dPolyline
 66
     1
 10
0.0
 20
0.0
 30
0.0
  0
VERTEX
  5
A2
330
A1
100
AcDbEntity
  8
Layer 1
 62
     7
420
 16777215
370
    18
100
AcDbVertex
100
AcDb2dVertex
 10
14.10801052164661
 20
64.90628796120399
 30
0.0
  0
VERTEX
  5
A3
330
A1
100
AcDbEntity
  8
Layer 1
 62
     7
420
 16777215
370
    18
100
AcDbVertex
100
AcDb2dVertex
 10
14.10801052164661
 20
68.23907333363468
 30
0.0
  0
SEQEND
  5
A4
330
A1
100
AcDbEntity
  8
Layer 1
370
    18
  0
POLYLINE
  5
A5
330
44
100
AcDbEntity
  8
Layer 1
 62
     7
420
 16777215
370
    18
100
AcDb2dPolyline
 66
     1
 10
0.0
 20
0.0
 30
0.0
  0
VERTEX
  5
A6
330
A5
100
AcDbEntity
  8
Layer 1
 62
     7
420
 16777215
370
    18
100
AcDbVertex
100
AcDb2dVertex
 10
14.66353216864315
 20
68.23907333363468
 30
0.0
  0
VERTEX
  5
A7
330
A5
100
AcDbEntity
  8
Layer 1
 62
     7
420
 16777215
370
    18
100
AcDbVertex
100
AcDb2dVertex
 10
13.55300563897286
 20
68.23907333363468
 30
0.0
  0
SEQEND
  5
A8
330
A5
100
AcDbEntity
  8
Layer 1
370
    18
  0
POLYLINE
  5
A9
330
44
100
AcDbEntity
  8
Layer 1
 62
     7
420
 16777215
370
    18
100
AcDb2dPolyline
 66
     1
 10
0.0
 20
0.0
 30
0.0
  0
VERTEX
  5
AA
330
A9
100
AcDbEntity
  8
Layer 1
 62
     7
420
 16777215
370
    18
100
AcDbVertex
100
AcDb2dVertex
 10
14.10801052164661
 20
64.90628796120399
 30
0.0
  0
VERTEX
  5
AB
330
A9
100
AcDbEntity
  8
Layer 1
 62
     7
420
 16777215
370
    18
100
AcDbVertex
100
AcDb2dVertex
 10
13.55300563897286
 20
68.23907333363468
 30
0.0
  0
SEQEND
  5
AC
330
A9
100
AcDbEntity
  8
Layer 1
370
    18
  0
POLYLINE
  5
AD
330
44
100
AcDbEntity
  8
Layer 1
 62
     7
420
 16777215
370
    18
100
AcDb2dPolyline
 66
     1
 10
0.0
 20
0.0
 30
0.0
  0
VERTEX
  5
AE
330
AD
100
AcDbEntity
  8
Layer 1
 62
     7
420
 16777215
370
    18
100
AcDbVertex
100
AcDb2dVertex
 10
14.66353216864315
 20
68.23907333363468
 30
0.0
  0
VERTEX
  5
AF
330
AD
100
AcDbEntity
  8
Layer 1
 62
     7
420
 16777215
370
    18
100
AcDbVertex
100
AcDb2dVertex
 10
14.10783826687235
 20
64.90628796120399
 30
0.0
  0
SEQEND
  5
B0
330
AD
100
AcDbEntity
  8
Layer 1
370
    18
  0
POLYLINE
  5
B1
330
44
100
AcDbEntity
  8
Layer 1
 62
     7
420
 16777215
370
    18
100
AcDb2dPolyline
 66
     1
 10
0.0
 20
0.0
 30
0.0
  0
VERTEX
  5
B2
330
B1
100
AcDbEntity
  8
Layer 1
 62
     7
420
 16777215
370
    18
100
AcDbVertex
100
AcDb2dVertex
 10
136.1892754108312
 20
64.61896699773415
 30
0.0
  0
VERTEX
  5
B3
330
B1
100
AcDbEntity
  8
Layer 1
 62
     7
420
 16777215
370
    18
100
AcDbVertex
100
AcDb2dVertex
 10
136.1892754108312
 20
67.95175237016484
 30
0.0
  0
SEQEND
  5
B4
330
B1
100
AcDbEntity
  8
Layer 1
370
    18
  0
POLYLINE
  5
B5
330
44
100
AcDbEntity
  8
Layer 1
 62
     7
420
 16777215
370
    18
100
AcDb2dPolyline
 66
     1
 10
0.0
 20
0.0
 30
0.0
  0
VERTEX
  5
B6
330
B5
100
AcDbEntity
  8
Layer 1
 62
     7
420
 16777215
370
    18
100
AcDbVertex
100
AcDb2dVertex
 10
136.7447970578277
 20
67.95175237016484
 30
0.0
  0
VERTEX
  5
B7
330
B5
100
AcDbEntity
  8
Layer 1
 62
     7
420
 16777215
370
    18
100
AcDbVertex
100
AcDb2dVertex
 10
135.6342705281574
 20
67.95175237016484
 30
0.0
  0
SEQEND
  5
B8
330
B5
100
AcDbEntity
  8
Layer 1
370
    18
  0
POLYLINE
  5
B9
330
44
100
AcDbEntity
  8
Layer 1
 62
     7
420
 16777215
370
    18
100
AcDb2dPolyline
 66
     1
 10
0.0
 20
0.0
 30
0.0
  0
VERTEX
  5
BA
330
B9
100
AcDbEntity
  8
Layer 1
 62
     7
420
 16777215
370
    18
100
AcDbVertex
100
AcDb2dVertex
 10
136.1892754108312
 20
64.61896699773415
 30
0.0
  0
VERTEX
  5
BB
330
B9
100
AcDbEntity
  8
Layer 1
 62
     7
420
 16777215
370
    18
100
AcDbVertex
100
AcDb2dVertex
 10
135.6342705281574
 20
67.95175237016484
 30
0.0
  0
SEQEND
  5
BC
330
B9
100
AcDbEntity
  8
Layer 1
370
    18
  0
POLYLINE
  5
BD
330
44
100
AcDbEntity
  8
Layer 1
 62
     7
420
 16777215
370
    18
100
AcDb2dPolyline
 66
     1
 10
0.0
 20
0.0
 30
0.0
  0
VERTEX
  5
BE
330
BD
100
AcDbEntity
  8
Layer 1
 62
     7
420
 16777215
370
    18
100
AcDbVertex
100
AcDb2dVertex
 10
136.7447970578277
 20
67.95175237016484
 30
0.0
  0
VERTEX
  5
BF
330
BD
100
AcDbEntity
  8
Layer 1
 62
     7
420
 16777215
370
    18
100
AcDbVertex
100
AcDb2dVertex
 10
136.1891031560569
 20
64.61896699773415
 30
0.0
  0
SEQEND
  5
C0
330
BD
100
AcDbEntity
  8
Layer 1
370
    18
  0
POLYLINE
  5
C1
330
44
100
AcDbEntity
  8
Layer 1
 62
     7
420
 16777215
370
    18
100
AcDb2dPolyline
 66
     1
 10
0.0
 20
0.0
 30
0.0
  0
VERTEX
  5
C2
330
C1
100
AcDbEntity
  8
Layer 1
 62
     7
420
 16777215
370
    18
100
AcDbVertex
100
AcDb2dVertex
 10
14.10801052164661
 20
204.9058389787215
 30
0.0
  0
VERTEX
  5
C3
330
C1
100
AcDbEntity
  8
Layer 1
 62
     7
420
 16777215
370
    18
100
AcDbVertex
100
AcDb2dVertex
 10
14.10801052164661
 20
201.5739148801621
 30
0.0
  0
SEQEND
  5
C4
330
C1
100
AcDbEntity
  8
Layer 1
370
    18
  0
POLYLINE
  5
C5
330
44
100
AcDbEntity
  8
Layer 1
 62
     7
420
 16777215
370
    18
100
AcDb2dPolyline
 66
     1
 10
0.0
 20
0.0
 30
0.0
  0
VERTEX
  5
C6
330
C5
100
AcDbEntity
  8
Layer 1
 62
     7
420
 16777215
370
    18
100
AcDbVertex
100
AcDb2dVertex
 10
13.55300563897286
 20
201.5739148801621
 30
0.0
  0
VERTEX
  5
C7
330
C5
100
AcDbEntity
  8
Layer 1
 62
     7
420
 16777215
370
    18
100
AcDbVertex
100
AcDb2dVertex
 10
14.66353216864315
 20
201.5739148801621
 30
0.0
  0
SEQEND
  5
C8
330
C5
100
AcDbEntity
  8
Layer 1
370
    18
  0
POLYLINE
  5
C9
330
44
100
AcDbEntity
  8
Layer 1
 62
     7
420
 16777215
370
    18
100
AcDb2dPolyline
 66
     1
 10
0.0
 20
0.0
 30
0.0
  0
VERTEX
  5
CA
330
C9
100
AcDbEntity
  8
Layer 1
 62
     7
420
 16777215
370
    18
100
AcDbVertex
100
AcDb2dVertex
 10
14.10801052164661
 20
204.9058389787215
 30
0.0
  0
VERTEX
  5
CB
330
C9
100
AcDbEntity
  8
Layer 1
 62
     7
420
 16777215
370
    18
100
AcDbVertex
100
AcDb2dVertex
 10
14.66370442341741
 20
201.5739148801621
 30
0.0
  0
SEQEND
  5
CC
330
C9
100
AcDbEntity
  8
Layer 1
370
    18
  0
POLYLINE
  5
CD
330
44
100
AcDbEntity
  8
Layer 1
 62
     7
420
 16777215
370
    18
100
AcDb2dPolyline
 66
     1
 10
0.0
 20
0.0
 30
0.0
  0
VERTEX
  5
CE
330
CD
100
AcDbEntity
  8
Layer 1
 62
     7
420
 16777215
370
    18
100
AcDbVertex
100
AcDb2dVertex
 10
13.55300563897286
 20
201.5739148801621
 30
0.0
  0
VERTEX
  5
CF
330
CD
100
AcDbEntity
  8
Layer 1
 62
     7
420
 16777215
370
    18
100
AcDbVertex
100
AcDb2dVertex
 10
14.10801052164661
 20
204.9058389787215
 30
0.0
  0
SEQEND
  5
D0
330
CD
100
AcDbEntity
  8
Layer 1
370
    18
  0
MTEXT
  5
D1
330
44
100
AcDbEntity
  8
Layer 1
 62
     7
420
 16777215
100
AcDbMText
 10
188.7016601090746
 20
66.31119790008887
 30
0.0
 40
2.973614601027633
 41
0.0
 71
     7
 72
     1
  1
\fArial|b0|i0|c0|p34;\W1;19 Max.
 11
-4.371139000186241E-8
 21
0.999999999999999
 31
0.0
 73
     1
 44
1.0
  0
MTEXT
  5
D2
330
44
100
AcDbEntity
  8
Layer 1
 62
     7
420
 16777215
100
AcDbMText
 10
193.9492295522072
 20
66.31119790008887
 30
0.0
 40
2.973614601027633
 41
0.0
 71
     7
 72
     1
  1
\fArial|b0|i0|c0|p34;\W1;Mounting Surface
 11
-4.371139000186241E-8
 21
0.999999999999999
 31
0.0
 73
     1
 44
1.0
  0
POLYLINE
  5
D3
330
44
100
AcDbEntity
  8
Layer 1
 62
     7
420
 16777215
370
    18
100
AcDb2dPolyline
 66
     1
 10
0.0
 20
0.0
 30
0.0
  0
VERTEX
  5
D4
330
D3
100
AcDbEntity
  8
Layer 1
 62
     7
420
 16777215
370
    18
100
AcDbVertex
100
AcDb2dVertex
 10
252.8672525409499
 20
64.3936577529988
 30
0.0
  0
VERTEX
  5
D5
330
D3
100
AcDbEntity
  8
Layer 1
 62
     7
420
 16777215
370
    18
100
AcDbVertex
100
AcDb2dVertex
 10
260.921885785464
 20
64.3936577529988
 30
0.0
  0
SEQEND
  5
D6
330
D3
100
AcDbEntity
  8
Layer 1
370
    18
  0
POLYLINE
  5
D7
330
44
100
AcDbEntity
  8
Layer 1
 62
     7
420
 16777215
370
    18
100
AcDb2dPolyline
 66
     1
 10
0.0
 20
0.0
 30
0.0
  0
VERTEX
  5
D8
330
D7
100
AcDbEntity
  8
Layer 1
 62
     7
420
 16777215
370
    18
100
AcDbVertex
100
AcDb2dVertex
 10
189.7820420532489
 20
59.82132702497523
 30
0.0
  0
VERTEX
  5
D9
330
D7
100
AcDbEntity
  8
Layer 1
 62
     7
420
 16777215
370
    18
100
AcDbVertex
100
AcDb2dVertex
 10
189.7820420532489
 20
56.48854165254453
 30
0.0
  0
SEQEND
  5
DA
330
D7
100
AcDbEntity
  8
Layer 1
370
    18
  0
POLYLINE
  5
DB
330
44
100
AcDbEntity
  8
Layer 1
 62
     7
420
 16777215
370
    18
100
AcDb2dPolyline
 66
     1
 10
0.0
 20
0.0
 30
0.0
  0
VERTEX
  5
DC
330
DB
100
AcDbEntity
  8
Layer 1
 62
     7
420
 16777215
370
    18
100
AcDbVertex
100
AcDb2dVertex
 10
189.7820420532489
 20
59.82132702497523
 30
0.0
  0
VERTEX
  5
DD
330
DB
100
AcDbEntity
  8
Layer 1
 62
     7
420
 16777215
370
    18
100
AcDbVertex
100
AcDb2dVertex
 10
189.2266926610267
 20
56.48854165254453
 30
0.0
  0
SEQEND
  5
DE
330
DB
100
AcDbEntity
  8
Layer 1
370
    18
  0
POLYLINE
  5
DF
330
44
100
AcDbEntity
  8
Layer 1
 62
     7
420
 16777215
370
    18
100
AcDb2dPolyline
 66
     1
 10
0.0
 20
0.0
 30
0.0
  0
VERTEX
  5
E0
330
DF
100
AcDbEntity
  8
Layer 1
 62
     7
420
 16777215
370
    18
100
AcDbVertex
100
AcDb2dVertex
 10
190.3373914454712
 20
56.48854165254453
 30
0.0
  0
VERTEX
  5
E1
330
DF
100
AcDbEntity
  8
Layer 1
 62
     7
420
 16777215
370
    18
100
AcDbVertex
100
AcDb2dVertex
 10
189.7820420532489
 20
59.82132702497523
 30
0.0
  0
SEQEND
  5
E2
330
DF
100
AcDbEntity
  8
Layer 1
370
    18
  0
POLYLINE
  5
E3
330
44
100
AcDbEntity
  8
Layer 1
 62
     7
420
 16777215
370
    18
100
AcDb2dPolyline
 66
     1
 10
0.0
 20
0.0
 30
0.0
  0
VERTEX
  5
E4
330
E3
100
AcDbEntity
  8
Layer 1
 62
     7
420
 16777215
370
    18
100
AcDbVertex
100
AcDb2dVertex
 10
189.2266926610267
 20
67.8642469448395
 30
0.0
  0
VERTEX
  5
E5
330
E3
100
AcDbEntity
  8
Layer 1
 62
     7
420
 16777215
370
    18
100
AcDbVertex
100
AcDb2dVertex
 10
190.3373914454712
 20
67.8642469448395
 30
0.0
  0
SEQEND
  5
E6
330
E3
100
AcDbEntity
  8
Layer 1
370
    18
  0
POLYLINE
  5
E7
330
44
100
AcDbEntity
  8
Layer 1
 62
     7
420
 16777215
370
    18
100
AcDb2dPolyline
 66
     1
 10
0.0
 20
0.0
 30
0.0
  0
VERTEX
  5
E8
330
E7
100
AcDbEntity
  8
Layer 1
 62
     7
420
 16777215
370
    18
100
AcDbVertex
100
AcDb2dVertex
 10
189.7820420532489
 20
64.53215059150585
 30
0.0
  0
VERTEX
  5
E9
330
E7
100
AcDbEntity
  8
Layer 1
 62
     7
420
 16777215
370
    18
100
AcDbVertex
100
AcDb2dVertex
 10
190.3373914454712
 20
67.8642469448395
 30
0.0
  0
SEQEND
  5
EA
330
E7
100
AcDbEntity
  8
Layer 1
370
    18
  0
POLYLINE
  5
EB
330
44
100
AcDbEntity
  8
Layer 1
 62
     7
420
 16777215
370
    18
100
AcDb2dPolyline
 66
     1
 10
0.0
 20
0.0
 30
0.0
  0
VERTEX
  5
EC
330
EB
100
AcDbEntity
  8
Layer 1
 62
     7
420
 16777215
370
    18
100
AcDbVertex
100
AcDb2dVertex
 10
189.2266926610267
 20
67.8642469448395
 30
0.0
  0
VERTEX
  5
ED
330
EB
100
AcDbEntity
  8
Layer 1
 62
     7
420
 16777215
370
    18
100
AcDbVertex
100
AcDb2dVertex
 10
189.7820420532489
 20
64.53215059150585
 30
0.0
  0
SEQEND
  5
EE
330
EB
100
AcDbEntity
  8
Layer 1
370
    18
  0
MTEXT
  5
EF
330
44
100
AcDbEntity
  8
Layer 1
 62
     7
420
 16777215
100
AcDbMText
 10
230.3411512010953
 20
96.40927460697408
 30
0.0
 40
2.973614601027633
 41
0.0
 71
     7
 72
     1
  1
\fArial|b0|i0|c0|p34;\W1;35
 73
     1
 44
1.0
  0
MTEXT
  5
F0
330
44
100
AcDbEntity
  8
Layer 1
 62
     7
420
 16777215
100
AcDbMText
 10
223.414442218452
 20
91.16204967339004
 30
0.0
 40
2.973614601027633
 41
0.0
 71
     7
 72
     1
  1
\fArial|b0|i0|c0|p34;\W1;Hole Size
 73
     1
 44
1.0
  0
POLYLINE
  5
F1
330
44
100
AcDbEntity
  8
Layer 1
 62
     7
420
 16777215
370
    18
100
AcDb2dPolyline
 66
     1
 10
0.0
 20
0.0
 30
0.0
  0
VERTEX
  5
F2
330
F1
100
AcDbEntity
  8
Layer 1
 62
     7
420
 16777215
370
    18
100
AcDbVertex
100
AcDb2dVertex
 10
242.0617105514638
 20
95.3905598719857
 30
0.0
  0
VERTEX
  5
F3
330
F1
100
AcDbEntity
  8
Layer 1
 62
     7
420
 16777215
370
    18
100
AcDbVertex
100
AcDb2dVertex
 10
206.5648247096435
 20
95.3905598719857
 30
0.0
  0
SEQEND
  5
F4
330
F1
100
AcDbEntity
  8
Layer 1
370
    18
  0
POLYLINE
  5
F5
330
44
100
AcDbEntity
  8
Layer 1
 62
     7
420
 16777215
370
    18
100
AcDb2dPolyline
 66
     1
 10
0.0
 20
0.0
 30
0.0
  0
VERTEX
  5
F6
330
F5
100
AcDbEntity
  8
Layer 1
 62
     7
420
 16777215
370
    18
100
AcDbVertex
100
AcDb2dVertex
 10
222.5566134426248
 20
61.64653861306059
 30
0.0
  0
VERTEX
  5
F7
330
F5
100
AcDbEntity
  8
Layer 1
 62
     7
420
 16777215
370
    18
100
AcDbVertex
100
AcDb2dVertex
 10
222.5566134426248
 20
96.3655218943114
 30
0.0
  0
SEQEND
  5
F8
330
F5
100
AcDbEntity
  8
Layer 1
370
    18
  0
POLYLINE
  5
F9
330
44
100
AcDbEntity
  8
Layer 1
 62
     7
420
 16777215
370
    18
100
AcDb2dPolyline
 66
     1
 10
0.0
 20
0.0
 30
0.0
  0
VERTEX
  5
FA
330
F9
100
AcDbEntity
  8
Layer 1
 62
     7
420
 16777215
370
    18
100
AcDbVertex
100
AcDb2dVertex
 10
206.4490695013391
 20
61.99931639075017
 30
0.0
  0
VERTEX
  5
FB
330
F9
100
AcDbEntity
  8
Layer 1
 62
     7
420
 16777215
370
    18
100
AcDbVertex
100
AcDb2dVertex
 10
206.4490695013391
 20
96.71829967200098
 30
0.0
  0
SEQEND
  5
FC
330
F9
100
AcDbEntity
  8
Layer 1
370
    18
  0
POLYLINE
  5
FD
330
44
100
AcDbEntity
  8
Layer 1
 62
     7
420
 16777215
370
    18
100
AcDb2dPolyline
 66
     1
 10
0.0
 20
0.0
 30
0.0
  0
VERTEX
  5
FE
330
FD
100
AcDbEntity
  8
Layer 1
 62
     7
420
 16777215
370
    18
100
AcDbVertex
100
AcDb2dVertex
 10
206.481108889352
 20
95.3905598719857
 30
0.0
  0
VERTEX
  5
FF
330
FD
100
AcDbEntity
  8
Layer 1
 62
     7
420
 16777215
370
    18
100
AcDbVertex
100
AcDb2dVertex
 10
209.8138942617827
 20
95.3905598719857
 30
0.0
  0
SEQEND
  5
100
330
FD
100
AcDbEntity
  8
Layer 1
370
    18
  0
POLYLINE
  5
101
330
44
100
AcDbEntity
  8
Layer 1
 62
     7
420
 16777215
370
    18
100
AcDb2dPolyline
 66
     1
 10
0.0
 20
0.0
 30
0.0
  0
VERTEX
  5
102
330
101
100
AcDbEntity
  8
Layer 1
 62
     7
420
 16777215
370
    18
100
AcDbVertex
100
AcDb2dVertex
 10
206.481108889352
 20
95.3905598719857
 30
0.0
  0
VERTEX
  5
103
330
101
100
AcDbEntity
  8
Layer 1
 62
     7
420
 16777215
370
    18
100
AcDbVertex
100
AcDb2dVertex
 10
209.8138942617827
 20
95.94590926420797
 30
0.0
  0
SEQEND
  5
104
330
101
100
AcDbEntity
  8
Layer 1
370
    18
  0
POLYLINE
  5
105
330
44
100
AcDbEntity
  8
Layer 1
 62
     7
420
 16777215
370
    18
100
AcDb2dPolyline
 66
     1
 10
0.0
 20
0.0
 30
0.0
  0
VERTEX
  5
106
330
105
100
AcDbEntity
  8
Layer 1
 62
     7
420
 16777215
370
    18
100
AcDbVertex
100
AcDb2dVertex
 10
209.8138942617827
 20
94.83452146066638
 30
0.0
  0
VERTEX
  5
107
330
105
100
AcDbEntity
  8
Layer 1
 62
     7
420
 16777215
370
    18
100
AcDbVertex
100
AcDb2dVertex
 10
206.481108889352
 20
95.3905598719857
 30
0.0
  0
SEQEND
  5
108
330
105
100
AcDbEntity
  8
Layer 1
370
    18
  0
POLYLINE
  5
109
330
44
100
AcDbEntity
  8
Layer 1
 62
     7
420
 16777215
370
    18
100
AcDb2dPolyline
 66
     1
 10
0.0
 20
0.0
 30
0.0
  0
VERTEX
  5
10A
330
109
100
AcDbEntity
  8
Layer 1
 62
     7
420
 16777215
370
    18
100
AcDbVertex
100
AcDb2dVertex
 10
222.5566134426248
 20
95.3905598719857
 30
0.0
  0
VERTEX
  5
10B
330
109
100
AcDbEntity
  8
Layer 1
 62
     7
420
 16777215
370
    18
100
AcDbVertex
100
AcDb2dVertex
 10
219.2245170892911
 20
95.3905598719857
 30
0.0
  0
SEQEND
  5
10C
330
109
100
AcDbEntity
  8
Layer 1
370
    18
  0
POLYLINE
  5
10D
330
44
100
AcDbEntity
  8
Layer 1
 62
     7
420
 16777215
370
    18
100
AcDb2dPolyline
 66
     1
 10
0.0
 20
0.0
 30
0.0
  0
VERTEX
  5
10E
330
10D
100
AcDbEntity
  8
Layer 1
 62
     7
420
 16777215
370
    18
100
AcDbVertex
100
AcDb2dVertex
 10
222.5566134426248
 20
95.3905598719857
 30
0.0
  0
VERTEX
  5
10F
330
10D
100
AcDbEntity
  8
Layer 1
 62
     7
420
 16777215
370
    18
100
AcDbVertex
100
AcDb2dVertex
 10
219.2245170892911
 20
94.83452146066638
 30
0.0
  0
SEQEND
  5
110
330
10D
100
AcDbEntity
  8
Layer 1
370
    18
  0
POLYLINE
  5
111
330
44
100
AcDbEntity
  8
Layer 1
 62
     7
420
 16777215
370
    18
100
AcDb2dPolyline
 66
     1
 10
0.0
 20
0.0
 30
0.0
  0
VERTEX
  5
112
330
111
100
AcDbEntity
  8
Layer 1
 62
     7
420
 16777215
370
    18
100
AcDbVertex
100
AcDb2dVertex
 10
219.2245170892911
 20
95.94590926420797
 30
0.0
  0
VERTEX
  5
113
330
111
100
AcDbEntity
  8
Layer 1
 62
     7
420
 16777215
370
    18
100
AcDbVertex
100
AcDb2dVertex
 10
222.5566134426248
 20
95.3905598719857
 30
0.0
  0
SEQEND
  5
114
330
111
100
AcDbEntity
  8
Layer 1
370
    18
  0
MTEXT
  5
115
330
44
100
AcDbEntity
  8
Layer 1
 62
     7
420
 16777215
100
AcDbMText
 10
225.4063964280234
 20
166.182104450642
 30
0.0
 40
2.973614601027633
 41
0.0
 71
     7
 72
     1
  1
\fArial|b0|i0|c0|p34;\W1;200
 73
     1
 44
1.0
  0
POLYLINE
  5
116
330
44
100
AcDbEntity
  8
Layer 1
 62
     7
420
 16777215
370
    18
100
AcDb2dPolyline
 66
     1
 10
0.0
 20
0.0
 30
0.0
  0
VERTEX
  5
117
330
116
100
AcDbEntity
  8
Layer 1
 62
     7
420
 16777215
370
    18
100
AcDbVertex
100
AcDb2dVertex
 10
261.6846299258983
 20
165.1031005446617
 30
0.0
  0
VERTEX
  5
118
330
116
100
AcDbEntity
  8
Layer 1
 62
     7
420
 16777215
370
    18
100
AcDbVertex
100
AcDb2dVertex
 10
167.7785616985068
 20
165.2562350389811
 30
0.0
  0
SEQEND
  5
119
330
116
100
AcDbEntity
  8
Layer 1
370
    18
  0
POLYLINE
  5
11A
330
44
100
AcDbEntity
  8
Layer 1
 62
     7
420
 16777215
370
    18
100
AcDb2dPolyline
 66
     1
 10
0.0
 20
0.0
 30
0.0
  0
VERTEX
  5
11B
330
11A
100
AcDbEntity
  8
Layer 1
 62
     7
420
 16777215
370
    18
100
AcDbVertex
100
AcDb2dVertex
 10
167.7785616985068
 20
165.2562350389811
 30
0.0
  0
VERTEX
  5
11C
330
11A
100
AcDbEntity
  8
Layer 1
 62
     7
420
 16777215
370
    18
100
AcDbVertex
100
AcDb2dVertex
 10
171.1106580518404
 20
165.2562350389811
 30
0.0
  0
SEQEND
  5
11D
330
11A
100
AcDbEntity
  8
Layer 1
370
    18
  0
POLYLINE
  5
11E
330
44
100
AcDbEntity
  8
Layer 1
 62
     7
420
 16777215
370
    18
100
AcDb2dPolyline
 66
     1
 10
0.0
 20
0.0
 30
0.0
  0
VERTEX
  5
11F
330
11E
100
AcDbEntity
  8
Layer 1
 62
     7
420
 16777215
370
    18
100
AcDbVertex
100
AcDb2dVertex
 10
171.1106580518404
 20
164.7005411372103
 30
0.0
  0
VERTEX
  5
120
330
11E
100
AcDbEntity
  8
Layer 1
 62
     7
420
 16777215
370
    18
100
AcDbVertex
100
AcDb2dVertex
 10
171.1106580518404
 20
165.8110676668806
 30
0.0
  0
SEQEND
  5
121
330
11E
100
AcDbEntity
  8
Layer 1
370
    18
  0
POLYLINE
  5
122
330
44
100
AcDbEntity
  8
Layer 1
 62
     7
420
 16777215
370
    18
100
AcDb2dPolyline
 66
     1
 10
0.0
 20
0.0
 30
0.0
  0
VERTEX
  5
123
330
122
100
AcDbEntity
  8
Layer 1
 62
     7
420
 16777215
370
    18
100
AcDbVertex
100
AcDb2dVertex
 10
167.7785616985068
 20
165.2562350389811
 30
0.0
  0
VERTEX
  5
124
330
122
100
AcDbEntity
  8
Layer 1
 62
     7
420
 16777215
370
    18
100
AcDbVertex
100
AcDb2dVertex
 10
171.1106580518404
 20
165.8112399216548
 30
0.0
  0
SEQEND
  5
125
330
122
100
AcDbEntity
  8
Layer 1
370
    18
  0
POLYLINE
  5
126
330
44
100
AcDbEntity
  8
Layer 1
 62
     7
420
 16777215
370
    18
100
AcDb2dPolyline
 66
     1
 10
0.0
 20
0.0
 30
0.0
  0
VERTEX
  5
127
330
126
100
AcDbEntity
  8
Layer 1
 62
     7
420
 16777215
370
    18
100
AcDbVertex
100
AcDb2dVertex
 10
171.1106580518404
 20
164.7005411372103
 30
0.0
  0
VERTEX
  5
128
330
126
100
AcDbEntity
  8
Layer 1
 62
     7
420
 16777215
370
    18
100
AcDbVertex
100
AcDb2dVertex
 10
167.7785616985068
 20
165.2562350389811
 30
0.0
  0
SEQEND
  5
129
330
126
100
AcDbEntity
  8
Layer 1
370
    18
  0
POLYLINE
  5
12A
330
44
100
AcDbEntity
  8
Layer 1
 62
     7
420
 16777215
370
    18
100
AcDb2dPolyline
 66
     1
 10
0.0
 20
0.0
 30
0.0
  0
VERTEX
  5
12B
330
12A
100
AcDbEntity
  8
Layer 1
 62
     7
420
 16777215
370
    18
100
AcDbVertex
100
AcDb2dVertex
 10
261.6846299258983
 20
165.1031005446617
 30
0.0
  0
VERTEX
  5
12C
330
12A
100
AcDbEntity
  8
Layer 1
 62
     7
420
 16777215
370
    18
100
AcDbVertex
100
AcDb2dVertex
 10
258.3525335725647
 20
165.1031005446617
 30
0.0
  0
SEQEND
  5
12D
330
12A
100
AcDbEntity
  8
Layer 1
370
    18
  0
POLYLINE
  5
12E
330
44
100
AcDbEntity
  8
Layer 1
 62
     7
420
 16777215
370
    18
100
AcDb2dPolyline
 66
     1
 10
0.0
 20
0.0
 30
0.0
  0
VERTEX
  5
12F
330
12E
100
AcDbEntity
  8
Layer 1
 62
     7
420
 16777215
370
    18
100
AcDbVertex
100
AcDb2dVertex
 10
258.3525335725647
 20
165.6581054273355
 30
0.0
  0
VERTEX
  5
130
330
12E
100
AcDbEntity
  8
Layer 1
 62
     7
420
 16777215
370
    18
100
AcDbVertex
100
AcDb2dVertex
 10
258.3525335725647
 20
164.5475788976652
 30
0.0
  0
SEQEND
  5
131
330
12E
100
AcDbEntity
  8
Layer 1
370
    18
  0
POLYLINE
  5
132
330
44
100
AcDbEntity
  8
Layer 1
 62
     7
420
 16777215
370
    18
100
AcDb2dPolyline
 66
     1
 10
0.0
 20
0.0
 30
0.0
  0
VERTEX
  5
133
330
132
100
AcDbEntity
  8
Layer 1
 62
     7
420
 16777215
370
    18
100
AcDbVertex
100
AcDb2dVertex
 10
261.6846299258983
 20
165.1031005446617
 30
0.0
  0
VERTEX
  5
134
330
132
100
AcDbEntity
  8
Layer 1
 62
     7
420
 16777215
370
    18
100
AcDbVertex
100
AcDb2dVertex
 10
258.3525335725647
 20
164.5474066428909
 30
0.0
  0
SEQEND
  5
135
330
132
100
AcDbEntity
  8
Layer 1
370
    18
  0
POLYLINE
  5
136
330
44
100
AcDbEntity
  8
Layer 1
 62
     7
420
 16777215
370
    18
100
AcDb2dPolyline
 66
     1
 10
0.0
 20
0.0
 30
0.0
  0
VERTEX
  5
137
330
136
100
AcDbEntity
  8
Layer 1
 62
     7
420
 16777215
370
    18
100
AcDbVertex
100
AcDb2dVertex
 10
258.3525335725647
 20
165.6581054273355
 30
0.0
  0
VERTEX
  5
138
330
136
100
AcDbEntity
  8
Layer 1
 62
     7
420
 16777215
370
    18
100
AcDbVertex
100
AcDb2dVertex
 10
261.6846299258983
 20
165.1031005446617
 30
0.0
  0
SEQEND
  5
139
330
136
100
AcDbEntity
  8
Layer 1
370
    18
  0
POLYLINE
  5
13A
330
44
100
AcDbEntity
  8
Layer 1
 62
     7
420
 16777215
370
    35
100
AcDb2dPolyline
 66
     1
 10
0.0
 20
0.0
 30
0.0
  0
VERTEX
  5
13B
330
13A
100
AcDbEntity
  8
Layer 1
 62
     7
420
 16777215
370
    35
100
AcDbVertex
100
AcDb2dVertex
 10
222.5604030476585
 20
59.66354165175078
 30
0.0
  0
VERTEX
  5
13C
330
13A
100
AcDbEntity
  8
Layer 1
 62
     7
420
 16777215
370
    35
100
AcDbVertex
100
AcDb2dVertex
 10
206.4456244058539
 20
59.66354165175078
 30
0.0
  0
VERTEX
  5
13D
330
13A
100
AcDbEntity
  8
Layer 1
 62
     7
420
 16777215
370
    35
100
AcDbVertex
100
AcDb2dVertex
 10
206.4456244058539
 20
64.26756725823867
 30
0.0
  0
VERTEX
  5
13E
330
13A
100
AcDbEntity
  8
Layer 1
 62
     7
420
 16777215
370
    35
100
AcDbVertex
100
AcDb2dVertex
 10
222.5604030476585
 20
64.26756725823867
 30
0.0
  0
VERTEX
  5
13F
330
13A
100
AcDbEntity
  8
Layer 1
 62
     7
420
 16777215
370
    35
100
AcDbVertex
100
AcDb2dVertex
 10
222.5604030476585
 20
59.66354165175078
 30
0.0
  0
SEQEND
  5
140
330
13A
100
AcDbEntity
  8
Layer 1
370
    35
  0
POLYLINE
  5
141
330
44
100
AcDbEntity
  8
Layer 1
 62
     7
420
 16777215
370
    35
100
AcDb2dPolyline
 66
     1
 10
0.0
 20
0.0
 30
0.0
  0
VERTEX
  5
142
330
141
100
AcDbEntity
  8
Layer 1
 62
     7
420
 16777215
370
    35
100
AcDbVertex
100
AcDb2dVertex
 10
52.16873642358976
 20
59.66354165175078
 30
0.0
  0
VERTEX
  5
143
330
141
100
AcDbEntity
  8
Layer 1
 62
     7
420
 16777215
370
    35
100
AcDbVertex
100
AcDb2dVertex
 10
37.11229111485387
 20
59.66354165175078
 30
0.0
  0
VERTEX
  5
144
330
141
100
AcDbEntity
  8
Layer 1
 62
     7
420
 16777215
370
    35
100
AcDbVertex
100
AcDb2dVertex
 10
37.11229111485387
 20
64.26756725823867
 30
0.0
  0
VERTEX
  5
145
330
141
100
AcDbEntity
  8
Layer 1
 62
     7
420
 16777215
370
    35
100
AcDbVertex
100
AcDb2dVertex
 10
52.16873642358976
 20
64.26756725823867
 30
0.0
  0
VERTEX
  5
146
330
141
100
AcDbEntity
  8
Layer 1
 62
     7
420
 16777215
370
    35
100
AcDbVertex
100
AcDb2dVertex
 10
52.16873642358976
 20
59.66354165175078
 30
0.0
  0
SEQEND
  5
147
330
141
100
AcDbEntity
  8
Layer 1
370
    35
  0
POLYLINE
  5
148
330
44
100
AcDbEntity
  8
Layer 1
 62
     7
420
 16777215
370
    35
100
AcDb2dPolyline
 66
     1
 10
0.0
 20
0.0
 30
0.0
  0
VERTEX
  5
149
330
148
100
AcDbEntity
  8
Layer 1
 62
     7
420
 16777215
370
    35
100
AcDbVertex
100
AcDb2dVertex
 10
174.9646863711894
 20
59.66354165175078
 30
0.0
  0
VERTEX
  5
14A
330
148
100
AcDbEntity
  8
Layer 1
 62
     7
420
 16777215
370
    35
100
AcDbVertex
100
AcDb2dVertex
 10
160.2610188401431
 20
59.66354165175078
 30
0.0
  0
VERTEX
  5
14B
330
148
100
AcDbEntity
  8
Layer 1
 62
     7
420
 16777215
370
    35
100
AcDbVertex
100
AcDb2dVertex
 10
160.2610188401431
 20
64.26756725823867
 30
0.0
  0
VERTEX
  5
14C
330
148
100
AcDbEntity
  8
Layer 1
 62
     7
420
 16777215
370
    35
100
AcDbVertex
100
AcDb2dVertex
 10
174.9646863711894
 20
64.26756725823867
 30
0.0
  0
VERTEX
  5
14D
330
148
100
AcDbEntity
  8
Layer 1
 62
     7
420
 16777215
370
    35
100
AcDbVertex
100
AcDb2dVertex
 10
174.9646863711894
 20
59.66354165175078
 30
0.0
  0
SEQEND
  5
14E
330
148
100
AcDbEntity
  8
Layer 1
370
    35
  0
POLYLINE
  5
14F
330
44
100
AcDbEntity
  8
Layer 1
 62
     7
420
 16777215
370
    35
100
AcDb2dPolyline
 66
     1
 10
0.0
 20
0.0
 30
0.0
  0
VERTEX
  5
150
330
14F
100
AcDbEntity
  8
Layer 1
 62
     7
420
 16777215
370
    35
100
AcDbVertex
100
AcDb2dVertex
 10
269.0977863910589
 20
59.66354165175078
 30
0.0
  0
VERTEX
  5
151
330
14F
100
AcDbEntity
  8
Layer 1
 62
     7
420
 16777215
370
    35
100
AcDbVertex
100
AcDb2dVertex
 10
254.041341082323
 20
59.66354165175078
 30
0.0
  0
VERTEX
  5
152
330
14F
100
AcDbEntity
  8
Layer 1
 62
     7
420
 16777215
370
    35
100
AcDbVertex
100
AcDb2dVertex
 10
254.041341082323
 20
64.26756725823867
 30
0.0
  0
VERTEX
  5
153
330
14F
100
AcDbEntity
  8
Layer 1
 62
     7
420
 16777215
370
    35
100
AcDbVertex
100
AcDb2dVertex
 10
269.0977863910589
 20
64.26756725823867
 30
0.0
  0
VERTEX
  5
154
330
14F
100
AcDbEntity
  8
Layer 1
 62
     7
420
 16777215
370
    35
100
AcDbVertex
100
AcDb2dVertex
 10
269.0977863910589
 20
59.66354165175078
 30
0.0
  0
SEQEND
  5
155
330
14F
100
AcDbEntity
  8
Layer 1
370
    35
  0
MTEXT
  5
156
330
44
100
AcDbEntity
  8
Layer 1
 62
     7
420
 16777215
100
AcDbMText
 10
134.5209879220989
 20
100.255379206707
 30
0.0
 40
2.973614601027633
 41
0.0
 71
     7
 72
     1
  1
\fArial|b0|i0|c0|p34;\W1;178
 11
-4.371139000186241E-8
 21
0.999999999999999
 31
0.0
 73
     1
 44
1.0
  0
POLYLINE
  5
157
330
44
100
AcDbEntity
  8
Layer 1
 62
     7
420
 16777215
370
    18
100
AcDb2dPolyline
 66
     1
 10
0.0
 20
0.0
 30
0.0
  0
VERTEX
  5
158
330
157
100
AcDbEntity
  8
Layer 1
 62
     7
420
 16777215
370
    18
100
AcDbVertex
100
AcDb2dVertex
 10
136.153101908236
 20
148.0390258418965
 30
0.0
  0
VERTEX
  5
159
330
157
100
AcDbEntity
  8
Layer 1
 62
     7
420
 16777215
370
    18
100
AcDbVertex
100
AcDb2dVertex
 10
136.153101908236
 20
65.08818900282517
 30
0.0
  0
SEQEND
  5
15A
330
157
100
AcDbEntity
  8
Layer 1
370
    18
  0
POLYLINE
  5
15B
330
44
100
AcDbEntity
  8
Layer 1
 62
     7
420
 16777215
370
    18
100
AcDb2dPolyline
 66
     1
 10
0.0
 20
0.0
 30
0.0
  0
VERTEX
  5
15C
330
15B
100
AcDbEntity
  8
Layer 1
 62
     7
420
 16777215
370
    18
100
AcDbVertex
100
AcDb2dVertex
 10
131.4905096784989
 20
148.0390258418965
 30
0.0
  0
VERTEX
  5
15D
330
15B
100
AcDbEntity
  8
Layer 1
 62
     7
420
 16777215
370
    18
100
AcDbVertex
100
AcDb2dVertex
 10
137.8680704407934
 20
148.0390258418965
 30
0.0
  0
SEQEND
  5
15E
330
15B
100
AcDbEntity
  8
Layer 1
370
    18
  0
POLYLINE
  5
15F
330
44
100
AcDbEntity
  8
Layer 1
 62
     7
420
 16777215
370
    18
100
AcDb2dPolyline
 66
     1
 10
0.0
 20
0.0
 30
0.0
  0
VERTEX
  5
160
330
15F
100
AcDbEntity
  8
Layer 1
 62
     7
420
 16777215
370
    18
100
AcDbVertex
100
AcDb2dVertex
 10
136.153101908236
 20
148.0390258418965
 30
0.0
  0
VERTEX
  5
161
330
15F
100
AcDbEntity
  8
Layer 1
 62
     7
420
 16777215
370
    18
100
AcDbVertex
100
AcDb2dVertex
 10
136.153101908236
 20
144.7067572337886
 30
0.0
  0
SEQEND
  5
162
330
15F
100
AcDbEntity
  8
Layer 1
370
    18
  0
POLYLINE
  5
163
330
44
100
AcDbEntity
  8
Layer 1
 62
     7
420
 16777215
370
    18
100
AcDb2dPolyline
 66
     1
 10
0.0
 20
0.0
 30
0.0
  0
VERTEX
  5
164
330
163
100
AcDbEntity
  8
Layer 1
 62
     7
420
 16777215
370
    18
100
AcDbVertex
100
AcDb2dVertex
 10
135.5984415351108
 20
144.7065849790143
 30
0.0
  0
VERTEX
  5
165
330
163
100
AcDbEntity
  8
Layer 1
 62
     7
420
 16777215
370
    18
100
AcDbVertex
100
AcDb2dVertex
 10
136.708279045684
 20
144.7065849790143
 30
0.0
  0
SEQEND
  5
166
330
163
100
AcDbEntity
  8
Layer 1
370
    18
  0
POLYLINE
  5
167
330
44
100
AcDbEntity
  8
Layer 1
 62
     7
420
 16777215
370
    18
100
AcDb2dPolyline
 66
     1
 10
0.0
 20
0.0
 30
0.0
  0
VERTEX
  5
168
330
167
100
AcDbEntity
  8
Layer 1
 62
     7
420
 16777215
370
    18
100
AcDbVertex
100
AcDb2dVertex
 10
136.153101908236
 20
148.0390258418965
 30
0.0
  0
VERTEX
  5
169
330
167
100
AcDbEntity
  8
Layer 1
 62
     7
420
 16777215
370
    18
100
AcDbVertex
100
AcDb2dVertex
 10
136.708279045684
 20
144.7067572337886
 30
0.0
  0
SEQEND
  5
16A
330
167
100
AcDbEntity
  8
Layer 1
370
    18
  0
POLYLINE
  5
16B
330
44
100
AcDbEntity
  8
Layer 1
 62
     7
420
 16777215
370
    18
100
AcDb2dPolyline
 66
     1
 10
0.0
 20
0.0
 30
0.0
  0
VERTEX
  5
16C
330
16B
100
AcDbEntity
  8
Layer 1
 62
     7
420
 16777215
370
    18
100
AcDbVertex
100
AcDb2dVertex
 10
135.5984415351108
 20
144.7065849790143
 30
0.0
  0
VERTEX
  5
16D
330
16B
100
AcDbEntity
  8
Layer 1
 62
     7
420
 16777215
370
    18
100
AcDbVertex
100
AcDb2dVertex
 10
136.1529296534618
 20
148.0388535871222
 30
0.0
  0
SEQEND
  5
16E
330
16B
100
AcDbEntity
  8
Layer 1
370
    18
  0
POLYLINE
  5
16F
330
44
100
AcDbEntity
  8
Layer 1
370
     0
100
AcDb2dPolyline
 66
     1
 10
0.0
 20
0.0
 30
0.0
  0
VERTEX
  5
170
330
16F
100
AcDbEntity
  8
Layer 1
370
     0
100
AcDbVertex
100
AcDb2dVertex
 10
261.7135687279744
 20
94.3673665128665
 30
0.0
  0
VERTEX
  5
171
330
16F
100
AcDbEntity
  8
Layer 1
370
     0
100
AcDbVertex
100
AcDb2dVertex
 10
261.7135687279744
 20
166.7467556006744
 30
0.0
  0
SEQEND
  5
172
330
16F
100
AcDbEntity
  8
Layer 1
370
     0
  0
POLYLINE
  5
173
330
44
100
AcDbEntity
  8
Layer 1
 62
     7
420
 16777215
370
    18
100
AcDb2dPolyline
 66
     1
 10
0.0
 20
0.0
 30
0.0
  0
VERTEX
  5
174
330
173
100
AcDbEntity
  8
Layer 1
 62
     7
420
 16777215
370
    18
100
AcDbVertex
100
AcDb2dVertex
 10
261.7135687279744
 20
94.3673665128665
 30
0.0
  0
VERTEX
  5
175
330
173
100
AcDbEntity
  8
Layer 1
 62
     7
420
 16777215
370
    18
100
AcDbVertex
100
AcDb2dVertex
 10
261.7135687279744
 20
166.7467556006744
 30
0.0
  0
SEQEND
  5
176
330
173
100
AcDbEntity
  8
Layer 1
370
    18
  0
POLYLINE
  5
177
330
44
100
AcDbEntity
  8
Layer 1
 62
     7
420
 16777215
370
    25
100
AcDb2dPolyline
 66
     1
 10
0.0
 20
0.0
 30
0.0
  0
VERTEX
  5
178
330
177
100
AcDbEntity
  8
Layer 1
 62
     7
420
 16777215
370
    25
100
AcDbVertex
100
AcDb2dVertex
 10
234.5445122026486
 20
64.30064017489707
 30
0.0
  0
VERTEX
  5
179
330
177
100
AcDbEntity
  8
Layer 1
 62
     7
420
 16777215
370
    25
100
AcDbVertex
100
AcDb2dVertex
 10
222.7905354260732
 20
64.30064017489707
 30
0.0
  0
SEQEND
  5
17A
330
177
100
AcDbEntity
  8
Layer 1
370
    25
  0
POLYLINE
  5
17B
330
44
100
AcDbEntity
  8
Layer 1
 62
     7
420
 16777215
370
    25
100
AcDb2dPolyline
 66
     1
 10
0.0
 20
0.0
 30
0.0
  0
VERTEX
  5
17C
330
17B
100
AcDbEntity
  8
Layer 1
 62
     7
420
 16777215
370
    25
100
AcDbVertex
100
AcDb2dVertex
 10
226.4468152645689
 20
64.30064017489707
 30
0.0
  0
VERTEX
  5
17D
330
17B
100
AcDbEntity
  8
Layer 1
 62
     7
420
 16777215
370
    25
100
AcDbVertex
100
AcDb2dVertex
 10
202.9385172018696
 20
64.30064017489707
 30
0.0
  0
SEQEND
  5
17E
330
17B
100
AcDbEntity
  8
Layer 1
370
    25
  0
POLYLINE
  5
17F
330
44
100
AcDbEntity
  8
Layer 1
 62
     7
420
 16777215
370
    25
100
AcDb2dPolyline
 66
     1
 10
0.0
 20
0.0
 30
0.0
  0
VERTEX
  5
180
330
17F
100
AcDbEntity
  8
Layer 1
 62
     7
420
 16777215
370
    25
100
AcDbVertex
100
AcDb2dVertex
 10
56.76535507478436
 20
64.30064017489707
 30
0.0
  0
VERTEX
  5
181
330
17F
100
AcDbEntity
  8
Layer 1
 62
     7
420
 16777215
370
    25
100
AcDbVertex
100
AcDb2dVertex
 10
33.25774603118209
 20
64.30064017489707
 30
0.0
  0
SEQEND
  5
182
330
17F
100
AcDbEntity
  8
Layer 1
370
    25
  0
POLYLINE
  5
183
330
44
100
AcDbEntity
  8
Layer 1
 62
     7
420
 16777215
370
    25
100
AcDb2dPolyline
 66
     1
 10
0.0
 20
0.0
 30
0.0
  0
VERTEX
  5
184
330
183
100
AcDbEntity
  8
Layer 1
 62
     7
420
 16777215
370
    25
100
AcDbVertex
100
AcDb2dVertex
 10
39.68956704736927
 20
64.63171385102957
 30
0.0
  0
VERTEX
  5
185
330
183
100
AcDbEntity
  8
Layer 1
 62
     7
420
 16777215
370
    25
100
AcDbVertex
100
AcDb2dVertex
 10
39.8180691089691
 20
64.50217826078418
 30
0.0
  0
SEQEND
  5
186
330
183
100
AcDbEntity
  8
Layer 1
370
    25
  0
POLYLINE
  5
187
330
44
100
AcDbEntity
  8
Layer 1
 62
     7
420
 16777215
370
    25
100
AcDb2dPolyline
 66
     1
 10
0.0
 20
0.0
 30
0.0
  0
VERTEX
  5
188
330
187
100
AcDbEntity
  8
Layer 1
 62
     7
420
 16777215
370
    25
100
AcDbVertex
100
AcDb2dVertex
 10
49.2128444972454
 20
64.50217826078418
 30
0.0
  0
VERTEX
  5
189
330
187
100
AcDbEntity
  8
Layer 1
 62
     7
420
 16777215
370
    25
100
AcDbVertex
100
AcDb2dVertex
 10
49.34272459703932
 20
64.63171385102957
 30
0.0
  0
SEQEND
  5
18A
330
187
100
AcDbEntity
  8
Layer 1
370
    25
  0
POLYLINE
  5
18B
330
44
100
AcDbEntity
  8
Layer 1
 62
     7
420
 16777215
370
    25
100
AcDb2dPolyline
 66
     1
 10
0.0
 20
0.0
 30
0.0
  0
VERTEX
  5
18C
330
18B
100
AcDbEntity
  8
Layer 1
 62
     7
420
 16777215
370
    25
100
AcDbVertex
100
AcDb2dVertex
 10
56.83425698448936
 20
64.63171385102957
 30
0.0
  0
VERTEX
  5
18D
330
18B
100
AcDbEntity
  8
Layer 1
 62
     7
420
 16777215
370
    25
100
AcDbVertex
100
AcDb2dVertex
 10
33.25636799298799
 20
64.63171385102957
 30
0.0
  0
SEQEND
  5
18E
330
18B
100
AcDbEntity
  8
Layer 1
370
    25
  0
POLYLINE
  5
18F
330
44
100
AcDbEntity
  8
Layer 1
 62
     7
420
 16777215
370
    25
100
AcDb2dPolyline
 66
     1
 10
0.0
 20
0.0
 30
0.0
  0
VERTEX
  5
190
330
18F
100
AcDbEntity
  8
Layer 1
 62
     7
420
 16777215
370
    25
100
AcDbVertex
100
AcDb2dVertex
 10
44.69184569195204
 20
64.50217826078418
 30
0.0
  0
VERTEX
  5
191
330
18F
100
AcDbEntity
  8
Layer 1
 62
     7
420
 16777215
370
    25
100
AcDbVertex
100
AcDb2dVertex
 10
39.81824136374336
 20
64.50217826078418
 30
0.0
  0
SEQEND
  5
192
330
18F
100
AcDbEntity
  8
Layer 1
370
    25
  0
POLYLINE
  5
193
330
44
100
AcDbEntity
  8
Layer 1
 62
     7
420
 16777215
370
    25
100
AcDb2dPolyline
 66
     1
 10
0.0
 20
0.0
 30
0.0
  0
VERTEX
  5
194
330
193
100
AcDbEntity
  8
Layer 1
 62
     7
420
 16777215
370
    25
100
AcDbVertex
100
AcDb2dVertex
 10
49.2128444972454
 20
64.50217826078418
 30
0.0
  0
VERTEX
  5
195
330
193
100
AcDbEntity
  8
Layer 1
 62
     7
420
 16777215
370
    25
100
AcDbVertex
100
AcDb2dVertex
 10
44.6920179467263
 20
64.50217826078418
 30
0.0
  0
SEQEND
  5
196
330
193
100
AcDbEntity
  8
Layer 1
370
    25
  0
POLYLINE
  5
197
330
44
100
AcDbEntity
  8
Layer 1
370
     0
100
AcDb2dPolyline
 66
     1
 10
0.0
 20
0.0
 30
0.0
  0
VERTEX
  5
198
330
197
100
AcDbEntity
  8
Layer 1
370
     0
100
AcDbVertex
100
AcDb2dVertex
 10
49.72254637428811
 20
137.0279839067152
 30
0.0
  0
VERTEX
  5
199
330
197
100
AcDbEntity
  8
Layer 1
370
     0
100
AcDbVertex
100
AcDb2dVertex
 10
44.6920179467263
 20
137.8661756382765
 30
0.0
  0
SEQEND
  5
19A
330
197
100
AcDbEntity
  8
Layer 1
370
     0
  0
POLYLINE
  5
19B
330
44
100
AcDbEntity
  8
Layer 1
 62
     7
420
 16777215
370
    18
100
AcDb2dPolyline
 66
     1
 10
0.0
 20
0.0
 30
0.0
  0
VERTEX
  5
19C
330
19B
100
AcDbEntity
  8
Layer 1
 62
     7
420
 16777215
370
    18
100
AcDbVertex
100
AcDb2dVertex
 10
49.72254637428811
 20
137.0279839067152
 30
0.0
  0
VERTEX
  5
19D
330
19B
100
AcDbEntity
  8
Layer 1
 62
     7
420
 16777215
370
    18
100
AcDbVertex
100
AcDb2dVertex
 10
44.6920179467263
 20
137.8661756382765
 30
0.0
  0
SEQEND
  5
19E
330
19B
100
AcDbEntity
  8
Layer 1
370
    18
  0
POLYLINE
  5
19F
330
44
100
AcDbEntity
  8
Layer 1
370
     0
100
AcDb2dPolyline
 66
     1
 10
0.0
 20
0.0
 30
0.0
  0
VERTEX
  5
1A0
330
19F
100
AcDbEntity
  8
Layer 1
370
     0
100
AcDbVertex
100
AcDb2dVertex
 10
44.69184569195204
 20
137.8661756382765
 30
0.0
  0
VERTEX
  5
1A1
330
19F
100
AcDbEntity
  8
Layer 1
370
     0
100
AcDbVertex
100
AcDb2dVertex
 10
49.72237411951385
 20
138.7047118793863
 30
0.0
  0
SEQEND
  5
1A2
330
19F
100
AcDbEntity
  8
Layer 1
370
     0
  0
POLYLINE
  5
1A3
330
44
100
AcDbEntity
  8
Layer 1
 62
     7
420
 16777215
370
    18
100
AcDb2dPolyline
 66
     1
 10
0.0
 20
0.0
 30
0.0
  0
VERTEX
  5
1A4
330
1A3
100
AcDbEntity
  8
Layer 1
 62
     7
420
 16777215
370
    18
100
AcDbVertex
100
AcDb2dVertex
 10
44.69184569195204
 20
137.8661756382765
 30
0.0
  0
VERTEX
  5
1A5
330
1A3
100
AcDbEntity
  8
Layer 1
 62
     7
420
 16777215
370
    18
100
AcDbVertex
100
AcDb2dVertex
 10
49.72237411951385
 20
138.7047118793863
 30
0.0
  0
SEQEND
  5
1A6
330
1A3
100
AcDbEntity
  8
Layer 1
370
    18
  0
POLYLINE
  5
1A7
330
44
100
AcDbEntity
  8
Layer 1
370
     0
100
AcDb2dPolyline
 66
     1
 10
0.0
 20
0.0
 30
0.0
  0
VERTEX
  5
1A8
330
1A7
100
AcDbEntity
  8
Layer 1
370
     0
100
AcDbVertex
100
AcDb2dVertex
 10
49.72254637428811
 20
137.0279839067152
 30
0.0
  0
VERTEX
  5
1A9
330
1A7
100
AcDbEntity
  8
Layer 1
370
     0
100
AcDbVertex
100
AcDb2dVertex
 10
49.72254637428811
 20
138.7047118793863
 30
0.0
  0
SEQEND
  5
1AA
330
1A7
100
AcDbEntity
  8
Layer 1
370
     0
  0
POLYLINE
  5
1AB
330
44
100
AcDbEntity
  8
Layer 1
 62
     7
420
 16777215
370
    18
100
AcDb2dPolyline
 66
     1
 10
0.0
 20
0.0
 30
0.0
  0
VERTEX
  5
1AC
330
1AB
100
AcDbEntity
  8
Layer 1
 62
     7
420
 16777215
370
    18
100
AcDbVertex
100
AcDb2dVertex
 10
49.72254637428811
 20
137.0279839067152
 30
0.0
  0
VERTEX
  5
1AD
330
1AB
100
AcDbEntity
  8
Layer 1
 62
     7
420
 16777215
370
    18
100
AcDbVertex
100
AcDb2dVertex
 10
49.72254637428811
 20
138.7047118793863
 30
0.0
  0
SEQEND
  5
1AE
330
1AB
100
AcDbEntity
  8
Layer 1
370
    18
  0
POLYLINE
  5
1AF
330
44
100
AcDbEntity
  8
Layer 1
370
     0
100
AcDb2dPolyline
 66
     1
 10
0.0
 20
0.0
 30
0.0
  0
VERTEX
  5
1B0
330
1AF
100
AcDbEntity
  8
Layer 1
370
     0
100
AcDbVertex
100
AcDb2dVertex
 10
44.69184569195204
 20
137.8661756382765
 30
0.0
  0
VERTEX
  5
1B1
330
1AF
100
AcDbEntity
  8
Layer 1
370
     0
100
AcDbVertex
100
AcDb2dVertex
 10
49.72237411951385
 20
137.8661756382765
 30
0.0
  0
SEQEND
  5
1B2
330
1AF
100
AcDbEntity
  8
Layer 1
370
     0
  0
POLYLINE
  5
1B3
330
44
100
AcDbEntity
  8
Layer 1
 62
     7
420
 16777215
370
    18
100
AcDb2dPolyline
 66
     1
 10
0.0
 20
0.0
 30
0.0
  0
VERTEX
  5
1B4
330
1B3
100
AcDbEntity
  8
Layer 1
 62
     7
420
 16777215
370
    18
100
AcDbVertex
100
AcDb2dVertex
 10
44.69184569195204
 20
137.8661756382765
 30
0.0
  0
VERTEX
  5
1B5
330
1B3
100
AcDbEntity
  8
Layer 1
 62
     7
420
 16777215
370
    18
100
AcDbVertex
100
AcDb2dVertex
 10
49.72237411951385
 20
137.8661756382765
 30
0.0
  0
SEQEND
  5
1B6
330
1B3
100
AcDbEntity
  8
Layer 1
370
    18
  0
POLYLINE
  5
1B7
330
44
100
AcDbEntity
  8
Layer 1
370
     0
100
AcDb2dPolyline
 66
     1
 10
0.0
 20
0.0
 30
0.0
  0
VERTEX
  5
1B8
330
1B7
100
AcDbEntity
  8
Layer 1
370
     0
100
AcDbVertex
100
AcDb2dVertex
 10
120.8804768578007
 20
138.7047118793863
 30
0.0
  0
VERTEX
  5
1B9
330
1B7
100
AcDbEntity
  8
Layer 1
370
     0
100
AcDbVertex
100
AcDb2dVertex
 10
125.9110052853625
 20
137.8661756382765
 30
0.0
  0
SEQEND
  5
1BA
330
1B7
100
AcDbEntity
  8
Layer 1
370
     0
  0
POLYLINE
  5
1BB
330
44
100
AcDbEntity
  8
Layer 1
 62
     7
420
 16777215
370
    18
100
AcDb2dPolyline
 66
     1
 10
0.0
 20
0.0
 30
0.0
  0
VERTEX
  5
1BC
330
1BB
100
AcDbEntity
  8
Layer 1
 62
     7
420
 16777215
370
    18
100
AcDbVertex
100
AcDb2dVertex
 10
120.8804768578007
 20
138.7047118793863
 30
0.0
  0
VERTEX
  5
1BD
330
1BB
100
AcDbEntity
  8
Layer 1
 62
     7
420
 16777215
370
    18
100
AcDbVertex
100
AcDb2dVertex
 10
125.9110052853625
 20
137.8661756382765
 30
0.0
  0
SEQEND
  5
1BE
330
1BB
100
AcDbEntity
  8
Layer 1
370
    18
  0
POLYLINE
  5
1BF
330
44
100
AcDbEntity
  8
Layer 1
370
     0
100
AcDb2dPolyline
 66
     1
 10
0.0
 20
0.0
 30
0.0
  0
VERTEX
  5
1C0
330
1BF
100
AcDbEntity
  8
Layer 1
370
     0
100
AcDbVertex
100
AcDb2dVertex
 10
125.9111775401368
 20
137.8661756382765
 30
0.0
  0
VERTEX
  5
1C1
330
1BF
100
AcDbEntity
  8
Layer 1
370
     0
100
AcDbVertex
100
AcDb2dVertex
 10
120.880649112575
 20
137.0279839067152
 30
0.0
  0
SEQEND
  5
1C2
330
1BF
100
AcDbEntity
  8
Layer 1
370
     0
  0
POLYLINE
  5
1C3
330
44
100
AcDbEntity
  8
Layer 1
 62
     7
420
 16777215
370
    18
100
AcDb2dPolyline
 66
     1
 10
0.0
 20
0.0
 30
0.0
  0
VERTEX
  5
1C4
330
1C3
100
AcDbEntity
  8
Layer 1
 62
     7
420
 16777215
370
    18
100
AcDbVertex
100
AcDb2dVertex
 10
125.9111775401368
 20
137.8661756382765
 30
0.0
  0
VERTEX
  5
1C5
330
1C3
100
AcDbEntity
  8
Layer 1
 62
     7
420
 16777215
370
    18
100
AcDbVertex
100
AcDb2dVertex
 10
120.880649112575
 20
137.0279839067152
 30
0.0
  0
SEQEND
  5
1C6
330
1C3
100
AcDbEntity
  8
Layer 1
370
    18
  0
POLYLINE
  5
1C7
330
44
100
AcDbEntity
  8
Layer 1
370
     0
100
AcDb2dPolyline
 66
     1
 10
0.0
 20
0.0
 30
0.0
  0
VERTEX
  5
1C8
330
1C7
100
AcDbEntity
  8
Layer 1
370
     0
100
AcDbVertex
100
AcDb2dVertex
 10
120.8804768578007
 20
138.7047118793863
 30
0.0
  0
VERTEX
  5
1C9
330
1C7
100
AcDbEntity
  8
Layer 1
370
     0
100
AcDbVertex
100
AcDb2dVertex
 10
120.8804768578007
 20
137.0279839067152
 30
0.0
  0
SEQEND
  5
1CA
330
1C7
100
AcDbEntity
  8
Layer 1
370
     0
  0
POLYLINE
  5
1CB
330
44
100
AcDbEntity
  8
Layer 1
 62
     7
420
 16777215
370
    18
100
AcDb2dPolyline
 66
     1
 10
0.0
 20
0.0
 30
0.0
  0
VERTEX
  5
1CC
330
1CB
100
AcDbEntity
  8
Layer 1
 62
     7
420
 16777215
370
    18
100
AcDbVertex
100
AcDb2dVertex
 10
120.8804768578007
 20
138.7047118793863
 30
0.0
  0
VERTEX
  5
1CD
330
1CB
100
AcDbEntity
  8
Layer 1
 62
     7
420
 16777215
370
    18
100
AcDbVertex
100
AcDb2dVertex
 10
120.8804768578007
 20
137.0279839067152
 30
0.0
  0
SEQEND
  5
1CE
330
1CB
100
AcDbEntity
  8
Layer 1
370
    18
  0
POLYLINE
  5
1CF
330
44
100
AcDbEntity
  8
Layer 1
370
     0
100
AcDb2dPolyline
 66
     1
 10
0.0
 20
0.0
 30
0.0
  0
VERTEX
  5
1D0
330
1CF
100
AcDbEntity
  8
Layer 1
370
     0
100
AcDbVertex
100
AcDb2dVertex
 10
125.9111775401368
 20
137.8661756382765
 30
0.0
  0
VERTEX
  5
1D1
330
1CF
100
AcDbEntity
  8
Layer 1
370
     0
100
AcDbVertex
100
AcDb2dVertex
 10
120.880649112575
 20
137.8661756382765
 30
0.0
  0
SEQEND
  5
1D2
330
1CF
100
AcDbEntity
  8
Layer 1
370
     0
  0
POLYLINE
  5
1D3
330
44
100
AcDbEntity
  8
Layer 1
 62
     7
420
 16777215
370
    18
100
AcDb2dPolyline
 66
     1
 10
0.0
 20
0.0
 30
0.0
  0
VERTEX
  5
1D4
330
1D3
100
AcDbEntity
  8
Layer 1
 62
     7
420
 16777215
370
    18
100
AcDbVertex
100
AcDb2dVertex
 10
125.9111775401368
 20
137.8661756382765
 30
0.0
  0
VERTEX
  5
1D5
330
1D3
100
AcDbEntity
  8
Layer 1
 62
     7
420
 16777215
370
    18
100
AcDbVertex
100
AcDb2dVertex
 10
120.880649112575
 20
137.8661756382765
 30
0.0
  0
SEQEND
  5
1D6
330
1D3
100
AcDbEntity
  8
Layer 1
370
    18
  0
POLYLINE
  5
1D7
330
44
100
AcDbEntity
  8
Layer 1
370
     0
100
AcDb2dPolyline
 66
     1
 10
0.0
 20
0.0
 30
0.0
  0
VERTEX
  5
1D8
330
1D7
100
AcDbEntity
  8
Layer 1
370
     0
100
AcDbVertex
100
AcDb2dVertex
 10
125.9111775401368
 20
146.6022487697731
 30
0.0
  0
VERTEX
  5
1D9
330
1D7
100
AcDbEntity
  8
Layer 1
370
     0
100
AcDbVertex
100
AcDb2dVertex
 10
125.9111775401368
 20
136.4517916868072
 30
0.0
  0
SEQEND
  5
1DA
330
1D7
100
AcDbEntity
  8
Layer 1
370
     0
  0
POLYLINE
  5
1DB
330
44
100
AcDbEntity
  8
Layer 1
 62
     7
420
 16777215
370
    18
100
AcDb2dPolyline
 66
     1
 10
0.0
 20
0.0
 30
0.0
  0
VERTEX
  5
1DC
330
1DB
100
AcDbEntity
  8
Layer 1
 62
     7
420
 16777215
370
    18
100
AcDbVertex
100
AcDb2dVertex
 10
125.9111775401368
 20
146.6022487697731
 30
0.0
  0
VERTEX
  5
1DD
330
1DB
100
AcDbEntity
  8
Layer 1
 62
     7
420
 16777215
370
    18
100
AcDbVertex
100
AcDb2dVertex
 10
125.9111775401368
 20
136.4517916868072
 30
0.0
  0
SEQEND
  5
1DE
330
1DB
100
AcDbEntity
  8
Layer 1
370
    18
  0
POLYLINE
  5
1DF
330
44
100
AcDbEntity
  8
Layer 1
370
     0
100
AcDb2dPolyline
 66
     1
 10
0.0
 20
0.0
 30
0.0
  0
VERTEX
  5
1E0
330
1DF
100
AcDbEntity
  8
Layer 1
370
     0
100
AcDbVertex
100
AcDb2dVertex
 10
44.69184569195204
 20
137.8661756382765
 30
0.0
  0
VERTEX
  5
1E1
330
1DF
100
AcDbEntity
  8
Layer 1
370
     0
100
AcDbVertex
100
AcDb2dVertex
 10
125.9111775401368
 20
137.8661756382765
 30
0.0
  0
SEQEND
  5
1E2
330
1DF
100
AcDbEntity
  8
Layer 1
370
     0
  0
POLYLINE
  5
1E3
330
44
100
AcDbEntity
  8
Layer 1
 62
     7
420
 16777215
370
    18
100
AcDb2dPolyline
 66
     1
 10
0.0
 20
0.0
 30
0.0
  0
VERTEX
  5
1E4
330
1E3
100
AcDbEntity
  8
Layer 1
 62
     7
420
 16777215
370
    18
100
AcDbVertex
100
AcDb2dVertex
 10
44.69184569195204
 20
137.8661756382765
 30
0.0
  0
VERTEX
  5
1E5
330
1E3
100
AcDbEntity
  8
Layer 1
 62
     7
420
 16777215
370
    18
100
AcDbVertex
100
AcDb2dVertex
 10
125.9111775401368
 20
137.8661756382765
 30
0.0
  0
SEQEND
  5
1E6
330
1E3
100
AcDbEntity
  8
Layer 1
370
    18
  0
MTEXT
  5
1E7
330
44
100
AcDbEntity
  8
Layer 1
 62
     7
420
 16777215
100
AcDbMText
 10
81.92471514878966
 20
139.6335096222097
 30
0.0
 40
2.973614601027633
 41
0.0
 71
     7
 72
     1
  1
\fArial|b0|i0|c0|p34;\W1;172
 73
     1
 44
1.0
  0
POLYLINE
  5
1E8
330
44
100
AcDbEntity
  8
Layer 1
 62
     7
420
 16777215
370
    35
100
AcDb2dPolyline
 66
     1
 10
0.0
 20
0.0
 30
0.0
  0
VERTEX
  5
1E9
330
1E8
100
AcDbEntity
  8
Layer 1
 62
     7
420
 16777215
370
    35
100
AcDbVertex
100
AcDb2dVertex
 10
219.1335665684805
 20
119.7584092582548
 30
0.0
  0
VERTEX
  5
1EA
330
1E8
100
AcDbEntity
  8
Layer 1
 62
     7
420
 16777215
370
    35
100
AcDbVertex
100
AcDb2dVertex
 10
219.1335665684805
 20
123.5306165598292
 30
0.0
  0
SEQEND
  5
1EB
330
1E8
100
AcDbEntity
  8
Layer 1
370
    35
  0
POLYLINE
  5
1EC
330
44
100
AcDbEntity
  8
Layer 1
 62
     7
420
 16777215
370
    35
100
AcDb2dPolyline
 66
     1
 10
0.0
 20
0.0
 30
0.0
  0
VERTEX
  5
1ED
330
1EC
100
AcDbEntity
  8
Layer 1
 62
     7
420
 16777215
370
    35
100
AcDbVertex
100
AcDb2dVertex
 10
210.150135581143
 20
123.5307888146034
 30
0.0
  0
VERTEX
  5
1EE
330
1EC
100
AcDbEntity
  8
Layer 1
 62
     7
420
 16777215
370
    35
100
AcDbVertex
100
AcDb2dVertex
 10
210.150135581143
 20
119.7585815130291
 30
0.0
  0
SEQEND
  5
1EF
330
1EC
100
AcDbEntity
  8
Layer 1
370
    35
  0
SPLINE
  5
1F0
330
44
100
AcDbEntity
  8
Layer 1
 62
     7
420
 16777215
370
    35
100
AcDbSpline
210
0.0
220
0.0
230
1.0
 70
     8
 71
     3
 72
    11
 73
     7
 74
     0
 42
0.0000000001
 43
0.0000000001
 40
0.0
 40
0.0
 40
0.0
 40
0.0
 40
1.0
 40
1.0
 40
1.0
 40
2.0
 40
2.0
 40
2.0
 40
2.0
 10
219.1335665684805
 20
200.2404906725961
 30
0.0
 10
219.1335665684805
 20
202.7211316767503
 30
0.0
 10
217.1223198241917
 20
204.7320339114906
 30
0.0
 10
214.6421955843603
 20
204.7320339114906
 30
0.0
 10
212.1610378158834
 20
204.7320339114906
 30
0.0
 10
210.150135581143
 20
202.7211316767503
 30
0.0
 10
210.150135581143
 20
200.2404906725961
 30
0.0
  0
POLYLINE
  5
1F1
330
44
100
AcDbEntity
  8
Layer 1
 62
     7
420
 16777215
370
    35
100
AcDb2dPolyline
 66
     1
 10
0.0
 20
0.0
 30
0.0
  0
VERTEX
  5
1F2
330
1F1
100
AcDbEntity
  8
Layer 1
 62
     7
420
 16777215
370
    35
100
AcDbVertex
100
AcDb2dVertex
 10
210.150135581143
 20
200.2404906725961
 30
0.0
  0
VERTEX
  5
1F3
330
1F1
100
AcDbEntity
  8
Layer 1
 62
     7
420
 16777215
370
    35
100
AcDbVertex
100
AcDb2dVertex
 10
210.150135581143
 20
123.5307888146034
 30
0.0
  0
SEQEND
  5
1F4
330
1F1
100
AcDbEntity
  8
Layer 1
370
    35
  0
POLYLINE
  5
1F5
330
44
100
AcDbEntity
  8
Layer 1
 62
     7
420
 16777215
370
    35
100
AcDb2dPolyline
 66
     1
 10
0.0
 20
0.0
 30
0.0
  0
VERTEX
  5
1F6
330
1F5
100
AcDbEntity
  8
Layer 1
 62
     7
420
 16777215
370
    35
100
AcDbVertex
100
AcDb2dVertex
 10
219.1335665684805
 20
123.5307888146034
 30
0.0
  0
VERTEX
  5
1F7
330
1F5
100
AcDbEntity
  8
Layer 1
 62
     7
420
 16777215
370
    35
100
AcDbVertex
100
AcDb2dVertex
 10
219.1335665684805
 20
200.2404906725961
 30
0.0
  0
SEQEND
  5
1F8
330
1F5
100
AcDbEntity
  8
Layer 1
370
    35
  0
POLYLINE
  5
1F9
330
44
100
AcDbEntity
  8
Layer 1
 62
     7
420
 16777215
370
    35
100
AcDb2dPolyline
 66
     1
 10
0.0
 20
0.0
 30
0.0
  0
VERTEX
  5
1FA
330
1F9
100
AcDbEntity
  8
Layer 1
 62
     7
420
 16777215
370
    35
100
AcDbVertex
100
AcDb2dVertex
 10
219.1335665684805
 20
86.26243487426773
 30
0.0
  0
VERTEX
  5
1FB
330
1F9
100
AcDbEntity
  8
Layer 1
 62
     7
420
 16777215
370
    35
100
AcDbVertex
100
AcDb2dVertex
 10
219.1335665684805
 20
110.5631048985745
 30
0.0
  0
SEQEND
  5
1FC
330
1F9
100
AcDbEntity
  8
Layer 1
370
    35
  0
POLYLINE
  5
1FD
330
44
100
AcDbEntity
  8
Layer 1
 62
     7
420
 16777215
370
    35
100
AcDb2dPolyline
 66
     1
 10
0.0
 20
0.0
 30
0.0
  0
VERTEX
  5
1FE
330
1FD
100
AcDbEntity
  8
Layer 1
 62
     7
420
 16777215
370
    35
100
AcDbVertex
100
AcDb2dVertex
 10
210.150135581143
 20
110.5631048985745
 30
0.0
  0
VERTEX
  5
1FF
330
1FD
100
AcDbEntity
  8
Layer 1
 62
     7
420
 16777215
370
    35
100
AcDbVertex
100
AcDb2dVertex
 10
210.150135581143
 20
86.26243487426773
 30
0.0
  0
SEQEND
  5
200
330
1FD
100
AcDbEntity
  8
Layer 1
370
    35
  0
POLYLINE
  5
201
330
44
100
AcDbEntity
  8
Layer 1
 62
     7
420
 16777215
370
    35
100
AcDb2dPolyline
 66
     1
 10
0.0
 20
0.0
 30
0.0
  0
VERTEX
  5
202
330
201
100
AcDbEntity
  8
Layer 1
 62
     7
420
 16777215
370
    35
100
AcDbVertex
100
AcDb2dVertex
 10
219.1335665684805
 20
110.5631048985745
 30
0.0
  0
VERTEX
  5
203
330
201
100
AcDbEntity
  8
Layer 1
 62
     7
420
 16777215
370
    35
100
AcDbVertex
100
AcDb2dVertex
 10
219.1335665684805
 20
119.7582370034806
 30
0.0
  0
SEQEND
  5
204
330
201
100
AcDbEntity
  8
Layer 1
370
    35
  0
POLYLINE
  5
205
330
44
100
AcDbEntity
  8
Layer 1
 62
     7
420
 16777215
370
    35
100
AcDb2dPolyline
 66
     1
 10
0.0
 20
0.0
 30
0.0
  0
VERTEX
  5
206
330
205
100
AcDbEntity
  8
Layer 1
 62
     7
420
 16777215
370
    35
100
AcDbVertex
100
AcDb2dVertex
 10
210.150135581143
 20
119.7584092582548
 30
0.0
  0
VERTEX
  5
207
330
205
100
AcDbEntity
  8
Layer 1
 62
     7
420
 16777215
370
    35
100
AcDbVertex
100
AcDb2dVertex
 10
210.150135581143
 20
110.5632771533488
 30
0.0
  0
SEQEND
  5
208
330
205
100
AcDbEntity
  8
Layer 1
370
    35
  0
POLYLINE
  5
209
330
44
100
AcDbEntity
  8
Layer 1
 62
     7
420
 16777215
370
    18
100
AcDb2dPolyline
 66
     1
 10
0.0
 20
0.0
 30
0.0
  0
VERTEX
  5
20A
330
209
100
AcDbEntity
  8
Layer 1
 62
     7
420
 16777215
370
    18
100
AcDbVertex
100
AcDb2dVertex
 10
219.1335665684805
 20
157.2305405965431
 30
0.0
  0
VERTEX
  5
20B
330
209
100
AcDbEntity
  8
Layer 1
 62
     7
420
 16777215
370
    18
100
AcDbVertex
100
AcDb2dVertex
 10
210.150135581143
 20
157.2305405965431
 30
0.0
  0
SEQEND
  5
20C
330
209
100
AcDbEntity
  8
Layer 1
370
    18
  0
POLYLINE
  5
20D
330
44
100
AcDbEntity
  8
Layer 1
 62
     7
420
 16777215
370
    35
100
AcDb2dPolyline
 66
     1
 10
0.0
 20
0.0
 30
0.0
  0
VERTEX
  5
20E
330
20D
100
AcDbEntity
  8
Layer 1
 62
     7
420
 16777215
370
    35
100
AcDbVertex
100
AcDb2dVertex
 10
219.1335665684805
 20
148.0352362368627
 30
0.0
  0
VERTEX
  5
20F
330
20D
100
AcDbEntity
  8
Layer 1
 62
     7
420
 16777215
370
    35
100
AcDbVertex
100
AcDb2dVertex
 10
210.1618489057929
 20
148.0352362368627
 30
0.0
  0
SEQEND
  5
210
330
20D
100
AcDbEntity
  8
Layer 1
370
    35
  0
POLYLINE
  5
211
330
44
100
AcDbEntity
  8
Layer 1
 62
     7
420
 16777215
370
    18
100
AcDb2dPolyline
 66
     1
 10
0.0
 20
0.0
 30
0.0
  0
VERTEX
  5
212
330
211
100
AcDbEntity
  8
Layer 1
 62
     7
420
 16777215
370
    18
100
AcDbVertex
100
AcDb2dVertex
 10
290.1163139465681
 20
69.68739147563372
 30
0.0
  0
VERTEX
  5
213
330
211
100
AcDbEntity
  8
Layer 1
 62
     7
420
 16777215
370
    18
100
AcDbVertex
100
AcDb2dVertex
 10
289.2777777054583
 20
64.6568630480719
 30
0.0
  0
SEQEND
  5
214
330
211
100
AcDbEntity
  8
Layer 1
370
    18
  0
POLYLINE
  5
215
330
44
100
AcDbEntity
  8
Layer 1
 62
     7
420
 16777215
370
    18
100
AcDb2dPolyline
 66
     1
 10
0.0
 20
0.0
 30
0.0
  0
VERTEX
  5
216
330
215
100
AcDbEntity
  8
Layer 1
 62
     7
420
 16777215
370
    18
100
AcDbVertex
100
AcDb2dVertex
 10
289.2777777054583
 20
64.6568630480719
 30
0.0
  0
VERTEX
  5
217
330
215
100
AcDbEntity
  8
Layer 1
 62
     7
420
 16777215
370
    18
100
AcDbVertex
100
AcDb2dVertex
 10
288.4395859738971
 20
69.68739147563372
 30
0.0
  0
SEQEND
  5
218
330
215
100
AcDbEntity
  8
Layer 1
370
    18
  0
POLYLINE
  5
219
330
44
100
AcDbEntity
  8
Layer 1
 62
     7
420
 16777215
370
    18
100
AcDb2dPolyline
 66
     1
 10
0.0
 20
0.0
 30
0.0
  0
VERTEX
  5
21A
330
219
100
AcDbEntity
  8
Layer 1
 62
     7
420
 16777215
370
    18
100
AcDbVertex
100
AcDb2dVertex
 10
290.1163139465681
 20
69.68739147563372
 30
0.0
  0
VERTEX
  5
21B
330
219
100
AcDbEntity
  8
Layer 1
 62
     7
420
 16777215
370
    18
100
AcDbVertex
100
AcDb2dVertex
 10
288.4395859738971
 20
69.68739147563372
 30
0.0
  0
SEQEND
  5
21C
330
219
100
AcDbEntity
  8
Layer 1
370
    18
  0
POLYLINE
  5
21D
330
44
100
AcDbEntity
  8
Layer 1
 62
     7
420
 16777215
370
    18
100
AcDb2dPolyline
 66
     1
 10
0.0
 20
0.0
 30
0.0
  0
VERTEX
  5
21E
330
21D
100
AcDbEntity
  8
Layer 1
 62
     7
420
 16777215
370
    18
100
AcDbVertex
100
AcDb2dVertex
 10
289.2777777054583
 20
64.6568630480719
 30
0.0
  0
VERTEX
  5
21F
330
21D
100
AcDbEntity
  8
Layer 1
 62
     7
420
 16777215
370
    18
100
AcDbVertex
100
AcDb2dVertex
 10
289.2777777054583
 20
69.68739147563372
 30
0.0
  0
SEQEND
  5
220
330
21D
100
AcDbEntity
  8
Layer 1
370
    18
  0
POLYLINE
  5
221
330
44
100
AcDbEntity
  8
Layer 1
 62
     7
420
 16777215
370
    18
100
AcDb2dPolyline
 66
     1
 10
0.0
 20
0.0
 30
0.0
  0
VERTEX
  5
222
330
221
100
AcDbEntity
  8
Layer 1
 62
     7
420
 16777215
370
    18
100
AcDbVertex
100
AcDb2dVertex
 10
288.4395859738971
 20
95.3064995421456
 30
0.0
  0
VERTEX
  5
223
330
221
100
AcDbEntity
  8
Layer 1
 62
     7
420
 16777215
370
    18
100
AcDbVertex
100
AcDb2dVertex
 10
289.2777777054583
 20
100.3370279697074
 30
0.0
  0
SEQEND
  5
224
330
221
100
AcDbEntity
  8
Layer 1
370
    18
  0
POLYLINE
  5
225
330
44
100
AcDbEntity
  8
Layer 1
 62
     7
420
 16777215
370
    18
100
AcDb2dPolyline
 66
     1
 10
0.0
 20
0.0
 30
0.0
  0
VERTEX
  5
226
330
225
100
AcDbEntity
  8
Layer 1
 62
     7
420
 16777215
370
    18
100
AcDbVertex
100
AcDb2dVertex
 10
289.2777777054583
 20
100.3370279697074
 30
0.0
  0
VERTEX
  5
227
330
225
100
AcDbEntity
  8
Layer 1
 62
     7
420
 16777215
370
    18
100
AcDbVertex
100
AcDb2dVertex
 10
290.1163139465681
 20
95.3064995421456
 30
0.0
  0
SEQEND
  5
228
330
225
100
AcDbEntity
  8
Layer 1
370
    18
  0
POLYLINE
  5
229
330
44
100
AcDbEntity
  8
Layer 1
 62
     7
420
 16777215
370
    18
100
AcDb2dPolyline
 66
     1
 10
0.0
 20
0.0
 30
0.0
  0
VERTEX
  5
22A
330
229
100
AcDbEntity
  8
Layer 1
 62
     7
420
 16777215
370
    18
100
AcDbVertex
100
AcDb2dVertex
 10
288.4395859738971
 20
95.3064995421456
 30
0.0
  0
VERTEX
  5
22B
330
229
100
AcDbEntity
  8
Layer 1
 62
     7
420
 16777215
370
    18
100
AcDbVertex
100
AcDb2dVertex
 10
290.1163139465681
 20
95.3064995421456
 30
0.0
  0
SEQEND
  5
22C
330
229
100
AcDbEntity
  8
Layer 1
370
    18
  0
POLYLINE
  5
22D
330
44
100
AcDbEntity
  8
Layer 1
 62
     7
420
 16777215
370
    18
100
AcDb2dPolyline
 66
     1
 10
0.0
 20
0.0
 30
0.0
  0
VERTEX
  5
22E
330
22D
100
AcDbEntity
  8
Layer 1
 62
     7
420
 16777215
370
    18
100
AcDbVertex
100
AcDb2dVertex
 10
289.2777777054583
 20
100.3370279697074
 30
0.0
  0
VERTEX
  5
22F
330
22D
100
AcDbEntity
  8
Layer 1
 62
     7
420
 16777215
370
    18
100
AcDbVertex
100
AcDb2dVertex
 10
289.2777777054583
 20
95.3064995421456
 30
0.0
  0
SEQEND
  5
230
330
22D
100
AcDbEntity
  8
Layer 1
370
    18
  0
POLYLINE
  5
231
330
44
100
AcDbEntity
  8
Layer 1
 62
     7
420
 16777215
370
    18
100
AcDb2dPolyline
 66
     1
 10
0.0
 20
0.0
 30
0.0
  0
VERTEX
  5
232
330
231
100
AcDbEntity
  8
Layer 1
 62
     7
420
 16777215
370
    18
100
AcDbVertex
100
AcDb2dVertex
 10
286.859320674813
 20
100.4527831780118
 30
0.0
  0
VERTEX
  5
233
330
231
100
AcDbEntity
  8
Layer 1
 62
     7
420
 16777215
370
    18
100
AcDbVertex
100
AcDb2dVertex
 10
290.6926784212504
 20
100.4527831780118
 30
0.0
  0
SEQEND
  5
234
330
231
100
AcDbEntity
  8
Layer 1
370
    18
  0
POLYLINE
  5
235
330
44
100
AcDbEntity
  8
Layer 1
 62
     7
420
 16777215
370
    18
100
AcDb2dPolyline
 66
     1
 10
0.0
 20
0.0
 30
0.0
  0
VERTEX
  5
236
330
235
100
AcDbEntity
  8
Layer 1
 62
     7
420
 16777215
370
    18
100
AcDbVertex
100
AcDb2dVertex
 10
278.8288030986956
 20
64.63171385102957
 30
0.0
  0
VERTEX
  5
237
330
235
100
AcDbEntity
  8
Layer 1
 62
     7
420
 16777215
370
    18
100
AcDbVertex
100
AcDb2dVertex
 10
290.6926784212504
 20
64.63171385102957
 30
0.0
  0
SEQEND
  5
238
330
235
100
AcDbEntity
  8
Layer 1
370
    18
  0
POLYLINE
  5
239
330
44
100
AcDbEntity
  8
Layer 1
 62
     7
420
 16777215
370
    18
100
AcDb2dPolyline
 66
     1
 10
0.0
 20
0.0
 30
0.0
  0
VERTEX
  5
23A
330
239
100
AcDbEntity
  8
Layer 1
 62
     7
420
 16777215
370
    18
100
AcDbVertex
100
AcDb2dVertex
 10
289.2777777054583
 20
64.65617402897485
 30
0.0
  0
VERTEX
  5
23B
330
239
100
AcDbEntity
  8
Layer 1
 62
     7
420
 16777215
370
    18
100
AcDbVertex
100
AcDb2dVertex
 10
289.2777777054583
 20
99.696929228548
 30
0.0
  0
SEQEND
  5
23C
330
239
100
AcDbEntity
  8
Layer 1
370
    18
  0
MTEXT
  5
23D
330
44
100
AcDbEntity
  8
Layer 1
 62
     7
420
 16777215
100
AcDbMText
 10
287.9500379054431
 20
80.71996525759779
 30
0.0
 40
2.973590808336938
 41
0.0
 71
     7
 72
     1
  1
\fArial|b0|i0|c0|p34;\W1;77
 11
-4.371139000186241E-8
 21
0.999999999999999
 31
0.0
 73
     1
 44
1.0
  0
POLYLINE
  5
23E
330
44
100
AcDbEntity
  8
Layer 1
 62
     7
420
 16777215
370
    18
100
AcDb2dPolyline
 66
     1
 10
0.0
 20
0.0
 30
0.0
  0
VERTEX
  5
23F
330
23E
100
AcDbEntity
  8
Layer 1
 62
     7
420
 16777215
370
    18
100
AcDbVertex
100
AcDb2dVertex
 10
160.0215847039182
 20
110.4101426590294
 30
0.0
  0
VERTEX
  5
240
330
23E
100
AcDbEntity
  8
Layer 1
 62
     7
420
 16777215
370
    18
100
AcDbVertex
100
AcDb2dVertex
 10
154.9910562763564
 20
111.2486789001392
 30
0.0
  0
SEQEND
  5
241
330
23E
100
AcDbEntity
  8
Layer 1
370
    18
  0
POLYLINE
  5
242
330
44
100
AcDbEntity
  8
Layer 1
 62
     7
420
 16777215
370
    18
100
AcDb2dPolyline
 66
     1
 10
0.0
 20
0.0
 30
0.0
  0
VERTEX
  5
243
330
242
100
AcDbEntity
  8
Layer 1
 62
     7
420
 16777215
370
    18
100
AcDbVertex
100
AcDb2dVertex
 10
154.9910562763564
 20
111.2486789001392
 30
0.0
  0
VERTEX
  5
244
330
242
100
AcDbEntity
  8
Layer 1
 62
     7
420
 16777215
370
    18
100
AcDbVertex
100
AcDb2dVertex
 10
160.0215847039182
 20
112.0868706317005
 30
0.0
  0
SEQEND
  5
245
330
242
100
AcDbEntity
  8
Layer 1
370
    18
  0
POLYLINE
  5
246
330
44
100
AcDbEntity
  8
Layer 1
 62
     7
420
 16777215
370
    18
100
AcDb2dPolyline
 66
     1
 10
0.0
 20
0.0
 30
0.0
  0
VERTEX
  5
247
330
246
100
AcDbEntity
  8
Layer 1
 62
     7
420
 16777215
370
    18
100
AcDbVertex
100
AcDb2dVertex
 10
160.0215847039182
 20
110.4101426590294
 30
0.0
  0
VERTEX
  5
248
330
246
100
AcDbEntity
  8
Layer 1
 62
     7
420
 16777215
370
    18
100
AcDbVertex
100
AcDb2dVertex
 10
160.0215847039182
 20
112.0868706317005
 30
0.0
  0
SEQEND
  5
249
330
246
100
AcDbEntity
  8
Layer 1
370
    18
  0
POLYLINE
  5
24A
330
44
100
AcDbEntity
  8
Layer 1
 62
     7
420
 16777215
370
    18
100
AcDb2dPolyline
 66
     1
 10
0.0
 20
0.0
 30
0.0
  0
VERTEX
  5
24B
330
24A
100
AcDbEntity
  8
Layer 1
 62
     7
420
 16777215
370
    18
100
AcDbVertex
100
AcDb2dVertex
 10
154.9910562763564
 20
111.2486789001392
 30
0.0
  0
VERTEX
  5
24C
330
24A
100
AcDbEntity
  8
Layer 1
 62
     7
420
 16777215
370
    18
100
AcDbVertex
100
AcDb2dVertex
 10
160.0215847039182
 20
111.2486789001392
 30
0.0
  0
SEQEND
  5
24D
330
24A
100
AcDbEntity
  8
Layer 1
370
    18
  0
POLYLINE
  5
24E
330
44
100
AcDbEntity
  8
Layer 1
 62
     7
420
 16777215
370
    18
100
AcDb2dPolyline
 66
     1
 10
0.0
 20
0.0
 30
0.0
  0
VERTEX
  5
24F
330
24E
100
AcDbEntity
  8
Layer 1
 62
     7
420
 16777215
370
    18
100
AcDbVertex
100
AcDb2dVertex
 10
176.007861284123
 20
112.0868706317005
 30
0.0
  0
VERTEX
  5
250
330
24E
100
AcDbEntity
  8
Layer 1
 62
     7
420
 16777215
370
    18
100
AcDbVertex
100
AcDb2dVertex
 10
181.0387342212334
 20
111.2486789001392
 30
0.0
  0
SEQEND
  5
251
330
24E
100
AcDbEntity
  8
Layer 1
370
    18
  0
POLYLINE
  5
252
330
44
100
AcDbEntity
  8
Layer 1
 62
     7
420
 16777215
370
    18
100
AcDb2dPolyline
 66
     1
 10
0.0
 20
0.0
 30
0.0
  0
VERTEX
  5
253
330
252
100
AcDbEntity
  8
Layer 1
 62
     7
420
 16777215
370
    18
100
AcDbVertex
100
AcDb2dVertex
 10
181.0387342212334
 20
111.2486789001392
 30
0.0
  0
VERTEX
  5
254
330
252
100
AcDbEntity
  8
Layer 1
 62
     7
420
 16777215
370
    18
100
AcDbVertex
100
AcDb2dVertex
 10
176.007861284123
 20
110.4101426590294
 30
0.0
  0
SEQEND
  5
255
330
252
100
AcDbEntity
  8
Layer 1
370
    18
  0
POLYLINE
  5
256
330
44
100
AcDbEntity
  8
Layer 1
 62
     7
420
 16777215
370
    18
100
AcDb2dPolyline
 66
     1
 10
0.0
 20
0.0
 30
0.0
  0
VERTEX
  5
257
330
256
100
AcDbEntity
  8
Layer 1
 62
     7
420
 16777215
370
    18
100
AcDbVertex
100
AcDb2dVertex
 10
176.007861284123
 20
112.0868706317005
 30
0.0
  0
VERTEX
  5
258
330
256
100
AcDbEntity
  8
Layer 1
 62
     7
420
 16777215
370
    18
100
AcDbVertex
100
AcDb2dVertex
 10
176.007861284123
 20
110.4101426590294
 30
0.0
  0
SEQEND
  5
259
330
256
100
AcDbEntity
  8
Layer 1
370
    18
  0
POLYLINE
  5
25A
330
44
100
AcDbEntity
  8
Layer 1
 62
     7
420
 16777215
370
    18
100
AcDb2dPolyline
 66
     1
 10
0.0
 20
0.0
 30
0.0
  0
VERTEX
  5
25B
330
25A
100
AcDbEntity
  8
Layer 1
 62
     7
420
 16777215
370
    18
100
AcDbVertex
100
AcDb2dVertex
 10
181.0387342212334
 20
111.2486789001392
 30
0.0
  0
VERTEX
  5
25C
330
25A
100
AcDbEntity
  8
Layer 1
 62
     7
420
 16777215
370
    18
100
AcDbVertex
100
AcDb2dVertex
 10
176.007861284123
 20
111.2486789001392
 30
0.0
  0
SEQEND
  5
25D
330
25A
100
AcDbEntity
  8
Layer 1
370
    18
  0
POLYLINE
  5
25E
330
44
100
AcDbEntity
  8
Layer 1
 62
     7
420
 16777215
370
    18
100
AcDb2dPolyline
 66
     1
 10
0.0
 20
0.0
 30
0.0
  0
VERTEX
  5
25F
330
25E
100
AcDbEntity
  8
Layer 1
 62
     7
420
 16777215
370
    18
100
AcDbVertex
100
AcDb2dVertex
 10
154.9910562763564
 20
69.14444442715833
 30
0.0
  0
VERTEX
  5
260
330
25E
100
AcDbEntity
  8
Layer 1
 62
     7
420
 16777215
370
    18
100
AcDbVertex
100
AcDb2dVertex
 10
154.9910562763564
 20
113.9472221937354
 30
0.0
  0
SEQEND
  5
261
330
25E
100
AcDbEntity
  8
Layer 1
370
    18
  0
POLYLINE
  5
262
330
44
100
AcDbEntity
  8
Layer 1
 62
     7
420
 16777215
370
    18
100
AcDb2dPolyline
 66
     1
 10
0.0
 20
0.0
 30
0.0
  0
VERTEX
  5
263
330
262
100
AcDbEntity
  8
Layer 1
 62
     7
420
 16777215
370
    18
100
AcDbVertex
100
AcDb2dVertex
 10
181.0387342212334
 20
69.14444442715833
 30
0.0
  0
VERTEX
  5
264
330
262
100
AcDbEntity
  8
Layer 1
 62
     7
420
 16777215
370
    18
100
AcDbVertex
100
AcDb2dVertex
 10
181.0387342212334
 20
113.9472221937354
 30
0.0
  0
SEQEND
  5
265
330
262
100
AcDbEntity
  8
Layer 1
370
    18
  0
POLYLINE
  5
266
330
44
100
AcDbEntity
  8
Layer 1
 62
     7
420
 16777215
370
    18
100
AcDb2dPolyline
 66
     1
 10
0.0
 20
0.0
 30
0.0
  0
VERTEX
  5
267
330
266
100
AcDbEntity
  8
Layer 1
 62
     7
420
 16777215
370
    18
100
AcDbVertex
100
AcDb2dVertex
 10
154.9910562763564
 20
111.2486789001392
 30
0.0
  0
VERTEX
  5
268
330
266
100
AcDbEntity
  8
Layer 1
 62
     7
420
 16777215
370
    18
100
AcDbVertex
100
AcDb2dVertex
 10
195.0861110623396
 20
111.2486789001392
 30
0.0
  0
SEQEND
  5
269
330
266
100
AcDbEntity
  8
Layer 1
370
    18
  0
MTEXT
  5
26A
330
44
100
AcDbEntity
  8
Layer 1
 62
     7
420
 16777215
100
AcDbMText
 10
184.0373453315948
 20
112.6635796159313
 30
0.0
 40
2.973614601027633
 41
0.0
 71
     7
 72
     1
  1
\fArial|b0|i0|c0|p34;\W1;Ø 54
 73
     1
 44
1.0
  0
POLYLINE
  5
26B
330
44
100
AcDbEntity
  8
Layer 1
  6
AI-Linetype-1
 62
     7
420
 16777215
370
    18
100
AcDb2dPolyline
 66
     1
 10
0.0
 20
0.0
 30
0.0
  0
VERTEX
  5
26C
330
26B
100
AcDbEntity
  8
Layer 1
  6
AI-Linetype-1
 62
     7
420
 16777215
370
    18
100
AcDbVertex
100
AcDb2dVertex
 10
261.7342393008859
 20
57.50691187798439
 30
0.0
  0
VERTEX
  5
26D
330
26B
100
AcDbEntity
  8
Layer 1
  6
AI-Linetype-1
 62
     7
420
 16777215
370
    18
100
AcDbVertex
100
AcDb2dVertex
 10
261.7342393008859
 20
109.331655517372
 30
0.0
  0
SEQEND
  5
26E
330
26B
100
AcDbEntity
  8
Layer 1
  6
AI-Linetype-1
370
    18
  0
POLYLINE
  5
270
330
44
100
AcDbEntity
  8
Layer 1
  6
AI-Linetype-2
 62
     7
420
 16777215
370
    18
100
AcDb2dPolyline
 66
     1
 10
0.0
 20
0.0
 30
0.0
  0
VERTEX
  5
271
330
270
100
AcDbEntity
  8
Layer 1
  6
AI-Linetype-2
 62
     7
420
 16777215
370
    18
100
AcDbVertex
100
AcDb2dVertex
 10
214.6421955843603
 20
207.8314140647956
 30
0.0
  0
VERTEX
  5
272
330
270
100
AcDbEntity
  8
Layer 1
  6
AI-Linetype-2
 62
     7
420
 16777215
370
    18
100
AcDbVertex
100
AcDb2dVertex
 10
214.6421955843603
 20
55.90976561102256
 30
0.0
  0
SEQEND
  5
273
330
270
100
AcDbEntity
  8
Layer 1
  6
AI-Linetype-2
370
    18
  0
POLYLINE
  5
275
330
44
100
AcDbEntity
  8
Layer 1
  6
AI-Linetype-3
 62
     7
420
 16777215
370
    18
100
AcDb2dPolyline
 66
     1
 10
0.0
 20
0.0
 30
0.0
  0
VERTEX
  5
276
330
275
100
AcDbEntity
  8
Layer 1
  6
AI-Linetype-3
 62
     7
420
 16777215
370
    18
100
AcDbVertex
100
AcDb2dVertex
 10
167.7096597888018
 20
109.184033175829
 30
0.0
  0
VERTEX
  5
277
330
275
100
AcDbEntity
  8
Layer 1
  6
AI-Linetype-3
 62
     7
420
 16777215
370
    18
100
AcDbVertex
100
AcDb2dVertex
 10
167.7096597888018
 20
58.13736435178511
 30
0.0
  0
SEQEND
  5
278
330
275
100
AcDbEntity
  8
Layer 1
  6
AI-Linetype-3
370
    18
  0
POLYLINE
  5
27A
330
44
100
AcDbEntity
  8
Layer 1
370
     0
100
AcDb2dPolyline
 66
     1
 10
0.0
 20
0.0
 30
0.0
  0
VERTEX
  5
27B
330
27A
100
AcDbEntity
  8
Layer 1
370
     0
100
AcDbVertex
100
AcDb2dVertex
 10
44.94299315282675
 20
110.1837998856485
 30
0.0
  0
VERTEX
  5
27C
330
27A
100
AcDbEntity
  8
Layer 1
370
     0
100
AcDbVertex
100
AcDb2dVertex
 10
44.94299315282675
 20
140.0527777427646
 30
0.0
  0
SEQEND
  5
27D
330
27A
100
AcDbEntity
  8
Layer 1
370
     0
  0
POLYLINE
  5
27E
330
44
100
AcDbEntity
  8
Layer 1
 62
     7
420
 16777215
370
    18
100
AcDb2dPolyline
 66
     1
 10
0.0
 20
0.0
 30
0.0
  0
VERTEX
  5
27F
330
27E
100
AcDbEntity
  8
Layer 1
 62
     7
420
 16777215
370
    18
100
AcDbVertex
100
AcDb2dVertex
 10
44.94299315282675
 20
110.1837998856485
 30
0.0
  0
VERTEX
  5
280
330
27E
100
AcDbEntity
  8
Layer 1
 62
     7
420
 16777215
370
    18
100
AcDbVertex
100
AcDb2dVertex
 10
44.94299315282675
 20
140.0527777427646
 30
0.0
  0
SEQEND
  5
281
330
27E
100
AcDbEntity
  8
Layer 1
370
    18
  0
POLYLINE
  5
282
330
44
100
AcDbEntity
  8
Layer 1
  6
AI-Linetype-4
 62
     7
420
 16777215
370
    18
100
AcDb2dPolyline
 66
     1
 10
0.0
 20
0.0
 30
0.0
  0
VERTEX
  5
283
330
282
100
AcDbEntity
  8
Layer 1
  6
AI-Linetype-4
 62
     7
420
 16777215
370
    18
100
AcDbVertex
100
AcDb2dVertex
 10
44.94299315282675
 20
109.184033175829
 30
0.0
  0
VERTEX
  5
284
330
282
100
AcDbEntity
  8
Layer 1
  6
AI-Linetype-4
 62
     7
420
 16777215
370
    18
100
AcDbVertex
100
AcDb2dVertex
 10
44.94299315282675
 20
57.32707789365434
 30
0.0
  0
SEQEND
  5
285
330
282
100
AcDbEntity
  8
Layer 1
  6
AI-Linetype-4
370
    18
  0
POLYLINE
  5
287
330
44
100
AcDbEntity
  8
Layer 1
 62
     5
420
      255
370
     5
100
AcDb2dPolyline
 66
     1
 10
0.0
 20
0.0
 30
0.0
  0
VERTEX
  5
288
330
287
100
AcDbEntity
  8
Layer 1
 62
     5
420
      255
370
     5
100
AcDbVertex
100
AcDb2dVertex
 10
32.21422660869992
 20
64.39469128164438
 30
0.0
  0
VERTEX
  5
289
330
287
100
AcDbEntity
  8
Layer 1
 62
     5
420
      255
370
     5
100
AcDbVertex
100
AcDb2dVertex
 10
29.15498181779806
 20
64.39469128164438
 30
0.0
  0
SEQEND
  5
28A
330
287
100
AcDbEntity
  8
Layer 1
370
     5
  0
POLYLINE
  5
28B
330
44
100
AcDbEntity
  8
Layer 1
 62
     7
420
 16777215
370
    35
100
AcDb2dPolyline
 66
     1
 10
0.0
 20
0.0
 30
0.0
  0
VERTEX
  5
28C
330
28B
100
AcDbEntity
  8
Layer 1
 62
     7
420
 16777215
370
    35
100
AcDbVertex
100
AcDb2dVertex
 10
40.18359373995411
 20
93.32005748535055
 30
0.0
  0
VERTEX
  5
28D
330
28B
100
AcDbEntity
  8
Layer 1
 62
     7
420
 16777215
370
    35
100
AcDbVertex
100
AcDb2dVertex
 10
40.18359373995411
 20
86.69582788631216
 30
0.0
  0
SEQEND
  5
28E
330
28B
100
AcDbEntity
  8
Layer 1
370
    35
  0
POLYLINE
  5
28F
330
44
100
AcDbEntity
  8
Layer 1
 62
     7
420
 16777215
370
    35
100
AcDb2dPolyline
 66
     1
 10
0.0
 20
0.0
 30
0.0
  0
VERTEX
  5
290
330
28F
100
AcDbEntity
  8
Layer 1
 62
     7
420
 16777215
370
    35
100
AcDbVertex
100
AcDb2dVertex
 10
40.18359373995411
 20
159.6326334236335
 30
0.0
  0
VERTEX
  5
291
330
28F
100
AcDbEntity
  8
Layer 1
 62
     7
420
 16777215
370
    35
100
AcDbVertex
100
AcDb2dVertex
 10
40.18359373995411
 20
100.248144506188
 30
0.0
  0
SEQEND
  5
292
330
28F
100
AcDbEntity
  8
Layer 1
370
    35
  0
POLYLINE
  5
293
330
44
100
AcDbEntity
  8
Layer 1
 62
     7
420
 16777215
370
    35
100
AcDb2dPolyline
 66
     1
 10
0.0
 20
0.0
 30
0.0
  0
VERTEX
  5
294
330
293
100
AcDbEntity
  8
Layer 1
 62
     7
420
 16777215
370
    35
100
AcDbVertex
100
AcDb2dVertex
 10
49.2803683687563
 20
92.83981117470672
 30
0.0
  0
VERTEX
  5
295
330
293
100
AcDbEntity
  8
Layer 1
 62
     7
420
 16777215
370
    35
100
AcDbVertex
100
AcDb2dVertex
 10
49.2803683687563
 20
86.69582788631216
 30
0.0
  0
SEQEND
  5
296
330
293
100
AcDbEntity
  8
Layer 1
370
    35
  0
POLYLINE
  5
297
330
44
100
AcDbEntity
  8
Layer 1
 62
     7
420
 16777215
370
    35
100
AcDb2dPolyline
 66
     1
 10
0.0
 20
0.0
 30
0.0
  0
VERTEX
  5
298
330
297
100
AcDbEntity
  8
Layer 1
 62
     7
420
 16777215
370
    35
100
AcDbVertex
100
AcDb2dVertex
 10
49.2803683687563
 20
159.6326334236335
 30
0.0
  0
VERTEX
  5
299
330
297
100
AcDbEntity
  8
Layer 1
 62
     7
420
 16777215
370
    35
100
AcDbVertex
100
AcDb2dVertex
 10
49.2803683687563
 20
100.8951334383179
 30
0.0
  0
SEQEND
  5
29A
330
297
100
AcDbEntity
  8
Layer 1
370
    35
  0
POLYLINE
  5
29B
330
44
100
AcDbEntity
  8
Layer 1
 62
     7
420
 16777215
370
    35
100
AcDb2dPolyline
 66
     1
 10
0.0
 20
0.0
 30
0.0
  0
VERTEX
  5
29C
330
29B
100
AcDbEntity
  8
Layer 1
 62
     7
420
 16777215
370
    35
100
AcDbVertex
100
AcDb2dVertex
 10
130.3283067165499
 20
148.0502224022236
 30
0.0
  0
VERTEX
  5
29D
330
29B
100
AcDbEntity
  8
Layer 1
 62
     7
420
 16777215
370
    35
100
AcDbVertex
100
AcDb2dVertex
 10
130.3283067165499
 20
157.3075384806384
 30
0.0
  0
SEQEND
  5
29E
330
29B
100
AcDbEntity
  8
Layer 1
370
    35
  0
POLYLINE
  5
29F
330
44
100
AcDbEntity
  8
Layer 1
 62
     7
420
 16777215
370
    35
100
AcDb2dPolyline
 66
     1
 10
0.0
 20
0.0
 30
0.0
  0
VERTEX
  5
2A0
330
29F
100
AcDbEntity
  8
Layer 1
 62
     7
420
 16777215
370
    35
100
AcDbVertex
100
AcDb2dVertex
 10
121.3119750673283
 20
148.0502224022236
 30
0.0
  0
VERTEX
  5
2A1
330
29F
100
AcDbEntity
  8
Layer 1
 62
     7
420
 16777215
370
    35
100
AcDbVertex
100
AcDb2dVertex
 10
121.3119750673283
 20
157.3075384806384
 30
0.0
  0
SEQEND
  5
2A2
330
29F
100
AcDbEntity
  8
Layer 1
370
    35
  0
POLYLINE
  5
2A3
330
44
100
AcDbEntity
  8
Layer 1
 62
     7
420
 16777215
370
    18
100
AcDb2dPolyline
 66
     1
 10
0.0
 20
0.0
 30
0.0
  0
VERTEX
  5
2A4
330
2A3
100
AcDbEntity
  8
Layer 1
 62
     7
420
 16777215
370
    18
100
AcDbVertex
100
AcDb2dVertex
 10
85.45180390658844
 20
64.39469128164438
 30
0.0
  0
VERTEX
  5
2A5
330
2A3
100
AcDbEntity
  8
Layer 1
 62
     7
420
 16777215
370
    18
100
AcDbVertex
100
AcDb2dVertex
 10
138.2466864346224
 20
64.39469128164438
 30
0.0
  0
SEQEND
  5
2A6
330
2A3
100
AcDbEntity
  8
Layer 1
370
    18
  0
POLYLINE
  5
2A7
330
44
100
AcDbEntity
  8
Layer 1
 62
     7
420
 16777215
370
    25
100
AcDb2dPolyline
 66
     1
 10
0.0
 20
0.0
 30
0.0
  0
VERTEX
  5
2A8
330
2A7
100
AcDbEntity
  8
Layer 1
 62
     7
420
 16777215
370
    25
100
AcDbVertex
100
AcDb2dVertex
 10
56.95845267673261
 20
64.39469128164438
 30
0.0
  0
VERTEX
  5
2A9
330
2A7
100
AcDbEntity
  8
Layer 1
 62
     7
420
 16777215
370
    25
100
AcDbVertex
100
AcDb2dVertex
 10
33.21089273258269
 20
64.39469128164438
 30
0.0
  0
SEQEND
  5
2AA
330
2A7
100
AcDbEntity
  8
Layer 1
370
    25
  0
POLYLINE
  5
2AB
330
44
100
AcDbEntity
  8
Layer 1
 62
     7
420
 16777215
370
    35
100
AcDb2dPolyline
 66
     1
 10
0.0
 20
0.0
 30
0.0
  0
VERTEX
  5
2AC
330
2AB
100
AcDbEntity
  8
Layer 1
 62
     7
420
 16777215
370
    35
100
AcDbVertex
100
AcDb2dVertex
 10
121.3119750673283
 20
148.0502224022236
 30
0.0
  0
VERTEX
  5
2AD
330
2AB
100
AcDbEntity
  8
Layer 1
 62
     7
420
 16777215
370
    35
100
AcDbVertex
100
AcDb2dVertex
 10
130.3283067165499
 20
148.0502224022236
 30
0.0
  0
SEQEND
  5
2AE
330
2AB
100
AcDbEntity
  8
Layer 1
370
    35
  0
POLYLINE
  5
2AF
330
44
100
AcDbEntity
  8
Layer 1
 62
     7
420
 16777215
370
    35
100
AcDb2dPolyline
 66
     1
 10
0.0
 20
0.0
 30
0.0
  0
VERTEX
  5
2B0
330
2AF
100
AcDbEntity
  8
Layer 1
 62
     7
420
 16777215
370
    35
100
AcDbVertex
100
AcDb2dVertex
 10
130.3283067165499
 20
159.7601019565878
 30
0.0
  0
VERTEX
  5
2B1
330
2AF
100
AcDbEntity
  8
Layer 1
 62
     7
420
 16777215
370
    35
100
AcDbVertex
100
AcDb2dVertex
 10
130.3283067165499
 20
157.3075384806384
 30
0.0
  0
SEQEND
  5
2B2
330
2AF
100
AcDbEntity
  8
Layer 1
370
    35
  0
POLYLINE
  5
2B3
330
44
100
AcDbEntity
  8
Layer 1
 62
     7
420
 16777215
370
    18
100
AcDb2dPolyline
 66
     1
 10
0.0
 20
0.0
 30
0.0
  0
VERTEX
  5
2B4
330
2B3
100
AcDbEntity
  8
Layer 1
 62
     7
420
 16777215
370
    18
100
AcDbVertex
100
AcDb2dVertex
 10
121.3119750673283
 20
157.3075384806384
 30
0.0
  0
VERTEX
  5
2B5
330
2B3
100
AcDbEntity
  8
Layer 1
 62
     7
420
 16777215
370
    18
100
AcDbVertex
100
AcDb2dVertex
 10
130.3283067165499
 20
157.3075384806384
 30
0.0
  0
SEQEND
  5
2B6
330
2B3
100
AcDbEntity
  8
Layer 1
370
    18
  0
POLYLINE
  5
2B7
330
44
100
AcDbEntity
  8
Layer 1
 62
     7
420
 16777215
370
    35
100
AcDb2dPolyline
 66
     1
 10
0.0
 20
0.0
 30
0.0
  0
VERTEX
  5
2B8
330
2B7
100
AcDbEntity
  8
Layer 1
 62
     7
420
 16777215
370
    35
100
AcDbVertex
100
AcDb2dVertex
 10
121.3119750673283
 20
159.7601019565878
 30
0.0
  0
VERTEX
  5
2B9
330
2B7
100
AcDbEntity
  8
Layer 1
 62
     7
420
 16777215
370
    35
100
AcDbVertex
100
AcDb2dVertex
 10
121.3119750673283
 20
157.3075384806384
 30
0.0
  0
SEQEND
  5
2BA
330
2B7
100
AcDbEntity
  8
Layer 1
370
    35
  0
POLYLINE
  5
2BB
330
44
100
AcDbEntity
  8
Layer 1
 62
     5
420
      255
370
     5
100
AcDb2dPolyline
 66
     1
 10
0.0
 20
0.0
 30
0.0
  0
VERTEX
  5
2BC
330
2BB
100
AcDbEntity
  8
Layer 1
 62
     5
420
      255
370
     5
100
AcDbVertex
100
AcDb2dVertex
 10
56.10406899639065
 20
64.41363930681327
 30
0.0
  0
VERTEX
  5
2BD
330
2BB
100
AcDbEntity
  8
Layer 1
 62
     5
420
      255
370
     5
100
AcDbVertex
100
AcDb2dVertex
 10
69.53546276473419
 20
64.41363930681327
 30
0.0
  0
SEQEND
  5
2BE
330
2BB
100
AcDbEntity
  8
Layer 1
370
     5
  0
POLYLINE
  5
2BF
330
44
100
AcDbEntity
  8
Layer 1
 62
     7
420
 16777215
370
    25
100
AcDb2dPolyline
 66
     1
 10
0.0
 20
0.0
 30
0.0
  0
VERTEX
  5
2C0
330
2BF
100
AcDbEntity
  8
Layer 1
 62
     7
420
 16777215
370
    25
100
AcDbVertex
100
AcDb2dVertex
 10
34.04684515207857
 20
64.41363930681327
 30
0.0
  0
VERTEX
  5
2C1
330
2BF
100
AcDbEntity
  8
Layer 1
 62
     7
420
 16777215
370
    25
100
AcDbVertex
100
AcDb2dVertex
 10
55.93732637490456
 20
64.41363930681327
 30
0.0
  0
SEQEND
  5
2C2
330
2BF
100
AcDbEntity
  8
Layer 1
370
    25
  0
POLYLINE
  5
2C3
330
44
100
AcDbEntity
  8
Layer 1
370
     0
100
AcDb2dPolyline
 66
     1
 10
0.0
 20
0.0
 30
0.0
  0
VERTEX
  5
2C4
330
2C3
100
AcDbEntity
  8
Layer 1
370
     0
100
AcDbVertex
100
AcDb2dVertex
 10
167.6748643244007
 20
94.52032875241159
 30
0.0
  0
VERTEX
  5
2C5
330
2C3
100
AcDbEntity
  8
Layer 1
370
     0
100
AcDbVertex
100
AcDb2dVertex
 10
167.6748643244007
 20
166.900062349768
 30
0.0
  0
SEQEND
  5
2C6
330
2C3
100
AcDbEntity
  8
Layer 1
370
     0
  0
POLYLINE
  5
2C7
330
44
100
AcDbEntity
  8
Layer 1
 62
     7
420
 16777215
370
    18
100
AcDb2dPolyline
 66
     1
 10
0.0
 20
0.0
 30
0.0
  0
VERTEX
  5
2C8
330
2C7
100
AcDbEntity
  8
Layer 1
 62
     7
420
 16777215
370
    18
100
AcDbVertex
100
AcDb2dVertex
 10
167.6748643244007
 20
94.52032875241159
 30
0.0
  0
VERTEX
  5
2C9
330
2C7
100
AcDbEntity
  8
Layer 1
 62
     7
420
 16777215
370
    18
100
AcDbVertex
100
AcDb2dVertex
 10
167.6748643244007
 20
166.900062349768
 30
0.0
  0
SEQEND
  5
2CA
330
2C7
100
AcDbEntity
  8
Layer 1
370
    18
  0
POLYLINE
  5
2CB
330
44
100
AcDbEntity
  8
Layer 1
 62
     7
420
 16777215
370
    35
100
AcDb2dPolyline
 66
     1
 10
0.0
 20
0.0
 30
0.0
  0
VERTEX
  5
2CC
330
2CB
100
AcDbEntity
  8
Layer 1
 62
     7
420
 16777215
370
    35
100
AcDbVertex
100
AcDb2dVertex
 10
57.21649032857783
 20
68.06819659756628
 30
0.0
  0
VERTEX
  5
2CD
330
2CB
100
AcDbEntity
  8
Layer 1
 62
     7
420
 16777215
370
    35
100
AcDbVertex
100
AcDb2dVertex
 10
53.19933673800225
 20
68.06819659756628
 30
0.0
  0
SEQEND
  5
2CE
330
2CB
100
AcDbEntity
  8
Layer 1
370
    35
  0
POLYLINE
  5
2CF
330
44
100
AcDbEntity
  8
Layer 1
 62
     7
420
 16777215
370
    35
100
AcDb2dPolyline
 66
     1
 10
0.0
 20
0.0
 30
0.0
  0
VERTEX
  5
2D0
330
2CF
100
AcDbEntity
  8
Layer 1
 62
     7
420
 16777215
370
    35
100
AcDbVertex
100
AcDb2dVertex
 10
47.17352022475176
 20
92.81500648721293
 30
0.0
  0
VERTEX
  5
2D1
330
2CF
100
AcDbEntity
  8
Layer 1
 62
     7
420
 16777215
370
    35
100
AcDbVertex
100
AcDb2dVertex
 10
49.68430581440185
 20
92.81500648721293
 30
0.0
  0
SEQEND
  5
2D2
330
2CF
100
AcDbEntity
  8
Layer 1
370
    35
  0
POLYLINE
  5
2D3
330
44
100
AcDbEntity
  8
Layer 1
 62
     7
420
 16777215
370
    35
100
AcDb2dPolyline
 66
     1
 10
0.0
 20
0.0
 30
0.0
  0
VERTEX
  5
2D4
330
2D3
100
AcDbEntity
  8
Layer 1
 62
     7
420
 16777215
370
    35
100
AcDbVertex
100
AcDb2dVertex
 10
50.18642848137701
 20
82.20893552632278
 30
0.0
  0
VERTEX
  5
2D5
330
2D3
100
AcDbEntity
  8
Layer 1
 62
     7
420
 16777215
370
    35
100
AcDbVertex
100
AcDb2dVertex
 10
51.34001870461292
 20
82.20893552632278
 30
0.0
  0
SEQEND
  5
2D6
330
2D3
100
AcDbEntity
  8
Layer 1
370
    35
  0
POLYLINE
  5
2D7
330
44
100
AcDbEntity
  8
Layer 1
 62
     7
420
 16777215
370
    35
100
AcDb2dPolyline
 66
     1
 10
0.0
 20
0.0
 30
0.0
  0
VERTEX
  5
2D8
330
2D7
100
AcDbEntity
  8
Layer 1
 62
     7
420
 16777215
370
    35
100
AcDbVertex
100
AcDb2dVertex
 10
40.14276935845389
 20
83.72408852073565
 30
0.0
  0
VERTEX
  5
2D9
330
2D7
100
AcDbEntity
  8
Layer 1
 62
     7
420
 16777215
370
    35
100
AcDbVertex
100
AcDb2dVertex
 10
40.14276935845389
 20
82.71433103400892
 30
0.0
  0
SEQEND
  5
2DA
330
2D7
100
AcDbEntity
  8
Layer 1
370
    35
  0
POLYLINE
  5
2DB
330
44
100
AcDbEntity
  8
Layer 1
 62
     7
420
 16777215
370
    35
100
AcDb2dPolyline
 66
     1
 10
0.0
 20
0.0
 30
0.0
  0
VERTEX
  5
2DC
330
2DB
100
AcDbEntity
  8
Layer 1
 62
     7
420
 16777215
370
    35
100
AcDbVertex
100
AcDb2dVertex
 10
40.14276935845389
 20
82.71433103400892
 30
0.0
  0
VERTEX
  5
2DD
330
2DB
100
AcDbEntity
  8
Layer 1
 62
     7
420
 16777215
370
    35
100
AcDbVertex
100
AcDb2dVertex
 10
40.14276935845389
 20
82.20893552632278
 30
0.0
  0
SEQEND
  5
2DE
330
2DB
100
AcDbEntity
  8
Layer 1
370
    35
  0
POLYLINE
  5
2DF
330
44
100
AcDbEntity
  8
Layer 1
 62
     7
420
 16777215
370
    35
100
AcDb2dPolyline
 66
     1
 10
0.0
 20
0.0
 30
0.0
  0
VERTEX
  5
2E0
330
2DF
100
AcDbEntity
  8
Layer 1
 62
     7
420
 16777215
370
    35
100
AcDbVertex
100
AcDb2dVertex
 10
40.14276935845389
 20
82.20893552632278
 30
0.0
  0
VERTEX
  5
2E1
330
2DF
100
AcDbEntity
  8
Layer 1
 62
     7
420
 16777215
370
    35
100
AcDbVertex
100
AcDb2dVertex
 10
39.64012992715594
 20
82.20893552632278
 30
0.0
  0
SEQEND
  5
2E2
330
2DF
100
AcDbEntity
  8
Layer 1
370
    35
  0
POLYLINE
  5
2E3
330
44
100
AcDbEntity
  8
Layer 1
 62
     7
420
 16777215
370
    35
100
AcDb2dPolyline
 66
     1
 10
0.0
 20
0.0
 30
0.0
  0
VERTEX
  5
2E4
330
2E3
100
AcDbEntity
  8
Layer 1
 62
     7
420
 16777215
370
    35
100
AcDbVertex
100
AcDb2dVertex
 10
39.63995767238168
 20
82.20893552632278
 30
0.0
  0
VERTEX
  5
2E5
330
2E3
100
AcDbEntity
  8
Layer 1
 62
     7
420
 16777215
370
    35
100
AcDbVertex
100
AcDb2dVertex
 10
38.63588459320562
 20
82.20893552632278
 30
0.0
  0
SEQEND
  5
2E6
330
2E3
100
AcDbEntity
  8
Layer 1
370
    35
  0
POLYLINE
  5
2E7
330
44
100
AcDbEntity
  8
Layer 1
 62
     7
420
 16777215
370
    35
100
AcDb2dPolyline
 66
     1
 10
0.0
 20
0.0
 30
0.0
  0
VERTEX
  5
2E8
330
2E7
100
AcDbEntity
  8
Layer 1
 62
     7
420
 16777215
370
    35
100
AcDbVertex
100
AcDb2dVertex
 10
47.17352022475176
 20
83.72408852073565
 30
0.0
  0
VERTEX
  5
2E9
330
2E7
100
AcDbEntity
  8
Layer 1
 62
     7
420
 16777215
370
    35
100
AcDbVertex
100
AcDb2dVertex
 10
47.17352022475176
 20
92.81500648721293
 30
0.0
  0
SEQEND
  5
2EA
330
2E7
100
AcDbEntity
  8
Layer 1
370
    35
  0
POLYLINE
  5
2EB
330
44
100
AcDbEntity
  8
Layer 1
 62
     7
420
 16777215
370
    35
100
AcDb2dPolyline
 66
     1
 10
0.0
 20
0.0
 30
0.0
  0
VERTEX
  5
2EC
330
2EB
100
AcDbEntity
  8
Layer 1
 62
     7
420
 16777215
370
    35
100
AcDbVertex
100
AcDb2dVertex
 10
42.65372720287824
 20
92.81500648721293
 30
0.0
  0
VERTEX
  5
2ED
330
2EB
100
AcDbEntity
  8
Layer 1
 62
     7
420
 16777215
370
    35
100
AcDbVertex
100
AcDb2dVertex
 10
47.17352022475176
 20
92.81500648721293
 30
0.0
  0
SEQEND
  5
2EE
330
2EB
100
AcDbEntity
  8
Layer 1
370
    35
  0
POLYLINE
  5
2EF
330
44
100
AcDbEntity
  8
Layer 1
 62
     7
420
 16777215
370
    35
100
AcDb2dPolyline
 66
     1
 10
0.0
 20
0.0
 30
0.0
  0
VERTEX
  5
2F0
330
2EF
100
AcDbEntity
  8
Layer 1
 62
     7
420
 16777215
370
    35
100
AcDbVertex
100
AcDb2dVertex
 10
49.68430581440185
 20
93.82510848348817
 30
0.0
  0
VERTEX
  5
2F1
330
2EF
100
AcDbEntity
  8
Layer 1
 62
     7
420
 16777215
370
    35
100
AcDbVertex
100
AcDb2dVertex
 10
49.68430581440185
 20
99.87814125107214
 30
0.0
  0
SEQEND
  5
2F2
330
2EF
100
AcDbEntity
  8
Layer 1
370
    35
  0
POLYLINE
  5
2F3
330
44
100
AcDbEntity
  8
Layer 1
 62
     7
420
 16777215
370
    35
100
AcDb2dPolyline
 66
     1
 10
0.0
 20
0.0
 30
0.0
  0
VERTEX
  5
2F4
330
2F3
100
AcDbEntity
  8
Layer 1
 62
     7
420
 16777215
370
    35
100
AcDbVertex
100
AcDb2dVertex
 10
39.63995767238168
 20
82.20893552632278
 30
0.0
  0
VERTEX
  5
2F5
330
2F3
100
AcDbEntity
  8
Layer 1
 62
     7
420
 16777215
370
    35
100
AcDbVertex
100
AcDb2dVertex
 10
50.18660073615127
 20
82.20893552632278
 30
0.0
  0
SEQEND
  5
2F6
330
2F3
100
AcDbEntity
  8
Layer 1
370
    35
  0
POLYLINE
  5
2F7
330
44
100
AcDbEntity
  8
Layer 1
 62
     7
420
 16777215
370
    35
100
AcDb2dPolyline
 66
     1
 10
0.0
 20
0.0
 30
0.0
  0
VERTEX
  5
2F8
330
2F7
100
AcDbEntity
  8
Layer 1
 62
     7
420
 16777215
370
    35
100
AcDbVertex
100
AcDb2dVertex
 10
42.65372720287824
 20
92.81500648721293
 30
0.0
  0
VERTEX
  5
2F9
330
2F7
100
AcDbEntity
  8
Layer 1
 62
     7
420
 16777215
370
    35
100
AcDbVertex
100
AcDb2dVertex
 10
40.6447197706548
 20
92.81500648721293
 30
0.0
  0
SEQEND
  5
2FA
330
2F7
100
AcDbEntity
  8
Layer 1
370
    35
  0
POLYLINE
  5
2FB
330
44
100
AcDbEntity
  8
Layer 1
 62
     7
420
 16777215
370
    35
100
AcDb2dPolyline
 66
     1
 10
0.0
 20
0.0
 30
0.0
  0
VERTEX
  5
2FC
330
2FB
100
AcDbEntity
  8
Layer 1
 62
     7
420
 16777215
370
    35
100
AcDbVertex
100
AcDb2dVertex
 10
40.14276935845389
 20
99.88572046113968
 30
0.0
  0
VERTEX
  5
2FD
330
2FB
100
AcDbEntity
  8
Layer 1
 62
     7
420
 16777215
370
    35
100
AcDbVertex
100
AcDb2dVertex
 10
40.14276935845389
 20
100.3907714592773
 30
0.0
  0
SEQEND
  5
2FE
330
2FB
100
AcDbEntity
  8
Layer 1
370
    35
  0
POLYLINE
  5
2FF
330
44
100
AcDbEntity
  8
Layer 1
 62
     7
420
 16777215
370
    35
100
AcDb2dPolyline
 66
     1
 10
0.0
 20
0.0
 30
0.0
  0
VERTEX
  5
300
330
2FF
100
AcDbEntity
  8
Layer 1
 62
     7
420
 16777215
370
    35
100
AcDbVertex
100
AcDb2dVertex
 10
40.14276935845389
 20
93.82510848348817
 30
0.0
  0
VERTEX
  5
301
330
2FF
100
AcDbEntity
  8
Layer 1
 62
     7
420
 16777215
370
    35
100
AcDbVertex
100
AcDb2dVertex
 10
40.14276935845389
 20
99.87814125107214
 30
0.0
  0
SEQEND
  5
302
330
2FF
100
AcDbEntity
  8
Layer 1
370
    35
  0
POLYLINE
  5
303
330
44
100
AcDbEntity
  8
Layer 1
 62
     7
420
 16777215
370
    35
100
AcDb2dPolyline
 66
     1
 10
0.0
 20
0.0
 30
0.0
  0
VERTEX
  5
304
330
303
100
AcDbEntity
  8
Layer 1
 62
     7
420
 16777215
370
    35
100
AcDbVertex
100
AcDb2dVertex
 10
40.14276935845389
 20
83.72408852073565
 30
0.0
  0
VERTEX
  5
305
330
303
100
AcDbEntity
  8
Layer 1
 62
     7
420
 16777215
370
    35
100
AcDbVertex
100
AcDb2dVertex
 10
50.18625622660274
 20
83.72408852073565
 30
0.0
  0
SEQEND
  5
306
330
303
100
AcDbEntity
  8
Layer 1
370
    35
  0
POLYLINE
  5
307
330
44
100
AcDbEntity
  8
Layer 1
 62
     7
420
 16777215
370
    35
100
AcDb2dPolyline
 66
     1
 10
0.0
 20
0.0
 30
0.0
  0
VERTEX
  5
308
330
307
100
AcDbEntity
  8
Layer 1
 62
     7
420
 16777215
370
    35
100
AcDbVertex
100
AcDb2dVertex
 10
50.18642848137701
 20
82.71433103400892
 30
0.0
  0
VERTEX
  5
309
330
307
100
AcDbEntity
  8
Layer 1
 62
     7
420
 16777215
370
    35
100
AcDbVertex
100
AcDb2dVertex
 10
50.18642848137701
 20
82.20893552632278
 30
0.0
  0
SEQEND
  5
30A
330
307
100
AcDbEntity
  8
Layer 1
370
    35
  0
POLYLINE
  5
30B
330
44
100
AcDbEntity
  8
Layer 1
 62
     7
420
 16777215
370
    35
100
AcDb2dPolyline
 66
     1
 10
0.0
 20
0.0
 30
0.0
  0
VERTEX
  5
30C
330
30B
100
AcDbEntity
  8
Layer 1
 62
     7
420
 16777215
370
    35
100
AcDbVertex
100
AcDb2dVertex
 10
50.18642848137701
 20
82.20893552632278
 30
0.0
  0
VERTEX
  5
30D
330
30B
100
AcDbEntity
  8
Layer 1
 62
     7
420
 16777215
370
    35
100
AcDbVertex
100
AcDb2dVertex
 10
50.18642848137701
 20
82.20893552632278
 30
0.0
  0
SEQEND
  5
30E
330
30B
100
AcDbEntity
  8
Layer 1
370
    35
  0
POLYLINE
  5
30F
330
44
100
AcDbEntity
  8
Layer 1
 62
     7
420
 16777215
370
    35
100
AcDb2dPolyline
 66
     1
 10
0.0
 20
0.0
 30
0.0
  0
VERTEX
  5
310
330
30F
100
AcDbEntity
  8
Layer 1
 62
     7
420
 16777215
370
    35
100
AcDbVertex
100
AcDb2dVertex
 10
49.18166638310389
 20
100.8958224574149
 30
0.0
  0
VERTEX
  5
311
330
30F
100
AcDbEntity
  8
Layer 1
 62
     7
420
 16777215
370
    35
100
AcDbVertex
100
AcDb2dVertex
 10
40.6447197706548
 20
100.8958224574149
 30
0.0
  0
SEQEND
  5
312
330
30F
100
AcDbEntity
  8
Layer 1
370
    35
  0
POLYLINE
  5
313
330
44
100
AcDbEntity
  8
Layer 1
 62
     7
420
 16777215
370
    35
100
AcDb2dPolyline
 66
     1
 10
0.0
 20
0.0
 30
0.0
  0
VERTEX
  5
314
330
313
100
AcDbEntity
  8
Layer 1
 62
     7
420
 16777215
370
    35
100
AcDbVertex
100
AcDb2dVertex
 10
40.14276935845389
 20
93.32005748535055
 30
0.0
  0
VERTEX
  5
315
330
313
100
AcDbEntity
  8
Layer 1
 62
     7
420
 16777215
370
    35
100
AcDbVertex
100
AcDb2dVertex
 10
40.6447197706548
 20
92.81500648721293
 30
0.0
  0
SEQEND
  5
316
330
313
100
AcDbEntity
  8
Layer 1
370
    35
  0
POLYLINE
  5
317
330
44
100
AcDbEntity
  8
Layer 1
 62
     7
420
 16777215
370
    35
100
AcDb2dPolyline
 66
     1
 10
0.0
 20
0.0
 30
0.0
  0
VERTEX
  5
318
330
317
100
AcDbEntity
  8
Layer 1
 62
     7
420
 16777215
370
    35
100
AcDbVertex
100
AcDb2dVertex
 10
52.7587090254388
 20
68.19842120690873
 30
0.0
  0
VERTEX
  5
319
330
317
100
AcDbEntity
  8
Layer 1
 62
     7
420
 16777215
370
    35
100
AcDbVertex
100
AcDb2dVertex
 10
51.33984644983865
 20
82.20893552632278
 30
0.0
  0
SEQEND
  5
31A
330
317
100
AcDbEntity
  8
Layer 1
370
    35
  0
POLYLINE
  5
31B
330
44
100
AcDbEntity
  8
Layer 1
 62
     7
420
 16777215
370
    35
100
AcDb2dPolyline
 66
     1
 10
0.0
 20
0.0
 30
0.0
  0
VERTEX
  5
31C
330
31B
100
AcDbEntity
  8
Layer 1
 62
     7
420
 16777215
370
    35
100
AcDbVertex
100
AcDb2dVertex
 10
53.19933673800225
 20
68.06819659756628
 30
0.0
  0
VERTEX
  5
31D
330
31B
100
AcDbEntity
  8
Layer 1
 62
     7
420
 16777215
370
    35
100
AcDbVertex
100
AcDb2dVertex
 10
53.19933673800225
 20
68.06819659756628
 30
0.0
  0
SEQEND
  5
31E
330
31B
100
AcDbEntity
  8
Layer 1
370
    35
  0
POLYLINE
  5
31F
330
44
100
AcDbEntity
  8
Layer 1
 62
     7
420
 16777215
370
    35
100
AcDb2dPolyline
 66
     1
 10
0.0
 20
0.0
 30
0.0
  0
VERTEX
  5
320
330
31F
100
AcDbEntity
  8
Layer 1
 62
     7
420
 16777215
370
    35
100
AcDbVertex
100
AcDb2dVertex
 10
57.21649032857783
 20
67.56245658033161
 30
0.0
  0
VERTEX
  5
321
330
31F
100
AcDbEntity
  8
Layer 1
 62
     7
420
 16777215
370
    35
100
AcDbVertex
100
AcDb2dVertex
 10
57.21649032857783
 20
68.06819659756628
 30
0.0
  0
SEQEND
  5
322
330
31F
100
AcDbEntity
  8
Layer 1
370
    35
  0
POLYLINE
  5
323
330
44
100
AcDbEntity
  8
Layer 1
 62
     7
420
 16777215
370
    35
100
AcDb2dPolyline
 66
     1
 10
0.0
 20
0.0
 30
0.0
  0
VERTEX
  5
324
330
323
100
AcDbEntity
  8
Layer 1
 62
     7
420
 16777215
370
    35
100
AcDbVertex
100
AcDb2dVertex
 10
57.21649032857783
 20
68.06819659756628
 30
0.0
  0
VERTEX
  5
325
330
323
100
AcDbEntity
  8
Layer 1
 62
     7
420
 16777215
370
    35
100
AcDbVertex
100
AcDb2dVertex
 10
57.21649032857783
 20
68.06819659756628
 30
0.0
  0
SEQEND
  5
326
330
323
100
AcDbEntity
  8
Layer 1
370
    35
  0
POLYLINE
  5
327
330
44
100
AcDbEntity
  8
Layer 1
 62
     7
420
 16777215
370
    35
100
AcDb2dPolyline
 66
     1
 10
0.0
 20
0.0
 30
0.0
  0
VERTEX
  5
328
330
327
100
AcDbEntity
  8
Layer 1
 62
     7
420
 16777215
370
    35
100
AcDbVertex
100
AcDb2dVertex
 10
57.71912975987578
 20
64.5328396106029
 30
0.0
  0
VERTEX
  5
329
330
327
100
AcDbEntity
  8
Layer 1
 62
     7
420
 16777215
370
    35
100
AcDbVertex
100
AcDb2dVertex
 10
57.21649032857783
 20
67.56245658033161
 30
0.0
  0
SEQEND
  5
32A
330
327
100
AcDbEntity
  8
Layer 1
370
    35
  0
POLYLINE
  5
32B
330
44
100
AcDbEntity
  8
Layer 1
 62
     7
420
 16777215
370
    35
100
AcDb2dPolyline
 66
     1
 10
0.0
 20
0.0
 30
0.0
  0
VERTEX
  5
32C
330
32B
100
AcDbEntity
  8
Layer 1
 62
     7
420
 16777215
370
    35
100
AcDbVertex
100
AcDb2dVertex
 10
49.68430581440185
 20
100.3907714592773
 30
0.0
  0
VERTEX
  5
32D
330
32B
100
AcDbEntity
  8
Layer 1
 62
     7
420
 16777215
370
    35
100
AcDbVertex
100
AcDb2dVertex
 10
49.18166638310389
 20
100.8958224574149
 30
0.0
  0
SEQEND
  5
32E
330
32B
100
AcDbEntity
  8
Layer 1
370
    35
  0
POLYLINE
  5
32F
330
44
100
AcDbEntity
  8
Layer 1
 62
     7
420
 16777215
370
    35
100
AcDb2dPolyline
 66
     1
 10
0.0
 20
0.0
 30
0.0
  0
VERTEX
  5
330
330
32F
100
AcDbEntity
  8
Layer 1
 62
     7
420
 16777215
370
    35
100
AcDbVertex
100
AcDb2dVertex
 10
40.14276935845389
 20
83.72408852073565
 30
0.0
  0
VERTEX
  5
331
330
32F
100
AcDbEntity
  8
Layer 1
 62
     7
420
 16777215
370
    35
100
AcDbVertex
100
AcDb2dVertex
 10
40.14276935845389
 20
83.72408852073565
 30
0.0
  0
SEQEND
  5
332
330
32F
100
AcDbEntity
  8
Layer 1
370
    35
  0
POLYLINE
  5
333
330
44
100
AcDbEntity
  8
Layer 1
 62
     7
420
 16777215
370
    35
100
AcDb2dPolyline
 66
     1
 10
0.0
 20
0.0
 30
0.0
  0
VERTEX
  5
334
330
333
100
AcDbEntity
  8
Layer 1
 62
     7
420
 16777215
370
    35
100
AcDbVertex
100
AcDb2dVertex
 10
40.14276935845389
 20
83.72408852073565
 30
0.0
  0
VERTEX
  5
335
330
333
100
AcDbEntity
  8
Layer 1
 62
     7
420
 16777215
370
    35
100
AcDbVertex
100
AcDb2dVertex
 10
40.14276935845389
 20
83.72408852073565
 30
0.0
  0
SEQEND
  5
336
330
333
100
AcDbEntity
  8
Layer 1
370
    35
  0
POLYLINE
  5
337
330
44
100
AcDbEntity
  8
Layer 1
 62
     7
420
 16777215
370
    35
100
AcDb2dPolyline
 66
     1
 10
0.0
 20
0.0
 30
0.0
  0
VERTEX
  5
338
330
337
100
AcDbEntity
  8
Layer 1
 62
     7
420
 16777215
370
    35
100
AcDbVertex
100
AcDb2dVertex
 10
40.14276935845389
 20
93.32005748535055
 30
0.0
  0
VERTEX
  5
339
330
337
100
AcDbEntity
  8
Layer 1
 62
     7
420
 16777215
370
    35
100
AcDbVertex
100
AcDb2dVertex
 10
40.14276935845389
 20
93.82510848348817
 30
0.0
  0
SEQEND
  5
33A
330
337
100
AcDbEntity
  8
Layer 1
370
    35
  0
POLYLINE
  5
33B
330
44
100
AcDbEntity
  8
Layer 1
 62
     7
420
 16777215
370
    35
100
AcDb2dPolyline
 66
     1
 10
0.0
 20
0.0
 30
0.0
  0
VERTEX
  5
33C
330
33B
100
AcDbEntity
  8
Layer 1
 62
     7
420
 16777215
370
    35
100
AcDbVertex
100
AcDb2dVertex
 10
49.68430581440185
 20
99.88572046113968
 30
0.0
  0
VERTEX
  5
33D
330
33B
100
AcDbEntity
  8
Layer 1
 62
     7
420
 16777215
370
    35
100
AcDbVertex
100
AcDb2dVertex
 10
49.68430581440185
 20
100.3907714592773
 30
0.0
  0
SEQEND
  5
33E
330
33B
100
AcDbEntity
  8
Layer 1
370
    35
  0
POLYLINE
  5
33F
330
44
100
AcDbEntity
  8
Layer 1
 62
     7
420
 16777215
370
    35
100
AcDb2dPolyline
 66
     1
 10
0.0
 20
0.0
 30
0.0
  0
VERTEX
  5
340
330
33F
100
AcDbEntity
  8
Layer 1
 62
     7
420
 16777215
370
    35
100
AcDbVertex
100
AcDb2dVertex
 10
49.68430581440185
 20
93.32005748535055
 30
0.0
  0
VERTEX
  5
341
330
33F
100
AcDbEntity
  8
Layer 1
 62
     7
420
 16777215
370
    35
100
AcDbVertex
100
AcDb2dVertex
 10
49.68430581440185
 20
92.81500648721293
 30
0.0
  0
SEQEND
  5
342
330
33F
100
AcDbEntity
  8
Layer 1
370
    35
  0
POLYLINE
  5
343
330
44
100
AcDbEntity
  8
Layer 1
 62
     7
420
 16777215
370
    35
100
AcDb2dPolyline
 66
     1
 10
0.0
 20
0.0
 30
0.0
  0
VERTEX
  5
344
330
343
100
AcDbEntity
  8
Layer 1
 62
     7
420
 16777215
370
    35
100
AcDbVertex
100
AcDb2dVertex
 10
37.1291720827316
 20
68.57290308615539
 30
0.0
  0
VERTEX
  5
345
330
343
100
AcDbEntity
  8
Layer 1
 62
     7
420
 16777215
370
    35
100
AcDbVertex
100
AcDb2dVertex
 10
38.63588459320562
 20
82.20893552632278
 30
0.0
  0
SEQEND
  5
346
330
343
100
AcDbEntity
  8
Layer 1
370
    35
  0
POLYLINE
  5
347
330
44
100
AcDbEntity
  8
Layer 1
 62
     7
420
 16777215
370
    35
100
AcDb2dPolyline
 66
     1
 10
0.0
 20
0.0
 30
0.0
  0
VERTEX
  5
348
330
347
100
AcDbEntity
  8
Layer 1
 62
     7
420
 16777215
370
    35
100
AcDbVertex
100
AcDb2dVertex
 10
32.10725639388291
 20
64.5328396106029
 30
0.0
  0
VERTEX
  5
349
330
347
100
AcDbEntity
  8
Layer 1
 62
     7
420
 16777215
370
    35
100
AcDbVertex
100
AcDb2dVertex
 10
32.60989582518086
 20
67.56245658033161
 30
0.0
  0
SEQEND
  5
34A
330
347
100
AcDbEntity
  8
Layer 1
370
    35
  0
POLYLINE
  5
34B
330
44
100
AcDbEntity
  8
Layer 1
 62
     7
420
 16777215
370
    35
100
AcDb2dPolyline
 66
     1
 10
0.0
 20
0.0
 30
0.0
  0
VERTEX
  5
34C
330
34B
100
AcDbEntity
  8
Layer 1
 62
     7
420
 16777215
370
    35
100
AcDbVertex
100
AcDb2dVertex
 10
32.10725639388291
 20
64.5328396106029
 30
0.0
  0
VERTEX
  5
34D
330
34B
100
AcDbEntity
  8
Layer 1
 62
     7
420
 16777215
370
    35
100
AcDbVertex
100
AcDb2dVertex
 10
57.71930201465004
 20
64.5328396106029
 30
0.0
  0
SEQEND
  5
34E
330
34B
100
AcDbEntity
  8
Layer 1
370
    35
  0
POLYLINE
  5
34F
330
44
100
AcDbEntity
  8
Layer 1
 62
     7
420
 16777215
370
    35
100
AcDb2dPolyline
 66
     1
 10
0.0
 20
0.0
 30
0.0
  0
VERTEX
  5
350
330
34F
100
AcDbEntity
  8
Layer 1
 62
     7
420
 16777215
370
    35
100
AcDbVertex
100
AcDb2dVertex
 10
32.60989582518086
 20
67.56245658033161
 30
0.0
  0
VERTEX
  5
351
330
34F
100
AcDbEntity
  8
Layer 1
 62
     7
420
 16777215
370
    35
100
AcDbVertex
100
AcDb2dVertex
 10
32.60989582518086
 20
68.06819659756628
 30
0.0
  0
SEQEND
  5
352
330
34F
100
AcDbEntity
  8
Layer 1
370
    35
  0
POLYLINE
  5
353
330
44
100
AcDbEntity
  8
Layer 1
 62
     7
420
 16777215
370
    35
100
AcDb2dPolyline
 66
     1
 10
0.0
 20
0.0
 30
0.0
  0
VERTEX
  5
354
330
353
100
AcDbEntity
  8
Layer 1
 62
     7
420
 16777215
370
    35
100
AcDbVertex
100
AcDb2dVertex
 10
32.60989582518086
 20
68.06819659756628
 30
0.0
  0
VERTEX
  5
355
330
353
100
AcDbEntity
  8
Layer 1
 62
     7
420
 16777215
370
    35
100
AcDbVertex
100
AcDb2dVertex
 10
32.60989582518086
 20
68.06819659756628
 30
0.0
  0
SEQEND
  5
356
330
353
100
AcDbEntity
  8
Layer 1
370
    35
  0
POLYLINE
  5
357
330
44
100
AcDbEntity
  8
Layer 1
 62
     7
420
 16777215
370
    35
100
AcDb2dPolyline
 66
     1
 10
0.0
 20
0.0
 30
0.0
  0
VERTEX
  5
358
330
357
100
AcDbEntity
  8
Layer 1
 62
     7
420
 16777215
370
    35
100
AcDbVertex
100
AcDb2dVertex
 10
37.1291720827316
 20
68.57290308615539
 30
0.0
  0
VERTEX
  5
359
330
357
100
AcDbEntity
  8
Layer 1
 62
     7
420
 16777215
370
    35
100
AcDbVertex
100
AcDb2dVertex
 10
37.1291720827316
 20
68.57290308615539
 30
0.0
  0
VERTEX
  5
35A
330
357
100
AcDbEntity
  8
Layer 1
 62
     7
420
 16777215
370
    35
100
AcDbVertex
100
AcDb2dVertex
 10
37.1291720827316
 20
68.06819659756628
 30
0.0
  0
SEQEND
  5
35B
330
357
100
AcDbEntity
  8
Layer 1
370
    35
  0
POLYLINE
  5
35C
330
44
100
AcDbEntity
  8
Layer 1
 62
     7
420
 16777215
370
    35
100
AcDb2dPolyline
 66
     1
 10
0.0
 20
0.0
 30
0.0
  0
VERTEX
  5
35D
330
35C
100
AcDbEntity
  8
Layer 1
 62
     7
420
 16777215
370
    35
100
AcDbVertex
100
AcDb2dVertex
 10
37.1291720827316
 20
68.06819659756628
 30
0.0
  0
VERTEX
  5
35E
330
35C
100
AcDbEntity
  8
Layer 1
 62
     7
420
 16777215
370
    35
100
AcDbVertex
100
AcDb2dVertex
 10
37.1291720827316
 20
68.06819659756628
 30
0.0
  0
SEQEND
  5
35F
330
35C
100
AcDbEntity
  8
Layer 1
370
    35
  0
POLYLINE
  5
360
330
44
100
AcDbEntity
  8
Layer 1
 62
     7
420
 16777215
370
    35
100
AcDb2dPolyline
 66
     1
 10
0.0
 20
0.0
 30
0.0
  0
VERTEX
  5
361
330
360
100
AcDbEntity
  8
Layer 1
 62
     7
420
 16777215
370
    35
100
AcDbVertex
100
AcDb2dVertex
 10
37.1291720827316
 20
68.06819659756628
 30
0.0
  0
VERTEX
  5
362
330
360
100
AcDbEntity
  8
Layer 1
 62
     7
420
 16777215
370
    35
100
AcDbVertex
100
AcDb2dVertex
 10
53.19916448322799
 20
68.06819659756628
 30
0.0
  0
SEQEND
  5
363
330
360
100
AcDbEntity
  8
Layer 1
370
    35
  0
POLYLINE
  5
364
330
44
100
AcDbEntity
  8
Layer 1
 62
     7
420
 16777215
370
    35
100
AcDb2dPolyline
 66
     1
 10
0.0
 20
0.0
 30
0.0
  0
VERTEX
  5
365
330
364
100
AcDbEntity
  8
Layer 1
 62
     7
420
 16777215
370
    35
100
AcDbVertex
100
AcDb2dVertex
 10
32.60989582518086
 20
68.06819659756628
 30
0.0
  0
VERTEX
  5
366
330
364
100
AcDbEntity
  8
Layer 1
 62
     7
420
 16777215
370
    35
100
AcDbVertex
100
AcDb2dVertex
 10
57.21649032857783
 20
68.06819659756628
 30
0.0
  0
SEQEND
  5
367
330
364
100
AcDbEntity
  8
Layer 1
370
    35
  0
POLYLINE
  5
368
330
44
100
AcDbEntity
  8
Layer 1
 62
     7
420
 16777215
370
    35
100
AcDb2dPolyline
 66
     1
 10
0.0
 20
0.0
 30
0.0
  0
VERTEX
  5
369
330
368
100
AcDbEntity
  8
Layer 1
 62
     7
420
 16777215
370
    35
100
AcDbVertex
100
AcDb2dVertex
 10
32.60989582518086
 20
68.06819659756628
 30
0.0
  0
VERTEX
  5
36A
330
368
100
AcDbEntity
  8
Layer 1
 62
     7
420
 16777215
370
    35
100
AcDbVertex
100
AcDb2dVertex
 10
37.12934433750586
 20
68.06819659756628
 30
0.0
  0
SEQEND
  5
36B
330
368
100
AcDbEntity
  8
Layer 1
370
    35
  0
POLYLINE
  5
36C
330
44
100
AcDbEntity
  8
Layer 1
 62
     7
420
 16777215
370
    35
100
AcDb2dPolyline
 66
     1
 10
0.0
 20
0.0
 30
0.0
  0
VERTEX
  5
36D
330
36C
100
AcDbEntity
  8
Layer 1
 62
     7
420
 16777215
370
    35
100
AcDbVertex
100
AcDb2dVertex
 10
50.18642848137701
 20
83.72408852073565
 30
0.0
  0
VERTEX
  5
36E
330
36C
100
AcDbEntity
  8
Layer 1
 62
     7
420
 16777215
370
    35
100
AcDbVertex
100
AcDb2dVertex
 10
50.18642848137701
 20
83.72408852073565
 30
0.0
  0
SEQEND
  5
36F
330
36C
100
AcDbEntity
  8
Layer 1
370
    35
  0
POLYLINE
  5
370
330
44
100
AcDbEntity
  8
Layer 1
 62
     7
420
 16777215
370
    35
100
AcDb2dPolyline
 66
     1
 10
0.0
 20
0.0
 30
0.0
  0
VERTEX
  5
371
330
370
100
AcDbEntity
  8
Layer 1
 62
     7
420
 16777215
370
    35
100
AcDbVertex
100
AcDb2dVertex
 10
50.18642848137701
 20
83.72408852073565
 30
0.0
  0
VERTEX
  5
372
330
370
100
AcDbEntity
  8
Layer 1
 62
     7
420
 16777215
370
    35
100
AcDbVertex
100
AcDb2dVertex
 10
50.18642848137701
 20
83.72408852073565
 30
0.0
  0
SEQEND
  5
373
330
370
100
AcDbEntity
  8
Layer 1
370
    35
  0
POLYLINE
  5
374
330
44
100
AcDbEntity
  8
Layer 1
 62
     7
420
 16777215
370
    35
100
AcDb2dPolyline
 66
     1
 10
0.0
 20
0.0
 30
0.0
  0
VERTEX
  5
375
330
374
100
AcDbEntity
  8
Layer 1
 62
     7
420
 16777215
370
    35
100
AcDbVertex
100
AcDb2dVertex
 10
51.33984644983865
 20
82.20893552632278
 30
0.0
  0
VERTEX
  5
376
330
374
100
AcDbEntity
  8
Layer 1
 62
     7
420
 16777215
370
    35
100
AcDbVertex
100
AcDb2dVertex
 10
51.33984644983865
 20
82.20893552632278
 30
0.0
  0
SEQEND
  5
377
330
374
100
AcDbEntity
  8
Layer 1
370
    35
  0
POLYLINE
  5
378
330
44
100
AcDbEntity
  8
Layer 1
 62
     7
420
 16777215
370
    35
100
AcDb2dPolyline
 66
     1
 10
0.0
 20
0.0
 30
0.0
  0
VERTEX
  5
379
330
378
100
AcDbEntity
  8
Layer 1
 62
     7
420
 16777215
370
    35
100
AcDbVertex
100
AcDb2dVertex
 10
51.33984644983865
 20
82.20893552632278
 30
0.0
  0
VERTEX
  5
37A
330
378
100
AcDbEntity
  8
Layer 1
 62
     7
420
 16777215
370
    35
100
AcDbVertex
100
AcDb2dVertex
 10
51.33984644983865
 20
82.20893552632278
 30
0.0
  0
SEQEND
  5
37B
330
378
100
AcDbEntity
  8
Layer 1
370
    35
  0
POLYLINE
  5
37C
330
44
100
AcDbEntity
  8
Layer 1
 62
     7
420
 16777215
370
    35
100
AcDb2dPolyline
 66
     1
 10
0.0
 20
0.0
 30
0.0
  0
VERTEX
  5
37D
330
37C
100
AcDbEntity
  8
Layer 1
 62
     7
420
 16777215
370
    35
100
AcDbVertex
100
AcDb2dVertex
 10
50.18642848137701
 20
83.72408852073565
 30
0.0
  0
VERTEX
  5
37E
330
37C
100
AcDbEntity
  8
Layer 1
 62
     7
420
 16777215
370
    35
100
AcDbVertex
100
AcDb2dVertex
 10
50.18642848137701
 20
82.71433103400892
 30
0.0
  0
SEQEND
  5
37F
330
37C
100
AcDbEntity
  8
Layer 1
370
    35
  0
POLYLINE
  5
380
330
44
100
AcDbEntity
  8
Layer 1
 62
     7
420
 16777215
370
    35
100
AcDb2dPolyline
 66
     1
 10
0.0
 20
0.0
 30
0.0
  0
VERTEX
  5
381
330
380
100
AcDbEntity
  8
Layer 1
 62
     7
420
 16777215
370
    35
100
AcDbVertex
100
AcDb2dVertex
 10
38.63588459320562
 20
82.20893552632278
 30
0.0
  0
VERTEX
  5
382
330
380
100
AcDbEntity
  8
Layer 1
 62
     7
420
 16777215
370
    35
100
AcDbVertex
100
AcDb2dVertex
 10
38.63588459320562
 20
82.20893552632278
 30
0.0
  0
SEQEND
  5
383
330
380
100
AcDbEntity
  8
Layer 1
370
    35
  0
POLYLINE
  5
384
330
44
100
AcDbEntity
  8
Layer 1
 62
     7
420
 16777215
370
    35
100
AcDb2dPolyline
 66
     1
 10
0.0
 20
0.0
 30
0.0
  0
VERTEX
  5
385
330
384
100
AcDbEntity
  8
Layer 1
 62
     7
420
 16777215
370
    35
100
AcDbVertex
100
AcDb2dVertex
 10
38.63588459320562
 20
82.20893552632278
 30
0.0
  0
VERTEX
  5
386
330
384
100
AcDbEntity
  8
Layer 1
 62
     7
420
 16777215
370
    35
100
AcDbVertex
100
AcDb2dVertex
 10
38.63588459320562
 20
82.20893552632278
 30
0.0
  0
SEQEND
  5
387
330
384
100
AcDbEntity
  8
Layer 1
370
    35
  0
POLYLINE
  5
388
330
44
100
AcDbEntity
  8
Layer 1
 62
     7
420
 16777215
370
    35
100
AcDb2dPolyline
 66
     1
 10
0.0
 20
0.0
 30
0.0
  0
VERTEX
  5
389
330
388
100
AcDbEntity
  8
Layer 1
 62
     7
420
 16777215
370
    35
100
AcDbVertex
100
AcDb2dVertex
 10
42.65372720287824
 20
83.72408852073565
 30
0.0
  0
VERTEX
  5
38A
330
388
100
AcDbEntity
  8
Layer 1
 62
     7
420
 16777215
370
    35
100
AcDbVertex
100
AcDb2dVertex
 10
42.65372720287824
 20
92.81500648721293
 30
0.0
  0
SEQEND
  5
38B
330
388
100
AcDbEntity
  8
Layer 1
370
    35
  0
POLYLINE
  5
38C
330
44
100
AcDbEntity
  8
Layer 1
 62
     7
420
 16777215
370
    35
100
AcDb2dPolyline
 66
     1
 10
0.0
 20
0.0
 30
0.0
  0
VERTEX
  5
38D
330
38C
100
AcDbEntity
  8
Layer 1
 62
     7
420
 16777215
370
    35
100
AcDbVertex
100
AcDb2dVertex
 10
40.14276935845389
 20
100.3907714592773
 30
0.0
  0
VERTEX
  5
38E
330
38C
100
AcDbEntity
  8
Layer 1
 62
     7
420
 16777215
370
    35
100
AcDbVertex
100
AcDb2dVertex
 10
40.6447197706548
 20
100.8958224574149
 30
0.0
  0
SEQEND
  5
38F
330
38C
100
AcDbEntity
  8
Layer 1
370
    35
  0
POLYLINE
  5
390
330
44
100
AcDbEntity
  8
Layer 1
 62
     7
420
 16777215
370
    35
100
AcDb2dPolyline
 66
     1
 10
0.0
 20
0.0
 30
0.0
  0
VERTEX
  5
391
330
390
100
AcDbEntity
  8
Layer 1
 62
     7
420
 16777215
370
    35
100
AcDbVertex
100
AcDb2dVertex
 10
49.68430581440185
 20
93.32005748535055
 30
0.0
  0
VERTEX
  5
392
330
390
100
AcDbEntity
  8
Layer 1
 62
     7
420
 16777215
370
    35
100
AcDbVertex
100
AcDb2dVertex
 10
49.68430581440185
 20
93.82510848348817
 30
0.0
  0
SEQEND
  5
393
330
390
100
AcDbEntity
  8
Layer 1
370
    35
  0
POLYLINE
  5
394
330
44
100
AcDbEntity
  8
Layer 1
370
     0
100
AcDb2dPolyline
 66
     1
 10
0.0
 20
0.0
 30
0.0
  0
VERTEX
  5
395
330
394
100
AcDbEntity
  8
Layer 1
370
     0
100
AcDbVertex
100
AcDb2dVertex
 10
52.7215019941981
 20
67.98964842050259
 30
0.0
  0
VERTEX
  5
396
330
394
100
AcDbEntity
  8
Layer 1
370
     0
100
AcDbVertex
100
AcDb2dVertex
 10
37.15380451545114
 20
67.98964842050259
 30
0.0
  0
SEQEND
  5
397
330
394
100
AcDbEntity
  8
Layer 1
370
     0
  0
POLYLINE
  5
398
330
44
100
AcDbEntity
  8
Layer 1
 62
     7
420
 16777215
370
     9
100
AcDb2dPolyline
 66
     1
 10
0.0
 20
0.0
 30
0.0
  0
VERTEX
  5
399
330
398
100
AcDbEntity
  8
Layer 1
 62
     7
420
 16777215
370
     9
100
AcDbVertex
100
AcDb2dVertex
 10
52.7215019941981
 20
67.98964842050259
 30
0.0
  0
VERTEX
  5
39A
330
398
100
AcDbEntity
  8
Layer 1
 62
     7
420
 16777215
370
     9
100
AcDbVertex
100
AcDb2dVertex
 10
37.15380451545114
 20
67.98964842050259
 30
0.0
  0
SEQEND
  5
39B
330
398
100
AcDbEntity
  8
Layer 1
370
     9
  0
POLYLINE
  5
39C
330
44
100
AcDbEntity
  8
Layer 1
370
     0
100
AcDb2dPolyline
 66
     1
 10
0.0
 20
0.0
 30
0.0
  0
VERTEX
  5
39D
330
39C
100
AcDbEntity
  8
Layer 1
370
     0
100
AcDbVertex
100
AcDb2dVertex
 10
57.24112276129736
 20
67.98964842050259
 30
0.0
  0
VERTEX
  5
682
330
39C
100
AcDbEntity
  8
0
100
AcDbVertex
100
AcDb2dVertex
 10
57.24112276129736
 20
67.98964842050259
 30
0.0
  0
SEQEND
  5
39E
330
39C
100
AcDbEntity
  8
Layer 1
370
     0
  0
POLYLINE
  5
39F
330
44
100
AcDbEntity
  8
Layer 1
 62
     7
420
 16777215
370
     9
100
AcDb2dPolyline
 66
     1
 10
0.0
 20
0.0
 30
0.0
  0
VERTEX
  5
3A0
330
39F
100
AcDbEntity
  8
Layer 1
 62
     7
420
 16777215
370
     9
100
AcDbVertex
100
AcDb2dVertex
 10
57.24112276129736
 20
67.98964842050259
 30
0.0
  0
VERTEX
  5
3A1
330
39F
100
AcDbEntity
  8
Layer 1
 62
     7
420
 16777215
370
     9
100
AcDbVertex
100
AcDb2dVertex
 10
57.24112276129736
 20
67.98964842050259
 30
0.0
  0
SEQEND
  5
3A2
330
39F
100
AcDbEntity
  8
Layer 1
370
     9
  0
POLYLINE
  5
3A3
330
44
100
AcDbEntity
  8
Layer 1
370
     0
100
AcDb2dPolyline
 66
     1
 10
0.0
 20
0.0
 30
0.0
  0
VERTEX
  5
3A4
330
3A3
100
AcDbEntity
  8
Layer 1
370
     0
100
AcDbVertex
100
AcDb2dVertex
 10
47.15491670913141
 20
86.67584633249771
 30
0.0
  0
VERTEX
  5
3A5
330
3A3
100
AcDbEntity
  8
Layer 1
370
     0
100
AcDbVertex
100
AcDb2dVertex
 10
50.71301132629744
 20
86.67584633249771
 30
0.0
  0
SEQEND
  5
3A6
330
3A3
100
AcDbEntity
  8
Layer 1
370
     0
  0
POLYLINE
  5
3A7
330
44
100
AcDbEntity
  8
Layer 1
 62
     7
420
 16777215
370
    35
100
AcDb2dPolyline
 66
     1
 10
0.0
 20
0.0
 30
0.0
  0
VERTEX
  5
3A8
330
3A7
100
AcDbEntity
  8
Layer 1
 62
     7
420
 16777215
370
    35
100
AcDbVertex
100
AcDb2dVertex
 10
47.15491670913141
 20
86.67584633249771
 30
0.0
  0
VERTEX
  5
3A9
330
3A7
100
AcDbEntity
  8
Layer 1
 62
     7
420
 16777215
370
    35
100
AcDbVertex
100
AcDb2dVertex
 10
50.71301132629744
 20
86.67584633249771
 30
0.0
  0
SEQEND
  5
3AA
330
3A7
100
AcDbEntity
  8
Layer 1
370
    35
  0
POLYLINE
  5
3AB
330
44
100
AcDbEntity
  8
Layer 1
370
     0
100
AcDb2dPolyline
 66
     1
 10
0.0
 20
0.0
 30
0.0
  0
VERTEX
  5
3AC
330
3AB
100
AcDbEntity
  8
Layer 1
370
     0
100
AcDbVertex
100
AcDb2dVertex
 10
39.16263969290031
 20
86.67584633249771
 30
0.0
  0
VERTEX
  5
3AD
330
3AB
100
AcDbEntity
  8
Layer 1
370
     0
100
AcDbVertex
100
AcDb2dVertex
 10
42.56863334439257
 20
86.67584633249771
 30
0.0
  0
SEQEND
  5
3AE
330
3AB
100
AcDbEntity
  8
Layer 1
370
     0
  0
POLYLINE
  5
3AF
330
44
100
AcDbEntity
  8
Layer 1
 62
     7
420
 16777215
370
    35
100
AcDb2dPolyline
 66
     1
 10
0.0
 20
0.0
 30
0.0
  0
VERTEX
  5
3B0
330
3AF
100
AcDbEntity
  8
Layer 1
 62
     7
420
 16777215
370
    35
100
AcDbVertex
100
AcDb2dVertex
 10
39.16263969290031
 20
86.67584633249771
 30
0.0
  0
VERTEX
  5
3B1
330
3AF
100
AcDbEntity
  8
Layer 1
 62
     7
420
 16777215
370
    35
100
AcDbVertex
100
AcDb2dVertex
 10
42.56863334439257
 20
86.67584633249771
 30
0.0
  0
SEQEND
  5
3B2
330
3AF
100
AcDbEntity
  8
Layer 1
370
    35
  0
POLYLINE
  5
3B3
330
44
100
AcDbEntity
  8
Layer 1
370
     0
100
AcDb2dPolyline
 66
     1
 10
0.0
 20
0.0
 30
0.0
  0
VERTEX
  5
3B4
330
3B3
100
AcDbEntity
  8
Layer 1
370
     0
100
AcDbVertex
100
AcDb2dVertex
 10
51.21530624804687
 20
82.13107636835612
 30
0.0
  0
VERTEX
  5
3B5
330
3B3
100
AcDbEntity
  8
Layer 1
370
     0
100
AcDbVertex
100
AcDb2dVertex
 10
50.71301132629744
 20
86.67584633249771
 30
0.0
  0
SEQEND
  5
3B6
330
3B3
100
AcDbEntity
  8
Layer 1
370
     0
  0
POLYLINE
  5
3B7
330
44
100
AcDbEntity
  8
Layer 1
 62
     7
420
 16777215
370
    35
100
AcDb2dPolyline
 66
     1
 10
0.0
 20
0.0
 30
0.0
  0
VERTEX
  5
3B8
330
3B7
100
AcDbEntity
  8
Layer 1
 62
     7
420
 16777215
370
    35
100
AcDbVertex
100
AcDb2dVertex
 10
51.21530624804687
 20
82.13107636835612
 30
0.0
  0
VERTEX
  5
3B9
330
3B7
100
AcDbEntity
  8
Layer 1
 62
     7
420
 16777215
370
    35
100
AcDbVertex
100
AcDb2dVertex
 10
50.71301132629744
 20
86.67584633249771
 30
0.0
  0
SEQEND
  5
3BA
330
3B7
100
AcDbEntity
  8
Layer 1
370
    35
  0
POLYLINE
  5
3BB
330
44
100
AcDbEntity
  8
Layer 1
370
     0
100
AcDb2dPolyline
 66
     1
 10
0.0
 20
0.0
 30
0.0
  0
VERTEX
  5
3BC
330
3BB
100
AcDbEntity
  8
Layer 1
370
     0
100
AcDbVertex
100
AcDb2dVertex
 10
38.66068928069942
 20
82.13107636835612
 30
0.0
  0
VERTEX
  5
3BD
330
3BB
100
AcDbEntity
  8
Layer 1
370
     0
100
AcDbVertex
100
AcDb2dVertex
 10
39.16263969290031
 20
86.67584633249771
 30
0.0
  0
SEQEND
  5
3BE
330
3BB
100
AcDbEntity
  8
Layer 1
370
     0
  0
POLYLINE
  5
3BF
330
44
100
AcDbEntity
  8
Layer 1
 62
     7
420
 16777215
370
    35
100
AcDb2dPolyline
 66
     1
 10
0.0
 20
0.0
 30
0.0
  0
VERTEX
  5
3C0
330
3BF
100
AcDbEntity
  8
Layer 1
 62
     7
420
 16777215
370
    35
100
AcDbVertex
100
AcDb2dVertex
 10
38.66068928069942
 20
82.13107636835612
 30
0.0
  0
VERTEX
  5
3C1
330
3BF
100
AcDbEntity
  8
Layer 1
 62
     7
420
 16777215
370
    35
100
AcDbVertex
100
AcDb2dVertex
 10
39.16263969290031
 20
86.67584633249771
 30
0.0
  0
SEQEND
  5
3C2
330
3BF
100
AcDbEntity
  8
Layer 1
370
    35
  0
POLYLINE
  5
3C3
330
44
100
AcDbEntity
  8
Layer 1
370
     0
100
AcDb2dPolyline
 66
     1
 10
0.0
 20
0.0
 30
0.0
  0
VERTEX
  5
3C4
330
3C3
100
AcDbEntity
  8
Layer 1
370
     0
100
AcDbVertex
100
AcDb2dVertex
 10
38.66068928069942
 20
82.13107636835612
 30
0.0
  0
VERTEX
  5
3C5
330
3C3
100
AcDbEntity
  8
Layer 1
370
     0
100
AcDbVertex
100
AcDb2dVertex
 10
51.21530624804687
 20
82.13107636835612
 30
0.0
  0
SEQEND
  5
3C6
330
3C3
100
AcDbEntity
  8
Layer 1
370
     0
  0
POLYLINE
  5
3C7
330
44
100
AcDbEntity
  8
Layer 1
 62
     7
420
 16777215
370
     9
100
AcDb2dPolyline
 66
     1
 10
0.0
 20
0.0
 30
0.0
  0
VERTEX
  5
3C8
330
3C7
100
AcDbEntity
  8
Layer 1
 62
     7
420
 16777215
370
     9
100
AcDbVertex
100
AcDb2dVertex
 10
38.66068928069942
 20
82.13107636835612
 30
0.0
  0
VERTEX
  5
3C9
330
3C7
100
AcDbEntity
  8
Layer 1
 62
     7
420
 16777215
370
     9
100
AcDbVertex
100
AcDb2dVertex
 10
51.21530624804687
 20
82.13107636835612
 30
0.0
  0
SEQEND
  5
3CA
330
3C7
100
AcDbEntity
  8
Layer 1
370
     9
  0
POLYLINE
  5
3CB
330
44
100
AcDbEntity
  8
Layer 1
370
     0
100
AcDb2dPolyline
 66
     1
 10
0.0
 20
0.0
 30
0.0
  0
VERTEX
  5
3CC
330
3CB
100
AcDbEntity
  8
Layer 1
370
     0
100
AcDbVertex
100
AcDb2dVertex
 10
32.13188882660245
 20
64.45360241444216
 30
0.0
  0
VERTEX
  5
3CD
330
3CB
100
AcDbEntity
  8
Layer 1
370
     0
100
AcDbVertex
100
AcDb2dVertex
 10
57.74393444736958
 20
64.45360241444216
 30
0.0
  0
SEQEND
  5
3CE
330
3CB
100
AcDbEntity
  8
Layer 1
370
     0
  0
POLYLINE
  5
3CF
330
44
100
AcDbEntity
  8
Layer 1
 62
     7
420
 16777215
370
     9
100
AcDb2dPolyline
 66
     1
 10
0.0
 20
0.0
 30
0.0
  0
VERTEX
  5
3D0
330
3CF
100
AcDbEntity
  8
Layer 1
 62
     7
420
 16777215
370
     9
100
AcDbVertex
100
AcDb2dVertex
 10
32.13188882660245
 20
64.45360241444216
 30
0.0
  0
VERTEX
  5
3D1
330
3CF
100
AcDbEntity
  8
Layer 1
 62
     7
420
 16777215
370
     9
100
AcDbVertex
100
AcDb2dVertex
 10
57.74393444736958
 20
64.45360241444216
 30
0.0
  0
SEQEND
  5
3D2
330
3CF
100
AcDbEntity
  8
Layer 1
370
     9
  0
POLYLINE
  5
3D3
330
44
100
AcDbEntity
  8
Layer 1
370
     0
100
AcDb2dPolyline
 66
     1
 10
0.0
 20
0.0
 30
0.0
  0
VERTEX
  5
3D4
330
3D3
100
AcDbEntity
  8
Layer 1
370
     0
100
AcDbVertex
100
AcDb2dVertex
 10
32.63383923880335
 20
67.98964842050259
 30
0.0
  0
VERTEX
  5
683
330
3D3
100
AcDbEntity
  8
0
100
AcDbVertex
100
AcDb2dVertex
 10
32.63383923880335
 20
67.98964842050259
 30
0.0
  0
SEQEND
  5
3D5
330
3D3
100
AcDbEntity
  8
Layer 1
370
     0
  0
POLYLINE
  5
3D6
330
44
100
AcDbEntity
  8
Layer 1
 62
     7
420
 16777215
370
     9
100
AcDb2dPolyline
 66
     1
 10
0.0
 20
0.0
 30
0.0
  0
VERTEX
  5
3D7
330
3D6
100
AcDbEntity
  8
Layer 1
 62
     7
420
 16777215
370
     9
100
AcDbVertex
100
AcDb2dVertex
 10
32.63383923880335
 20
67.98964842050259
 30
0.0
  0
VERTEX
  5
3D8
330
3D6
100
AcDbEntity
  8
Layer 1
 62
     7
420
 16777215
370
     9
100
AcDbVertex
100
AcDb2dVertex
 10
32.63383923880335
 20
67.98964842050259
 30
0.0
  0
SEQEND
  5
3D9
330
3D6
100
AcDbEntity
  8
Layer 1
370
     9
  0
POLYLINE
  5
3DA
330
44
100
AcDbEntity
  8
Layer 1
370
     0
100
AcDb2dPolyline
 66
     1
 10
0.0
 20
0.0
 30
0.0
  0
VERTEX
  5
3DB
330
3DA
100
AcDbEntity
  8
Layer 1
370
     0
100
AcDbVertex
100
AcDb2dVertex
 10
32.63383923880335
 20
67.98964842050259
 30
0.0
  0
VERTEX
  5
3DC
330
3DA
100
AcDbEntity
  8
Layer 1
370
     0
100
AcDbVertex
100
AcDb2dVertex
 10
36.65168184847597
 20
67.98964842050259
 30
0.0
  0
SEQEND
  5
3DD
330
3DA
100
AcDbEntity
  8
Layer 1
370
     0
  0
POLYLINE
  5
3DE
330
44
100
AcDbEntity
  8
Layer 1
 62
     7
420
 16777215
370
     9
100
AcDb2dPolyline
 66
     1
 10
0.0
 20
0.0
 30
0.0
  0
VERTEX
  5
3DF
330
3DE
100
AcDbEntity
  8
Layer 1
 62
     7
420
 16777215
370
     9
100
AcDbVertex
100
AcDb2dVertex
 10
32.63383923880335
 20
67.98964842050259
 30
0.0
  0
VERTEX
  5
3E0
330
3DE
100
AcDbEntity
  8
Layer 1
 62
     7
420
 16777215
370
     9
100
AcDbVertex
100
AcDb2dVertex
 10
36.65168184847597
 20
67.98964842050259
 30
0.0
  0
SEQEND
  5
3E1
330
3DE
100
AcDbEntity
  8
Layer 1
370
     9
  0
SPLINE
  5
3E2
330
44
100
AcDbEntity
  8
Layer 1
 62
     7
420
 16777215
370
    35
100
AcDbSpline
210
0.0
220
0.0
230
1.0
 70
    11
 71
     3
 72
    17
 73
    13
 74
     0
 42
0.0000000001
 43
0.0000000001
 40
0.0
 40
0.0
 40
0.0
 40
0.0
 40
1.0
 40
1.0
 40
1.0
 40
2.0
 40
2.0
 40
2.0
 40
3.0
 40
3.0
 40
3.0
 40
4.0
 40
4.0
 40
4.0
 40
4.0
 10
47.22812498819297
 20
98.13905705011801
 30
0.0
 10
47.22812498819297
 20
96.88504229348707
 30
0.0
 10
46.21147731049575
 20
95.86805010624133
 30
0.0
 10
44.95694578954202
 20
95.86805010624133
 30
0.0
 10
43.70275877813681
 20
95.86805010624133
 30
0.0
 10
42.68611110043958
 20
96.88504229348707
 30
0.0
 10
42.68611110043958
 20
98.13905705011801
 30
0.0
 10
42.68611110043958
 20
99.39307180674896
 30
0.0
 10
43.70275877813681
 20
100.4104085035432
 30
0.0
 10
44.95694578954202
 20
100.4104085035432
 30
0.0
 10
46.21147731049575
 20
100.4104085035432
 30
0.0
 10
47.22812498819297
 20
99.39307180674896
 30
0.0
 10
47.22812498819297
 20
98.13905705011801
 30
0.0
  0
POLYLINE
  5
3E3
330
44
100
AcDbEntity
  8
Layer 1
 62
     7
420
 16777215
370
    35
100
AcDb2dPolyline
 66
     1
 10
0.0
 20
0.0
 30
0.0
  0
VERTEX
  5
3E4
330
3E3
100
AcDbEntity
  8
Layer 1
 62
     7
420
 16777215
370
    35
100
AcDbVertex
100
AcDb2dVertex
 10
180.3359347422424
 20
68.06819659756628
 30
0.0
  0
VERTEX
  5
3E5
330
3E3
100
AcDbEntity
  8
Layer 1
 62
     7
420
 16777215
370
    35
100
AcDbVertex
100
AcDb2dVertex
 10
176.3186088968926
 20
68.06819659756628
 30
0.0
  0
SEQEND
  5
3E6
330
3E3
100
AcDbEntity
  8
Layer 1
370
    35
  0
POLYLINE
  5
3E7
330
44
100
AcDbEntity
  8
Layer 1
 62
     7
420
 16777215
370
    35
100
AcDb2dPolyline
 66
     1
 10
0.0
 20
0.0
 30
0.0
  0
VERTEX
  5
3E8
330
3E7
100
AcDbEntity
  8
Layer 1
 62
     7
420
 16777215
370
    35
100
AcDbVertex
100
AcDb2dVertex
 10
170.2931368931906
 20
92.81500648721293
 30
0.0
  0
VERTEX
  5
3E9
330
3E7
100
AcDbEntity
  8
Layer 1
 62
     7
420
 16777215
370
    35
100
AcDbVertex
100
AcDb2dVertex
 10
172.8039224828407
 20
92.81500648721293
 30
0.0
  0
SEQEND
  5
3EA
330
3E7
100
AcDbEntity
  8
Layer 1
370
    35
  0
POLYLINE
  5
3EB
330
44
100
AcDbEntity
  8
Layer 1
 62
     7
420
 16777215
370
    35
100
AcDb2dPolyline
 66
     1
 10
0.0
 20
0.0
 30
0.0
  0
VERTEX
  5
3EC
330
3EB
100
AcDbEntity
  8
Layer 1
 62
     7
420
 16777215
370
    35
100
AcDbVertex
100
AcDb2dVertex
 10
173.3058728950416
 20
82.20893552632278
 30
0.0
  0
VERTEX
  5
3ED
330
3EB
100
AcDbEntity
  8
Layer 1
 62
     7
420
 16777215
370
    35
100
AcDbVertex
100
AcDb2dVertex
 10
174.4592908635032
 20
82.20893552632278
 30
0.0
  0
SEQEND
  5
3EE
330
3EB
100
AcDbEntity
  8
Layer 1
370
    35
  0
POLYLINE
  5
3EF
330
44
100
AcDbEntity
  8
Layer 1
 62
     7
420
 16777215
370
    35
100
AcDb2dPolyline
 66
     1
 10
0.0
 20
0.0
 30
0.0
  0
VERTEX
  5
3F0
330
3EF
100
AcDbEntity
  8
Layer 1
 62
     7
420
 16777215
370
    35
100
AcDbVertex
100
AcDb2dVertex
 10
163.2623860268928
 20
83.72408852073565
 30
0.0
  0
VERTEX
  5
3F1
330
3EF
100
AcDbEntity
  8
Layer 1
 62
     7
420
 16777215
370
    35
100
AcDbVertex
100
AcDb2dVertex
 10
163.2623860268928
 20
82.71433103400892
 30
0.0
  0
SEQEND
  5
3F2
330
3EF
100
AcDbEntity
  8
Layer 1
370
    35
  0
POLYLINE
  5
3F3
330
44
100
AcDbEntity
  8
Layer 1
 62
     7
420
 16777215
370
    35
100
AcDb2dPolyline
 66
     1
 10
0.0
 20
0.0
 30
0.0
  0
VERTEX
  5
3F4
330
3F3
100
AcDbEntity
  8
Layer 1
 62
     7
420
 16777215
370
    35
100
AcDbVertex
100
AcDb2dVertex
 10
163.2623860268928
 20
82.71433103400892
 30
0.0
  0
VERTEX
  5
3F5
330
3F3
100
AcDbEntity
  8
Layer 1
 62
     7
420
 16777215
370
    35
100
AcDbVertex
100
AcDb2dVertex
 10
163.2623860268928
 20
82.20893552632278
 30
0.0
  0
SEQEND
  5
3F6
330
3F3
100
AcDbEntity
  8
Layer 1
370
    35
  0
POLYLINE
  5
3F7
330
44
100
AcDbEntity
  8
Layer 1
 62
     7
420
 16777215
370
    35
100
AcDb2dPolyline
 66
     1
 10
0.0
 20
0.0
 30
0.0
  0
VERTEX
  5
3F8
330
3F7
100
AcDbEntity
  8
Layer 1
 62
     7
420
 16777215
370
    35
100
AcDbVertex
100
AcDb2dVertex
 10
163.2623860268928
 20
82.20893552632278
 30
0.0
  0
VERTEX
  5
3F9
330
3F7
100
AcDbEntity
  8
Layer 1
 62
     7
420
 16777215
370
    35
100
AcDbVertex
100
AcDb2dVertex
 10
162.7594020860463
 20
82.20893552632278
 30
0.0
  0
SEQEND
  5
3FA
330
3F7
100
AcDbEntity
  8
Layer 1
370
    35
  0
POLYLINE
  5
3FB
330
44
100
AcDbEntity
  8
Layer 1
 62
     7
420
 16777215
370
    35
100
AcDb2dPolyline
 66
     1
 10
0.0
 20
0.0
 30
0.0
  0
VERTEX
  5
3FC
330
3FB
100
AcDbEntity
  8
Layer 1
 62
     7
420
 16777215
370
    35
100
AcDbVertex
100
AcDb2dVertex
 10
162.7594020860463
 20
82.20893552632278
 30
0.0
  0
VERTEX
  5
3FD
330
3FB
100
AcDbEntity
  8
Layer 1
 62
     7
420
 16777215
370
    35
100
AcDbVertex
100
AcDb2dVertex
 10
161.7555012616445
 20
82.20893552632278
 30
0.0
  0
SEQEND
  5
3FE
330
3FB
100
AcDbEntity
  8
Layer 1
370
    35
  0
POLYLINE
  5
3FF
330
44
100
AcDbEntity
  8
Layer 1
 62
     7
420
 16777215
370
    35
100
AcDb2dPolyline
 66
     1
 10
0.0
 20
0.0
 30
0.0
  0
VERTEX
  5
400
330
3FF
100
AcDbEntity
  8
Layer 1
 62
     7
420
 16777215
370
    35
100
AcDbVertex
100
AcDb2dVertex
 10
170.2931368931906
 20
83.72408852073565
 30
0.0
  0
VERTEX
  5
401
330
3FF
100
AcDbEntity
  8
Layer 1
 62
     7
420
 16777215
370
    35
100
AcDbVertex
100
AcDb2dVertex
 10
170.2931368931906
 20
92.81500648721293
 30
0.0
  0
SEQEND
  5
402
330
3FF
100
AcDbEntity
  8
Layer 1
370
    35
  0
POLYLINE
  5
403
330
44
100
AcDbEntity
  8
Layer 1
 62
     7
420
 16777215
370
    35
100
AcDb2dPolyline
 66
     1
 10
0.0
 20
0.0
 30
0.0
  0
VERTEX
  5
404
330
403
100
AcDbEntity
  8
Layer 1
 62
     7
420
 16777215
370
    35
100
AcDbVertex
100
AcDb2dVertex
 10
165.7731716165428
 20
92.81500648721293
 30
0.0
  0
VERTEX
  5
405
330
403
100
AcDbEntity
  8
Layer 1
 62
     7
420
 16777215
370
    35
100
AcDbVertex
100
AcDb2dVertex
 10
170.2931368931906
 20
92.81500648721293
 30
0.0
  0
SEQEND
  5
406
330
403
100
AcDbEntity
  8
Layer 1
370
    35
  0
POLYLINE
  5
407
330
44
100
AcDbEntity
  8
Layer 1
 62
     7
420
 16777215
370
    35
100
AcDb2dPolyline
 66
     1
 10
0.0
 20
0.0
 30
0.0
  0
VERTEX
  5
408
330
407
100
AcDbEntity
  8
Layer 1
 62
     7
420
 16777215
370
    35
100
AcDbVertex
100
AcDb2dVertex
 10
172.8039224828407
 20
93.82510848348817
 30
0.0
  0
VERTEX
  5
409
330
407
100
AcDbEntity
  8
Layer 1
 62
     7
420
 16777215
370
    35
100
AcDbVertex
100
AcDb2dVertex
 10
172.8039224828407
 20
99.82680932834191
 30
0.0
  0
SEQEND
  5
40A
330
407
100
AcDbEntity
  8
Layer 1
370
    35
  0
POLYLINE
  5
40B
330
44
100
AcDbEntity
  8
Layer 1
 62
     7
420
 16777215
370
    35
100
AcDb2dPolyline
 66
     1
 10
0.0
 20
0.0
 30
0.0
  0
VERTEX
  5
40C
330
40B
100
AcDbEntity
  8
Layer 1
 62
     7
420
 16777215
370
    35
100
AcDbVertex
100
AcDb2dVertex
 10
162.7594020860463
 20
82.20893552632278
 30
0.0
  0
VERTEX
  5
40D
330
40B
100
AcDbEntity
  8
Layer 1
 62
     7
420
 16777215
370
    35
100
AcDbVertex
100
AcDb2dVertex
 10
173.3058728950416
 20
82.20893552632278
 30
0.0
  0
SEQEND
  5
40E
330
40B
100
AcDbEntity
  8
Layer 1
370
    35
  0
POLYLINE
  5
40F
330
44
100
AcDbEntity
  8
Layer 1
 62
     7
420
 16777215
370
    35
100
AcDb2dPolyline
 66
     1
 10
0.0
 20
0.0
 30
0.0
  0
VERTEX
  5
410
330
40F
100
AcDbEntity
  8
Layer 1
 62
     7
420
 16777215
370
    35
100
AcDbVertex
100
AcDb2dVertex
 10
165.7731716165428
 20
92.81500648721293
 30
0.0
  0
VERTEX
  5
411
330
40F
100
AcDbEntity
  8
Layer 1
 62
     7
420
 16777215
370
    35
100
AcDbVertex
100
AcDb2dVertex
 10
163.7639919295451
 20
92.81500648721293
 30
0.0
  0
SEQEND
  5
412
330
40F
100
AcDbEntity
  8
Layer 1
370
    35
  0
POLYLINE
  5
413
330
44
100
AcDbEntity
  8
Layer 1
 62
     7
420
 16777215
370
    35
100
AcDb2dPolyline
 66
     1
 10
0.0
 20
0.0
 30
0.0
  0
VERTEX
  5
414
330
413
100
AcDbEntity
  8
Layer 1
 62
     7
420
 16777215
370
    35
100
AcDbVertex
100
AcDb2dVertex
 10
163.2623860268928
 20
99.88572046113968
 30
0.0
  0
VERTEX
  5
415
330
413
100
AcDbEntity
  8
Layer 1
 62
     7
420
 16777215
370
    35
100
AcDbVertex
100
AcDb2dVertex
 10
163.2623860268928
 20
100.3907714592773
 30
0.0
  0
SEQEND
  5
416
330
413
100
AcDbEntity
  8
Layer 1
370
    35
  0
POLYLINE
  5
417
330
44
100
AcDbEntity
  8
Layer 1
 62
     7
420
 16777215
370
    35
100
AcDb2dPolyline
 66
     1
 10
0.0
 20
0.0
 30
0.0
  0
VERTEX
  5
418
330
417
100
AcDbEntity
  8
Layer 1
 62
     7
420
 16777215
370
    35
100
AcDbVertex
100
AcDb2dVertex
 10
163.2623860268928
 20
93.82510848348817
 30
0.0
  0
VERTEX
  5
419
330
417
100
AcDbEntity
  8
Layer 1
 62
     7
420
 16777215
370
    35
100
AcDbVertex
100
AcDb2dVertex
 10
163.2623860268928
 20
96.3503634741763
 30
0.0
  0
SEQEND
  5
41A
330
417
100
AcDbEntity
  8
Layer 1
370
    35
  0
POLYLINE
  5
41B
330
44
100
AcDbEntity
  8
Layer 1
 62
     7
420
 16777215
370
    35
100
AcDb2dPolyline
 66
     1
 10
0.0
 20
0.0
 30
0.0
  0
VERTEX
  5
41C
330
41B
100
AcDbEntity
  8
Layer 1
 62
     7
420
 16777215
370
    35
100
AcDbVertex
100
AcDb2dVertex
 10
163.2623860268928
 20
83.72408852073565
 30
0.0
  0
VERTEX
  5
41D
330
41B
100
AcDbEntity
  8
Layer 1
 62
     7
420
 16777215
370
    35
100
AcDbVertex
100
AcDb2dVertex
 10
173.3058728950416
 20
83.72408852073565
 30
0.0
  0
SEQEND
  5
41E
330
41B
100
AcDbEntity
  8
Layer 1
370
    35
  0
POLYLINE
  5
41F
330
44
100
AcDbEntity
  8
Layer 1
 62
     7
420
 16777215
370
    35
100
AcDb2dPolyline
 66
     1
 10
0.0
 20
0.0
 30
0.0
  0
VERTEX
  5
420
330
41F
100
AcDbEntity
  8
Layer 1
 62
     7
420
 16777215
370
    35
100
AcDbVertex
100
AcDb2dVertex
 10
173.3058728950416
 20
82.71433103400892
 30
0.0
  0
VERTEX
  5
421
330
41F
100
AcDbEntity
  8
Layer 1
 62
     7
420
 16777215
370
    35
100
AcDbVertex
100
AcDb2dVertex
 10
173.3058728950416
 20
82.20893552632278
 30
0.0
  0
SEQEND
  5
422
330
41F
100
AcDbEntity
  8
Layer 1
370
    35
  0
POLYLINE
  5
423
330
44
100
AcDbEntity
  8
Layer 1
 62
     7
420
 16777215
370
    35
100
AcDb2dPolyline
 66
     1
 10
0.0
 20
0.0
 30
0.0
  0
VERTEX
  5
424
330
423
100
AcDbEntity
  8
Layer 1
 62
     7
420
 16777215
370
    35
100
AcDbVertex
100
AcDb2dVertex
 10
173.3058728950416
 20
82.20893552632278
 30
0.0
  0
VERTEX
  5
425
330
423
100
AcDbEntity
  8
Layer 1
 62
     7
420
 16777215
370
    35
100
AcDbVertex
100
AcDb2dVertex
 10
173.3058728950416
 20
82.20893552632278
 30
0.0
  0
SEQEND
  5
426
330
423
100
AcDbEntity
  8
Layer 1
370
    35
  0
POLYLINE
  5
427
330
44
100
AcDbEntity
  8
Layer 1
 62
     7
420
 16777215
370
    35
100
AcDb2dPolyline
 66
     1
 10
0.0
 20
0.0
 30
0.0
  0
VERTEX
  5
428
330
427
100
AcDbEntity
  8
Layer 1
 62
     7
420
 16777215
370
    35
100
AcDbVertex
100
AcDb2dVertex
 10
172.3009385419942
 20
100.8958224574149
 30
0.0
  0
VERTEX
  5
429
330
427
100
AcDbEntity
  8
Layer 1
 62
     7
420
 16777215
370
    35
100
AcDbVertex
100
AcDb2dVertex
 10
163.7639919295451
 20
100.8958224574149
 30
0.0
  0
SEQEND
  5
42A
330
427
100
AcDbEntity
  8
Layer 1
370
    35
  0
POLYLINE
  5
42B
330
44
100
AcDbEntity
  8
Layer 1
 62
     7
420
 16777215
370
    35
100
AcDb2dPolyline
 66
     1
 10
0.0
 20
0.0
 30
0.0
  0
VERTEX
  5
42C
330
42B
100
AcDbEntity
  8
Layer 1
 62
     7
420
 16777215
370
    35
100
AcDbVertex
100
AcDb2dVertex
 10
163.2623860268928
 20
93.32005748535055
 30
0.0
  0
VERTEX
  5
42D
330
42B
100
AcDbEntity
  8
Layer 1
 62
     7
420
 16777215
370
    35
100
AcDbVertex
100
AcDb2dVertex
 10
163.7639919295451
 20
92.81500648721293
 30
0.0
  0
SEQEND
  5
42E
330
42B
100
AcDbEntity
  8
Layer 1
370
    35
  0
POLYLINE
  5
42F
330
44
100
AcDbEntity
  8
Layer 1
 62
     7
420
 16777215
370
    35
100
AcDb2dPolyline
 66
     1
 10
0.0
 20
0.0
 30
0.0
  0
VERTEX
  5
430
330
42F
100
AcDbEntity
  8
Layer 1
 62
     7
420
 16777215
370
    35
100
AcDbVertex
100
AcDb2dVertex
 10
145.4030110313576
 20
100.3907714592773
 30
0.0
  0
VERTEX
  5
431
330
42F
100
AcDbEntity
  8
Layer 1
 62
     7
420
 16777215
370
    35
100
AcDbVertex
100
AcDb2dVertex
 10
163.2623860268928
 20
99.88572046113968
 30
0.0
  0
SEQEND
  5
432
330
42F
100
AcDbEntity
  8
Layer 1
370
    35
  0
POLYLINE
  5
433
330
44
100
AcDbEntity
  8
Layer 1
 62
     7
420
 16777215
370
    35
100
AcDb2dPolyline
 66
     1
 10
0.0
 20
0.0
 30
0.0
  0
VERTEX
  5
434
330
433
100
AcDbEntity
  8
Layer 1
 62
     7
420
 16777215
370
    35
100
AcDbVertex
100
AcDb2dVertex
 10
163.2623860268928
 20
96.3503634741763
 30
0.0
  0
VERTEX
  5
435
330
433
100
AcDbEntity
  8
Layer 1
 62
     7
420
 16777215
370
    35
100
AcDbVertex
100
AcDb2dVertex
 10
145.4030110313576
 20
95.84496796649015
 30
0.0
  0
SEQEND
  5
436
330
433
100
AcDbEntity
  8
Layer 1
370
    35
  0
POLYLINE
  5
437
330
44
100
AcDbEntity
  8
Layer 1
 62
     7
420
 16777215
370
    35
100
AcDb2dPolyline
 66
     1
 10
0.0
 20
0.0
 30
0.0
  0
VERTEX
  5
438
330
437
100
AcDbEntity
  8
Layer 1
 62
     7
420
 16777215
370
    35
100
AcDbVertex
100
AcDb2dVertex
 10
144.9010606191567
 20
100.3907714592773
 30
0.0
  0
VERTEX
  5
439
330
437
100
AcDbEntity
  8
Layer 1
 62
     7
420
 16777215
370
    35
100
AcDbVertex
100
AcDb2dVertex
 10
145.4030110313576
 20
100.3907714592773
 30
0.0
  0
SEQEND
  5
43A
330
437
100
AcDbEntity
  8
Layer 1
370
    35
  0
POLYLINE
  5
43B
330
44
100
AcDbEntity
  8
Layer 1
 62
     7
420
 16777215
370
    35
100
AcDb2dPolyline
 66
     1
 10
0.0
 20
0.0
 30
0.0
  0
VERTEX
  5
43C
330
43B
100
AcDbEntity
  8
Layer 1
 62
     7
420
 16777215
370
    35
100
AcDbVertex
100
AcDb2dVertex
 10
144.9010606191567
 20
95.84496796649015
 30
0.0
  0
VERTEX
  5
43D
330
43B
100
AcDbEntity
  8
Layer 1
 62
     7
420
 16777215
370
    35
100
AcDbVertex
100
AcDb2dVertex
 10
145.4030110313576
 20
95.84496796649015
 30
0.0
  0
SEQEND
  5
43E
330
43B
100
AcDbEntity
  8
Layer 1
370
    35
  0
POLYLINE
  5
43F
330
44
100
AcDbEntity
  8
Layer 1
 62
     7
420
 16777215
370
    35
100
AcDb2dPolyline
 66
     1
 10
0.0
 20
0.0
 30
0.0
  0
VERTEX
  5
440
330
43F
100
AcDbEntity
  8
Layer 1
 62
     7
420
 16777215
370
    35
100
AcDbVertex
100
AcDb2dVertex
 10
144.9010606191567
 20
97.86551646858918
 30
0.0
  0
VERTEX
  5
441
330
43F
100
AcDbEntity
  8
Layer 1
 62
     7
420
 16777215
370
    35
100
AcDbVertex
100
AcDb2dVertex
 10
144.9010606191567
 20
100.3907714592773
 30
0.0
  0
SEQEND
  5
442
330
43F
100
AcDbEntity
  8
Layer 1
370
    35
  0
POLYLINE
  5
443
330
44
100
AcDbEntity
  8
Layer 1
 62
     7
420
 16777215
370
    35
100
AcDb2dPolyline
 66
     1
 10
0.0
 20
0.0
 30
0.0
  0
VERTEX
  5
444
330
443
100
AcDbEntity
  8
Layer 1
 62
     7
420
 16777215
370
    35
100
AcDbVertex
100
AcDb2dVertex
 10
175.8783256938777
 20
68.19842120690873
 30
0.0
  0
VERTEX
  5
445
330
443
100
AcDbEntity
  8
Layer 1
 62
     7
420
 16777215
370
    35
100
AcDbVertex
100
AcDb2dVertex
 10
174.4592908635032
 20
82.20893552632278
 30
0.0
  0
SEQEND
  5
446
330
443
100
AcDbEntity
  8
Layer 1
370
    35
  0
POLYLINE
  5
447
330
44
100
AcDbEntity
  8
Layer 1
 62
     7
420
 16777215
370
    35
100
AcDb2dPolyline
 66
     1
 10
0.0
 20
0.0
 30
0.0
  0
VERTEX
  5
448
330
447
100
AcDbEntity
  8
Layer 1
 62
     7
420
 16777215
370
    35
100
AcDbVertex
100
AcDb2dVertex
 10
176.3186088968926
 20
68.06819659756628
 30
0.0
  0
VERTEX
  5
449
330
447
100
AcDbEntity
  8
Layer 1
 62
     7
420
 16777215
370
    35
100
AcDbVertex
100
AcDb2dVertex
 10
176.3186088968926
 20
68.06819659756628
 30
0.0
  0
SEQEND
  5
44A
330
447
100
AcDbEntity
  8
Layer 1
370
    35
  0
POLYLINE
  5
44B
330
44
100
AcDbEntity
  8
Layer 1
 62
     7
420
 16777215
370
    35
100
AcDb2dPolyline
 66
     1
 10
0.0
 20
0.0
 30
0.0
  0
VERTEX
  5
44C
330
44B
100
AcDbEntity
  8
Layer 1
 62
     7
420
 16777215
370
    35
100
AcDbVertex
100
AcDb2dVertex
 10
180.3359347422424
 20
67.56245658033161
 30
0.0
  0
VERTEX
  5
44D
330
44B
100
AcDbEntity
  8
Layer 1
 62
     7
420
 16777215
370
    35
100
AcDbVertex
100
AcDb2dVertex
 10
180.3359347422424
 20
68.06819659756628
 30
0.0
  0
SEQEND
  5
44E
330
44B
100
AcDbEntity
  8
Layer 1
370
    35
  0
POLYLINE
  5
44F
330
44
100
AcDbEntity
  8
Layer 1
 62
     7
420
 16777215
370
    35
100
AcDb2dPolyline
 66
     1
 10
0.0
 20
0.0
 30
0.0
  0
VERTEX
  5
450
330
44F
100
AcDbEntity
  8
Layer 1
 62
     7
420
 16777215
370
    35
100
AcDbVertex
100
AcDb2dVertex
 10
180.3359347422424
 20
68.06819659756628
 30
0.0
  0
VERTEX
  5
451
330
44F
100
AcDbEntity
  8
Layer 1
 62
     7
420
 16777215
370
    35
100
AcDbVertex
100
AcDb2dVertex
 10
180.3359347422424
 20
68.06819659756628
 30
0.0
  0
SEQEND
  5
452
330
44F
100
AcDbEntity
  8
Layer 1
370
    35
  0
POLYLINE
  5
453
330
44
100
AcDbEntity
  8
Layer 1
 62
     7
420
 16777215
370
    35
100
AcDb2dPolyline
 66
     1
 10
0.0
 20
0.0
 30
0.0
  0
VERTEX
  5
454
330
453
100
AcDbEntity
  8
Layer 1
 62
     7
420
 16777215
370
    35
100
AcDbVertex
100
AcDb2dVertex
 10
180.8385741735404
 20
64.5328396106029
 30
0.0
  0
VERTEX
  5
455
330
453
100
AcDbEntity
  8
Layer 1
 62
     7
420
 16777215
370
    35
100
AcDbVertex
100
AcDb2dVertex
 10
180.3359347422424
 20
67.56245658033161
 30
0.0
  0
SEQEND
  5
456
330
453
100
AcDbEntity
  8
Layer 1
370
    35
  0
POLYLINE
  5
457
330
44
100
AcDbEntity
  8
Layer 1
 62
     7
420
 16777215
370
    35
100
AcDb2dPolyline
 66
     1
 10
0.0
 20
0.0
 30
0.0
  0
VERTEX
  5
458
330
457
100
AcDbEntity
  8
Layer 1
 62
     7
420
 16777215
370
    35
100
AcDbVertex
100
AcDb2dVertex
 10
172.8039224828407
 20
100.3907714592773
 30
0.0
  0
VERTEX
  5
459
330
457
100
AcDbEntity
  8
Layer 1
 62
     7
420
 16777215
370
    35
100
AcDbVertex
100
AcDb2dVertex
 10
172.3009385419942
 20
100.8958224574149
 30
0.0
  0
SEQEND
  5
45A
330
457
100
AcDbEntity
  8
Layer 1
370
    35
  0
POLYLINE
  5
45B
330
44
100
AcDbEntity
  8
Layer 1
 62
     7
420
 16777215
370
    35
100
AcDb2dPolyline
 66
     1
 10
0.0
 20
0.0
 30
0.0
  0
VERTEX
  5
45C
330
45B
100
AcDbEntity
  8
Layer 1
 62
     7
420
 16777215
370
    35
100
AcDbVertex
100
AcDb2dVertex
 10
163.2623860268928
 20
83.72408852073565
 30
0.0
  0
VERTEX
  5
45D
330
45B
100
AcDbEntity
  8
Layer 1
 62
     7
420
 16777215
370
    35
100
AcDbVertex
100
AcDb2dVertex
 10
163.2623860268928
 20
83.72408852073565
 30
0.0
  0
SEQEND
  5
45E
330
45B
100
AcDbEntity
  8
Layer 1
370
    35
  0
POLYLINE
  5
45F
330
44
100
AcDbEntity
  8
Layer 1
 62
     7
420
 16777215
370
    35
100
AcDb2dPolyline
 66
     1
 10
0.0
 20
0.0
 30
0.0
  0
VERTEX
  5
460
330
45F
100
AcDbEntity
  8
Layer 1
 62
     7
420
 16777215
370
    35
100
AcDbVertex
100
AcDb2dVertex
 10
163.2623860268928
 20
83.72408852073565
 30
0.0
  0
VERTEX
  5
461
330
45F
100
AcDbEntity
  8
Layer 1
 62
     7
420
 16777215
370
    35
100
AcDbVertex
100
AcDb2dVertex
 10
163.2623860268928
 20
83.72408852073565
 30
0.0
  0
SEQEND
  5
462
330
45F
100
AcDbEntity
  8
Layer 1
370
    35
  0
POLYLINE
  5
463
330
44
100
AcDbEntity
  8
Layer 1
 62
     7
420
 16777215
370
    35
100
AcDb2dPolyline
 66
     1
 10
0.0
 20
0.0
 30
0.0
  0
VERTEX
  5
464
330
463
100
AcDbEntity
  8
Layer 1
 62
     7
420
 16777215
370
    35
100
AcDbVertex
100
AcDb2dVertex
 10
163.2623860268928
 20
93.32005748535055
 30
0.0
  0
VERTEX
  5
465
330
463
100
AcDbEntity
  8
Layer 1
 62
     7
420
 16777215
370
    35
100
AcDbVertex
100
AcDb2dVertex
 10
163.2623860268928
 20
93.82510848348817
 30
0.0
  0
SEQEND
  5
466
330
463
100
AcDbEntity
  8
Layer 1
370
    35
  0
POLYLINE
  5
467
330
44
100
AcDbEntity
  8
Layer 1
 62
     7
420
 16777215
370
    35
100
AcDb2dPolyline
 66
     1
 10
0.0
 20
0.0
 30
0.0
  0
VERTEX
  5
468
330
467
100
AcDbEntity
  8
Layer 1
 62
     7
420
 16777215
370
    35
100
AcDbVertex
100
AcDb2dVertex
 10
163.2623860268928
 20
99.88572046113968
 30
0.0
  0
VERTEX
  5
469
330
467
100
AcDbEntity
  8
Layer 1
 62
     7
420
 16777215
370
    35
100
AcDbVertex
100
AcDb2dVertex
 10
163.7639919295451
 20
98.87561846486443
 30
0.0
  0
VERTEX
  5
46A
330
467
100
AcDbEntity
  8
Layer 1
 62
     7
420
 16777215
370
    35
100
AcDbVertex
100
AcDb2dVertex
 10
163.913509073605
 20
97.86551646858918
 30
0.0
  0
SEQEND
  5
46B
330
467
100
AcDbEntity
  8
Layer 1
370
    35
  0
POLYLINE
  5
46C
330
44
100
AcDbEntity
  8
Layer 1
 62
     7
420
 16777215
370
    35
100
AcDb2dPolyline
 66
     1
 10
0.0
 20
0.0
 30
0.0
  0
VERTEX
  5
46D
330
46C
100
AcDbEntity
  8
Layer 1
 62
     7
420
 16777215
370
    35
100
AcDbVertex
100
AcDb2dVertex
 10
163.913509073605
 20
97.86551646858918
 30
0.0
  0
VERTEX
  5
46E
330
46C
100
AcDbEntity
  8
Layer 1
 62
     7
420
 16777215
370
    35
100
AcDbVertex
100
AcDb2dVertex
 10
163.7639919295451
 20
96.85541447231392
 30
0.0
  0
VERTEX
  5
46F
330
46C
100
AcDbEntity
  8
Layer 1
 62
     7
420
 16777215
370
    35
100
AcDbVertex
100
AcDb2dVertex
 10
163.2623860268928
 20
96.3503634741763
 30
0.0
  0
SEQEND
  5
470
330
46C
100
AcDbEntity
  8
Layer 1
370
    35
  0
POLYLINE
  5
471
330
44
100
AcDbEntity
  8
Layer 1
 62
     7
420
 16777215
370
    35
100
AcDb2dPolyline
 66
     1
 10
0.0
 20
0.0
 30
0.0
  0
VERTEX
  5
472
330
471
100
AcDbEntity
  8
Layer 1
 62
     7
420
 16777215
370
    35
100
AcDbVertex
100
AcDb2dVertex
 10
172.8039224828407
 20
99.5329426834501
 30
0.0
  0
VERTEX
  5
473
330
471
100
AcDbEntity
  8
Layer 1
 62
     7
420
 16777215
370
    35
100
AcDbVertex
100
AcDb2dVertex
 10
172.8039224828407
 20
100.3907714592773
 30
0.0
  0
SEQEND
  5
474
330
471
100
AcDbEntity
  8
Layer 1
370
    35
  0
POLYLINE
  5
475
330
44
100
AcDbEntity
  8
Layer 1
 62
     7
420
 16777215
370
    35
100
AcDb2dPolyline
 66
     1
 10
0.0
 20
0.0
 30
0.0
  0
VERTEX
  5
476
330
475
100
AcDbEntity
  8
Layer 1
 62
     7
420
 16777215
370
    35
100
AcDbVertex
100
AcDb2dVertex
 10
172.8039224828407
 20
93.32005748535055
 30
0.0
  0
VERTEX
  5
477
330
475
100
AcDbEntity
  8
Layer 1
 62
     7
420
 16777215
370
    35
100
AcDbVertex
100
AcDb2dVertex
 10
172.8039224828407
 20
92.81500648721293
 30
0.0
  0
SEQEND
  5
478
330
475
100
AcDbEntity
  8
Layer 1
370
    35
  0
POLYLINE
  5
479
330
44
100
AcDbEntity
  8
Layer 1
 62
     7
420
 16777215
370
    35
100
AcDb2dPolyline
 66
     1
 10
0.0
 20
0.0
 30
0.0
  0
VERTEX
  5
47A
330
479
100
AcDbEntity
  8
Layer 1
 62
     7
420
 16777215
370
    35
100
AcDbVertex
100
AcDb2dVertex
 10
160.2486164963962
 20
68.57290308615539
 30
0.0
  0
VERTEX
  5
47B
330
479
100
AcDbEntity
  8
Layer 1
 62
     7
420
 16777215
370
    35
100
AcDbVertex
100
AcDb2dVertex
 10
161.7551567520959
 20
82.20893552632278
 30
0.0
  0
SEQEND
  5
47C
330
479
100
AcDbEntity
  8
Layer 1
370
    35
  0
POLYLINE
  5
47D
330
44
100
AcDbEntity
  8
Layer 1
 62
     7
420
 16777215
370
    35
100
AcDb2dPolyline
 66
     1
 10
0.0
 20
0.0
 30
0.0
  0
VERTEX
  5
47E
330
47D
100
AcDbEntity
  8
Layer 1
 62
     7
420
 16777215
370
    35
100
AcDbVertex
100
AcDb2dVertex
 10
155.2267008075475
 20
64.5328396106029
 30
0.0
  0
VERTEX
  5
47F
330
47D
100
AcDbEntity
  8
Layer 1
 62
     7
420
 16777215
370
    35
100
AcDbVertex
100
AcDb2dVertex
 10
155.7293402388455
 20
67.56245658033161
 30
0.0
  0
SEQEND
  5
480
330
47D
100
AcDbEntity
  8
Layer 1
370
    35
  0
POLYLINE
  5
481
330
44
100
AcDbEntity
  8
Layer 1
 62
     7
420
 16777215
370
    35
100
AcDb2dPolyline
 66
     1
 10
0.0
 20
0.0
 30
0.0
  0
VERTEX
  5
482
330
481
100
AcDbEntity
  8
Layer 1
 62
     7
420
 16777215
370
    35
100
AcDbVertex
100
AcDb2dVertex
 10
155.7293402388455
 20
67.56245658033161
 30
0.0
  0
VERTEX
  5
483
330
481
100
AcDbEntity
  8
Layer 1
 62
     7
420
 16777215
370
    35
100
AcDbVertex
100
AcDb2dVertex
 10
155.7293402388455
 20
68.06819659756628
 30
0.0
  0
SEQEND
  5
484
330
481
100
AcDbEntity
  8
Layer 1
370
    35
  0
POLYLINE
  5
485
330
44
100
AcDbEntity
  8
Layer 1
 62
     7
420
 16777215
370
    35
100
AcDb2dPolyline
 66
     1
 10
0.0
 20
0.0
 30
0.0
  0
VERTEX
  5
486
330
485
100
AcDbEntity
  8
Layer 1
 62
     7
420
 16777215
370
    35
100
AcDbVertex
100
AcDb2dVertex
 10
155.7293402388455
 20
68.06819659756628
 30
0.0
  0
VERTEX
  5
487
330
485
100
AcDbEntity
  8
Layer 1
 62
     7
420
 16777215
370
    35
100
AcDbVertex
100
AcDb2dVertex
 10
155.7293402388455
 20
68.06819659756628
 30
0.0
  0
SEQEND
  5
488
330
485
100
AcDbEntity
  8
Layer 1
370
    35
  0
POLYLINE
  5
489
330
44
100
AcDbEntity
  8
Layer 1
 62
     7
420
 16777215
370
    35
100
AcDb2dPolyline
 66
     1
 10
0.0
 20
0.0
 30
0.0
  0
VERTEX
  5
48A
330
489
100
AcDbEntity
  8
Layer 1
 62
     7
420
 16777215
370
    35
100
AcDbVertex
100
AcDb2dVertex
 10
160.2486164963962
 20
68.57290308615539
 30
0.0
  0
VERTEX
  5
48B
330
489
100
AcDbEntity
  8
Layer 1
 62
     7
420
 16777215
370
    35
100
AcDbVertex
100
AcDb2dVertex
 10
160.2486164963962
 20
68.57290308615539
 30
0.0
  0
VERTEX
  5
48C
330
489
100
AcDbEntity
  8
Layer 1
 62
     7
420
 16777215
370
    35
100
AcDbVertex
100
AcDb2dVertex
 10
160.2486164963962
 20
68.06819659756628
 30
0.0
  0
SEQEND
  5
48D
330
489
100
AcDbEntity
  8
Layer 1
370
    35
  0
POLYLINE
  5
48E
330
44
100
AcDbEntity
  8
Layer 1
 62
     7
420
 16777215
370
    35
100
AcDb2dPolyline
 66
     1
 10
0.0
 20
0.0
 30
0.0
  0
VERTEX
  5
48F
330
48E
100
AcDbEntity
  8
Layer 1
 62
     7
420
 16777215
370
    35
100
AcDbVertex
100
AcDb2dVertex
 10
160.2486164963962
 20
68.06819659756628
 30
0.0
  0
VERTEX
  5
490
330
48E
100
AcDbEntity
  8
Layer 1
 62
     7
420
 16777215
370
    35
100
AcDbVertex
100
AcDb2dVertex
 10
160.2486164963962
 20
68.06819659756628
 30
0.0
  0
SEQEND
  5
491
330
48E
100
AcDbEntity
  8
Layer 1
370
    35
  0
POLYLINE
  5
492
330
44
100
AcDbEntity
  8
Layer 1
 62
     7
420
 16777215
370
    35
100
AcDb2dPolyline
 66
     1
 10
0.0
 20
0.0
 30
0.0
  0
VERTEX
  5
493
330
492
100
AcDbEntity
  8
Layer 1
 62
     7
420
 16777215
370
    35
100
AcDbVertex
100
AcDb2dVertex
 10
160.2486164963962
 20
68.06819659756628
 30
0.0
  0
VERTEX
  5
494
330
492
100
AcDbEntity
  8
Layer 1
 62
     7
420
 16777215
370
    35
100
AcDbVertex
100
AcDb2dVertex
 10
176.3186088968926
 20
68.06819659756628
 30
0.0
  0
SEQEND
  5
495
330
492
100
AcDbEntity
  8
Layer 1
370
    35
  0
POLYLINE
  5
496
330
44
100
AcDbEntity
  8
Layer 1
 62
     7
420
 16777215
370
    35
100
AcDb2dPolyline
 66
     1
 10
0.0
 20
0.0
 30
0.0
  0
VERTEX
  5
497
330
496
100
AcDbEntity
  8
Layer 1
 62
     7
420
 16777215
370
    35
100
AcDbVertex
100
AcDb2dVertex
 10
155.7293402388455
 20
68.06819659756628
 30
0.0
  0
VERTEX
  5
498
330
496
100
AcDbEntity
  8
Layer 1
 62
     7
420
 16777215
370
    35
100
AcDbVertex
100
AcDb2dVertex
 10
180.3359347422424
 20
68.06819659756628
 30
0.0
  0
SEQEND
  5
499
330
496
100
AcDbEntity
  8
Layer 1
370
    35
  0
POLYLINE
  5
49A
330
44
100
AcDbEntity
  8
Layer 1
 62
     7
420
 16777215
370
    35
100
AcDb2dPolyline
 66
     1
 10
0.0
 20
0.0
 30
0.0
  0
VERTEX
  5
49B
330
49A
100
AcDbEntity
  8
Layer 1
 62
     7
420
 16777215
370
    35
100
AcDbVertex
100
AcDb2dVertex
 10
155.7293402388455
 20
68.06819659756628
 30
0.0
  0
VERTEX
  5
49C
330
49A
100
AcDbEntity
  8
Layer 1
 62
     7
420
 16777215
370
    35
100
AcDbVertex
100
AcDb2dVertex
 10
160.2486164963962
 20
68.06819659756628
 30
0.0
  0
SEQEND
  5
49D
330
49A
100
AcDbEntity
  8
Layer 1
370
    35
  0
POLYLINE
  5
49E
330
44
100
AcDbEntity
  8
Layer 1
 62
     7
420
 16777215
370
    35
100
AcDb2dPolyline
 66
     1
 10
0.0
 20
0.0
 30
0.0
  0
VERTEX
  5
49F
330
49E
100
AcDbEntity
  8
Layer 1
 62
     7
420
 16777215
370
    35
100
AcDbVertex
100
AcDb2dVertex
 10
144.9010606191567
 20
97.86551646858918
 30
0.0
  0
VERTEX
  5
4A0
330
49E
100
AcDbEntity
  8
Layer 1
 62
     7
420
 16777215
370
    35
100
AcDbVertex
100
AcDb2dVertex
 10
144.9010606191567
 20
95.84496796649015
 30
0.0
  0
SEQEND
  5
4A1
330
49E
100
AcDbEntity
  8
Layer 1
370
    35
  0
POLYLINE
  5
4A2
330
44
100
AcDbEntity
  8
Layer 1
 62
     7
420
 16777215
370
    35
100
AcDb2dPolyline
 66
     1
 10
0.0
 20
0.0
 30
0.0
  0
VERTEX
  5
4A3
330
4A2
100
AcDbEntity
  8
Layer 1
 62
     7
420
 16777215
370
    35
100
AcDbVertex
100
AcDb2dVertex
 10
173.3058728950416
 20
83.72408852073565
 30
0.0
  0
VERTEX
  5
4A4
330
4A2
100
AcDbEntity
  8
Layer 1
 62
     7
420
 16777215
370
    35
100
AcDbVertex
100
AcDb2dVertex
 10
173.3058728950416
 20
83.72408852073565
 30
0.0
  0
SEQEND
  5
4A5
330
4A2
100
AcDbEntity
  8
Layer 1
370
    35
  0
POLYLINE
  5
4A6
330
44
100
AcDbEntity
  8
Layer 1
 62
     7
420
 16777215
370
    35
100
AcDb2dPolyline
 66
     1
 10
0.0
 20
0.0
 30
0.0
  0
VERTEX
  5
4A7
330
4A6
100
AcDbEntity
  8
Layer 1
 62
     7
420
 16777215
370
    35
100
AcDbVertex
100
AcDb2dVertex
 10
173.3058728950416
 20
83.72408852073565
 30
0.0
  0
VERTEX
  5
4A8
330
4A6
100
AcDbEntity
  8
Layer 1
 62
     7
420
 16777215
370
    35
100
AcDbVertex
100
AcDb2dVertex
 10
173.3058728950416
 20
83.72408852073565
 30
0.0
  0
SEQEND
  5
4A9
330
4A6
100
AcDbEntity
  8
Layer 1
370
    35
  0
POLYLINE
  5
4AA
330
44
100
AcDbEntity
  8
Layer 1
 62
     7
420
 16777215
370
    35
100
AcDb2dPolyline
 66
     1
 10
0.0
 20
0.0
 30
0.0
  0
VERTEX
  5
4AB
330
4AA
100
AcDbEntity
  8
Layer 1
 62
     7
420
 16777215
370
    35
100
AcDbVertex
100
AcDb2dVertex
 10
174.4592908635032
 20
82.20893552632278
 30
0.0
  0
VERTEX
  5
4AC
330
4AA
100
AcDbEntity
  8
Layer 1
 62
     7
420
 16777215
370
    35
100
AcDbVertex
100
AcDb2dVertex
 10
174.4592908635032
 20
82.20893552632278
 30
0.0
  0
SEQEND
  5
4AD
330
4AA
100
AcDbEntity
  8
Layer 1
370
    35
  0
POLYLINE
  5
4AE
330
44
100
AcDbEntity
  8
Layer 1
 62
     7
420
 16777215
370
    35
100
AcDb2dPolyline
 66
     1
 10
0.0
 20
0.0
 30
0.0
  0
VERTEX
  5
4AF
330
4AE
100
AcDbEntity
  8
Layer 1
 62
     7
420
 16777215
370
    35
100
AcDbVertex
100
AcDb2dVertex
 10
174.4592908635032
 20
82.20893552632278
 30
0.0
  0
VERTEX
  5
4B0
330
4AE
100
AcDbEntity
  8
Layer 1
 62
     7
420
 16777215
370
    35
100
AcDbVertex
100
AcDb2dVertex
 10
174.4592908635032
 20
82.20893552632278
 30
0.0
  0
SEQEND
  5
4B1
330
4AE
100
AcDbEntity
  8
Layer 1
370
    35
  0
POLYLINE
  5
4B2
330
44
100
AcDbEntity
  8
Layer 1
 62
     7
420
 16777215
370
    35
100
AcDb2dPolyline
 66
     1
 10
0.0
 20
0.0
 30
0.0
  0
VERTEX
  5
4B3
330
4B2
100
AcDbEntity
  8
Layer 1
 62
     7
420
 16777215
370
    35
100
AcDbVertex
100
AcDb2dVertex
 10
173.3058728950416
 20
83.72408852073565
 30
0.0
  0
VERTEX
  5
4B4
330
4B2
100
AcDbEntity
  8
Layer 1
 62
     7
420
 16777215
370
    35
100
AcDbVertex
100
AcDb2dVertex
 10
173.3058728950416
 20
82.71433103400892
 30
0.0
  0
SEQEND
  5
4B5
330
4B2
100
AcDbEntity
  8
Layer 1
370
    35
  0
POLYLINE
  5
4B6
330
44
100
AcDbEntity
  8
Layer 1
 62
     7
420
 16777215
370
    35
100
AcDb2dPolyline
 66
     1
 10
0.0
 20
0.0
 30
0.0
  0
VERTEX
  5
4B7
330
4B6
100
AcDbEntity
  8
Layer 1
 62
     7
420
 16777215
370
    35
100
AcDbVertex
100
AcDb2dVertex
 10
161.7555012616445
 20
82.20893552632278
 30
0.0
  0
VERTEX
  5
4B8
330
4B6
100
AcDbEntity
  8
Layer 1
 62
     7
420
 16777215
370
    35
100
AcDbVertex
100
AcDb2dVertex
 10
161.7555012616445
 20
82.20893552632278
 30
0.0
  0
SEQEND
  5
4B9
330
4B6
100
AcDbEntity
  8
Layer 1
370
    35
  0
POLYLINE
  5
4BA
330
44
100
AcDbEntity
  8
Layer 1
 62
     7
420
 16777215
370
    35
100
AcDb2dPolyline
 66
     1
 10
0.0
 20
0.0
 30
0.0
  0
VERTEX
  5
4BB
330
4BA
100
AcDbEntity
  8
Layer 1
 62
     7
420
 16777215
370
    35
100
AcDbVertex
100
AcDb2dVertex
 10
161.7555012616445
 20
82.20893552632278
 30
0.0
  0
VERTEX
  5
4BC
330
4BA
100
AcDbEntity
  8
Layer 1
 62
     7
420
 16777215
370
    35
100
AcDbVertex
100
AcDb2dVertex
 10
161.7555012616445
 20
82.20893552632278
 30
0.0
  0
SEQEND
  5
4BD
330
4BA
100
AcDbEntity
  8
Layer 1
370
    35
  0
POLYLINE
  5
4BE
330
44
100
AcDbEntity
  8
Layer 1
 62
     7
420
 16777215
370
    35
100
AcDb2dPolyline
 66
     1
 10
0.0
 20
0.0
 30
0.0
  0
VERTEX
  5
4BF
330
4BE
100
AcDbEntity
  8
Layer 1
 62
     7
420
 16777215
370
    35
100
AcDbVertex
100
AcDb2dVertex
 10
165.7731716165428
 20
83.72408852073565
 30
0.0
  0
VERTEX
  5
4C0
330
4BE
100
AcDbEntity
  8
Layer 1
 62
     7
420
 16777215
370
    35
100
AcDbVertex
100
AcDb2dVertex
 10
165.7731716165428
 20
92.81500648721293
 30
0.0
  0
SEQEND
  5
4C1
330
4BE
100
AcDbEntity
  8
Layer 1
370
    35
  0
POLYLINE
  5
4C2
330
44
100
AcDbEntity
  8
Layer 1
 62
     7
420
 16777215
370
    35
100
AcDb2dPolyline
 66
     1
 10
0.0
 20
0.0
 30
0.0
  0
VERTEX
  5
4C3
330
4C2
100
AcDbEntity
  8
Layer 1
 62
     7
420
 16777215
370
    35
100
AcDbVertex
100
AcDb2dVertex
 10
163.2623860268928
 20
100.3907714592773
 30
0.0
  0
VERTEX
  5
4C4
330
4C2
100
AcDbEntity
  8
Layer 1
 62
     7
420
 16777215
370
    35
100
AcDbVertex
100
AcDb2dVertex
 10
163.7639919295451
 20
100.8958224574149
 30
0.0
  0
SEQEND
  5
4C5
330
4C2
100
AcDbEntity
  8
Layer 1
370
    35
  0
POLYLINE
  5
4C6
330
44
100
AcDbEntity
  8
Layer 1
 62
     7
420
 16777215
370
    35
100
AcDb2dPolyline
 66
     1
 10
0.0
 20
0.0
 30
0.0
  0
VERTEX
  5
4C7
330
4C6
100
AcDbEntity
  8
Layer 1
 62
     7
420
 16777215
370
    35
100
AcDbVertex
100
AcDb2dVertex
 10
172.8039224828407
 20
93.32005748535055
 30
0.0
  0
VERTEX
  5
4C8
330
4C6
100
AcDbEntity
  8
Layer 1
 62
     7
420
 16777215
370
    35
100
AcDbVertex
100
AcDb2dVertex
 10
172.8039224828407
 20
93.82510848348817
 30
0.0
  0
SEQEND
  5
4C9
330
4C6
100
AcDbEntity
  8
Layer 1
370
    35
  0
POLYLINE
  5
4CA
330
44
100
AcDbEntity
  8
Layer 1
370
     0
100
AcDb2dPolyline
 66
     1
 10
0.0
 20
0.0
 30
0.0
  0
VERTEX
  5
4CB
330
4CA
100
AcDbEntity
  8
Layer 1
370
     0
100
AcDbVertex
100
AcDb2dVertex
 10
175.8411186626369
 20
67.98964842050259
 30
0.0
  0
VERTEX
  5
4CC
330
4CA
100
AcDbEntity
  8
Layer 1
370
     0
100
AcDbVertex
100
AcDb2dVertex
 10
160.27342118389
 20
67.98964842050259
 30
0.0
  0
SEQEND
  5
4CD
330
4CA
100
AcDbEntity
  8
Layer 1
370
     0
  0
POLYLINE
  5
4CE
330
44
100
AcDbEntity
  8
Layer 1
 62
     7
420
 16777215
370
     9
100
AcDb2dPolyline
 66
     1
 10
0.0
 20
0.0
 30
0.0
  0
VERTEX
  5
4CF
330
4CE
100
AcDbEntity
  8
Layer 1
 62
     7
420
 16777215
370
     9
100
AcDbVertex
100
AcDb2dVertex
 10
175.8411186626369
 20
67.98964842050259
 30
0.0
  0
VERTEX
  5
4D0
330
4CE
100
AcDbEntity
  8
Layer 1
 62
     7
420
 16777215
370
     9
100
AcDbVertex
100
AcDb2dVertex
 10
160.27342118389
 20
67.98964842050259
 30
0.0
  0
SEQEND
  5
4D1
330
4CE
100
AcDbEntity
  8
Layer 1
370
     9
  0
POLYLINE
  5
4D2
330
44
100
AcDbEntity
  8
Layer 1
370
     0
100
AcDb2dPolyline
 66
     1
 10
0.0
 20
0.0
 30
0.0
  0
VERTEX
  5
4D3
330
4D2
100
AcDbEntity
  8
Layer 1
370
     0
100
AcDbVertex
100
AcDb2dVertex
 10
180.3603949201877
 20
67.98964842050259
 30
0.0
  0
VERTEX
  5
684
330
4D2
100
AcDbEntity
  8
0
100
AcDbVertex
100
AcDb2dVertex
 10
180.3603949201877
 20
67.98964842050259
 30
0.0
  0
SEQEND
  5
4D4
330
4D2
100
AcDbEntity
  8
Layer 1
370
     0
  0
POLYLINE
  5
4D5
330
44
100
AcDbEntity
  8
Layer 1
 62
     7
420
 16777215
370
     9
100
AcDb2dPolyline
 66
     1
 10
0.0
 20
0.0
 30
0.0
  0
VERTEX
  5
4D6
330
4D5
100
AcDbEntity
  8
Layer 1
 62
     7
420
 16777215
370
     9
100
AcDbVertex
100
AcDb2dVertex
 10
180.3603949201877
 20
67.98964842050259
 30
0.0
  0
VERTEX
  5
4D7
330
4D5
100
AcDbEntity
  8
Layer 1
 62
     7
420
 16777215
370
     9
100
AcDbVertex
100
AcDb2dVertex
 10
180.3603949201877
 20
67.98964842050259
 30
0.0
  0
SEQEND
  5
4D8
330
4D5
100
AcDbEntity
  8
Layer 1
370
     9
  0
POLYLINE
  5
4D9
330
44
100
AcDbEntity
  8
Layer 1
370
     0
100
AcDb2dPolyline
 66
     1
 10
0.0
 20
0.0
 30
0.0
  0
VERTEX
  5
4DA
330
4D9
100
AcDbEntity
  8
Layer 1
370
     0
100
AcDbVertex
100
AcDb2dVertex
 10
161.7803059491383
 20
82.13107636835612
 30
0.0
  0
VERTEX
  5
4DB
330
4D9
100
AcDbEntity
  8
Layer 1
370
     0
100
AcDbVertex
100
AcDb2dVertex
 10
174.3349229164857
 20
82.13107636835612
 30
0.0
  0
SEQEND
  5
4DC
330
4D9
100
AcDbEntity
  8
Layer 1
370
     0
  0
POLYLINE
  5
4DD
330
44
100
AcDbEntity
  8
Layer 1
 62
     7
420
 16777215
370
     9
100
AcDb2dPolyline
 66
     1
 10
0.0
 20
0.0
 30
0.0
  0
VERTEX
  5
4DE
330
4DD
100
AcDbEntity
  8
Layer 1
 62
     7
420
 16777215
370
     9
100
AcDbVertex
100
AcDb2dVertex
 10
161.7803059491383
 20
82.13107636835612
 30
0.0
  0
VERTEX
  5
4DF
330
4DD
100
AcDbEntity
  8
Layer 1
 62
     7
420
 16777215
370
     9
100
AcDbVertex
100
AcDb2dVertex
 10
174.3349229164857
 20
82.13107636835612
 30
0.0
  0
SEQEND
  5
4E0
330
4DD
100
AcDbEntity
  8
Layer 1
370
     9
  0
POLYLINE
  5
4E1
330
44
100
AcDbEntity
  8
Layer 1
370
     0
100
AcDb2dPolyline
 66
     1
 10
0.0
 20
0.0
 30
0.0
  0
VERTEX
  5
4E2
330
4E1
100
AcDbEntity
  8
Layer 1
370
     0
100
AcDbVertex
100
AcDb2dVertex
 10
155.7534559072422
 20
67.98964842050259
 30
0.0
  0
VERTEX
  5
685
330
4E1
100
AcDbEntity
  8
0
100
AcDbVertex
100
AcDb2dVertex
 10
155.7534559072422
 20
67.98964842050259
 30
0.0
  0
SEQEND
  5
4E3
330
4E1
100
AcDbEntity
  8
Layer 1
370
     0
  0
POLYLINE
  5
4E4
330
44
100
AcDbEntity
  8
Layer 1
 62
     7
420
 16777215
370
     9
100
AcDb2dPolyline
 66
     1
 10
0.0
 20
0.0
 30
0.0
  0
VERTEX
  5
4E5
330
4E4
100
AcDbEntity
  8
Layer 1
 62
     7
420
 16777215
370
     9
100
AcDbVertex
100
AcDb2dVertex
 10
155.7534559072422
 20
67.98964842050259
 30
0.0
  0
VERTEX
  5
4E6
330
4E4
100
AcDbEntity
  8
Layer 1
 62
     7
420
 16777215
370
     9
100
AcDbVertex
100
AcDb2dVertex
 10
155.7534559072422
 20
67.98964842050259
 30
0.0
  0
SEQEND
  5
4E7
330
4E4
100
AcDbEntity
  8
Layer 1
370
     9
  0
POLYLINE
  5
4E8
330
44
100
AcDbEntity
  8
Layer 1
370
     0
100
AcDb2dPolyline
 66
     1
 10
0.0
 20
0.0
 30
0.0
  0
VERTEX
  5
4E9
330
4E8
100
AcDbEntity
  8
Layer 1
370
     0
100
AcDbVertex
100
AcDb2dVertex
 10
155.7534559072422
 20
67.98964842050259
 30
0.0
  0
VERTEX
  5
4EA
330
4E8
100
AcDbEntity
  8
Layer 1
370
     0
100
AcDbVertex
100
AcDb2dVertex
 10
159.7711262621406
 20
67.98964842050259
 30
0.0
  0
SEQEND
  5
4EB
330
4E8
100
AcDbEntity
  8
Layer 1
370
     0
  0
POLYLINE
  5
4EC
330
44
100
AcDbEntity
  8
Layer 1
 62
     7
420
 16777215
370
     9
100
AcDb2dPolyline
 66
     1
 10
0.0
 20
0.0
 30
0.0
  0
VERTEX
  5
4ED
330
4EC
100
AcDbEntity
  8
Layer 1
 62
     7
420
 16777215
370
     9
100
AcDbVertex
100
AcDb2dVertex
 10
155.7534559072422
 20
67.98964842050259
 30
0.0
  0
VERTEX
  5
4EE
330
4EC
100
AcDbEntity
  8
Layer 1
 62
     7
420
 16777215
370
     9
100
AcDbVertex
100
AcDb2dVertex
 10
159.7711262621406
 20
67.98964842050259
 30
0.0
  0
SEQEND
  5
4EF
330
4EC
100
AcDbEntity
  8
Layer 1
370
     9
  0
POLYLINE
  5
4F0
330
44
100
AcDbEntity
  8
Layer 1
 62
     7
420
 16777215
370
    35
100
AcDb2dPolyline
 66
     1
 10
0.0
 20
0.0
 30
0.0
  0
VERTEX
  5
4F1
330
4F0
100
AcDbEntity
  8
Layer 1
 62
     7
420
 16777215
370
    35
100
AcDbVertex
100
AcDb2dVertex
 10
273.9956786424386
 20
68.06819659756628
 30
0.0
  0
VERTEX
  5
4F2
330
4F0
100
AcDbEntity
  8
Layer 1
 62
     7
420
 16777215
370
    35
100
AcDbVertex
100
AcDb2dVertex
 10
269.9783527970887
 20
68.06819659756628
 30
0.0
  0
SEQEND
  5
4F3
330
4F0
100
AcDbEntity
  8
Layer 1
370
    35
  0
POLYLINE
  5
4F4
330
44
100
AcDbEntity
  8
Layer 1
 62
     7
420
 16777215
370
    35
100
AcDb2dPolyline
 66
     1
 10
0.0
 20
0.0
 30
0.0
  0
VERTEX
  5
4F5
330
4F4
100
AcDbEntity
  8
Layer 1
 62
     7
420
 16777215
370
    35
100
AcDbVertex
100
AcDb2dVertex
 10
263.9528807933868
 20
92.81500648721293
 30
0.0
  0
VERTEX
  5
4F6
330
4F4
100
AcDbEntity
  8
Layer 1
 62
     7
420
 16777215
370
    35
100
AcDbVertex
100
AcDb2dVertex
 10
266.4636663830369
 20
92.81500648721293
 30
0.0
  0
SEQEND
  5
4F7
330
4F4
100
AcDbEntity
  8
Layer 1
370
    35
  0
POLYLINE
  5
4F8
330
44
100
AcDbEntity
  8
Layer 1
 62
     7
420
 16777215
370
    35
100
AcDb2dPolyline
 66
     1
 10
0.0
 20
0.0
 30
0.0
  0
VERTEX
  5
4F9
330
4F8
100
AcDbEntity
  8
Layer 1
 62
     7
420
 16777215
370
    35
100
AcDbVertex
100
AcDb2dVertex
 10
285.177425058914
 20
95.84496796649015
 30
0.0
  0
VERTEX
  5
4FA
330
4F8
100
AcDbEntity
  8
Layer 1
 62
     7
420
 16777215
370
    35
100
AcDbVertex
100
AcDb2dVertex
 10
285.177425058914
 20
95.84496796649015
 30
0.0
  0
SEQEND
  5
4FB
330
4F8
100
AcDbEntity
  8
Layer 1
370
    35
  0
POLYLINE
  5
4FC
330
44
100
AcDbEntity
  8
Layer 1
 62
     7
420
 16777215
370
    35
100
AcDb2dPolyline
 66
     1
 10
0.0
 20
0.0
 30
0.0
  0
VERTEX
  5
4FD
330
4FC
100
AcDbEntity
  8
Layer 1
 62
     7
420
 16777215
370
    35
100
AcDbVertex
100
AcDb2dVertex
 10
285.177425058914
 20
100.3907714592773
 30
0.0
  0
VERTEX
  5
4FE
330
4FC
100
AcDbEntity
  8
Layer 1
 62
     7
420
 16777215
370
    35
100
AcDbVertex
100
AcDb2dVertex
 10
285.177425058914
 20
100.3907714592773
 30
0.0
  0
SEQEND
  5
4FF
330
4FC
100
AcDbEntity
  8
Layer 1
370
    35
  0
POLYLINE
  5
500
330
44
100
AcDbEntity
  8
Layer 1
 62
     7
420
 16777215
370
    35
100
AcDb2dPolyline
 66
     1
 10
0.0
 20
0.0
 30
0.0
  0
VERTEX
  5
501
330
500
100
AcDbEntity
  8
Layer 1
 62
     7
420
 16777215
370
    35
100
AcDbVertex
100
AcDb2dVertex
 10
285.177425058914
 20
97.86551646858918
 30
0.0
  0
VERTEX
  5
502
330
500
100
AcDbEntity
  8
Layer 1
 62
     7
420
 16777215
370
    35
100
AcDbVertex
100
AcDb2dVertex
 10
285.177425058914
 20
95.84496796649015
 30
0.0
  0
SEQEND
  5
503
330
500
100
AcDbEntity
  8
Layer 1
370
    35
  0
POLYLINE
  5
504
330
44
100
AcDbEntity
  8
Layer 1
 62
     7
420
 16777215
370
    35
100
AcDb2dPolyline
 66
     1
 10
0.0
 20
0.0
 30
0.0
  0
VERTEX
  5
505
330
504
100
AcDbEntity
  8
Layer 1
 62
     7
420
 16777215
370
    35
100
AcDbVertex
100
AcDb2dVertex
 10
266.9656167952378
 20
82.20893552632278
 30
0.0
  0
VERTEX
  5
506
330
504
100
AcDbEntity
  8
Layer 1
 62
     7
420
 16777215
370
    35
100
AcDbVertex
100
AcDb2dVertex
 10
268.1190347636994
 20
82.20893552632278
 30
0.0
  0
SEQEND
  5
507
330
504
100
AcDbEntity
  8
Layer 1
370
    35
  0
POLYLINE
  5
508
330
44
100
AcDbEntity
  8
Layer 1
 62
     7
420
 16777215
370
    35
100
AcDb2dPolyline
 66
     1
 10
0.0
 20
0.0
 30
0.0
  0
VERTEX
  5
509
330
508
100
AcDbEntity
  8
Layer 1
 62
     7
420
 16777215
370
    35
100
AcDbVertex
100
AcDb2dVertex
 10
256.9221299270889
 20
83.72408852073565
 30
0.0
  0
VERTEX
  5
50A
330
508
100
AcDbEntity
  8
Layer 1
 62
     7
420
 16777215
370
    35
100
AcDbVertex
100
AcDb2dVertex
 10
256.9221299270889
 20
82.71433103400892
 30
0.0
  0
SEQEND
  5
50B
330
508
100
AcDbEntity
  8
Layer 1
370
    35
  0
POLYLINE
  5
50C
330
44
100
AcDbEntity
  8
Layer 1
 62
     7
420
 16777215
370
    35
100
AcDb2dPolyline
 66
     1
 10
0.0
 20
0.0
 30
0.0
  0
VERTEX
  5
50D
330
50C
100
AcDbEntity
  8
Layer 1
 62
     7
420
 16777215
370
    35
100
AcDbVertex
100
AcDb2dVertex
 10
256.9221299270889
 20
82.71433103400892
 30
0.0
  0
VERTEX
  5
50E
330
50C
100
AcDbEntity
  8
Layer 1
 62
     7
420
 16777215
370
    35
100
AcDbVertex
100
AcDb2dVertex
 10
256.9221299270889
 20
82.20893552632278
 30
0.0
  0
SEQEND
  5
50F
330
50C
100
AcDbEntity
  8
Layer 1
370
    35
  0
POLYLINE
  5
510
330
44
100
AcDbEntity
  8
Layer 1
 62
     7
420
 16777215
370
    35
100
AcDb2dPolyline
 66
     1
 10
0.0
 20
0.0
 30
0.0
  0
VERTEX
  5
511
330
510
100
AcDbEntity
  8
Layer 1
 62
     7
420
 16777215
370
    35
100
AcDbVertex
100
AcDb2dVertex
 10
256.9221299270889
 20
82.20893552632278
 30
0.0
  0
VERTEX
  5
512
330
510
100
AcDbEntity
  8
Layer 1
 62
     7
420
 16777215
370
    35
100
AcDbVertex
100
AcDb2dVertex
 10
256.4191459862424
 20
82.20893552632278
 30
0.0
  0
SEQEND
  5
513
330
510
100
AcDbEntity
  8
Layer 1
370
    35
  0
POLYLINE
  5
514
330
44
100
AcDbEntity
  8
Layer 1
 62
     7
420
 16777215
370
    35
100
AcDb2dPolyline
 66
     1
 10
0.0
 20
0.0
 30
0.0
  0
VERTEX
  5
515
330
514
100
AcDbEntity
  8
Layer 1
 62
     7
420
 16777215
370
    35
100
AcDbVertex
100
AcDb2dVertex
 10
256.4191459862424
 20
82.20893552632278
 30
0.0
  0
VERTEX
  5
516
330
514
100
AcDbEntity
  8
Layer 1
 62
     7
420
 16777215
370
    35
100
AcDbVertex
100
AcDb2dVertex
 10
255.4152451618407
 20
82.20893552632278
 30
0.0
  0
SEQEND
  5
517
330
514
100
AcDbEntity
  8
Layer 1
370
    35
  0
POLYLINE
  5
518
330
44
100
AcDbEntity
  8
Layer 1
 62
     7
420
 16777215
370
    35
100
AcDb2dPolyline
 66
     1
 10
0.0
 20
0.0
 30
0.0
  0
VERTEX
  5
519
330
518
100
AcDbEntity
  8
Layer 1
 62
     7
420
 16777215
370
    35
100
AcDbVertex
100
AcDb2dVertex
 10
263.9528807933868
 20
83.72408852073565
 30
0.0
  0
VERTEX
  5
51A
330
518
100
AcDbEntity
  8
Layer 1
 62
     7
420
 16777215
370
    35
100
AcDbVertex
100
AcDb2dVertex
 10
263.9528807933868
 20
92.81500648721293
 30
0.0
  0
SEQEND
  5
51B
330
518
100
AcDbEntity
  8
Layer 1
370
    35
  0
POLYLINE
  5
51C
330
44
100
AcDbEntity
  8
Layer 1
 62
     7
420
 16777215
370
    35
100
AcDb2dPolyline
 66
     1
 10
0.0
 20
0.0
 30
0.0
  0
VERTEX
  5
51D
330
51C
100
AcDbEntity
  8
Layer 1
 62
     7
420
 16777215
370
    35
100
AcDbVertex
100
AcDb2dVertex
 10
259.432915516739
 20
92.81500648721293
 30
0.0
  0
VERTEX
  5
51E
330
51C
100
AcDbEntity
  8
Layer 1
 62
     7
420
 16777215
370
    35
100
AcDbVertex
100
AcDb2dVertex
 10
263.9528807933868
 20
92.81500648721293
 30
0.0
  0
SEQEND
  5
51F
330
51C
100
AcDbEntity
  8
Layer 1
370
    35
  0
POLYLINE
  5
520
330
44
100
AcDbEntity
  8
Layer 1
 62
     7
420
 16777215
370
    35
100
AcDb2dPolyline
 66
     1
 10
0.0
 20
0.0
 30
0.0
  0
VERTEX
  5
521
330
520
100
AcDbEntity
  8
Layer 1
 62
     7
420
 16777215
370
    35
100
AcDbVertex
100
AcDb2dVertex
 10
266.4636663830369
 20
93.82510848348817
 30
0.0
  0
VERTEX
  5
522
330
520
100
AcDbEntity
  8
Layer 1
 62
     7
420
 16777215
370
    35
100
AcDbVertex
100
AcDb2dVertex
 10
266.4636663830369
 20
96.3503634741763
 30
0.0
  0
SEQEND
  5
523
330
520
100
AcDbEntity
  8
Layer 1
370
    35
  0
POLYLINE
  5
524
330
44
100
AcDbEntity
  8
Layer 1
 62
     7
420
 16777215
370
    35
100
AcDb2dPolyline
 66
     1
 10
0.0
 20
0.0
 30
0.0
  0
VERTEX
  5
525
330
524
100
AcDbEntity
  8
Layer 1
 62
     7
420
 16777215
370
    35
100
AcDbVertex
100
AcDb2dVertex
 10
266.4636663830369
 20
96.3503634741763
 30
0.0
  0
VERTEX
  5
526
330
524
100
AcDbEntity
  8
Layer 1
 62
     7
420
 16777215
370
    35
100
AcDbVertex
100
AcDb2dVertex
 10
285.177425058914
 20
95.84496796649015
 30
0.0
  0
SEQEND
  5
527
330
524
100
AcDbEntity
  8
Layer 1
370
    35
  0
POLYLINE
  5
528
330
44
100
AcDbEntity
  8
Layer 1
 62
     7
420
 16777215
370
    35
100
AcDb2dPolyline
 66
     1
 10
0.0
 20
0.0
 30
0.0
  0
VERTEX
  5
529
330
528
100
AcDbEntity
  8
Layer 1
 62
     7
420
 16777215
370
    35
100
AcDbVertex
100
AcDb2dVertex
 10
256.4191459862424
 20
82.20893552632278
 30
0.0
  0
VERTEX
  5
52A
330
528
100
AcDbEntity
  8
Layer 1
 62
     7
420
 16777215
370
    35
100
AcDbVertex
100
AcDb2dVertex
 10
266.9659613047863
 20
82.20893552632278
 30
0.0
  0
SEQEND
  5
52B
330
528
100
AcDbEntity
  8
Layer 1
370
    35
  0
POLYLINE
  5
52C
330
44
100
AcDbEntity
  8
Layer 1
 62
     7
420
 16777215
370
    35
100
AcDb2dPolyline
 66
     1
 10
0.0
 20
0.0
 30
0.0
  0
VERTEX
  5
52D
330
52C
100
AcDbEntity
  8
Layer 1
 62
     7
420
 16777215
370
    35
100
AcDbVertex
100
AcDb2dVertex
 10
285.177425058914
 20
100.3907714592773
 30
0.0
  0
VERTEX
  5
52E
330
52C
100
AcDbEntity
  8
Layer 1
 62
     7
420
 16777215
370
    35
100
AcDbVertex
100
AcDb2dVertex
 10
266.4636663830369
 20
99.88572046113968
 30
0.0
  0
SEQEND
  5
52F
330
52C
100
AcDbEntity
  8
Layer 1
370
    35
  0
POLYLINE
  5
530
330
44
100
AcDbEntity
  8
Layer 1
 62
     7
420
 16777215
370
    35
100
AcDb2dPolyline
 66
     1
 10
0.0
 20
0.0
 30
0.0
  0
VERTEX
  5
531
330
530
100
AcDbEntity
  8
Layer 1
 62
     7
420
 16777215
370
    35
100
AcDbVertex
100
AcDb2dVertex
 10
259.432915516739
 20
92.81500648721293
 30
0.0
  0
VERTEX
  5
532
330
530
100
AcDbEntity
  8
Layer 1
 62
     7
420
 16777215
370
    35
100
AcDbVertex
100
AcDb2dVertex
 10
257.4237358297413
 20
92.81500648721293
 30
0.0
  0
SEQEND
  5
533
330
530
100
AcDbEntity
  8
Layer 1
370
    35
  0
POLYLINE
  5
534
330
44
100
AcDbEntity
  8
Layer 1
 62
     7
420
 16777215
370
    35
100
AcDb2dPolyline
 66
     1
 10
0.0
 20
0.0
 30
0.0
  0
VERTEX
  5
535
330
534
100
AcDbEntity
  8
Layer 1
 62
     7
420
 16777215
370
    35
100
AcDbVertex
100
AcDb2dVertex
 10
256.9221299270889
 20
99.88572046113968
 30
0.0
  0
VERTEX
  5
536
330
534
100
AcDbEntity
  8
Layer 1
 62
     7
420
 16777215
370
    35
100
AcDbVertex
100
AcDb2dVertex
 10
256.9221299270889
 20
100.3907714592773
 30
0.0
  0
SEQEND
  5
537
330
534
100
AcDbEntity
  8
Layer 1
370
    35
  0
POLYLINE
  5
538
330
44
100
AcDbEntity
  8
Layer 1
 62
     7
420
 16777215
370
    35
100
AcDb2dPolyline
 66
     1
 10
0.0
 20
0.0
 30
0.0
  0
VERTEX
  5
539
330
538
100
AcDbEntity
  8
Layer 1
 62
     7
420
 16777215
370
    35
100
AcDbVertex
100
AcDb2dVertex
 10
256.9221299270889
 20
93.82510848348817
 30
0.0
  0
VERTEX
  5
53A
330
538
100
AcDbEntity
  8
Layer 1
 62
     7
420
 16777215
370
    35
100
AcDbVertex
100
AcDb2dVertex
 10
256.9221299270889
 20
99.87814125107214
 30
0.0
  0
SEQEND
  5
53B
330
538
100
AcDbEntity
  8
Layer 1
370
    35
  0
POLYLINE
  5
53C
330
44
100
AcDbEntity
  8
Layer 1
 62
     7
420
 16777215
370
    35
100
AcDb2dPolyline
 66
     1
 10
0.0
 20
0.0
 30
0.0
  0
VERTEX
  5
53D
330
53C
100
AcDbEntity
  8
Layer 1
 62
     7
420
 16777215
370
    35
100
AcDbVertex
100
AcDb2dVertex
 10
266.4636663830369
 20
99.88572046113968
 30
0.0
  0
VERTEX
  5
53E
330
53C
100
AcDbEntity
  8
Layer 1
 62
     7
420
 16777215
370
    35
100
AcDbVertex
100
AcDb2dVertex
 10
265.9606824421904
 20
98.87561846486443
 30
0.0
  0
VERTEX
  5
53F
330
53C
100
AcDbEntity
  8
Layer 1
 62
     7
420
 16777215
370
    35
100
AcDbVertex
100
AcDb2dVertex
 10
265.7712021905016
 20
97.85242510574523
 30
0.0
  0
SEQEND
  5
540
330
53C
100
AcDbEntity
  8
Layer 1
370
    35
  0
POLYLINE
  5
541
330
44
100
AcDbEntity
  8
Layer 1
 62
     7
420
 16777215
370
    35
100
AcDb2dPolyline
 66
     1
 10
0.0
 20
0.0
 30
0.0
  0
VERTEX
  5
542
330
541
100
AcDbEntity
  8
Layer 1
 62
     7
420
 16777215
370
    35
100
AcDbVertex
100
AcDb2dVertex
 10
265.7712021905016
 20
97.85242510574523
 30
0.0
  0
VERTEX
  5
543
330
541
100
AcDbEntity
  8
Layer 1
 62
     7
420
 16777215
370
    35
100
AcDbVertex
100
AcDb2dVertex
 10
265.9606824421904
 20
96.85541447231392
 30
0.0
  0
VERTEX
  5
544
330
541
100
AcDbEntity
  8
Layer 1
 62
     7
420
 16777215
370
    35
100
AcDbVertex
100
AcDb2dVertex
 10
266.4636663830369
 20
96.3503634741763
 30
0.0
  0
SEQEND
  5
545
330
541
100
AcDbEntity
  8
Layer 1
370
    35
  0
POLYLINE
  5
546
330
44
100
AcDbEntity
  8
Layer 1
 62
     7
420
 16777215
370
    35
100
AcDb2dPolyline
 66
     1
 10
0.0
 20
0.0
 30
0.0
  0
VERTEX
  5
547
330
546
100
AcDbEntity
  8
Layer 1
 62
     7
420
 16777215
370
    35
100
AcDbVertex
100
AcDb2dVertex
 10
256.9221299270889
 20
83.72408852073565
 30
0.0
  0
VERTEX
  5
548
330
546
100
AcDbEntity
  8
Layer 1
 62
     7
420
 16777215
370
    35
100
AcDbVertex
100
AcDb2dVertex
 10
266.9656167952378
 20
83.72408852073565
 30
0.0
  0
SEQEND
  5
549
330
546
100
AcDbEntity
  8
Layer 1
370
    35
  0
POLYLINE
  5
54A
330
44
100
AcDbEntity
  8
Layer 1
 62
     7
420
 16777215
370
    35
100
AcDb2dPolyline
 66
     1
 10
0.0
 20
0.0
 30
0.0
  0
VERTEX
  5
54B
330
54A
100
AcDbEntity
  8
Layer 1
 62
     7
420
 16777215
370
    35
100
AcDbVertex
100
AcDb2dVertex
 10
266.9656167952378
 20
82.71433103400892
 30
0.0
  0
VERTEX
  5
54C
330
54A
100
AcDbEntity
  8
Layer 1
 62
     7
420
 16777215
370
    35
100
AcDbVertex
100
AcDb2dVertex
 10
266.9656167952378
 20
82.20893552632278
 30
0.0
  0
SEQEND
  5
54D
330
54A
100
AcDbEntity
  8
Layer 1
370
    35
  0
POLYLINE
  5
54E
330
44
100
AcDbEntity
  8
Layer 1
 62
     7
420
 16777215
370
    35
100
AcDb2dPolyline
 66
     1
 10
0.0
 20
0.0
 30
0.0
  0
VERTEX
  5
54F
330
54E
100
AcDbEntity
  8
Layer 1
 62
     7
420
 16777215
370
    35
100
AcDbVertex
100
AcDb2dVertex
 10
266.9656167952378
 20
82.20893552632278
 30
0.0
  0
VERTEX
  5
550
330
54E
100
AcDbEntity
  8
Layer 1
 62
     7
420
 16777215
370
    35
100
AcDbVertex
100
AcDb2dVertex
 10
266.9656167952378
 20
82.20893552632278
 30
0.0
  0
SEQEND
  5
551
330
54E
100
AcDbEntity
  8
Layer 1
370
    35
  0
POLYLINE
  5
552
330
44
100
AcDbEntity
  8
Layer 1
 62
     7
420
 16777215
370
    35
100
AcDb2dPolyline
 66
     1
 10
0.0
 20
0.0
 30
0.0
  0
VERTEX
  5
553
330
552
100
AcDbEntity
  8
Layer 1
 62
     7
420
 16777215
370
    35
100
AcDbVertex
100
AcDb2dVertex
 10
265.9606824421904
 20
100.8958224574149
 30
0.0
  0
VERTEX
  5
554
330
552
100
AcDbEntity
  8
Layer 1
 62
     7
420
 16777215
370
    35
100
AcDbVertex
100
AcDb2dVertex
 10
257.4237358297413
 20
100.8958224574149
 30
0.0
  0
SEQEND
  5
555
330
552
100
AcDbEntity
  8
Layer 1
370
    35
  0
POLYLINE
  5
556
330
44
100
AcDbEntity
  8
Layer 1
 62
     7
420
 16777215
370
    35
100
AcDb2dPolyline
 66
     1
 10
0.0
 20
0.0
 30
0.0
  0
VERTEX
  5
557
330
556
100
AcDbEntity
  8
Layer 1
 62
     7
420
 16777215
370
    35
100
AcDbVertex
100
AcDb2dVertex
 10
256.9221299270889
 20
93.32005748535055
 30
0.0
  0
VERTEX
  5
558
330
556
100
AcDbEntity
  8
Layer 1
 62
     7
420
 16777215
370
    35
100
AcDbVertex
100
AcDb2dVertex
 10
257.4237358297413
 20
92.81500648721293
 30
0.0
  0
SEQEND
  5
559
330
556
100
AcDbEntity
  8
Layer 1
370
    35
  0
POLYLINE
  5
55A
330
44
100
AcDbEntity
  8
Layer 1
 62
     7
420
 16777215
370
    35
100
AcDb2dPolyline
 66
     1
 10
0.0
 20
0.0
 30
0.0
  0
VERTEX
  5
55B
330
55A
100
AcDbEntity
  8
Layer 1
 62
     7
420
 16777215
370
    35
100
AcDbVertex
100
AcDb2dVertex
 10
269.5380695940738
 20
68.19842120690873
 30
0.0
  0
VERTEX
  5
55C
330
55A
100
AcDbEntity
  8
Layer 1
 62
     7
420
 16777215
370
    35
100
AcDbVertex
100
AcDb2dVertex
 10
268.1190347636994
 20
82.20893552632278
 30
0.0
  0
SEQEND
  5
55D
330
55A
100
AcDbEntity
  8
Layer 1
370
    35
  0
POLYLINE
  5
55E
330
44
100
AcDbEntity
  8
Layer 1
 62
     7
420
 16777215
370
    35
100
AcDb2dPolyline
 66
     1
 10
0.0
 20
0.0
 30
0.0
  0
VERTEX
  5
55F
330
55E
100
AcDbEntity
  8
Layer 1
 62
     7
420
 16777215
370
    35
100
AcDbVertex
100
AcDb2dVertex
 10
269.9783527970887
 20
68.06819659756628
 30
0.0
  0
VERTEX
  5
560
330
55E
100
AcDbEntity
  8
Layer 1
 62
     7
420
 16777215
370
    35
100
AcDbVertex
100
AcDb2dVertex
 10
269.9783527970887
 20
68.06819659756628
 30
0.0
  0
SEQEND
  5
561
330
55E
100
AcDbEntity
  8
Layer 1
370
    35
  0
POLYLINE
  5
562
330
44
100
AcDbEntity
  8
Layer 1
 62
     7
420
 16777215
370
    35
100
AcDb2dPolyline
 66
     1
 10
0.0
 20
0.0
 30
0.0
  0
VERTEX
  5
563
330
562
100
AcDbEntity
  8
Layer 1
 62
     7
420
 16777215
370
    35
100
AcDbVertex
100
AcDb2dVertex
 10
273.9956786424386
 20
67.56245658033161
 30
0.0
  0
VERTEX
  5
564
330
562
100
AcDbEntity
  8
Layer 1
 62
     7
420
 16777215
370
    35
100
AcDbVertex
100
AcDb2dVertex
 10
273.9956786424386
 20
68.06819659756628
 30
0.0
  0
SEQEND
  5
565
330
562
100
AcDbEntity
  8
Layer 1
370
    35
  0
POLYLINE
  5
566
330
44
100
AcDbEntity
  8
Layer 1
 62
     7
420
 16777215
370
    35
100
AcDb2dPolyline
 66
     1
 10
0.0
 20
0.0
 30
0.0
  0
VERTEX
  5
567
330
566
100
AcDbEntity
  8
Layer 1
 62
     7
420
 16777215
370
    35
100
AcDbVertex
100
AcDb2dVertex
 10
273.9956786424386
 20
68.06819659756628
 30
0.0
  0
VERTEX
  5
568
330
566
100
AcDbEntity
  8
Layer 1
 62
     7
420
 16777215
370
    35
100
AcDbVertex
100
AcDb2dVertex
 10
273.9956786424386
 20
68.06819659756628
 30
0.0
  0
SEQEND
  5
569
330
566
100
AcDbEntity
  8
Layer 1
370
    35
  0
POLYLINE
  5
56A
330
44
100
AcDbEntity
  8
Layer 1
 62
     7
420
 16777215
370
    35
100
AcDb2dPolyline
 66
     1
 10
0.0
 20
0.0
 30
0.0
  0
VERTEX
  5
56B
330
56A
100
AcDbEntity
  8
Layer 1
 62
     7
420
 16777215
370
    35
100
AcDbVertex
100
AcDb2dVertex
 10
274.4983180737365
 20
64.5328396106029
 30
0.0
  0
VERTEX
  5
56C
330
56A
100
AcDbEntity
  8
Layer 1
 62
     7
420
 16777215
370
    35
100
AcDbVertex
100
AcDb2dVertex
 10
273.9956786424386
 20
67.56245658033161
 30
0.0
  0
SEQEND
  5
56D
330
56A
100
AcDbEntity
  8
Layer 1
370
    35
  0
POLYLINE
  5
56E
330
44
100
AcDbEntity
  8
Layer 1
 62
     7
420
 16777215
370
    35
100
AcDb2dPolyline
 66
     1
 10
0.0
 20
0.0
 30
0.0
  0
VERTEX
  5
56F
330
56E
100
AcDbEntity
  8
Layer 1
 62
     7
420
 16777215
370
    35
100
AcDbVertex
100
AcDb2dVertex
 10
266.4636663830369
 20
100.3907714592773
 30
0.0
  0
VERTEX
  5
570
330
56E
100
AcDbEntity
  8
Layer 1
 62
     7
420
 16777215
370
    35
100
AcDbVertex
100
AcDb2dVertex
 10
265.9606824421904
 20
100.8958224574149
 30
0.0
  0
SEQEND
  5
571
330
56E
100
AcDbEntity
  8
Layer 1
370
    35
  0
POLYLINE
  5
572
330
44
100
AcDbEntity
  8
Layer 1
 62
     7
420
 16777215
370
    35
100
AcDb2dPolyline
 66
     1
 10
0.0
 20
0.0
 30
0.0
  0
VERTEX
  5
573
330
572
100
AcDbEntity
  8
Layer 1
 62
     7
420
 16777215
370
    35
100
AcDbVertex
100
AcDb2dVertex
 10
256.9221299270889
 20
83.72408852073565
 30
0.0
  0
VERTEX
  5
574
330
572
100
AcDbEntity
  8
Layer 1
 62
     7
420
 16777215
370
    35
100
AcDbVertex
100
AcDb2dVertex
 10
256.9221299270889
 20
83.72408852073565
 30
0.0
  0
SEQEND
  5
575
330
572
100
AcDbEntity
  8
Layer 1
370
    35
  0
POLYLINE
  5
576
330
44
100
AcDbEntity
  8
Layer 1
 62
     7
420
 16777215
370
    35
100
AcDb2dPolyline
 66
     1
 10
0.0
 20
0.0
 30
0.0
  0
VERTEX
  5
577
330
576
100
AcDbEntity
  8
Layer 1
 62
     7
420
 16777215
370
    35
100
AcDbVertex
100
AcDb2dVertex
 10
256.9221299270889
 20
83.72408852073565
 30
0.0
  0
VERTEX
  5
578
330
576
100
AcDbEntity
  8
Layer 1
 62
     7
420
 16777215
370
    35
100
AcDbVertex
100
AcDb2dVertex
 10
256.9221299270889
 20
83.72408852073565
 30
0.0
  0
SEQEND
  5
579
330
576
100
AcDbEntity
  8
Layer 1
370
    35
  0
POLYLINE
  5
57A
330
44
100
AcDbEntity
  8
Layer 1
 62
     7
420
 16777215
370
    35
100
AcDb2dPolyline
 66
     1
 10
0.0
 20
0.0
 30
0.0
  0
VERTEX
  5
57B
330
57A
100
AcDbEntity
  8
Layer 1
 62
     7
420
 16777215
370
    35
100
AcDbVertex
100
AcDb2dVertex
 10
285.177425058914
 20
97.86551646858918
 30
0.0
  0
VERTEX
  5
57C
330
57A
100
AcDbEntity
  8
Layer 1
 62
     7
420
 16777215
370
    35
100
AcDbVertex
100
AcDb2dVertex
 10
285.177425058914
 20
100.3907714592773
 30
0.0
  0
SEQEND
  5
57D
330
57A
100
AcDbEntity
  8
Layer 1
370
    35
  0
POLYLINE
  5
57E
330
44
100
AcDbEntity
  8
Layer 1
 62
     7
420
 16777215
370
    35
100
AcDb2dPolyline
 66
     1
 10
0.0
 20
0.0
 30
0.0
  0
VERTEX
  5
57F
330
57E
100
AcDbEntity
  8
Layer 1
 62
     7
420
 16777215
370
    35
100
AcDbVertex
100
AcDb2dVertex
 10
256.9221299270889
 20
93.32005748535055
 30
0.0
  0
VERTEX
  5
580
330
57E
100
AcDbEntity
  8
Layer 1
 62
     7
420
 16777215
370
    35
100
AcDbVertex
100
AcDb2dVertex
 10
256.9221299270889
 20
93.82510848348817
 30
0.0
  0
SEQEND
  5
581
330
57E
100
AcDbEntity
  8
Layer 1
370
    35
  0
POLYLINE
  5
582
330
44
100
AcDbEntity
  8
Layer 1
 62
     7
420
 16777215
370
    35
100
AcDb2dPolyline
 66
     1
 10
0.0
 20
0.0
 30
0.0
  0
VERTEX
  5
583
330
582
100
AcDbEntity
  8
Layer 1
 62
     7
420
 16777215
370
    35
100
AcDbVertex
100
AcDb2dVertex
 10
266.4636663830369
 20
99.88572046113968
 30
0.0
  0
VERTEX
  5
584
330
582
100
AcDbEntity
  8
Layer 1
 62
     7
420
 16777215
370
    35
100
AcDbVertex
100
AcDb2dVertex
 10
266.4636663830369
 20
100.3907714592773
 30
0.0
  0
SEQEND
  5
585
330
582
100
AcDbEntity
  8
Layer 1
370
    35
  0
POLYLINE
  5
586
330
44
100
AcDbEntity
  8
Layer 1
 62
     7
420
 16777215
370
    35
100
AcDb2dPolyline
 66
     1
 10
0.0
 20
0.0
 30
0.0
  0
VERTEX
  5
587
330
586
100
AcDbEntity
  8
Layer 1
 62
     7
420
 16777215
370
    35
100
AcDbVertex
100
AcDb2dVertex
 10
266.4636663830369
 20
93.32005748535055
 30
0.0
  0
VERTEX
  5
588
330
586
100
AcDbEntity
  8
Layer 1
 62
     7
420
 16777215
370
    35
100
AcDbVertex
100
AcDb2dVertex
 10
266.4636663830369
 20
92.81500648721293
 30
0.0
  0
SEQEND
  5
589
330
586
100
AcDbEntity
  8
Layer 1
370
    35
  0
POLYLINE
  5
58A
330
44
100
AcDbEntity
  8
Layer 1
 62
     7
420
 16777215
370
    35
100
AcDb2dPolyline
 66
     1
 10
0.0
 20
0.0
 30
0.0
  0
VERTEX
  5
58B
330
58A
100
AcDbEntity
  8
Layer 1
 62
     7
420
 16777215
370
    35
100
AcDbVertex
100
AcDb2dVertex
 10
253.9083603965924
 20
68.57290308615539
 30
0.0
  0
VERTEX
  5
58C
330
58A
100
AcDbEntity
  8
Layer 1
 62
     7
420
 16777215
370
    35
100
AcDbVertex
100
AcDb2dVertex
 10
255.4152451618407
 20
82.20893552632278
 30
0.0
  0
SEQEND
  5
58D
330
58A
100
AcDbEntity
  8
Layer 1
370
    35
  0
POLYLINE
  5
58E
330
44
100
AcDbEntity
  8
Layer 1
 62
     7
420
 16777215
370
    35
100
AcDb2dPolyline
 66
     1
 10
0.0
 20
0.0
 30
0.0
  0
VERTEX
  5
58F
330
58E
100
AcDbEntity
  8
Layer 1
 62
     7
420
 16777215
370
    35
100
AcDbVertex
100
AcDb2dVertex
 10
248.8864447077437
 20
64.5328396106029
 30
0.0
  0
VERTEX
  5
590
330
58E
100
AcDbEntity
  8
Layer 1
 62
     7
420
 16777215
370
    35
100
AcDbVertex
100
AcDb2dVertex
 10
249.3890841390416
 20
67.56245658033161
 30
0.0
  0
SEQEND
  5
591
330
58E
100
AcDbEntity
  8
Layer 1
370
    35
  0
POLYLINE
  5
592
330
44
100
AcDbEntity
  8
Layer 1
 62
     7
420
 16777215
370
    35
100
AcDb2dPolyline
 66
     1
 10
0.0
 20
0.0
 30
0.0
  0
VERTEX
  5
593
330
592
100
AcDbEntity
  8
Layer 1
 62
     7
420
 16777215
370
    35
100
AcDbVertex
100
AcDb2dVertex
 10
249.3890841390416
 20
67.56245658033161
 30
0.0
  0
VERTEX
  5
594
330
592
100
AcDbEntity
  8
Layer 1
 62
     7
420
 16777215
370
    35
100
AcDbVertex
100
AcDb2dVertex
 10
249.3890841390416
 20
68.06819659756628
 30
0.0
  0
SEQEND
  5
595
330
592
100
AcDbEntity
  8
Layer 1
370
    35
  0
POLYLINE
  5
596
330
44
100
AcDbEntity
  8
Layer 1
 62
     7
420
 16777215
370
    35
100
AcDb2dPolyline
 66
     1
 10
0.0
 20
0.0
 30
0.0
  0
VERTEX
  5
597
330
596
100
AcDbEntity
  8
Layer 1
 62
     7
420
 16777215
370
    35
100
AcDbVertex
100
AcDb2dVertex
 10
249.3890841390416
 20
68.06819659756628
 30
0.0
  0
VERTEX
  5
598
330
596
100
AcDbEntity
  8
Layer 1
 62
     7
420
 16777215
370
    35
100
AcDbVertex
100
AcDb2dVertex
 10
249.3890841390416
 20
68.06819659756628
 30
0.0
  0
SEQEND
  5
599
330
596
100
AcDbEntity
  8
Layer 1
370
    35
  0
POLYLINE
  5
59A
330
44
100
AcDbEntity
  8
Layer 1
 62
     7
420
 16777215
370
    35
100
AcDb2dPolyline
 66
     1
 10
0.0
 20
0.0
 30
0.0
  0
VERTEX
  5
59B
330
59A
100
AcDbEntity
  8
Layer 1
 62
     7
420
 16777215
370
    35
100
AcDbVertex
100
AcDb2dVertex
 10
253.9083603965924
 20
68.57290308615539
 30
0.0
  0
VERTEX
  5
59C
330
59A
100
AcDbEntity
  8
Layer 1
 62
     7
420
 16777215
370
    35
100
AcDbVertex
100
AcDb2dVertex
 10
253.9083603965924
 20
68.57290308615539
 30
0.0
  0
VERTEX
  5
59D
330
59A
100
AcDbEntity
  8
Layer 1
 62
     7
420
 16777215
370
    35
100
AcDbVertex
100
AcDb2dVertex
 10
253.9083603965924
 20
68.06819659756628
 30
0.0
  0
SEQEND
  5
59E
330
59A
100
AcDbEntity
  8
Layer 1
370
    35
  0
POLYLINE
  5
59F
330
44
100
AcDbEntity
  8
Layer 1
 62
     7
420
 16777215
370
    35
100
AcDb2dPolyline
 66
     1
 10
0.0
 20
0.0
 30
0.0
  0
VERTEX
  5
5A0
330
59F
100
AcDbEntity
  8
Layer 1
 62
     7
420
 16777215
370
    35
100
AcDbVertex
100
AcDb2dVertex
 10
253.9083603965924
 20
68.06819659756628
 30
0.0
  0
VERTEX
  5
5A1
330
59F
100
AcDbEntity
  8
Layer 1
 62
     7
420
 16777215
370
    35
100
AcDbVertex
100
AcDb2dVertex
 10
253.9083603965924
 20
68.06819659756628
 30
0.0
  0
SEQEND
  5
5A2
330
59F
100
AcDbEntity
  8
Layer 1
370
    35
  0
POLYLINE
  5
5A3
330
44
100
AcDbEntity
  8
Layer 1
 62
     7
420
 16777215
370
    35
100
AcDb2dPolyline
 66
     1
 10
0.0
 20
0.0
 30
0.0
  0
VERTEX
  5
5A4
330
5A3
100
AcDbEntity
  8
Layer 1
 62
     7
420
 16777215
370
    35
100
AcDbVertex
100
AcDb2dVertex
 10
253.9083603965924
 20
68.06819659756628
 30
0.0
  0
VERTEX
  5
5A5
330
5A3
100
AcDbEntity
  8
Layer 1
 62
     7
420
 16777215
370
    35
100
AcDbVertex
100
AcDb2dVertex
 10
269.9783527970887
 20
68.06819659756628
 30
0.0
  0
SEQEND
  5
5A6
330
5A3
100
AcDbEntity
  8
Layer 1
370
    35
  0
POLYLINE
  5
5A7
330
44
100
AcDbEntity
  8
Layer 1
 62
     7
420
 16777215
370
    35
100
AcDb2dPolyline
 66
     1
 10
0.0
 20
0.0
 30
0.0
  0
VERTEX
  5
5A8
330
5A7
100
AcDbEntity
  8
Layer 1
 62
     7
420
 16777215
370
    35
100
AcDbVertex
100
AcDb2dVertex
 10
249.3890841390416
 20
68.06819659756628
 30
0.0
  0
VERTEX
  5
5A9
330
5A7
100
AcDbEntity
  8
Layer 1
 62
     7
420
 16777215
370
    35
100
AcDbVertex
100
AcDb2dVertex
 10
273.9956786424386
 20
68.06819659756628
 30
0.0
  0
SEQEND
  5
5AA
330
5A7
100
AcDbEntity
  8
Layer 1
370
    35
  0
POLYLINE
  5
5AB
330
44
100
AcDbEntity
  8
Layer 1
 62
     7
420
 16777215
370
    35
100
AcDb2dPolyline
 66
     1
 10
0.0
 20
0.0
 30
0.0
  0
VERTEX
  5
5AC
330
5AB
100
AcDbEntity
  8
Layer 1
 62
     7
420
 16777215
370
    35
100
AcDbVertex
100
AcDb2dVertex
 10
249.3890841390416
 20
68.06819659756628
 30
0.0
  0
VERTEX
  5
5AD
330
5AB
100
AcDbEntity
  8
Layer 1
 62
     7
420
 16777215
370
    35
100
AcDbVertex
100
AcDb2dVertex
 10
253.9083603965924
 20
68.06819659756628
 30
0.0
  0
SEQEND
  5
5AE
330
5AB
100
AcDbEntity
  8
Layer 1
370
    35
  0
POLYLINE
  5
5AF
330
44
100
AcDbEntity
  8
Layer 1
 62
     7
420
 16777215
370
    35
100
AcDb2dPolyline
 66
     1
 10
0.0
 20
0.0
 30
0.0
  0
VERTEX
  5
5B0
330
5AF
100
AcDbEntity
  8
Layer 1
 62
     7
420
 16777215
370
    35
100
AcDbVertex
100
AcDb2dVertex
 10
266.9656167952378
 20
83.72408852073565
 30
0.0
  0
VERTEX
  5
5B1
330
5AF
100
AcDbEntity
  8
Layer 1
 62
     7
420
 16777215
370
    35
100
AcDbVertex
100
AcDb2dVertex
 10
266.9656167952378
 20
83.72408852073565
 30
0.0
  0
SEQEND
  5
5B2
330
5AF
100
AcDbEntity
  8
Layer 1
370
    35
  0
POLYLINE
  5
5B3
330
44
100
AcDbEntity
  8
Layer 1
 62
     7
420
 16777215
370
    35
100
AcDb2dPolyline
 66
     1
 10
0.0
 20
0.0
 30
0.0
  0
VERTEX
  5
5B4
330
5B3
100
AcDbEntity
  8
Layer 1
 62
     7
420
 16777215
370
    35
100
AcDbVertex
100
AcDb2dVertex
 10
266.9656167952378
 20
83.72408852073565
 30
0.0
  0
VERTEX
  5
5B5
330
5B3
100
AcDbEntity
  8
Layer 1
 62
     7
420
 16777215
370
    35
100
AcDbVertex
100
AcDb2dVertex
 10
266.9656167952378
 20
83.72408852073565
 30
0.0
  0
SEQEND
  5
5B6
330
5B3
100
AcDbEntity
  8
Layer 1
370
    35
  0
POLYLINE
  5
5B7
330
44
100
AcDbEntity
  8
Layer 1
 62
     7
420
 16777215
370
    35
100
AcDb2dPolyline
 66
     1
 10
0.0
 20
0.0
 30
0.0
  0
VERTEX
  5
5B8
330
5B7
100
AcDbEntity
  8
Layer 1
 62
     7
420
 16777215
370
    35
100
AcDbVertex
100
AcDb2dVertex
 10
268.1190347636994
 20
82.20893552632278
 30
0.0
  0
VERTEX
  5
5B9
330
5B7
100
AcDbEntity
  8
Layer 1
 62
     7
420
 16777215
370
    35
100
AcDbVertex
100
AcDb2dVertex
 10
268.1190347636994
 20
82.20893552632278
 30
0.0
  0
SEQEND
  5
5BA
330
5B7
100
AcDbEntity
  8
Layer 1
370
    35
  0
POLYLINE
  5
5BB
330
44
100
AcDbEntity
  8
Layer 1
 62
     7
420
 16777215
370
    35
100
AcDb2dPolyline
 66
     1
 10
0.0
 20
0.0
 30
0.0
  0
VERTEX
  5
5BC
330
5BB
100
AcDbEntity
  8
Layer 1
 62
     7
420
 16777215
370
    35
100
AcDbVertex
100
AcDb2dVertex
 10
268.1190347636994
 20
82.20893552632278
 30
0.0
  0
VERTEX
  5
5BD
330
5BB
100
AcDbEntity
  8
Layer 1
 62
     7
420
 16777215
370
    35
100
AcDbVertex
100
AcDb2dVertex
 10
268.1190347636994
 20
82.20893552632278
 30
0.0
  0
SEQEND
  5
5BE
330
5BB
100
AcDbEntity
  8
Layer 1
370
    35
  0
POLYLINE
  5
5BF
330
44
100
AcDbEntity
  8
Layer 1
 62
     7
420
 16777215
370
    35
100
AcDb2dPolyline
 66
     1
 10
0.0
 20
0.0
 30
0.0
  0
VERTEX
  5
5C0
330
5BF
100
AcDbEntity
  8
Layer 1
 62
     7
420
 16777215
370
    35
100
AcDbVertex
100
AcDb2dVertex
 10
266.9656167952378
 20
83.72408852073565
 30
0.0
  0
VERTEX
  5
5C1
330
5BF
100
AcDbEntity
  8
Layer 1
 62
     7
420
 16777215
370
    35
100
AcDbVertex
100
AcDb2dVertex
 10
266.9656167952378
 20
82.71433103400892
 30
0.0
  0
SEQEND
  5
5C2
330
5BF
100
AcDbEntity
  8
Layer 1
370
    35
  0
POLYLINE
  5
5C3
330
44
100
AcDbEntity
  8
Layer 1
 62
     7
420
 16777215
370
    35
100
AcDb2dPolyline
 66
     1
 10
0.0
 20
0.0
 30
0.0
  0
VERTEX
  5
5C4
330
5C3
100
AcDbEntity
  8
Layer 1
 62
     7
420
 16777215
370
    35
100
AcDbVertex
100
AcDb2dVertex
 10
255.4152451618407
 20
82.20893552632278
 30
0.0
  0
VERTEX
  5
5C5
330
5C3
100
AcDbEntity
  8
Layer 1
 62
     7
420
 16777215
370
    35
100
AcDbVertex
100
AcDb2dVertex
 10
255.4152451618407
 20
82.20893552632278
 30
0.0
  0
SEQEND
  5
5C6
330
5C3
100
AcDbEntity
  8
Layer 1
370
    35
  0
POLYLINE
  5
5C7
330
44
100
AcDbEntity
  8
Layer 1
 62
     7
420
 16777215
370
    35
100
AcDb2dPolyline
 66
     1
 10
0.0
 20
0.0
 30
0.0
  0
VERTEX
  5
5C8
330
5C7
100
AcDbEntity
  8
Layer 1
 62
     7
420
 16777215
370
    35
100
AcDbVertex
100
AcDb2dVertex
 10
255.4152451618407
 20
82.20893552632278
 30
0.0
  0
VERTEX
  5
5C9
330
5C7
100
AcDbEntity
  8
Layer 1
 62
     7
420
 16777215
370
    35
100
AcDbVertex
100
AcDb2dVertex
 10
255.4152451618407
 20
82.20893552632278
 30
0.0
  0
SEQEND
  5
5CA
330
5C7
100
AcDbEntity
  8
Layer 1
370
    35
  0
POLYLINE
  5
5CB
330
44
100
AcDbEntity
  8
Layer 1
 62
     7
420
 16777215
370
    35
100
AcDb2dPolyline
 66
     1
 10
0.0
 20
0.0
 30
0.0
  0
VERTEX
  5
5CC
330
5CB
100
AcDbEntity
  8
Layer 1
 62
     7
420
 16777215
370
    35
100
AcDbVertex
100
AcDb2dVertex
 10
259.432915516739
 20
83.72408852073565
 30
0.0
  0
VERTEX
  5
5CD
330
5CB
100
AcDbEntity
  8
Layer 1
 62
     7
420
 16777215
370
    35
100
AcDbVertex
100
AcDb2dVertex
 10
259.432915516739
 20
92.81500648721293
 30
0.0
  0
SEQEND
  5
5CE
330
5CB
100
AcDbEntity
  8
Layer 1
370
    35
  0
POLYLINE
  5
5CF
330
44
100
AcDbEntity
  8
Layer 1
 62
     7
420
 16777215
370
    35
100
AcDb2dPolyline
 66
     1
 10
0.0
 20
0.0
 30
0.0
  0
VERTEX
  5
5D0
330
5CF
100
AcDbEntity
  8
Layer 1
 62
     7
420
 16777215
370
    35
100
AcDbVertex
100
AcDb2dVertex
 10
256.9221299270889
 20
100.3907714592773
 30
0.0
  0
VERTEX
  5
5D1
330
5CF
100
AcDbEntity
  8
Layer 1
 62
     7
420
 16777215
370
    35
100
AcDbVertex
100
AcDb2dVertex
 10
257.4237358297413
 20
100.8958224574149
 30
0.0
  0
SEQEND
  5
5D2
330
5CF
100
AcDbEntity
  8
Layer 1
370
    35
  0
POLYLINE
  5
5D3
330
44
100
AcDbEntity
  8
Layer 1
 62
     7
420
 16777215
370
    35
100
AcDb2dPolyline
 66
     1
 10
0.0
 20
0.0
 30
0.0
  0
VERTEX
  5
5D4
330
5D3
100
AcDbEntity
  8
Layer 1
 62
     7
420
 16777215
370
    35
100
AcDbVertex
100
AcDb2dVertex
 10
266.4636663830369
 20
93.32005748535055
 30
0.0
  0
VERTEX
  5
5D5
330
5D3
100
AcDbEntity
  8
Layer 1
 62
     7
420
 16777215
370
    35
100
AcDbVertex
100
AcDb2dVertex
 10
266.4636663830369
 20
93.82510848348817
 30
0.0
  0
SEQEND
  5
5D6
330
5D3
100
AcDbEntity
  8
Layer 1
370
    35
  0
POLYLINE
  5
5D7
330
44
100
AcDbEntity
  8
Layer 1
370
     0
100
AcDb2dPolyline
 66
     1
 10
0.0
 20
0.0
 30
0.0
  0
VERTEX
  5
5D8
330
5D7
100
AcDbEntity
  8
Layer 1
370
     0
100
AcDbVertex
100
AcDb2dVertex
 10
269.5008625628331
 20
67.98964842050259
 30
0.0
  0
VERTEX
  5
5D9
330
5D7
100
AcDbEntity
  8
Layer 1
370
     0
100
AcDbVertex
100
AcDb2dVertex
 10
253.9331650840862
 20
67.98964842050259
 30
0.0
  0
SEQEND
  5
5DA
330
5D7
100
AcDbEntity
  8
Layer 1
370
     0
  0
POLYLINE
  5
5DB
330
44
100
AcDbEntity
  8
Layer 1
 62
     7
420
 16777215
370
     9
100
AcDb2dPolyline
 66
     1
 10
0.0
 20
0.0
 30
0.0
  0
VERTEX
  5
5DC
330
5DB
100
AcDbEntity
  8
Layer 1
 62
     7
420
 16777215
370
     9
100
AcDbVertex
100
AcDb2dVertex
 10
269.5008625628331
 20
67.98964842050259
 30
0.0
  0
VERTEX
  5
5DD
330
5DB
100
AcDbEntity
  8
Layer 1
 62
     7
420
 16777215
370
     9
100
AcDbVertex
100
AcDb2dVertex
 10
253.9331650840862
 20
67.98964842050259
 30
0.0
  0
SEQEND
  5
5DE
330
5DB
100
AcDbEntity
  8
Layer 1
370
     9
  0
POLYLINE
  5
5DF
330
44
100
AcDbEntity
  8
Layer 1
370
     0
100
AcDb2dPolyline
 66
     1
 10
0.0
 20
0.0
 30
0.0
  0
VERTEX
  5
5E0
330
5DF
100
AcDbEntity
  8
Layer 1
370
     0
100
AcDbVertex
100
AcDb2dVertex
 10
274.0201388203839
 20
67.98964842050259
 30
0.0
  0
VERTEX
  5
686
330
5DF
100
AcDbEntity
  8
0
100
AcDbVertex
100
AcDb2dVertex
 10
274.0201388203839
 20
67.98964842050259
 30
0.0
  0
SEQEND
  5
5E1
330
5DF
100
AcDbEntity
  8
Layer 1
370
     0
  0
POLYLINE
  5
5E2
330
44
100
AcDbEntity
  8
Layer 1
 62
     7
420
 16777215
370
     9
100
AcDb2dPolyline
 66
     1
 10
0.0
 20
0.0
 30
0.0
  0
VERTEX
  5
5E3
330
5E2
100
AcDbEntity
  8
Layer 1
 62
     7
420
 16777215
370
     9
100
AcDbVertex
100
AcDb2dVertex
 10
274.0201388203839
 20
67.98964842050259
 30
0.0
  0
VERTEX
  5
5E4
330
5E2
100
AcDbEntity
  8
Layer 1
 62
     7
420
 16777215
370
     9
100
AcDbVertex
100
AcDb2dVertex
 10
274.0201388203839
 20
67.98964842050259
 30
0.0
  0
SEQEND
  5
5E5
330
5E2
100
AcDbEntity
  8
Layer 1
370
     9
  0
POLYLINE
  5
5E6
330
44
100
AcDbEntity
  8
Layer 1
370
     0
100
AcDb2dPolyline
 66
     1
 10
0.0
 20
0.0
 30
0.0
  0
VERTEX
  5
5E7
330
5E6
100
AcDbEntity
  8
Layer 1
370
     0
100
AcDbVertex
100
AcDb2dVertex
 10
255.4400498493345
 20
82.13107636835612
 30
0.0
  0
VERTEX
  5
5E8
330
5E6
100
AcDbEntity
  8
Layer 1
370
     0
100
AcDbVertex
100
AcDb2dVertex
 10
267.9946668166819
 20
82.13107636835612
 30
0.0
  0
SEQEND
  5
5E9
330
5E6
100
AcDbEntity
  8
Layer 1
370
     0
  0
POLYLINE
  5
5EA
330
44
100
AcDbEntity
  8
Layer 1
 62
     7
420
 16777215
370
     9
100
AcDb2dPolyline
 66
     1
 10
0.0
 20
0.0
 30
0.0
  0
VERTEX
  5
5EB
330
5EA
100
AcDbEntity
  8
Layer 1
 62
     7
420
 16777215
370
     9
100
AcDbVertex
100
AcDb2dVertex
 10
255.4400498493345
 20
82.13107636835612
 30
0.0
  0
VERTEX
  5
5EC
330
5EA
100
AcDbEntity
  8
Layer 1
 62
     7
420
 16777215
370
     9
100
AcDbVertex
100
AcDb2dVertex
 10
267.9946668166819
 20
82.13107636835612
 30
0.0
  0
SEQEND
  5
5ED
330
5EA
100
AcDbEntity
  8
Layer 1
370
     9
  0
POLYLINE
  5
5EE
330
44
100
AcDbEntity
  8
Layer 1
370
     0
100
AcDb2dPolyline
 66
     1
 10
0.0
 20
0.0
 30
0.0
  0
VERTEX
  5
5EF
330
5EE
100
AcDbEntity
  8
Layer 1
370
     0
100
AcDbVertex
100
AcDb2dVertex
 10
249.4131998074384
 20
67.98964842050259
 30
0.0
  0
VERTEX
  5
687
330
5EE
100
AcDbEntity
  8
0
100
AcDbVertex
100
AcDb2dVertex
 10
249.4131998074384
 20
67.98964842050259
 30
0.0
  0
SEQEND
  5
5F0
330
5EE
100
AcDbEntity
  8
Layer 1
370
     0
  0
POLYLINE
  5
5F1
330
44
100
AcDbEntity
  8
Layer 1
 62
     7
420
 16777215
370
     9
100
AcDb2dPolyline
 66
     1
 10
0.0
 20
0.0
 30
0.0
  0
VERTEX
  5
5F2
330
5F1
100
AcDbEntity
  8
Layer 1
 62
     7
420
 16777215
370
     9
100
AcDbVertex
100
AcDb2dVertex
 10
249.4131998074384
 20
67.98964842050259
 30
0.0
  0
VERTEX
  5
5F3
330
5F1
100
AcDbEntity
  8
Layer 1
 62
     7
420
 16777215
370
     9
100
AcDbVertex
100
AcDb2dVertex
 10
249.4131998074384
 20
67.98964842050259
 30
0.0
  0
SEQEND
  5
5F4
330
5F1
100
AcDbEntity
  8
Layer 1
370
     9
  0
POLYLINE
  5
5F5
330
44
100
AcDbEntity
  8
Layer 1
370
     0
100
AcDb2dPolyline
 66
     1
 10
0.0
 20
0.0
 30
0.0
  0
VERTEX
  5
5F6
330
5F5
100
AcDbEntity
  8
Layer 1
370
     0
100
AcDbVertex
100
AcDb2dVertex
 10
249.4131998074384
 20
67.98964842050259
 30
0.0
  0
VERTEX
  5
5F7
330
5F5
100
AcDbEntity
  8
Layer 1
370
     0
100
AcDbVertex
100
AcDb2dVertex
 10
253.4308701623367
 20
67.98964842050259
 30
0.0
  0
SEQEND
  5
5F8
330
5F5
100
AcDbEntity
  8
Layer 1
370
     0
  0
POLYLINE
  5
5F9
330
44
100
AcDbEntity
  8
Layer 1
 62
     7
420
 16777215
370
     9
100
AcDb2dPolyline
 66
     1
 10
0.0
 20
0.0
 30
0.0
  0
VERTEX
  5
5FA
330
5F9
100
AcDbEntity
  8
Layer 1
 62
     7
420
 16777215
370
     9
100
AcDbVertex
100
AcDb2dVertex
 10
249.4131998074384
 20
67.98964842050259
 30
0.0
  0
VERTEX
  5
5FB
330
5F9
100
AcDbEntity
  8
Layer 1
 62
     7
420
 16777215
370
     9
100
AcDbVertex
100
AcDb2dVertex
 10
253.4308701623367
 20
67.98964842050259
 30
0.0
  0
SEQEND
  5
5FC
330
5F9
100
AcDbEntity
  8
Layer 1
370
     9
  0
POLYLINE
  5
5FD
330
44
100
AcDbEntity
  8
Layer 1
 62
     7
420
 16777215
370
    35
100
AcDb2dPolyline
 66
     1
 10
0.0
 20
0.0
 30
0.0
  0
VERTEX
  5
5FE
330
5FD
100
AcDbEntity
  8
Layer 1
 62
     7
420
 16777215
370
    35
100
AcDbVertex
100
AcDb2dVertex
 10
226.8433457549211
 20
67.59759655428115
 30
0.0
  0
VERTEX
  5
5FF
330
5FD
100
AcDbEntity
  8
Layer 1
 62
     7
420
 16777215
370
    35
100
AcDbVertex
100
AcDb2dVertex
 10
222.8263644191198
 20
67.59759655428115
 30
0.0
  0
SEQEND
  5
600
330
5FD
100
AcDbEntity
  8
Layer 1
370
    35
  0
POLYLINE
  5
601
330
44
100
AcDbEntity
  8
Layer 1
 62
     7
420
 16777215
370
    35
100
AcDb2dPolyline
 66
     1
 10
0.0
 20
0.0
 30
0.0
  0
VERTEX
  5
602
330
601
100
AcDbEntity
  8
Layer 1
 62
     7
420
 16777215
370
    35
100
AcDbVertex
100
AcDb2dVertex
 10
222.3853921970078
 20
67.7278211636236
 30
0.0
  0
VERTEX
  5
603
330
601
100
AcDbEntity
  8
Layer 1
 62
     7
420
 16777215
370
    35
100
AcDbVertex
100
AcDb2dVertex
 10
220.3396944978665
 20
86.20524628921258
 30
0.0
  0
SEQEND
  5
604
330
601
100
AcDbEntity
  8
Layer 1
370
    35
  0
POLYLINE
  5
605
330
44
100
AcDbEntity
  8
Layer 1
 62
     7
420
 16777215
370
    35
100
AcDb2dPolyline
 66
     1
 10
0.0
 20
0.0
 30
0.0
  0
VERTEX
  5
606
330
605
100
AcDbEntity
  8
Layer 1
 62
     7
420
 16777215
370
    35
100
AcDbVertex
100
AcDb2dVertex
 10
222.8263644191198
 20
67.59759655428115
 30
0.0
  0
VERTEX
  5
607
330
605
100
AcDbEntity
  8
Layer 1
 62
     7
420
 16777215
370
    35
100
AcDbVertex
100
AcDb2dVertex
 10
222.8263644191198
 20
67.59759655428115
 30
0.0
  0
SEQEND
  5
608
330
605
100
AcDbEntity
  8
Layer 1
370
    35
  0
POLYLINE
  5
609
330
44
100
AcDbEntity
  8
Layer 1
 62
     7
420
 16777215
370
    35
100
AcDb2dPolyline
 66
     1
 10
0.0
 20
0.0
 30
0.0
  0
VERTEX
  5
60A
330
609
100
AcDbEntity
  8
Layer 1
 62
     7
420
 16777215
370
    35
100
AcDbVertex
100
AcDb2dVertex
 10
226.8433457549211
 20
67.09185653704648
 30
0.0
  0
VERTEX
  5
60B
330
609
100
AcDbEntity
  8
Layer 1
 62
     7
420
 16777215
370
    35
100
AcDbVertex
100
AcDb2dVertex
 10
226.8433457549211
 20
67.59759655428115
 30
0.0
  0
SEQEND
  5
60C
330
609
100
AcDbEntity
  8
Layer 1
370
    35
  0
POLYLINE
  5
60D
330
44
100
AcDbEntity
  8
Layer 1
 62
     7
420
 16777215
370
    35
100
AcDb2dPolyline
 66
     1
 10
0.0
 20
0.0
 30
0.0
  0
VERTEX
  5
60E
330
60D
100
AcDbEntity
  8
Layer 1
 62
     7
420
 16777215
370
    35
100
AcDbVertex
100
AcDb2dVertex
 10
226.8433457549211
 20
67.59759655428115
 30
0.0
  0
VERTEX
  5
60F
330
60D
100
AcDbEntity
  8
Layer 1
 62
     7
420
 16777215
370
    35
100
AcDbVertex
100
AcDb2dVertex
 10
226.8433457549211
 20
67.59759655428115
 30
0.0
  0
SEQEND
  5
610
330
60D
100
AcDbEntity
  8
Layer 1
370
    35
  0
POLYLINE
  5
611
330
44
100
AcDbEntity
  8
Layer 1
 62
     7
420
 16777215
370
    35
100
AcDb2dPolyline
 66
     1
 10
0.0
 20
0.0
 30
0.0
  0
VERTEX
  5
612
330
611
100
AcDbEntity
  8
Layer 1
 62
     7
420
 16777215
370
    35
100
AcDbVertex
100
AcDb2dVertex
 10
227.3459851862191
 20
64.06223956731777
 30
0.0
  0
VERTEX
  5
613
330
611
100
AcDbEntity
  8
Layer 1
 62
     7
420
 16777215
370
    35
100
AcDbVertex
100
AcDb2dVertex
 10
226.8433457549211
 20
67.09185653704648
 30
0.0
  0
SEQEND
  5
614
330
611
100
AcDbEntity
  8
Layer 1
370
    35
  0
POLYLINE
  5
615
330
44
100
AcDbEntity
  8
Layer 1
 62
     7
420
 16777215
370
    35
100
AcDb2dPolyline
 66
     1
 10
0.0
 20
0.0
 30
0.0
  0
VERTEX
  5
616
330
615
100
AcDbEntity
  8
Layer 1
 62
     7
420
 16777215
370
    35
100
AcDbVertex
100
AcDb2dVertex
 10
209.7694525300229
 20
83.25348847745052
 30
0.0
  0
VERTEX
  5
617
330
615
100
AcDbEntity
  8
Layer 1
 62
     7
420
 16777215
370
    35
100
AcDbVertex
100
AcDb2dVertex
 10
209.7694525300229
 20
83.25348847745052
 30
0.0
  0
SEQEND
  5
618
330
615
100
AcDbEntity
  8
Layer 1
370
    35
  0
POLYLINE
  5
619
330
44
100
AcDbEntity
  8
Layer 1
 62
     7
420
 16777215
370
    35
100
AcDb2dPolyline
 66
     1
 10
0.0
 20
0.0
 30
0.0
  0
VERTEX
  5
61A
330
619
100
AcDbEntity
  8
Layer 1
 62
     7
420
 16777215
370
    35
100
AcDbVertex
100
AcDb2dVertex
 10
209.7694525300229
 20
83.25348847745052
 30
0.0
  0
VERTEX
  5
61B
330
619
100
AcDbEntity
  8
Layer 1
 62
     7
420
 16777215
370
    35
100
AcDbVertex
100
AcDb2dVertex
 10
209.7694525300229
 20
83.25348847745052
 30
0.0
  0
SEQEND
  5
61C
330
619
100
AcDbEntity
  8
Layer 1
370
    35
  0
POLYLINE
  5
61D
330
44
100
AcDbEntity
  8
Layer 1
 62
     7
420
 16777215
370
    35
100
AcDb2dPolyline
 66
     1
 10
0.0
 20
0.0
 30
0.0
  0
VERTEX
  5
61E
330
61D
100
AcDbEntity
  8
Layer 1
 62
     7
420
 16777215
370
    35
100
AcDbVertex
100
AcDb2dVertex
 10
206.7560275090749
 20
68.10230304287026
 30
0.0
  0
VERTEX
  5
61F
330
61D
100
AcDbEntity
  8
Layer 1
 62
     7
420
 16777215
370
    35
100
AcDbVertex
100
AcDb2dVertex
 10
208.2629122743232
 20
81.73833548303764
 30
0.0
  0
SEQEND
  5
620
330
61D
100
AcDbEntity
  8
Layer 1
370
    35
  0
POLYLINE
  5
621
330
44
100
AcDbEntity
  8
Layer 1
 62
     7
420
 16777215
370
    35
100
AcDb2dPolyline
 66
     1
 10
0.0
 20
0.0
 30
0.0
  0
VERTEX
  5
622
330
621
100
AcDbEntity
  8
Layer 1
 62
     7
420
 16777215
370
    35
100
AcDbVertex
100
AcDb2dVertex
 10
201.7341118202262
 20
64.06223956731777
 30
0.0
  0
VERTEX
  5
623
330
621
100
AcDbEntity
  8
Layer 1
 62
     7
420
 16777215
370
    35
100
AcDbVertex
100
AcDb2dVertex
 10
202.2367512515242
 20
67.09185653704648
 30
0.0
  0
SEQEND
  5
624
330
621
100
AcDbEntity
  8
Layer 1
370
    35
  0
POLYLINE
  5
625
330
44
100
AcDbEntity
  8
Layer 1
 62
     7
420
 16777215
370
    35
100
AcDb2dPolyline
 66
     1
 10
0.0
 20
0.0
 30
0.0
  0
VERTEX
  5
626
330
625
100
AcDbEntity
  8
Layer 1
 62
     7
420
 16777215
370
    35
100
AcDbVertex
100
AcDb2dVertex
 10
202.2367512515242
 20
67.09185653704648
 30
0.0
  0
VERTEX
  5
627
330
625
100
AcDbEntity
  8
Layer 1
 62
     7
420
 16777215
370
    35
100
AcDbVertex
100
AcDb2dVertex
 10
202.2367512515242
 20
67.59759655428115
 30
0.0
  0
SEQEND
  5
628
330
625
100
AcDbEntity
  8
Layer 1
370
    35
  0
POLYLINE
  5
629
330
44
100
AcDbEntity
  8
Layer 1
 62
     7
420
 16777215
370
    35
100
AcDb2dPolyline
 66
     1
 10
0.0
 20
0.0
 30
0.0
  0
VERTEX
  5
62A
330
629
100
AcDbEntity
  8
Layer 1
 62
     7
420
 16777215
370
    35
100
AcDbVertex
100
AcDb2dVertex
 10
202.2367512515242
 20
67.59759655428115
 30
0.0
  0
VERTEX
  5
62B
330
629
100
AcDbEntity
  8
Layer 1
 62
     7
420
 16777215
370
    35
100
AcDbVertex
100
AcDb2dVertex
 10
202.2367512515242
 20
67.59759655428115
 30
0.0
  0
SEQEND
  5
62C
330
629
100
AcDbEntity
  8
Layer 1
370
    35
  0
POLYLINE
  5
62D
330
44
100
AcDbEntity
  8
Layer 1
 62
     7
420
 16777215
370
    35
100
AcDb2dPolyline
 66
     1
 10
0.0
 20
0.0
 30
0.0
  0
VERTEX
  5
62E
330
62D
100
AcDbEntity
  8
Layer 1
 62
     7
420
 16777215
370
    35
100
AcDbVertex
100
AcDb2dVertex
 10
206.7560275090749
 20
68.10230304287026
 30
0.0
  0
VERTEX
  5
62F
330
62D
100
AcDbEntity
  8
Layer 1
 62
     7
420
 16777215
370
    35
100
AcDbVertex
100
AcDb2dVertex
 10
206.7560275090749
 20
68.10230304287026
 30
0.0
  0
VERTEX
  5
630
330
62D
100
AcDbEntity
  8
Layer 1
 62
     7
420
 16777215
370
    35
100
AcDbVertex
100
AcDb2dVertex
 10
206.7560275090749
 20
67.59759655428115
 30
0.0
  0
SEQEND
  5
631
330
62D
100
AcDbEntity
  8
Layer 1
370
    35
  0
POLYLINE
  5
632
330
44
100
AcDbEntity
  8
Layer 1
 62
     7
420
 16777215
370
    35
100
AcDb2dPolyline
 66
     1
 10
0.0
 20
0.0
 30
0.0
  0
VERTEX
  5
633
330
632
100
AcDbEntity
  8
Layer 1
 62
     7
420
 16777215
370
    35
100
AcDbVertex
100
AcDb2dVertex
 10
206.7560275090749
 20
67.59759655428115
 30
0.0
  0
VERTEX
  5
634
330
632
100
AcDbEntity
  8
Layer 1
 62
     7
420
 16777215
370
    35
100
AcDbVertex
100
AcDb2dVertex
 10
206.7560275090749
 20
67.59759655428115
 30
0.0
  0
SEQEND
  5
635
330
632
100
AcDbEntity
  8
Layer 1
370
    35
  0
POLYLINE
  5
636
330
44
100
AcDbEntity
  8
Layer 1
 62
     7
420
 16777215
370
    35
100
AcDb2dPolyline
 66
     1
 10
0.0
 20
0.0
 30
0.0
  0
VERTEX
  5
637
330
636
100
AcDbEntity
  8
Layer 1
 62
     7
420
 16777215
370
    35
100
AcDbVertex
100
AcDb2dVertex
 10
206.7560275090749
 20
67.59759655428115
 30
0.0
  0
VERTEX
  5
638
330
636
100
AcDbEntity
  8
Layer 1
 62
     7
420
 16777215
370
    35
100
AcDbVertex
100
AcDb2dVertex
 10
222.8263644191198
 20
67.59759655428115
 30
0.0
  0
SEQEND
  5
639
330
636
100
AcDbEntity
  8
Layer 1
370
    35
  0
POLYLINE
  5
63A
330
44
100
AcDbEntity
  8
Layer 1
 62
     7
420
 16777215
370
    35
100
AcDb2dPolyline
 66
     1
 10
0.0
 20
0.0
 30
0.0
  0
VERTEX
  5
63B
330
63A
100
AcDbEntity
  8
Layer 1
 62
     7
420
 16777215
370
    35
100
AcDbVertex
100
AcDb2dVertex
 10
202.2367512515242
 20
67.59759655428115
 30
0.0
  0
VERTEX
  5
63C
330
63A
100
AcDbEntity
  8
Layer 1
 62
     7
420
 16777215
370
    35
100
AcDbVertex
100
AcDb2dVertex
 10
226.8433457549211
 20
67.59759655428115
 30
0.0
  0
SEQEND
  5
63D
330
63A
100
AcDbEntity
  8
Layer 1
370
    35
  0
POLYLINE
  5
63E
330
44
100
AcDbEntity
  8
Layer 1
 62
     7
420
 16777215
370
    35
100
AcDb2dPolyline
 66
     1
 10
0.0
 20
0.0
 30
0.0
  0
VERTEX
  5
63F
330
63E
100
AcDbEntity
  8
Layer 1
 62
     7
420
 16777215
370
    35
100
AcDbVertex
100
AcDb2dVertex
 10
202.2367512515242
 20
67.59759655428115
 30
0.0
  0
VERTEX
  5
640
330
63E
100
AcDbEntity
  8
Layer 1
 62
     7
420
 16777215
370
    35
100
AcDbVertex
100
AcDb2dVertex
 10
206.7560275090749
 20
67.59759655428115
 30
0.0
  0
SEQEND
  5
641
330
63E
100
AcDbEntity
  8
Layer 1
370
    35
  0
POLYLINE
  5
642
330
44
100
AcDbEntity
  8
Layer 1
 62
     7
420
 16777215
370
    35
100
AcDb2dPolyline
 66
     1
 10
0.0
 20
0.0
 30
0.0
  0
VERTEX
  5
643
330
642
100
AcDbEntity
  8
Layer 1
 62
     7
420
 16777215
370
    35
100
AcDbVertex
100
AcDb2dVertex
 10
219.8132839077203
 20
83.25348847745052
 30
0.0
  0
VERTEX
  5
644
330
642
100
AcDbEntity
  8
Layer 1
 62
     7
420
 16777215
370
    35
100
AcDbVertex
100
AcDb2dVertex
 10
219.8132839077203
 20
83.25348847745052
 30
0.0
  0
SEQEND
  5
645
330
642
100
AcDbEntity
  8
Layer 1
370
    35
  0
POLYLINE
  5
646
330
44
100
AcDbEntity
  8
Layer 1
 62
     7
420
 16777215
370
    35
100
AcDb2dPolyline
 66
     1
 10
0.0
 20
0.0
 30
0.0
  0
VERTEX
  5
647
330
646
100
AcDbEntity
  8
Layer 1
 62
     7
420
 16777215
370
    35
100
AcDbVertex
100
AcDb2dVertex
 10
219.8132839077203
 20
83.25348847745052
 30
0.0
  0
VERTEX
  5
648
330
646
100
AcDbEntity
  8
Layer 1
 62
     7
420
 16777215
370
    35
100
AcDbVertex
100
AcDb2dVertex
 10
219.8132839077203
 20
83.25348847745052
 30
0.0
  0
SEQEND
  5
649
330
646
100
AcDbEntity
  8
Layer 1
370
    35
  0
POLYLINE
  5
64A
330
44
100
AcDbEntity
  8
Layer 1
 62
     7
420
 16777215
370
    35
100
AcDb2dPolyline
 66
     1
 10
0.0
 20
0.0
 30
0.0
  0
VERTEX
  5
64B
330
64A
100
AcDbEntity
  8
Layer 1
 62
     7
420
 16777215
370
    35
100
AcDbVertex
100
AcDb2dVertex
 10
220.966701876182
 20
81.73833548303764
 30
0.0
  0
VERTEX
  5
64C
330
64A
100
AcDbEntity
  8
Layer 1
 62
     7
420
 16777215
370
    35
100
AcDbVertex
100
AcDb2dVertex
 10
220.966701876182
 20
81.73833548303764
 30
0.0
  0
SEQEND
  5
64D
330
64A
100
AcDbEntity
  8
Layer 1
370
    35
  0
POLYLINE
  5
64E
330
44
100
AcDbEntity
  8
Layer 1
 62
     7
420
 16777215
370
    35
100
AcDb2dPolyline
 66
     1
 10
0.0
 20
0.0
 30
0.0
  0
VERTEX
  5
64F
330
64E
100
AcDbEntity
  8
Layer 1
 62
     7
420
 16777215
370
    35
100
AcDbVertex
100
AcDb2dVertex
 10
220.966701876182
 20
81.73833548303764
 30
0.0
  0
VERTEX
  5
650
330
64E
100
AcDbEntity
  8
Layer 1
 62
     7
420
 16777215
370
    35
100
AcDbVertex
100
AcDb2dVertex
 10
220.966701876182
 20
81.73833548303764
 30
0.0
  0
SEQEND
  5
651
330
64E
100
AcDbEntity
  8
Layer 1
370
    35
  0
POLYLINE
  5
652
330
44
100
AcDbEntity
  8
Layer 1
 62
     7
420
 16777215
370
    35
100
AcDb2dPolyline
 66
     1
 10
0.0
 20
0.0
 30
0.0
  0
VERTEX
  5
653
330
652
100
AcDbEntity
  8
Layer 1
 62
     7
420
 16777215
370
    35
100
AcDbVertex
100
AcDb2dVertex
 10
208.2625677647746
 20
81.73833548303764
 30
0.0
  0
VERTEX
  5
654
330
652
100
AcDbEntity
  8
Layer 1
 62
     7
420
 16777215
370
    35
100
AcDbVertex
100
AcDb2dVertex
 10
208.2625677647746
 20
81.73833548303764
 30
0.0
  0
SEQEND
  5
655
330
652
100
AcDbEntity
  8
Layer 1
370
    35
  0
POLYLINE
  5
656
330
44
100
AcDbEntity
  8
Layer 1
 62
     7
420
 16777215
370
    35
100
AcDb2dPolyline
 66
     1
 10
0.0
 20
0.0
 30
0.0
  0
VERTEX
  5
657
330
656
100
AcDbEntity
  8
Layer 1
 62
     7
420
 16777215
370
    35
100
AcDbVertex
100
AcDb2dVertex
 10
208.7896673740179
 20
86.20524628921258
 30
0.0
  0
VERTEX
  5
658
330
656
100
AcDbEntity
  8
Layer 1
 62
     7
420
 16777215
370
    35
100
AcDbVertex
100
AcDb2dVertex
 10
208.2625677647746
 20
81.73833548303764
 30
0.0
  0
SEQEND
  5
659
330
656
100
AcDbEntity
  8
Layer 1
370
    35
  0
POLYLINE
  5
65A
330
44
100
AcDbEntity
  8
Layer 1
370
     0
100
AcDb2dPolyline
 66
     1
 10
0.0
 20
0.0
 30
0.0
  0
VERTEX
  5
65B
330
65A
100
AcDbEntity
  8
Layer 1
370
     0
100
AcDbVertex
100
AcDb2dVertex
 10
222.3481851657671
 20
67.51904837721746
 30
0.0
  0
VERTEX
  5
65C
330
65A
100
AcDbEntity
  8
Layer 1
370
     0
100
AcDbVertex
100
AcDb2dVertex
 10
206.7804876870202
 20
67.51904837721746
 30
0.0
  0
SEQEND
  5
65D
330
65A
100
AcDbEntity
  8
Layer 1
370
     0
  0
POLYLINE
  5
65E
330
44
100
AcDbEntity
  8
Layer 1
 62
     7
420
 16777215
370
     9
100
AcDb2dPolyline
 66
     1
 10
0.0
 20
0.0
 30
0.0
  0
VERTEX
  5
65F
330
65E
100
AcDbEntity
  8
Layer 1
 62
     7
420
 16777215
370
     9
100
AcDbVertex
100
AcDb2dVertex
 10
222.3481851657671
 20
67.51904837721746
 30
0.0
  0
VERTEX
  5
660
330
65E
100
AcDbEntity
  8
Layer 1
 62
     7
420
 16777215
370
     9
100
AcDbVertex
100
AcDb2dVertex
 10
206.7804876870202
 20
67.51904837721746
 30
0.0
  0
SEQEND
  5
661
330
65E
100
AcDbEntity
  8
Layer 1
370
     9
  0
POLYLINE
  5
662
330
44
100
AcDbEntity
  8
Layer 1
370
     0
100
AcDb2dPolyline
 66
     1
 10
0.0
 20
0.0
 30
0.0
  0
VERTEX
  5
663
330
662
100
AcDbEntity
  8
Layer 1
370
     0
100
AcDbVertex
100
AcDb2dVertex
 10
226.8681504424149
 20
67.51904837721746
 30
0.0
  0
VERTEX
  5
688
330
662
100
AcDbEntity
  8
0
100
AcDbVertex
100
AcDb2dVertex
 10
226.8681504424149
 20
67.51904837721746
 30
0.0
  0
SEQEND
  5
664
330
662
100
AcDbEntity
  8
Layer 1
370
     0
  0
POLYLINE
  5
665
330
44
100
AcDbEntity
  8
Layer 1
 62
     7
420
 16777215
370
     9
100
AcDb2dPolyline
 66
     1
 10
0.0
 20
0.0
 30
0.0
  0
VERTEX
  5
666
330
665
100
AcDbEntity
  8
Layer 1
 62
     7
420
 16777215
370
     9
100
AcDbVertex
100
AcDb2dVertex
 10
226.8681504424149
 20
67.51904837721746
 30
0.0
  0
VERTEX
  5
667
330
665
100
AcDbEntity
  8
Layer 1
 62
     7
420
 16777215
370
     9
100
AcDbVertex
100
AcDb2dVertex
 10
226.8681504424149
 20
67.51904837721746
 30
0.0
  0
SEQEND
  5
668
330
665
100
AcDbEntity
  8
Layer 1
370
     9
  0
POLYLINE
  5
669
330
44
100
AcDbEntity
  8
Layer 1
370
     0
100
AcDb2dPolyline
 66
     1
 10
0.0
 20
0.0
 30
0.0
  0
VERTEX
  5
66A
330
669
100
AcDbEntity
  8
Layer 1
370
     0
100
AcDbVertex
100
AcDb2dVertex
 10
208.7896673740179
 20
86.20524628921258
 30
0.0
  0
VERTEX
  5
66B
330
669
100
AcDbEntity
  8
Layer 1
370
     0
100
AcDbVertex
100
AcDb2dVertex
 10
220.3396944978665
 20
86.20524628921258
 30
0.0
  0
SEQEND
  5
66C
330
669
100
AcDbEntity
  8
Layer 1
370
     0
  0
POLYLINE
  5
66D
330
44
100
AcDbEntity
  8
Layer 1
 62
     7
420
 16777215
370
    35
100
AcDb2dPolyline
 66
     1
 10
0.0
 20
0.0
 30
0.0
  0
VERTEX
  5
66E
330
66D
100
AcDbEntity
  8
Layer 1
 62
     7
420
 16777215
370
    35
100
AcDbVertex
100
AcDb2dVertex
 10
208.7896673740179
 20
86.20524628921258
 30
0.0
  0
VERTEX
  5
66F
330
66D
100
AcDbEntity
  8
Layer 1
 62
     7
420
 16777215
370
    35
100
AcDbVertex
100
AcDb2dVertex
 10
220.3396944978665
 20
86.20524628921258
 30
0.0
  0
SEQEND
  5
670
330
66D
100
AcDbEntity
  8
Layer 1
370
    35
  0
POLYLINE
  5
671
330
44
100
AcDbEntity
  8
Layer 1
370
     0
100
AcDb2dPolyline
 66
     1
 10
0.0
 20
0.0
 30
0.0
  0
VERTEX
  5
672
330
671
100
AcDbEntity
  8
Layer 1
370
     0
100
AcDbVertex
100
AcDb2dVertex
 10
202.2605224103724
 20
67.51904837721746
 30
0.0
  0
VERTEX
  5
689
330
671
100
AcDbEntity
  8
0
100
AcDbVertex
100
AcDb2dVertex
 10
202.2605224103724
 20
67.51904837721746
 30
0.0
  0
SEQEND
  5
673
330
671
100
AcDbEntity
  8
Layer 1
370
     0
  0
POLYLINE
  5
674
330
44
100
AcDbEntity
  8
Layer 1
 62
     7
420
 16777215
370
     9
100
AcDb2dPolyline
 66
     1
 10
0.0
 20
0.0
 30
0.0
  0
VERTEX
  5
675
330
674
100
AcDbEntity
  8
Layer 1
 62
     7
420
 16777215
370
     9
100
AcDbVertex
100
AcDb2dVertex
 10
202.2605224103724
 20
67.51904837721746
 30
0.0
  0
VERTEX
  5
676
330
674
100
AcDbEntity
  8
Layer 1
 62
     7
420
 16777215
370
     9
100
AcDbVertex
100
AcDb2dVertex
 10
202.2605224103724
 20
67.51904837721746
 30
0.0
  0
SEQEND
  5
677
330
674
100
AcDbEntity
  8
Layer 1
370
     9
  0
POLYLINE
  5
678
330
44
100
AcDbEntity
  8
Layer 1
370
     0
100
AcDb2dPolyline
 66
     1
 10
0.0
 20
0.0
 30
0.0
  0
VERTEX
  5
679
330
678
100
AcDbEntity
  8
Layer 1
370
     0
100
AcDbVertex
100
AcDb2dVertex
 10
202.2605224103724
 20
67.51904837721746
 30
0.0
  0
VERTEX
  5
67A
330
678
100
AcDbEntity
  8
Layer 1
370
     0
100
AcDbVertex
100
AcDb2dVertex
 10
206.2781927652707
 20
67.51904837721746
 30
0.0
  0
SEQEND
  5
67B
330
678
100
AcDbEntity
  8
Layer 1
370
     0
  0
POLYLINE
  5
67C
330
44
100
AcDbEntity
  8
Layer 1
 62
     7
420
 16777215
370
     9
100
AcDb2dPolyline
 66
     1
 10
0.0
 20
0.0
 30
0.0
  0
VERTEX
  5
67D
330
67C
100
AcDbEntity
  8
Layer 1
 62
     7
420
 16777215
370
     9
100
AcDbVertex
100
AcDb2dVertex
 10
202.2605224103724
 20
67.51904837721746
 30
0.0
  0
VERTEX
  5
67E
330
67C
100
AcDbEntity
  8
Layer 1
 62
     7
420
 16777215
370
     9
100
AcDbVertex
100
AcDb2dVertex
 10
206.2781927652707
 20
67.51904837721746
 30
0.0
  0
SEQEND
  5
67F
330
67C
100
AcDbEntity
  8
Layer 1
370
     9
  0
SPLINE
  5
680
330
44
100
AcDbEntity
  8
Layer 1
 62
     7
420
 16777215
370
    35
100
AcDbSpline
210
0.0
220
0.0
230
1.0
 70
     8
 71
     3
 72
    11
 73
     7
 74
     0
 42
0.0000000001
 43
0.0000000001
 40
0.0
 40
0.0
 40
0.0
 40
0.0
 40
1.0
 40
1.0
 40
1.0
 40
2.0
 40
2.0
 40
2.0
 40
2.0
 10
49.38354897853953
 20
159.8090223124783
 30
0.0
 10
49.38354897853953
 20
179.6834336573361
 30
0.0
 10
65.49488252485892
 20
195.7947672036555
 30
0.0
 10
85.36963837926524
 20
195.7947672036555
 30
0.0
 10
105.2442219788973
 20
195.7947672036555
 30
0.0
 10
121.3555555252167
 20
179.6834336573361
 30
0.0
 10
121.3555555252167
 20
159.8090223124783
 30
0.0
  0
SPLINE
  5
681
330
44
100
AcDbEntity
  8
Layer 1
 62
     7
420
 16777215
370
    35
100
AcDbSpline
210
0.0
220
0.0
230
1.0
 70
     8
 71
     3
 72
    11
 73
     7
 74
     0
 42
0.0000000001
 43
0.0000000001
 40
0.0
 40
0.0
 40
0.0
 40
0.0
 40
1.0
 40
1.0
 40
1.0
 40
2.0
 40
2.0
 40
2.0
 40
2.0
 10
40.12313231418797
 20
159.8090223124783
 30
0.0
 10
40.12313231418797
 20
184.7249863904507
 30
0.0
 10
60.32138263465924
 20
204.9228922013735
 30
0.0
 10
85.23734671263163
 20
204.9228922013735
 30
0.0
 10
110.1531385358298
 20
204.9228922013735
 30
0.0
 10
130.351388856301
 20
184.7249863904507
 30
0.0
 10
130.351388856301
 20
159.8090223124783
 30
0.0
  0
ENDBLK
  5
47
330
44
100
AcDbEntity
  8
0
100
AcDbBlockEnd
  0
ENDSEC
  0
SECTION
  2
ENTITIES
  0
INSERT
  5
3D
330
1F
100
AcDbEntity
  8
Layer 1
100
AcDbBlockReference
  2
block 2
 10
0.0
 20
0.0
 30
0.0
  0
INSERT
  5
45
330
1F
100
AcDbEntity
  8
Layer 1
100
AcDbBlockReference
  2
block 3
 10
0.0
 20
0.0
 30
0.0
  0
ENDSEC
  0
SECTION
  2
OBJECTS
  0
DICTIONARY
  5
C
330
0
100
AcDbDictionary
281
     1
  3
ACAD_GROUP
350
D
  3
ACAD_LAYOUT
350
1A
  3
ACAD_MLINESTYLE
350
17
  3
ACAD_PLOTSETTINGS
350
19
  3
ACAD_PLOTSTYLENAME
350
E
  3
ACAD_TABLESTYLE
350
68A
  3
ACAD_VISUALSTYLE
350
2A
  0
DICTIONARY
  5
D
102
{ACAD_REACTORS
330
C
102
}
330
C
100
AcDbDictionary
281
     1
  0
DICTIONARY
  5
1A
102
{ACAD_REACTORS
330
C
102
}
330
C
100
AcDbDictionary
281
     1
  3
Layout1
350
1E
  3
Layout2
350
26
  3
Model
350
22
  0
DICTIONARY
  5
17
102
{ACAD_REACTORS
330
C
102
}
330
C
100
AcDbDictionary
281
     1
  3
Standard
350
18
  0
DICTIONARY
  5
19
102
{ACAD_REACTORS
330
C
102
}
330
C
100
AcDbDictionary
281
     1
  0
ACDBDICTIONARYWDFLT
  5
E
102
{ACAD_REACTORS
330
C
102
}
330
C
100
AcDbDictionary
281
     1
  3
Normal
350
F
100
AcDbDictionaryWithDefault
340
F
  0
DICTIONARY
  5
68A
102
{ACAD_REACTORS
330
C
102
}
330
C
100
AcDbDictionary
281
     1
  0
DICTIONARY
  5
2A
102
{ACAD_REACTORS
330
C
102
}
330
C
100
AcDbDictionary
281
     1
  3
2dWireframe
350
2F
  3
3D Hidden
350
31
  3
3dWireframe
350
30
  3
Basic
350
32
  3
Brighten
350
36
  3
ColorChange
350
3A
  3
Conceptual
350
34
  3
Dim
350
35
  3
Facepattern
350
39
  3
Flat
350
2B
  3
FlatWithEdges
350
2C
  3
Gouraud
350
2D
  3
GouraudWithEdges
350
2E
  3
Linepattern
350
38
  3
Realistic
350
33
  3
Thicken
350
37
  0
LAYOUT
  5
1E
102
{ACAD_REACTORS
330
1A
102
}
330
1A
100
AcDbPlotSettings
  1

  2
none_device
  4

  6

 40
0.0
 41
0.0
 42
0.0
 43
0.0
 44
0.0
 45
0.0
 46
0.0
 47
0.0
 48
0.0
 49
0.0
140
0.0
141
0.0
142
1.0
143
1.0
 70
   688
 72
     0
 73
     0
 74
     5
  7

 75
    16
 76
     0
 77
     2
 78
   300
147
1.0
148
0.0
149
0.0
100
AcDbLayout
  1
Layout1
 70
     1
 71
     1
 10
0.0
 20
0.0
 11
12.0
 21
9.0
 12
0.0
 22
0.0
 32
0.0
 14
1.000000000000000E+20
 24
1.000000000000000E+20
 34
1.000000000000000E+20
 15
-1.000000000000000E+20
 25
-1.000000000000000E+20
 35
-1.000000000000000E+20
146
0.0
 13
0.0
 23
0.0
 33
0.0
 16
1.0
 26
0.0
 36
0.0
 17
0.0
 27
1.0
 37
0.0
 76
     0
330
1B
  0
LAYOUT
  5
26
102
{ACAD_REACTORS
330
1A
102
}
330
1A
100
AcDbPlotSettings
  1

  2
none_device
  4

  6

 40
0.0
 41
0.0
 42
0.0
 43
0.0
 44
0.0
 45
0.0
 46
0.0
 47
0.0
 48
0.0
 49
0.0
140
0.0
141
0.0
142
1.0
143
1.0
 70
   688
 72
     0
 73
     0
 74
     5
  7

 75
    16
 76
     0
 77
     2
 78
   300
147
1.0
148
0.0
149
0.0
100
AcDbLayout
  1
Layout2
 70
     1
 71
     2
 10
0.0
 20
0.0
 11
0.0
 21
0.0
 12
0.0
 22
0.0
 32
0.0
 14
0.0
 24
0.0
 34
0.0
 15
0.0
 25
0.0
 35
0.0
146
0.0
 13
0.0
 23
0.0
 33
0.0
 16
1.0
 26
0.0
 36
0.0
 17
0.0
 27
1.0
 37
0.0
 76
     0
330
23
  0
LAYOUT
  5
22
102
{ACAD_REACTORS
330
1A
102
}
330
1A
100
AcDbPlotSettings
  1

  2
none_device
  4

  6

 40
0.0
 41
0.0
 42
0.0
 43
0.0
 44
0.0
 45
0.0
 46
0.0
 47
0.0
 48
0.0
 49
0.0
140
0.0
141
0.0
142
1.0
143
1.0
 70
  1712
 72
     0
 73
     0
 74
     0
  7

 75
     0
 76
     0
 77
     2
 78
   300
147
1.0
148
0.0
149
0.0
100
AcDbLayout
  1
Model
 70
     1
 71
     0
 10
0.0
 20
0.0
 11
12.0
 21
9.0
 12
0.0
 22
0.0
 32
0.0
 14
1.000000000000000E+20
 24
1.000000000000000E+20
 34
1.000000000000000E+20
 15
-1.000000000000000E+20
 25
-1.000000000000000E+20
 35
-1.000000000000000E+20
146
0.0
 13
0.0
 23
0.0
 33
0.0
 16
1.0
 26
0.0
 36
0.0
 17
0.0
 27
1.0
 37
0.0
 76
     0
330
1F
331
29
  0
MLINESTYLE
  5
18
102
{ACAD_REACTORS
330
17
102
}
330
17
100
AcDbMlineStyle
  2
Standard
 70
     0
  3

 62
   256
 51
90.0
 52
90.0
 71
     2
 49
0.5
 62
   256
  6
BYLAYER
 49
-0.5
 62
   256
  6
BYLAYER
  0
ACDBPLACEHOLDER
  5
F
102
{ACAD_REACTORS
330
E
102
}
330
E
  0
VISUALSTYLE
  5
2F
102
{ACAD_REACTORS
330
2A
102
}
330
2A
100
AcDbVisualStyle
  2
2dWireframe
 70
     4
 71
     0
 72
     2
 73
     0
 90
        0
 40
-0.6
 41
-30.0
 62
     5
 63
     7
421
 16777215
 74
     1
 91
        4
 64
     7
 65
   257
 75
     1
175
     1
 42
1.0
 92
        0
 66
   257
 43
1.0
 76
     1
 77
     6
 78
     2
 67
     7
 79
     5
170
     0
171
     0
290
     0
174
     0
 93
        1
 44
0.0
173
     0
291
     0
 45
0.0
1001
ACAD
1000
AcDbSavedByObjectVersion
1070
     0
  0
VISUALSTYLE
  5
31
102
{ACAD_REACTORS
330
2A
102
}
330
2A
100
AcDbVisualStyle
  2
3D Hidden
 70
     6
 71
     1
 72
     2
 73
     2
 90
        0
 40
-0.6
 41
-30.0
 62
     5
 63
     7
421
 16777215
 74
     2
 91
        2
 64
     7
 65
   257
 75
     2
175
     1
 42
40.0
 92
        0
 66
   257
 43
1.0
 76
     1
 77
     6
 78
     2
 67
     7
 79
     3
170
     0
171
     0
290
     0
174
     0
 93
        1
 44
0.0
173
     0
291
     0
 45
0.0
1001
ACAD
1000
AcDbSavedByObjectVersion
1070
     0
  0
VISUALSTYLE
  5
30
102
{ACAD_REACTORS
330
2A
102
}
330
2A
100
AcDbVisualStyle
  2
3dWireframe
 70
     5
 71
     0
 72
     2
 73
     0
 90
        0
 40
-0.6
 41
-30.0
 62
     5
 63
     7
421
 16777215
 74
     1
 91
        4
 64
     7
 65
   257
 75
     1
175
     1
 42
1.0
 92
        0
 66
   257
 43
1.0
 76
     1
 77
     6
 78
     2
 67
     7
 79
     5
170
     0
171
     0
290
     0
174
     0
 93
        1
 44
0.0
173
     0
291
     0
 45
0.0
1001
ACAD
1000
AcDbSavedByObjectVersion
1070
     0
  0
VISUALSTYLE
  5
32
102
{ACAD_REACTORS
330
2A
102
}
330
2A
100
AcDbVisualStyle
  2
Basic
 70
     7
 71
     1
 72
     0
 73
     1
 90
        0
 40
-0.6
 41
-30.0
 62
     5
 63
     7
421
 16777215
 74
     0
 91
        4
 64
     7
 65
   257
 75
     1
175
     1
 42
1.0
 92
        8
 66
     7
 43
1.0
 76
     1
 77
     6
 78
     2
 67
     7
 79
     5
170
     0
171
     0
290
     0
174
     0
 93
        1
 44
0.0
173
     0
291
     1
 45
0.0
1001
ACAD
1000
AcDbSavedByObjectVersion
1070
     0
  0
VISUALSTYLE
  5
36
102
{ACAD_REACTORS
330
2A
102
}
330
2A
100
AcDbVisualStyle
  2
Brighten
 70
    12
 71
     2
 72
     2
 73
     0
 90
        0
 40
-0.6
 41
-30.0
 62
     5
 63
     7
421
 16777215
 74
     1
 91
        4
 64
     7
 65
   257
 75
     1
175
     1
 42
1.0
 92
        8
 66
     7
 43
1.0
 76
     1
 77
     6
 78
     2
 67
     7
 79
     5
170
     0
171
     0
290
     0
174
     0
 93
        1
 44
50.0
173
     0
291
     1
 45
0.0
1001
ACAD
1000
AcDbSavedByObjectVersion
1070
     0
  0
VISUALSTYLE
  5
3A
102
{ACAD_REACTORS
330
2A
102
}
330
2A
100
AcDbVisualStyle
  2
ColorChange
 70
    16
 71
     2
 72
     2
 73
     3
 90
        0
 40
-0.6
 41
-30.0
 62
     5
 63
     8
421
  8421504
 74
     1
 91
        4
 64
     7
 65
   257
 75
     1
175
     1
 42
1.0
 92
        8
 66
     8
424
  8421504
 43
1.0
 76
     1
 77
     6
 78
     2
 67
     7
 79
     5
170
     0
171
     0
290
     0
174
     0
 93
        1
 44
0.0
173
     0
291
     1
 45
0.0
1001
ACAD
1000
AcDbSavedByObjectVersion
1070
     0
  0
VISUALSTYLE
  5
34
102
{ACAD_REACTORS
330
2A
102
}
330
2A
100
AcDbVisualStyle
  2
Conceptual
 70
     9
 71
     3
 72
     2
 73
     0
 90
        0
 40
-0.6
 41
-30.0
 62
     5
 63
     7
421
 16777215
 74
     2
 91
        2
 64
     7
 65
   257
 75
     1
175
     1
 42
40.0
 92
        8
 66
     7
 43
1.0
 76
     1
 77
     6
 78
     2
 67
     7
 79
     3
170
     0
171
     0
290
     0
174
     0
 93
        1
 44
0.0
173
     0
291
     0
 45
0.0
1001
ACAD
1000
AcDbSavedByObjectVersion
1070
     0
  0
VISUALSTYLE
  5
35
102
{ACAD_REACTORS
330
2A
102
}
330
2A
100
AcDbVisualStyle
  2
Dim
 70
    11
 71
     2
 72
     2
 73
     0
 90
        0
 40
-0.6
 41
-30.0
 62
     5
 63
     7
421
 16777215
 74
     1
 91
        4
 64
     7
 65
   257
 75
     1
175
     1
 42
1.0
 92
        8
 66
     7
 43
1.0
 76
     1
 77
     6
 78
     2
 67
     7
 79
     5
170
     0
171
     0
290
     0
174
     0
 93
        1
 44
-50.0
173
     0
291
     1
 45
0.0
1001
ACAD
1000
AcDbSavedByObjectVersion
1070
     0
  0
VISUALSTYLE
  5
39
102
{ACAD_REACTORS
330
2A
102
}
330
2A
100
AcDbVisualStyle
  2
Facepattern
 70
    15
 71
     2
 72
     2
 73
     0
 90
        0
 40
-0.6
 41
-30.0
 62
     5
 63
     7
421
 16777215
 74
     1
 91
        4
 64
     7
 65
   257
 75
     1
175
     1
 42
1.0
 92
        8
 66
     7
 43
1.0
 76
     1
 77
     6
 78
     2
 67
     7
 79
     5
170
     0
171
     0
290
     0
174
     0
 93
        1
 44
0.0
173
     0
291
     1
 45
0.0
1001
ACAD
1000
AcDbSavedByObjectVersion
1070
     0
  0
VISUALSTYLE
  5
2B
102
{ACAD_REACTORS
330
2A
102
}
330
2A
100
AcDbVisualStyle
  2
Flat
 70
     0
 71
     2
 72
     1
 73
     1
 90
        2
 40
-0.6
 41
30.0
 62
     5
 63
     7
421
 16777215
 74
     0
 91
        4
 64
     7
 65
   257
 75
     1
175
     1
 42
1.0
 92
        8
 66
     7
 43
1.0
 76
     1
 77
     6
 78
     2
 67
     7
 79
     5
170
     0
171
     0
290
     0
174
     0
 93
       13
 44
0.0
173
     0
291
     1
 45
0.0
1001
ACAD
1000
AcDbSavedByObjectVersion
1070
     0
  0
VISUALSTYLE
  5
2C
102
{ACAD_REACTORS
330
2A
102
}
330
2A
100
AcDbVisualStyle
  2
FlatWithEdges
 70
     1
 71
     2
 72
     1
 73
     1
 90
        2
 40
-0.6
 41
30.0
 62
     5
 63
     7
421
 16777215
 74
     1
 91
        4
 64
     7
 65
   257
 75
     1
175
     1
 42
1.0
 92
        0
 66
   257
 43
1.0
 76
     1
 77
     6
 78
     2
 67
     7
 79
     5
170
     0
171
     0
290
     0
174
     0
 93
       13
 44
0.0
173
     0
291
     1
 45
0.0
1001
ACAD
1000
AcDbSavedByObjectVersion
1070
     0
  0
VISUALSTYLE
  5
2D
102
{ACAD_REACTORS
330
2A
102
}
330
2A
100
AcDbVisualStyle
  2
Gouraud
 70
     2
 71
     2
 72
     2
 73
     1
 90
        2
 40
-0.6
 41
30.0
 62
     5
 63
     7
421
 16777215
 74
     0
 91
        4
 64
     7
 65
   257
 75
     1
175
     1
 42
1.0
 92
        0
 66
     7
 43
1.0
 76
     1
 77
     6
 78
     2
 67
     7
 79
     5
170
     0
171
     0
290
     0
174
     0
 93
       13
 44
0.0
173
     0
291
     1
 45
0.0
1001
ACAD
1000
AcDbSavedByObjectVersion
1070
     0
  0
VISUALSTYLE
  5
2E
102
{ACAD_REACTORS
330
2A
102
}
330
2A
100
AcDbVisualStyle
  2
GouraudWithEdges
 70
     3
 71
     2
 72
     2
 73
     1
 90
        2
 40
-0.6
 41
30.0
 62
     5
 63
     7
421
 16777215
 74
     1
 91
        4
 64
     7
 65
   257
 75
     1
175
     1
 42
1.0
 92
        0
 66
   257
 43
1.0
 76
     1
 77
     6
 78
     2
 67
     7
 79
     5
170
     0
171
     0
290
     0
174
     0
 93
       13
 44
0.0
173
     0
291
     1
 45
0.0
1001
ACAD
1000
AcDbSavedByObjectVersion
1070
     0
  0
VISUALSTYLE
  5
38
102
{ACAD_REACTORS
330
2A
102
}
330
2A
100
AcDbVisualStyle
  2
Linepattern
 70
    14
 71
     2
 72
     2
 73
     0
 90
        0
 40
-0.6
 41
-30.0
 62
     5
 63
     7
421
 16777215
 74
     1
 91
        4
 64
     7
 65
   257
 75
     7
175
     7
 42
1.0
 92
        8
 66
     7
 43
1.0
 76
     1
 77
     6
 78
     2
 67
     7
 79
     5
170
     0
171
     0
290
     0
174
     0
 93
        1
 44
0.0
173
     0
291
     1
 45
0.0
1001
ACAD
1000
AcDbSavedByObjectVersion
1070
     0
  0
VISUALSTYLE
  5
33
102
{ACAD_REACTORS
330
2A
102
}
330
2A
100
AcDbVisualStyle
  2
Realistic
 70
     8
 71
     2
 72
     2
 73
     0
 90
        0
 40
-0.6
 41
-30.0
 62
     5
 63
     7
421
 16777215
 74
     1
 91
        0
 64
     7
 65
   257
 75
     1
175
     1
 42
1.0
 92
        8
 66
     8
424
  7895160
 43
1.0
 76
     1
 77
     6
 78
     2
 67
     7
 79
     5
170
     0
171
     0
290
     0
174
     0
 93
       13
 44
0.0
173
     0
291
     0
 45
0.0
1001
ACAD
1000
AcDbSavedByObjectVersion
1070
     0
  0
VISUALSTYLE
  5
37
102
{ACAD_REACTORS
330
2A
102
}
330
2A
100
AcDbVisualStyle
  2
Thicken
 70
    13
 71
     2
 72
     2
 73
     0
 90
        0
 40
-0.6
 41
-30.0
 62
     5
 63
     7
421
 16777215
 74
     1
 91
        4
 64
     7
 65
   257
 75
     1
175
     1
 42
1.0
 92
       12
 66
     7
 43
1.0
 76
     1
 77
     6
 78
     2
 67
     7
 79
     5
170
     0
171
     0
290
     0
174
     0
 93
        1
 44
0.0
173
     0
291
     1
 45
0.0
1001
ACAD
1000
AcDbSavedByObjectVersion
1070
     0
  0
ENDSEC
  0
EOF
