  0
SECTION
  2
HEADER
  9
$ACADVER
  1
AC1018
  9
$ACADMAINTVER
 70
     0
  9
$DWGCODEPAGE
  3
ANSI_1252
  9
$INSBASE
 10
0.0
 20
0.0
 30
0.0
  9
$EXTMIN
 10
1.000000000000000E+20
 20
1.000000000000000E+20
 30
1.000000000000000E+20
  9
$EXTMAX
 10
-1.000000000000000E+20
 20
-1.000000000000000E+20
 30
-1.000000000000000E+20
  9
$LIMMIN
 10
0.0
 20
0.0
  9
$LIMMAX
 10
12.0
 20
9.0
  9
$ORTHOMODE
 70
     0
  9
$REGENMODE
 70
     1
  9
$FILLMODE
 70
     1
  9
$QTEXTMODE
 70
     0
  9
$MIRRTEXT
 70
     1
  9
$LTSCALE
 40
1.0
  9
$ATTMODE
 70
     1
  9
$TEXTSIZE
 40
0.2
  9
$TRACEWID
 40
0.05
  9
$TEXTSTYLE
  7
Standard
  9
$CLAYER
  8
0
  9
$CELTYPE
  6
ByLayer
  9
$CECOLOR
 62
   256
  9
$CELTSCALE
 40
1.0
  9
$DISPSILH
 70
     0
  9
$DIMSCALE
 40
1.0
  9
$DIMASZ
 40
0.18
  9
$DIMEXO
 40
0.0625
  9
$DIMDLI
 40
0.38
  9
$DIMRND
 40
0.0
  9
$DIMDLE
 40
0.0
  9
$DIMEXE
 40
0.18
  9
$DIMTP
 40
0.0
  9
$DIMTM
 40
0.0
  9
$DIMTXT
 40
0.18
  9
$DIMCEN
 40
0.09
  9
$DIMTSZ
 40
0.0
  9
$DIMTOL
 70
     0
  9
$DIMLIM
 70
     0
  9
$DIMTIH
 70
     1
  9
$DIMTOH
 70
     1
  9
$DIMSE1
 70
     0
  9
$DIMSE2
 70
     0
  9
$DIMTAD
 70
     0
  9
$DIMZIN
 70
     0
  9
$DIMBLK
  1

  9
$DIMASO
 70
     1
  9
$DIMSHO
 70
     1
  9
$DIMPOST
  1

  9
$DIMAPOST
  1

  9
$DIMALT
 70
     0
  9
$DIMALTD
 70
     2
  9
$DIMALTF
 40
25.4
  9
$DIMLFAC
 40
1.0
  9
$DIMTOFL
 70
     0
  9
$DIMTVP
 40
0.0
  9
$DIMTIX
 70
     0
  9
$DIMSOXD
 70
     0
  9
$DIMSAH
 70
     0
  9
$DIMBLK1
  1

  9
$DIMBLK2
  1

  9
$DIMSTYLE
  2
Standard
  9
$DIMCLRD
 70
     0
  9
$DIMCLRE
 70
     0
  9
$DIMCLRT
 70
     0
  9
$DIMTFAC
 40
1.0
  9
$DIMGAP
 40
0.09
  9
$DIMJUST
 70
     0
  9
$DIMSD1
 70
     0
  9
$DIMSD2
 70
     0
  9
$DIMTOLJ
 70
     1
  9
$DIMTZIN
 70
     0
  9
$DIMALTZ
 70
     0
  9
$DIMALTTZ
 70
     0
  9
$DIMUPT
 70
     0
  9
$DIMDEC
 70
     4
  9
$DIMTDEC
 70
     4
  9
$DIMALTU
 70
     2
  9
$DIMALTTD
 70
     2
  9
$DIMTXSTY
  7
Standard
  9
$DIMAUNIT
 70
     0
  9
$DIMADEC
 70
     0
  9
$DIMALTRND
 40
0.0
  9
$DIMAZIN
 70
     0
  9
$DIMDSEP
 70
    46
  9
$DIMATFIT
 70
     3
  9
$DIMFRAC
 70
     0
  9
$DIMLDRBLK
  1

  9
$DIMLUNIT
 70
     2
  9
$DIMLWD
 70
    -2
  9
$DIMLWE
 70
    -2
  9
$DIMTMOVE
 70
     0
  9
$LUNITS
 70
     2
  9
$LUPREC
 70
     4
  9
$SKETCHINC
 40
0.1
  9
$FILLETRAD
 40
0.5
  9
$AUNITS
 70
     0
  9
$AUPREC
 70
     0
  9
$MENU
  1
.
  9
$ELEVATION
 40
0.0
  9
$PELEVATION
 40
0.0
  9
$THICKNESS
 40
0.0
  9
$LIMCHECK
 70
     0
  9
$CHAMFERA
 40
0.5
  9
$CHAMFERB
 40
0.5
  9
$CHAMFERC
 40
1.0
  9
$CHAMFERD
 40
0.0
  9
$SKPOLY
 70
     0
  9
$TDCREATE
 40
2456150.509715359
  9
$TDUCREATE
 40
2456150.093048692
  9
$TDUPDATE
 40
2456150.50971537
  9
$TDUUPDATE
 40
2456150.093048704
  9
$TDINDWG
 40
0.0000000116
  9
$TDUSRTIMER
 40
0.0000000116
  9
$USRTIMER
 70
     1
  9
$ANGBASE
 50
0.0
  9
$ANGDIR
 70
     0
  9
$PDMODE
 70
     0
  9
$PDSIZE
 40
0.0
  9
$PLINEWID
 40
0.0
  9
$SPLFRAME
 70
     0
  9
$SPLINETYPE
 70
     6
  9
$SPLINESEGS
 70
     8
  9
$HANDSEED
  5
7DF
  9
$SURFTAB1
 70
     6
  9
$SURFTAB2
 70
     6
  9
$SURFTYPE
 70
     6
  9
$SURFU
 70
     6
  9
$SURFV
 70
     6
  9
$UCSBASE
  2

  9
$UCSNAME
  2

  9
$UCSORG
 10
0.0
 20
0.0
 30
0.0
  9
$UCSXDIR
 10
1.0
 20
0.0
 30
0.0
  9
$UCSYDIR
 10
0.0
 20
1.0
 30
0.0
  9
$UCSORTHOREF
  2

  9
$UCSORTHOVIEW
 70
     0
  9
$UCSORGTOP
 10
0.0
 20
0.0
 30
0.0
  9
$UCSORGBOTTOM
 10
0.0
 20
0.0
 30
0.0
  9
$UCSORGLEFT
 10
0.0
 20
0.0
 30
0.0
  9
$UCSORGRIGHT
 10
0.0
 20
0.0
 30
0.0
  9
$UCSORGFRONT
 10
0.0
 20
0.0
 30
0.0
  9
$UCSORGBACK
 10
0.0
 20
0.0
 30
0.0
  9
$PUCSBASE
  2

  9
$PUCSNAME
  2

  9
$PUCSORG
 10
0.0
 20
0.0
 30
0.0
  9
$PUCSXDIR
 10
1.0
 20
0.0
 30
0.0
  9
$PUCSYDIR
 10
0.0
 20
1.0
 30
0.0
  9
$PUCSORTHOREF
  2

  9
$PUCSORTHOVIEW
 70
     0
  9
$PUCSORGTOP
 10
0.0
 20
0.0
 30
0.0
  9
$PUCSORGBOTTOM
 10
0.0
 20
0.0
 30
0.0
  9
$PUCSORGLEFT
 10
0.0
 20
0.0
 30
0.0
  9
$PUCSORGRIGHT
 10
0.0
 20
0.0
 30
0.0
  9
$PUCSORGFRONT
 10
0.0
 20
0.0
 30
0.0
  9
$PUCSORGBACK
 10
0.0
 20
0.0
 30
0.0
  9
$USERI1
 70
     0
  9
$USERI2
 70
     0
  9
$USERI3
 70
     0
  9
$USERI4
 70
     0
  9
$USERI5
 70
     0
  9
$USERR1
 40
0.0
  9
$USERR2
 40
0.0
  9
$USERR3
 40
0.0
  9
$USERR4
 40
0.0
  9
$USERR5
 40
0.0
  9
$WORLDVIEW
 70
     1
  9
$SHADEDGE
 70
     3
  9
$SHADEDIF
 70
    70
  9
$TILEMODE
 70
     1
  9
$MAXACTVP
 70
    64
  9
$PINSBASE
 10
0.0
 20
0.0
 30
0.0
  9
$PLIMCHECK
 70
     0
  9
$PEXTMIN
 10
1.000000000000000E+20
 20
1.000000000000000E+20
 30
1.000000000000000E+20
  9
$PEXTMAX
 10
-1.000000000000000E+20
 20
-1.000000000000000E+20
 30
-1.000000000000000E+20
  9
$PLIMMIN
 10
0.0
 20
0.0
  9
$PLIMMAX
 10
12.0
 20
9.0
  9
$UNITMODE
 70
     0
  9
$VISRETAIN
 70
     1
  9
$PLINEGEN
 70
     0
  9
$PSLTSCALE
 70
     1
  9
$TREEDEPTH
 70
  3020
  9
$CMLSTYLE
  2
Standard
  9
$CMLJUST
 70
     0
  9
$CMLSCALE
 40
1.0
  9
$PROXYGRAPHICS
 70
     1
  9
$MEASUREMENT
 70
     0
  9
$CELWEIGHT
370
    -1
  9
$ENDCAPS
280
     0
  9
$JOINSTYLE
280
     0
  9
$LWDISPLAY
290
     1
  9
$INSUNITS
 70
     1
  9
$HYPERLINKBASE
  1

  9
$STYLESHEET
  1

  9
$XEDIT
290
     1
  9
$CEPSNTYPE
380
     0
  9
$PSTYLEMODE
290
     1
  9
$FINGERPRINTGUID
  2
{97ED7AF5-DA41-438A-BAED-0B88CE2820D6}
  9
$VERSIONGUID
  2
{FAEB1C32-E019-11D5-929B-00C0DF256EC4}
  9
$EXTNAMES
290
     1
  9
$PSVPSCALE
 40
0.0
  9
$OLESTARTUP
290
     0
  9
$SORTENTS
280
   127
  9
$INDEXCTL
280
     0
  9
$HIDETEXT
280
     1
  9
$XCLIPFRAME
290
     0
  9
$HALOGAP
280
     0
  9
$OBSCOLOR
 70
   257
  9
$OBSLTYPE
280
     0
  9
$INTERSECTIONDISPLAY
280
     0
  9
$INTERSECTIONCOLOR
 70
   257
  9
$DIMASSOC
280
     2
  9
$PROJECTNAME
  1

  0
ENDSEC
  0
SECTION
  2
CLASSES
  0
CLASS
  1
ACDBDICTIONARYWDFLT
  2
AcDbDictionaryWithDefault
  3
ObjectDBX Classes
 90
        0
 91
        3
280
     0
281
     0
  0
CLASS
  1
VISUALSTYLE
  2
AcDbVisualStyle
  3
ObjectDBX Classes
 90
     4095
 91
        3
280
     0
281
     0
  0
ENDSEC
  0
SECTION
  2
TABLES
  0
TABLE
  2
VPORT
  5
8
330
0
100
AcDbSymbolTable
 70
     1
  0
VPORT
  5
29
330
8
100
AcDbSymbolTableRecord
100
AcDbViewportTableRecord
  2
*Active
 70
     0
 10
0.0
 20
0.0
 11
1.0
 21
1.0
 12
0.0
 22
0.0
 13
0.0
 23
0.0
 14
0.5
 24
0.5
 15
0.5
 25
0.5
 16
0.0
 26
0.0
 36
1.0
 17
14.850006574521
 27
10.49998785816059
 37
0.0
 40
20.99997571632118
 41
1.414287975864617
 42
50.0
 43
0.0
 44
0.0
 50
0.0
 51
0.0
 71
     0
 72
   100
 73
     1
 74
     3
 75
     0
 76
     0
 77
     0
 78
     0
281
     0
 65
     1
110
0.0
120
0.0
130
0.0
111
1.0
121
0.0
131
0.0
112
0.0
122
1.0
132
0.0
 79
     0
146
0.0
  0
ENDTAB
  0
TABLE
  2
LTYPE
  5
5
330
0
100
AcDbSymbolTable
 70
     1
  0
LTYPE
  5
14
330
5
100
AcDbSymbolTableRecord
100
AcDbLinetypeTableRecord
  2
ByBlock
 70
     0
  3

 72
    65
 73
     0
 40
0.0
  0
LTYPE
  5
15
330
5
100
AcDbSymbolTableRecord
100
AcDbLinetypeTableRecord
  2
ByLayer
 70
     0
  3

 72
    65
 73
     0
 40
0.0
  0
LTYPE
  5
16
330
5
100
AcDbSymbolTableRecord
100
AcDbLinetypeTableRecord
  2
Continuous
 70
     0
  3
Solid line
 72
    65
 73
     0
 40
0.0
  0
ENDTAB
  0
TABLE
  2
LAYER
  5
2
330
0
100
AcDbSymbolTable
 70
     2
  0
LAYER
  5
10
330
2
100
AcDbSymbolTableRecord
100
AcDbLayerTableRecord
  2
0
 70
     0
 62
     7
  6
Continuous
370
    -3
390
F
  0
LAYER
  5
3B
330
2
100
AcDbSymbolTableRecord
100
AcDbLayerTableRecord
  2
Layer 1
 70
     0
 62
     7
  6
Continuous
370
    -3
390
F
  0
ENDTAB
  0
TABLE
  2
STYLE
  5
3
330
0
100
AcDbSymbolTable
 70
     1
  0
STYLE
  5
11
330
3
100
AcDbSymbolTableRecord
100
AcDbTextStyleTableRecord
  2
Standard
 70
     0
 40
0.0
 41
1.0
 50
0.0
 71
     0
 42
0.2
  3
txt
  4

  0
ENDTAB
  0
TABLE
  2
VIEW
  5
6
330
0
100
AcDbSymbolTable
 70
     0
  0
ENDTAB
  0
TABLE
  2
UCS
  5
7
330
0
100
AcDbSymbolTable
 70
     0
  0
ENDTAB
  0
TABLE
  2
APPID
  5
9
330
0
100
AcDbSymbolTable
 70
     1
  0
APPID
  5
12
330
9
100
AcDbSymbolTableRecord
100
AcDbRegAppTableRecord
  2
ACAD
 70
     0
  0
ENDTAB
  0
TABLE
  2
DIMSTYLE
  5
A
330
0
100
AcDbSymbolTable
 70
     1
100
AcDbDimStyleTable
  0
DIMSTYLE
105
27
330
A
100
AcDbSymbolTableRecord
100
AcDbDimStyleTableRecord
  2
Standard
 70
     0
340
11
  0
ENDTAB
  0
TABLE
  2
BLOCK_RECORD
  5
1
330
0
100
AcDbSymbolTable
 70
     6
  0
BLOCK_RECORD
  5
1F
330
1
100
AcDbSymbolTableRecord
100
AcDbBlockTableRecord
  2
*Model_Space
340
22
  0
BLOCK_RECORD
  5
1B
330
1
100
AcDbSymbolTableRecord
100
AcDbBlockTableRecord
  2
*Paper_Space
340
1E
  0
BLOCK_RECORD
  5
23
330
1
100
AcDbSymbolTableRecord
100
AcDbBlockTableRecord
  2
*Paper_Space0
340
26
  0
BLOCK_RECORD
  5
3C
330
1
100
AcDbSymbolTableRecord
100
AcDbBlockTableRecord
  2
block 2
340
0
102
{BLKREFS
331
3D
102
}
  0
BLOCK_RECORD
  5
134
330
1
100
AcDbSymbolTableRecord
100
AcDbBlockTableRecord
  2
block 3
340
0
102
{BLKREFS
331
135
102
}
  0
BLOCK_RECORD
  5
166
330
1
100
AcDbSymbolTableRecord
100
AcDbBlockTableRecord
  2
block 4
340
0
102
{BLKREFS
331
167
102
}
  0
BLOCK_RECORD
  5
198
330
1
100
AcDbSymbolTableRecord
100
AcDbBlockTableRecord
  2
block 5
340
0
102
{BLKREFS
331
199
102
}
  0
BLOCK_RECORD
  5
4EA
330
1
100
AcDbSymbolTableRecord
100
AcDbBlockTableRecord
  2
block 6
340
0
102
{BLKREFS
331
4EB
102
}
  0
ENDTAB
  0
ENDSEC
  0
SECTION
  2
BLOCKS
  0
BLOCK
  5
20
330
1F
100
AcDbEntity
  8
0
100
AcDbBlockBegin
  2
*Model_Space
 70
     0
 71
     0
 10
0.0
 20
0.0
 30
0.0
  3
*Model_Space
  1

  0
ENDBLK
  5
21
330
1F
100
AcDbEntity
  8
0
100
AcDbBlockEnd
  0
BLOCK
  5
1C
330
1B
100
AcDbEntity
 67
     1
  8
0
100
AcDbBlockBegin
  2
*Paper_Space
 70
     0
 71
     0
 10
0.0
 20
0.0
 30
0.0
  3
*Paper_Space
  1

  0
ENDBLK
  5
1D
330
1B
100
AcDbEntity
 67
     1
  8
0
100
AcDbBlockEnd
  0
BLOCK
  5
24
330
23
100
AcDbEntity
  8
0
100
AcDbBlockBegin
  2
*Paper_Space0
 70
     0
 71
     0
 10
0.0
 20
0.0
 30
0.0
  3
*Paper_Space0
  1

  0
ENDBLK
  5
25
330
23
100
AcDbEntity
  8
0
100
AcDbBlockEnd
  0
BLOCK
  5
3E
330
3C
100
AcDbEntity
  8
0
100
AcDbBlockBegin
  2
block 2
 70
     0
 71
     0
 10
0.0
 20
0.0
 30
0.0
  3
block 2
  1

  0
SPLINE
  5
40
330
3C
100
AcDbEntity
  8
Layer 1
 62
    28
420
  1118219
370
    35
100
AcDbSpline
210
0.0
220
0.0
230
1.0
 70
     8
 71
     3
 72
     8
 73
     4
 74
     0
 42
0.0000000001
 43
0.0000000001
 40
0.0
 40
0.0
 40
0.0
 40
0.0
 40
1.0
 40
1.0
 40
1.0
 40
1.0
 10
24.15992064825689
 20
12.39063042224956
 30
0.0
 10
24.13773423333188
 20
12.36596353857517
 30
0.0
 10
24.16725870164047
 20
12.39884697498188
 30
0.0
 10
24.14514118862517
 20
12.37416286583007
 30
0.0
  0
SPLINE
  5
41
330
3C
100
AcDbEntity
  8
Layer 1
 62
    28
420
  1118219
370
    35
100
AcDbSpline
210
0.0
220
0.0
230
1.0
 70
     8
 71
     3
 72
     8
 73
     4
 74
     0
 42
0.0000000001
 43
0.0000000001
 40
0.0
 40
0.0
 40
0.0
 40
0.0
 40
1.0
 40
1.0
 40
1.0
 40
1.0
 10
24.14204060268845
 20
12.4042385494163
 30
0.0
 10
24.16891234747339
 20
12.38384358414362
 30
0.0
 10
24.13304890347194
 20
12.41097371108996
 30
0.0
 10
24.15992064825689
 20
12.39061319677214
 30
0.0
  0
SPLINE
  5
42
330
3C
100
AcDbEntity
  8
Layer 1
 62
    28
420
  1118219
370
    35
100
AcDbSpline
210
0.0
220
0.0
230
1.0
 70
     8
 71
     3
 72
     8
 73
     4
 74
     0
 42
0.0000000001
 43
0.0000000001
 40
0.0
 40
0.0
 40
0.0
 40
0.0
 40
1.0
 40
1.0
 40
1.0
 40
1.0
 10
24.12853582838627
 20
12.39073377511412
 30
0.0
 10
24.14872408792983
 20
12.41090480918026
 30
0.0
 10
24.12185234314488
 20
12.38403306439531
 30
0.0
 10
24.1420750536433
 20
12.4042385494163
 30
0.0
  0
SPLINE
  5
43
330
3C
100
AcDbEntity
  8
Layer 1
 62
    28
420
  1118219
370
    35
100
AcDbSpline
210
0.0
220
0.0
230
1.0
 70
     8
 71
     3
 72
     8
 73
     4
 74
     0
 42
0.0000000001
 43
0.0000000001
 40
0.0
 40
0.0
 40
0.0
 40
0.0
 40
1.0
 40
1.0
 40
1.0
 40
1.0
 10
24.14204060268845
 20
12.52102728636627
 30
0.0
 10
24.12808796597318
 20
12.53608235363681
 30
0.0
 10
24.14662257968383
 20
12.51598022148038
 30
0.0
 10
24.13270439392342
 20
12.53105251422835
 30
0.0
  0
SPLINE
  5
44
330
3C
100
AcDbEntity
  8
Layer 1
 62
    28
420
  1118219
370
    35
100
AcDbSpline
210
0.0
220
0.0
230
1.0
 70
     8
 71
     3
 72
     8
 73
     4
 74
     0
 42
0.0000000001
 43
0.0000000001
 40
0.0
 40
0.0
 40
0.0
 40
0.0
 40
1.0
 40
1.0
 40
1.0
 40
1.0
 10
24.15992064825689
 20
12.53470431544271
 30
0.0
 10
24.13304890347194
 20
12.51417154635062
 30
0.0
 10
24.16891234747339
 20
12.54157728093579
 30
0.0
 10
24.14204060268845
 20
12.52102728636627
 30
0.0
  0
SPLINE
  5
45
330
3C
100
AcDbEntity
  8
Layer 1
 62
    28
420
  1118219
370
    35
100
AcDbSpline
210
0.0
220
0.0
230
1.0
 70
     8
 71
     3
 72
     8
 73
     4
 74
     0
 42
0.0000000001
 43
0.0000000001
 40
0.0
 40
0.0
 40
0.0
 40
0.0
 40
1.0
 40
1.0
 40
1.0
 40
1.0
 10
24.14913749938806
 20
12.54748561969299
 30
0.0
 10
24.16532944816873
 20
12.528330888795
 30
0.0
 10
24.14379760138592
 20
12.55387627181813
 30
0.0
 10
24.15992064825689
 20
12.53472154092014
 30
0.0
  0
SPLINE
  5
46
330
3C
100
AcDbEntity
  8
Layer 1
 62
    28
420
  1118219
370
    35
100
AcDbSpline
210
0.0
220
0.0
230
1.0
 70
     8
 71
     3
 72
    14
 73
    10
 74
     0
 42
0.0000000001
 43
0.0000000001
 40
0.0
 40
0.0
 40
0.0
 40
0.0
 40
1.0
 40
1.0
 40
1.0
 40
2.0
 40
2.0
 40
2.0
 40
3.0
 40
3.0
 40
3.0
 40
3.0
 10
24.06080525114626
 20
12.34284694786915
 30
0.0
 10
24.02129000593044
 20
12.34549967139279
 30
0.0
 10
24.0738966139902
 20
12.34115885108138
 30
0.0
 10
24.03445027068409
 20
12.34503458350228
 30
0.0
 10
23.97464341306016
 20
12.36267347238676
 30
0.0
 10
24.05281262962048
 20
12.3349404537305
 30
0.0
 10
23.99538288788136
 20
12.35890109283041
 30
0.0
 10
23.96499714570146
 20
12.38055351795521
 30
0.0
 10
24.00499470428521
 20
12.35089124582721
 30
0.0
 10
23.97536688311206
 20
12.37374945437184
 30
0.0
  0
SPLINE
  5
47
330
3C
100
AcDbEntity
  8
Layer 1
 62
    28
420
  1118219
370
    35
100
AcDbSpline
210
0.0
220
0.0
230
1.0
 70
     8
 71
     3
 72
    14
 73
    10
 74
     0
 42
0.0000000001
 43
0.0000000001
 40
0.0
 40
0.0
 40
0.0
 40
0.0
 40
1.0
 40
1.0
 40
1.0
 40
2.0
 40
2.0
 40
2.0
 40
3.0
 40
3.0
 40
3.0
 40
3.0
 10
24.14514118862517
 20
12.37416286583007
 30
0.0
 10
24.12257581319679
 20
12.35617946739707
 30
0.0
 10
24.15299600633154
 20
12.37977837147103
 30
0.0
 10
24.12991386658037
 20
12.36238063927052
 30
0.0
 10
24.07417222162902
 20
12.33511270850476
 30
0.0
 10
24.15027438089819
 20
12.36739325320155
 30
0.0
 10
24.09188001242321
 20
12.34625759239955
 30
0.0
 10
24.04533677241748
 20
12.34019422434551
 30
0.0
 10
24.1076240987908
 20
12.34696383697402
 30
0.0
 10
24.0607708001914
 20
12.34282972239172
 30
0.0
  0
SPLINE
  5
48
330
3C
100
AcDbEntity
  8
Layer 1
 62
    28
420
  1118219
370
    35
100
AcDbSpline
210
0.0
220
0.0
230
1.0
 70
     8
 71
     3
 72
    14
 73
    10
 74
     0
 42
0.0000000001
 43
0.0000000001
 40
0.0
 40
0.0
 40
0.0
 40
0.0
 40
1.0
 40
1.0
 40
1.0
 40
2.0
 40
2.0
 40
2.0
 40
3.0
 40
3.0
 40
3.0
 40
3.0
 10
23.93795314614225
 20
12.46394205417568
 30
0.0
 10
23.94629027721655
 20
12.52652221366524
 30
0.0
 10
23.93250989527555
 20
12.4438054710644
 30
0.0
 10
23.94484333711275
 20
12.50531765095353
 30
0.0
 10
23.97436780542134
 20
12.56155883475023
 30
0.0
 10
23.93089070039748
 20
12.48895344739859
 30
0.0
 10
23.96661634057952
 20
12.54159450641321
 30
0.0
 10
23.97471231496986
 20
12.55022447060376
 30
0.0
 10
23.96386026419133
 20
12.53880397907016
 30
0.0
 10
23.97199068953651
 20
12.5472961394413
 30
0.0
  0
SPLINE
  5
49
330
3C
100
AcDbEntity
  8
Layer 1
 62
    28
420
  1118219
370
    35
100
AcDbSpline
210
0.0
220
0.0
230
1.0
 70
     8
 71
     3
 72
    14
 73
    10
 74
     0
 42
0.0000000001
 43
0.0000000001
 40
0.0
 40
0.0
 40
0.0
 40
0.0
 40
1.0
 40
1.0
 40
1.0
 40
2.0
 40
2.0
 40
2.0
 40
3.0
 40
3.0
 40
3.0
 40
3.0
 10
23.96682304630864
 20
12.38270670263349
 30
0.0
 10
23.94711710013301
 20
12.40944064359903
 30
0.0
 10
23.97285196340783
 20
12.37338771934589
 30
0.0
 10
23.95404174205836
 20
12.40074177749877
 30
0.0
 10
23.93095960230719
 20
12.45400295370074
 30
0.0
 10
23.9580036018664
 20
12.38156982112336
 30
0.0
 10
23.94053696775618
 20
12.43693250557132
 30
0.0
 10
23.9359549907608
 20
12.47742960300043
 30
0.0
 10
23.94108818303382
 20
12.42334160388201
 30
0.0
 10
23.93795314614225
 20
12.46395927965311
 30
0.0
  0
SPLINE
  5
4A
330
3C
100
AcDbEntity
  8
Layer 1
 62
    28
420
  1118219
370
    35
100
AcDbSpline
210
0.0
220
0.0
230
1.0
 70
     8
 71
     3
 72
     8
 73
     4
 74
     0
 42
0.0000000001
 43
0.0000000001
 40
0.0
 40
0.0
 40
0.0
 40
0.0
 40
1.0
 40
1.0
 40
1.0
 40
1.0
 10
23.97536688311206
 20
12.37374945437184
 30
0.0
 10
23.96258557886178
 20
12.38718532676431
 30
0.0
 10
23.97967325246862
 20
12.36923637928616
 30
0.0
 10
23.96682304630864
 20
12.38270670263349
 30
0.0
  0
SPLINE
  5
4B
330
3C
100
AcDbEntity
  8
Layer 1
 62
    28
420
  1118219
370
    35
100
AcDbSpline
210
0.0
220
0.0
230
1.0
 70
     8
 71
     3
 72
    14
 73
    10
 74
     0
 42
0.0000000001
 43
0.0000000001
 40
0.0
 40
0.0
 40
0.0
 40
0.0
 40
1.0
 40
1.0
 40
1.0
 40
2.0
 40
2.0
 40
2.0
 40
3.0
 40
3.0
 40
3.0
 40
3.0
 10
24.06052964350744
 20
12.58234998600372
 30
0.0
 10
24.12853582838627
 20
12.57342718869692
 30
0.0
 10
24.03854993431154
 20
12.58817219737379
 30
0.0
 10
24.10548813958994
 20
12.57501193262014
 30
0.0
 10
24.15792249287545
 20
12.54943209864216
 30
0.0
 10
24.08995075895147
 20
12.58706976681851
 30
0.0
 10
24.13945678107451
 20
12.55616726031582
 30
0.0
 10
24.15409843688682
 20
12.54326537772356
 30
0.0
 10
24.13473700025972
 20
12.5606803354015
 30
0.0
 10
24.14913749938806
 20
12.54748561969299
 30
0.0
  0
SPLINE
  5
4C
330
3C
100
AcDbEntity
  8
Layer 1
 62
    28
420
  1118219
370
    35
100
AcDbSpline
210
0.0
220
0.0
230
1.0
 70
     8
 71
     3
 72
    14
 73
    10
 74
     0
 42
0.0000000001
 43
0.0000000001
 40
0.0
 40
0.0
 40
0.0
 40
0.0
 40
1.0
 40
1.0
 40
1.0
 40
2.0
 40
2.0
 40
2.0
 40
3.0
 40
3.0
 40
3.0
 40
3.0
 10
23.97199068953651
 20
12.54731336491873
 30
0.0
 10
24.00678615393754
 20
12.57571817719461
 30
0.0
 10
23.95962279674447
 20
12.53892455741214
 30
0.0
 10
23.99562404456533
 20
12.56569294933253
 30
0.0
 10
24.05146904238123
 20
12.58999809798097
 30
0.0
 10
23.97547023597662
 20
12.56164496213737
 30
0.0
 10
24.03358899681278
 20
12.57990396820919
 30
0.0
 10
24.07393106494506
 20
12.58427923947546
 30
0.0
 10
24.0200842225106
 20
12.57935275293155
 30
0.0
 10
24.06052964350744
 20
12.58234998600372
 30
0.0
  0
SPLINE
  5
4D
330
3C
100
AcDbEntity
  8
Layer 1
 62
    28
420
  1118219
370
    35
100
AcDbSpline
210
0.0
220
0.0
230
1.0
 70
     8
 71
     3
 72
    14
 73
    10
 74
     0
 42
0.0000000001
 43
0.0000000001
 40
0.0
 40
0.0
 40
0.0
 40
0.0
 40
1.0
 40
1.0
 40
1.0
 40
2.0
 40
2.0
 40
2.0
 40
3.0
 40
3.0
 40
3.0
 40
3.0
 10
23.95838256236978
 20
12.46235731025246
 30
0.0
 10
23.96516940047572
 20
12.41162827923216
 30
0.0
 10
23.95393838919381
 20
12.4787215138074
 30
0.0
 10
23.96399806801073
 20
12.42883653118098
 30
0.0
 10
23.98807928545263
 20
12.38329236886598
 30
0.0
 10
23.95252590004485
 20
12.44199679593464
 30
0.0
 10
23.98184366262433
 20
12.39948431764665
 30
0.0
 10
23.99638196557208
 20
12.38506659304089
 30
0.0
 10
23.97674492130616
 20
12.40404906916461
 30
0.0
 10
23.99162773380244
 20
12.38997585410737
 30
0.0
  0
SPLINE
  5
4E
330
3C
100
AcDbEntity
  8
Layer 1
 62
    28
420
  1118219
370
    35
100
AcDbSpline
210
0.0
220
0.0
230
1.0
 70
     8
 71
     3
 72
    14
 73
    10
 74
     0
 42
0.0000000001
 43
0.0000000001
 40
0.0
 40
0.0
 40
0.0
 40
0.0
 40
1.0
 40
1.0
 40
1.0
 40
2.0
 40
2.0
 40
2.0
 40
3.0
 40
3.0
 40
3.0
 40
3.0
 10
23.98770032494926
 20
12.53156927855114
 30
0.0
 10
23.95879597382801
 20
12.49632595173703
 30
0.0
 10
23.99586520124929
 20
12.54436780827884
 30
0.0
 10
23.96920016219346
 20
12.50753973754152
 30
0.0
 10
23.95235364527059
 20
12.46414875990479
 30
0.0
 10
23.9717150818977
 20
12.52318047104455
 30
0.0
 10
23.95951944387991
 20
12.47804972018778
 30
0.0
 10
23.95755573945332
 20
12.45451971802352
 30
0.0
 10
23.95979505151873
 20
12.48592176337157
 30
0.0
 10
23.95834811141492
 20
12.46235731025246
 30
0.0
  0
SPLINE
  5
4F
330
3C
100
AcDbEntity
  8
Layer 1
 62
    28
420
  1118219
370
    35
100
AcDbSpline
210
0.0
220
0.0
230
1.0
 70
     8
 71
     3
 72
    14
 73
    10
 74
     0
 42
0.0000000001
 43
0.0000000001
 40
0.0
 40
0.0
 40
0.0
 40
0.0
 40
1.0
 40
1.0
 40
1.0
 40
2.0
 40
2.0
 40
2.0
 40
3.0
 40
3.0
 40
3.0
 40
3.0
 10
24.13270439392342
 20
12.53105251422835
 30
0.0
 10
24.10738294210683
 20
12.55115464638478
 30
0.0
 10
24.14162719123022
 20
12.52502359712916
 30
0.0
 10
24.11561672031658
 20
12.54410942611744
 30
0.0
 10
24.06728203065853
 20
12.56565849837768
 30
0.0
 10
24.1330833544268
 20
12.54050930133536
 30
0.0
 10
24.08264715652274
 20
12.55677015202574
 30
0.0
 10
24.04757608448289
 20
12.56071478635635
 30
0.0
 10
24.09446383403715
 20
12.55623616222552
 30
0.0
 10
24.05922050722304
 20
12.55895778765887
 30
0.0
  0
SPLINE
  5
50
330
3C
100
AcDbEntity
  8
Layer 1
 62
    28
420
  1118219
370
    35
100
AcDbSpline
210
0.0
220
0.0
230
1.0
 70
     8
 71
     3
 72
    14
 73
    10
 74
     0
 42
0.0000000001
 43
0.0000000001
 40
0.0
 40
0.0
 40
0.0
 40
0.0
 40
1.0
 40
1.0
 40
1.0
 40
2.0
 40
2.0
 40
2.0
 40
3.0
 40
3.0
 40
3.0
 40
3.0
 10
24.05922050722304
 20
12.55895778765887
 30
0.0
 10
24.0042712342333
 20
12.55141302854617
 30
0.0
 10
24.07699719992693
 20
12.56372924490594
 30
0.0
 10
24.02290920080851
 20
12.55282551769513
 30
0.0
 10
23.97329982582091
 20
12.52777967351736
 30
0.0
 10
24.03748195471112
 20
12.56467664616438
 30
0.0
 10
23.99086981279568
 20
12.53437703137161
 30
0.0
 10
23.98618448293574
 20
12.53024291678931
 30
0.0
 10
23.99238565480919
 20
12.53573784408829
 30
0.0
 10
23.98773477590411
 20
12.53158650402856
 30
0.0
  0
SPLINE
  5
51
330
3C
100
AcDbEntity
  8
Layer 1
 62
    28
420
  1118219
370
    35
100
AcDbSpline
210
0.0
220
0.0
230
1.0
 70
     8
 71
     3
 72
    14
 73
    10
 74
     0
 42
0.0000000001
 43
0.0000000001
 40
0.0
 40
0.0
 40
0.0
 40
0.0
 40
1.0
 40
1.0
 40
1.0
 40
2.0
 40
2.0
 40
2.0
 40
3.0
 40
3.0
 40
3.0
 40
3.0
 10
24.06066744732685
 20
12.36623914621399
 30
0.0
 10
24.09553181363757
 20
12.3691330264216
 30
0.0
 10
24.04912637745126
 20
12.36441324560681
 30
0.0
 10
24.08381848898772
 20
12.36856458566654
 30
0.0
 10
24.13167086527784
 20
12.38472208349236
 30
0.0
 10
24.06921128413027
 20
12.35991739599856
 30
0.0
 10
24.11509995599379
 20
12.38098415489086
 30
0.0
 10
24.13549492126647
 20
12.39538465401921
 30
0.0
 10
24.10855427457182
 20
12.37579928618556
 30
0.0
 10
24.12853582838627
 20
12.39071654963669
 30
0.0
  0
SPLINE
  5
52
330
3C
100
AcDbEntity
  8
Layer 1
 62
    28
420
  1118219
370
    35
100
AcDbSpline
210
0.0
220
0.0
230
1.0
 70
     8
 71
     3
 72
    14
 73
    10
 74
     0
 42
0.0000000001
 43
0.0000000001
 40
0.0
 40
0.0
 40
0.0
 40
0.0
 40
1.0
 40
1.0
 40
1.0
 40
2.0
 40
2.0
 40
2.0
 40
3.0
 40
3.0
 40
3.0
 40
3.0
 10
23.99162773380244
 20
12.38997585410737
 30
0.0
 10
24.00926662268692
 20
12.37678113839886
 30
0.0
 10
23.98552991479355
 20
12.39404106677996
 30
0.0
 10
24.0034788622717
 20
12.38132866443939
 30
0.0
 10
24.04881631885759
 20
12.36041693484392
 30
0.0
 10
23.98704575680706
 20
12.38510104399574
 30
0.0
 10
24.03434691781954
 20
12.36890909521506
 30
0.0
 10
24.07365545730624
 20
12.36412041249057
 30
0.0
 10
24.02111775115618
 20
12.36954643787984
 30
0.0
 10
24.06063299637199
 20
12.36623914621399
 30
0.0
  0
POLYLINE
  5
53
330
3C
100
AcDbEntity
  8
Layer 1
 62
   250
420
  1842203
370
    18
100
AcDb2dPolyline
 66
     1
 10
0.0
 20
0.0
 30
0.0
  0
VERTEX
  5
54
330
53
100
AcDbEntity
  8
Layer 1
 62
   250
420
  1842203
370
    18
100
AcDbVertex
100
AcDb2dVertex
 10
24.05922050722304
 20
12.45880886190266
 30
0.0
  0
VERTEX
  5
55
330
53
100
AcDbEntity
  8
Layer 1
 62
   250
420
  1842203
370
    18
100
AcDbVertex
100
AcDb2dVertex
 10
24.05922050722304
 20
12.55373846799872
 30
0.0
  0
SEQEND
  5
56
330
53
100
AcDbEntity
  8
Layer 1
370
    18
  0
POLYLINE
  5
57
330
3C
100
AcDbEntity
  8
Layer 1
 62
   250
420
  1842203
370
    18
100
AcDb2dPolyline
 66
     1
 10
0.0
 20
0.0
 30
0.0
  0
VERTEX
  5
58
330
57
100
AcDbEntity
  8
Layer 1
 62
   250
420
  1842203
370
    18
100
AcDbVertex
100
AcDb2dVertex
 10
24.05922050722304
 20
12.45880886190266
 30
0.0
  0
VERTEX
  5
59
330
57
100
AcDbEntity
  8
Layer 1
 62
   250
420
  1842203
370
    18
100
AcDbVertex
100
AcDb2dVertex
 10
24.15413288784167
 20
12.45880886190266
 30
0.0
  0
SEQEND
  5
5A
330
57
100
AcDbEntity
  8
Layer 1
370
    18
  0
POLYLINE
  5
5B
330
3C
100
AcDbEntity
  8
Layer 1
 62
   250
420
  1842203
370
    18
100
AcDb2dPolyline
 66
     1
 10
0.0
 20
0.0
 30
0.0
  0
VERTEX
  5
5C
330
5B
100
AcDbEntity
  8
Layer 1
 62
   250
420
  1842203
370
    18
100
AcDbVertex
100
AcDb2dVertex
 10
24.05922050722304
 20
12.45880886190266
 30
0.0
  0
VERTEX
  5
5D
330
5B
100
AcDbEntity
  8
Layer 1
 62
   250
420
  1842203
370
    18
100
AcDbVertex
100
AcDb2dVertex
 10
24.05922050722304
 20
12.3639481577163
 30
0.0
  0
SEQEND
  5
5E
330
5B
100
AcDbEntity
  8
Layer 1
370
    18
  0
POLYLINE
  5
5F
330
3C
100
AcDbEntity
  8
Layer 1
 62
   250
420
  1842203
370
    18
100
AcDb2dPolyline
 66
     1
 10
0.0
 20
0.0
 30
0.0
  0
VERTEX
  5
60
330
5F
100
AcDbEntity
  8
Layer 1
 62
   250
420
  1842203
370
    18
100
AcDbVertex
100
AcDb2dVertex
 10
24.05922050722304
 20
12.45880886190266
 30
0.0
  0
VERTEX
  5
61
330
5F
100
AcDbEntity
  8
Layer 1
 62
   250
420
  1842203
370
    18
100
AcDbVertex
100
AcDb2dVertex
 10
23.96437702851411
 20
12.45880886190266
 30
0.0
  0
SEQEND
  5
62
330
5F
100
AcDbEntity
  8
Layer 1
370
    18
  0
POLYLINE
  5
63
330
3C
100
AcDbEntity
  8
Layer 1
370
     0
100
AcDb2dPolyline
 66
     1
 10
0.0
 20
0.0
 30
0.0
  0
VERTEX
  5
64
330
63
100
AcDbEntity
  8
Layer 1
370
     0
100
AcDbVertex
100
AcDb2dVertex
 10
12.13479763151491
 20
12.32596597999142
 30
0.0
  0
VERTEX
  5
65
330
63
100
AcDbEntity
  8
Layer 1
370
     0
100
AcDbVertex
100
AcDb2dVertex
 10
12.13479763151491
 20
12.11190497201543
 30
0.0
  0
SEQEND
  5
66
330
63
100
AcDbEntity
  8
Layer 1
370
     0
  0
POLYLINE
  5
67
330
3C
100
AcDbEntity
  8
Layer 1
 62
    28
420
  1118219
370
    35
100
AcDb2dPolyline
 66
     1
 10
0.0
 20
0.0
 30
0.0
  0
VERTEX
  5
68
330
67
100
AcDbEntity
  8
Layer 1
 62
    28
420
  1118219
370
    35
100
AcDbVertex
100
AcDb2dVertex
 10
12.13479763151491
 20
12.32596597999142
 30
0.0
  0
VERTEX
  5
69
330
67
100
AcDbEntity
  8
Layer 1
 62
    28
420
  1118219
370
    35
100
AcDbVertex
100
AcDb2dVertex
 10
12.13479763151491
 20
12.11190497201543
 30
0.0
  0
SEQEND
  5
6A
330
67
100
AcDbEntity
  8
Layer 1
370
    35
  0
POLYLINE
  5
6B
330
3C
100
AcDbEntity
  8
Layer 1
370
     0
100
AcDb2dPolyline
 66
     1
 10
0.0
 20
0.0
 30
0.0
  0
VERTEX
  5
6C
330
6B
100
AcDbEntity
  8
Layer 1
370
     0
100
AcDbVertex
100
AcDb2dVertex
 10
12.39319701838608
 20
11.2982939967414
 30
0.0
  0
VERTEX
  5
7DC
330
6B
100
AcDbEntity
  8
0
100
AcDbVertex
100
AcDb2dVertex
 10
12.39319701838608
 20
11.2982939967414
 30
0.0
  0
SEQEND
  5
6D
330
6B
100
AcDbEntity
  8
Layer 1
370
     0
  0
POLYLINE
  5
6E
330
3C
100
AcDbEntity
  8
Layer 1
 62
    28
420
  1118219
370
    35
100
AcDb2dPolyline
 66
     1
 10
0.0
 20
0.0
 30
0.0
  0
VERTEX
  5
6F
330
6E
100
AcDbEntity
  8
Layer 1
 62
    28
420
  1118219
370
    35
100
AcDbVertex
100
AcDb2dVertex
 10
12.39319701838608
 20
11.2982939967414
 30
0.0
  0
VERTEX
  5
70
330
6E
100
AcDbEntity
  8
Layer 1
 62
    28
420
  1118219
370
    35
100
AcDbVertex
100
AcDb2dVertex
 10
12.39319701838608
 20
11.2982939967414
 30
0.0
  0
SEQEND
  5
71
330
6E
100
AcDbEntity
  8
Layer 1
370
    35
  0
POLYLINE
  5
72
330
3C
100
AcDbEntity
  8
Layer 1
370
     0
100
AcDb2dPolyline
 66
     1
 10
0.0
 20
0.0
 30
0.0
  0
VERTEX
  5
73
330
72
100
AcDbEntity
  8
Layer 1
370
     0
100
AcDbVertex
100
AcDb2dVertex
 10
12.78073580952183
 20
11.2982939967414
 30
0.0
  0
VERTEX
  5
7DD
330
72
100
AcDbEntity
  8
0
100
AcDbVertex
100
AcDb2dVertex
 10
12.78073580952183
 20
11.2982939967414
 30
0.0
  0
SEQEND
  5
74
330
72
100
AcDbEntity
  8
Layer 1
370
     0
  0
POLYLINE
  5
75
330
3C
100
AcDbEntity
  8
Layer 1
 62
    28
420
  1118219
370
    35
100
AcDb2dPolyline
 66
     1
 10
0.0
 20
0.0
 30
0.0
  0
VERTEX
  5
76
330
75
100
AcDbEntity
  8
Layer 1
 62
    28
420
  1118219
370
    35
100
AcDbVertex
100
AcDb2dVertex
 10
12.78073580952183
 20
11.2982939967414
 30
0.0
  0
VERTEX
  5
77
330
75
100
AcDbEntity
  8
Layer 1
 62
    28
420
  1118219
370
    35
100
AcDbVertex
100
AcDb2dVertex
 10
12.78073580952183
 20
11.2982939967414
 30
0.0
  0
SEQEND
  5
78
330
75
100
AcDbEntity
  8
Layer 1
370
    35
  0
POLYLINE
  5
79
330
3C
100
AcDbEntity
  8
Layer 1
370
     0
100
AcDb2dPolyline
 66
     1
 10
0.0
 20
0.0
 30
0.0
  0
VERTEX
  5
7A
330
79
100
AcDbEntity
  8
Layer 1
370
     0
100
AcDbVertex
100
AcDb2dVertex
 10
12.13479763151491
 20
12.71133436097147
 30
0.0
  0
VERTEX
  5
7B
330
79
100
AcDbEntity
  8
Layer 1
370
     0
100
AcDbVertex
100
AcDb2dVertex
 10
12.13479763151491
 20
12.32596597999142
 30
0.0
  0
SEQEND
  5
7C
330
79
100
AcDbEntity
  8
Layer 1
370
     0
  0
POLYLINE
  5
7D
330
3C
100
AcDbEntity
  8
Layer 1
 62
    28
420
  1118219
370
    35
100
AcDb2dPolyline
 66
     1
 10
0.0
 20
0.0
 30
0.0
  0
VERTEX
  5
7E
330
7D
100
AcDbEntity
  8
Layer 1
 62
    28
420
  1118219
370
    35
100
AcDbVertex
100
AcDb2dVertex
 10
12.13479763151491
 20
12.71133436097147
 30
0.0
  0
VERTEX
  5
7F
330
7D
100
AcDbEntity
  8
Layer 1
 62
    28
420
  1118219
370
    35
100
AcDbVertex
100
AcDb2dVertex
 10
12.13479763151491
 20
12.32596597999142
 30
0.0
  0
SEQEND
  5
80
330
7D
100
AcDbEntity
  8
Layer 1
370
    35
  0
POLYLINE
  5
81
330
3C
100
AcDbEntity
  8
Layer 1
370
     0
100
AcDb2dPolyline
 66
     1
 10
0.0
 20
0.0
 30
0.0
  0
VERTEX
  5
82
330
81
100
AcDbEntity
  8
Layer 1
370
     0
100
AcDbVertex
100
AcDb2dVertex
 10
12.22095946960101
 20
12.111887746538
 30
0.0
  0
VERTEX
  5
83
330
81
100
AcDbEntity
  8
Layer 1
370
     0
100
AcDbVertex
100
AcDb2dVertex
 10
12.73770656691106
 20
12.111887746538
 30
0.0
  0
SEQEND
  5
84
330
81
100
AcDbEntity
  8
Layer 1
370
     0
  0
POLYLINE
  5
85
330
3C
100
AcDbEntity
  8
Layer 1
 62
    28
420
  1118219
370
    35
100
AcDb2dPolyline
 66
     1
 10
0.0
 20
0.0
 30
0.0
  0
VERTEX
  5
86
330
85
100
AcDbEntity
  8
Layer 1
 62
    28
420
  1118219
370
    35
100
AcDbVertex
100
AcDb2dVertex
 10
12.22095946960101
 20
12.111887746538
 30
0.0
  0
VERTEX
  5
87
330
85
100
AcDbEntity
  8
Layer 1
 62
    28
420
  1118219
370
    35
100
AcDbVertex
100
AcDb2dVertex
 10
12.73770656691106
 20
12.111887746538
 30
0.0
  0
SEQEND
  5
88
330
85
100
AcDbEntity
  8
Layer 1
370
    35
  0
POLYLINE
  5
89
330
3C
100
AcDbEntity
  8
Layer 1
370
     0
100
AcDb2dPolyline
 66
     1
 10
0.0
 20
0.0
 30
0.0
  0
VERTEX
  5
8A
330
89
100
AcDbEntity
  8
Layer 1
370
     0
100
AcDbVertex
100
AcDb2dVertex
 10
12.13479763151491
 20
12.71133436097147
 30
0.0
  0
VERTEX
  5
8B
330
89
100
AcDbEntity
  8
Layer 1
370
     0
100
AcDbVertex
100
AcDb2dVertex
 10
12.13479763151491
 20
12.88260728302067
 30
0.0
  0
SEQEND
  5
8C
330
89
100
AcDbEntity
  8
Layer 1
370
     0
  0
POLYLINE
  5
8D
330
3C
100
AcDbEntity
  8
Layer 1
 62
    28
420
  1118219
370
    35
100
AcDb2dPolyline
 66
     1
 10
0.0
 20
0.0
 30
0.0
  0
VERTEX
  5
8E
330
8D
100
AcDbEntity
  8
Layer 1
 62
    28
420
  1118219
370
    35
100
AcDbVertex
100
AcDb2dVertex
 10
12.13479763151491
 20
12.71133436097147
 30
0.0
  0
VERTEX
  5
8F
330
8D
100
AcDbEntity
  8
Layer 1
 62
    28
420
  1118219
370
    35
100
AcDbVertex
100
AcDb2dVertex
 10
12.13479763151491
 20
12.88260728302067
 30
0.0
  0
SEQEND
  5
90
330
8D
100
AcDbEntity
  8
Layer 1
370
    35
  0
POLYLINE
  5
91
330
3C
100
AcDbEntity
  8
Layer 1
370
     0
100
AcDb2dPolyline
 66
     1
 10
0.0
 20
0.0
 30
0.0
  0
VERTEX
  5
92
330
91
100
AcDbEntity
  8
Layer 1
370
     0
100
AcDbVertex
100
AcDb2dVertex
 10
12.73770656691106
 20
12.92544704537975
 30
0.0
  0
VERTEX
  5
93
330
91
100
AcDbEntity
  8
Layer 1
370
     0
100
AcDbVertex
100
AcDb2dVertex
 10
12.78073580952183
 20
12.92544704537975
 30
0.0
  0
SEQEND
  5
94
330
91
100
AcDbEntity
  8
Layer 1
370
     0
  0
POLYLINE
  5
95
330
3C
100
AcDbEntity
  8
Layer 1
 62
    28
420
  1118219
370
    35
100
AcDb2dPolyline
 66
     1
 10
0.0
 20
0.0
 30
0.0
  0
VERTEX
  5
96
330
95
100
AcDbEntity
  8
Layer 1
 62
    28
420
  1118219
370
    35
100
AcDbVertex
100
AcDb2dVertex
 10
12.73770656691106
 20
12.92544704537975
 30
0.0
  0
VERTEX
  5
97
330
95
100
AcDbEntity
  8
Layer 1
 62
    28
420
  1118219
370
    35
100
AcDbVertex
100
AcDb2dVertex
 10
12.78073580952183
 20
12.92544704537975
 30
0.0
  0
SEQEND
  5
98
330
95
100
AcDbEntity
  8
Layer 1
370
    35
  0
POLYLINE
  5
99
330
3C
100
AcDbEntity
  8
Layer 1
370
     0
100
AcDb2dPolyline
 66
     1
 10
0.0
 20
0.0
 30
0.0
  0
VERTEX
  5
9A
330
99
100
AcDbEntity
  8
Layer 1
370
     0
100
AcDbVertex
100
AcDb2dVertex
 10
12.22095946960101
 20
12.92544704537975
 30
0.0
  0
VERTEX
  5
9B
330
99
100
AcDbEntity
  8
Layer 1
370
     0
100
AcDbVertex
100
AcDb2dVertex
 10
12.73770656691106
 20
12.92544704537975
 30
0.0
  0
SEQEND
  5
9C
330
99
100
AcDbEntity
  8
Layer 1
370
     0
  0
POLYLINE
  5
9D
330
3C
100
AcDbEntity
  8
Layer 1
 62
    28
420
  1118219
370
    35
100
AcDb2dPolyline
 66
     1
 10
0.0
 20
0.0
 30
0.0
  0
VERTEX
  5
9E
330
9D
100
AcDbEntity
  8
Layer 1
 62
    28
420
  1118219
370
    35
100
AcDbVertex
100
AcDb2dVertex
 10
12.22095946960101
 20
12.92544704537975
 30
0.0
  0
VERTEX
  5
9F
330
9D
100
AcDbEntity
  8
Layer 1
 62
    28
420
  1118219
370
    35
100
AcDbVertex
100
AcDb2dVertex
 10
12.73770656691106
 20
12.92544704537975
 30
0.0
  0
SEQEND
  5
A0
330
9D
100
AcDbEntity
  8
Layer 1
370
    35
  0
POLYLINE
  5
A1
330
3C
100
AcDbEntity
  8
Layer 1
370
     0
100
AcDb2dPolyline
 66
     1
 10
0.0
 20
0.0
 30
0.0
  0
VERTEX
  5
A2
330
A1
100
AcDbEntity
  8
Layer 1
370
     0
100
AcDbVertex
100
AcDb2dVertex
 10
12.82381672856488
 20
12.15471028341966
 30
0.0
  0
VERTEX
  5
A3
330
A1
100
AcDbEntity
  8
Layer 1
370
     0
100
AcDbVertex
100
AcDb2dVertex
 10
12.82381672856488
 20
12.88262450849809
 30
0.0
  0
SEQEND
  5
A4
330
A1
100
AcDbEntity
  8
Layer 1
370
     0
  0
POLYLINE
  5
A5
330
3C
100
AcDbEntity
  8
Layer 1
 62
    28
420
  1118219
370
    35
100
AcDb2dPolyline
 66
     1
 10
0.0
 20
0.0
 30
0.0
  0
VERTEX
  5
A6
330
A5
100
AcDbEntity
  8
Layer 1
 62
    28
420
  1118219
370
    35
100
AcDbVertex
100
AcDb2dVertex
 10
12.82381672856488
 20
12.15471028341966
 30
0.0
  0
VERTEX
  5
A7
330
A5
100
AcDbEntity
  8
Layer 1
 62
    28
420
  1118219
370
    35
100
AcDbVertex
100
AcDb2dVertex
 10
12.82381672856488
 20
12.88262450849809
 30
0.0
  0
SEQEND
  5
A8
330
A5
100
AcDbEntity
  8
Layer 1
370
    35
  0
POLYLINE
  5
A9
330
3C
100
AcDbEntity
  8
Layer 1
370
     0
100
AcDb2dPolyline
 66
     1
 10
0.0
 20
0.0
 30
0.0
  0
VERTEX
  5
AA
330
A9
100
AcDbEntity
  8
Layer 1
370
     0
100
AcDbVertex
100
AcDb2dVertex
 10
12.17787855055796
 20
12.92544704537975
 30
0.0
  0
VERTEX
  5
AB
330
A9
100
AcDbEntity
  8
Layer 1
370
     0
100
AcDbVertex
100
AcDb2dVertex
 10
12.13479763151491
 20
12.88262450849809
 30
0.0
  0
SEQEND
  5
AC
330
A9
100
AcDbEntity
  8
Layer 1
370
     0
  0
POLYLINE
  5
AD
330
3C
100
AcDbEntity
  8
Layer 1
 62
    28
420
  1118219
370
    35
100
AcDb2dPolyline
 66
     1
 10
0.0
 20
0.0
 30
0.0
  0
VERTEX
  5
AE
330
AD
100
AcDbEntity
  8
Layer 1
 62
    28
420
  1118219
370
    35
100
AcDbVertex
100
AcDb2dVertex
 10
12.17787855055796
 20
12.92544704537975
 30
0.0
  0
VERTEX
  5
AF
330
AD
100
AcDbEntity
  8
Layer 1
 62
    28
420
  1118219
370
    35
100
AcDbVertex
100
AcDb2dVertex
 10
12.13479763151491
 20
12.88262450849809
 30
0.0
  0
SEQEND
  5
B0
330
AD
100
AcDbEntity
  8
Layer 1
370
    35
  0
POLYLINE
  5
B1
330
3C
100
AcDbEntity
  8
Layer 1
370
     0
100
AcDb2dPolyline
 66
     1
 10
0.0
 20
0.0
 30
0.0
  0
VERTEX
  5
B2
330
B1
100
AcDbEntity
  8
Layer 1
370
     0
100
AcDbVertex
100
AcDb2dVertex
 10
12.78073580952183
 20
12.111887746538
 30
0.0
  0
VERTEX
  5
B3
330
B1
100
AcDbEntity
  8
Layer 1
370
     0
100
AcDbVertex
100
AcDb2dVertex
 10
12.82381672856488
 20
12.15471028341966
 30
0.0
  0
SEQEND
  5
B4
330
B1
100
AcDbEntity
  8
Layer 1
370
     0
  0
POLYLINE
  5
B5
330
3C
100
AcDbEntity
  8
Layer 1
 62
    28
420
  1118219
370
    35
100
AcDb2dPolyline
 66
     1
 10
0.0
 20
0.0
 30
0.0
  0
VERTEX
  5
B6
330
B5
100
AcDbEntity
  8
Layer 1
 62
    28
420
  1118219
370
    35
100
AcDbVertex
100
AcDb2dVertex
 10
12.78073580952183
 20
12.111887746538
 30
0.0
  0
VERTEX
  5
B7
330
B5
100
AcDbEntity
  8
Layer 1
 62
    28
420
  1118219
370
    35
100
AcDbVertex
100
AcDb2dVertex
 10
12.82381672856488
 20
12.15471028341966
 30
0.0
  0
SEQEND
  5
B8
330
B5
100
AcDbEntity
  8
Layer 1
370
    35
  0
POLYLINE
  5
B9
330
3C
100
AcDbEntity
  8
Layer 1
370
     0
100
AcDb2dPolyline
 66
     1
 10
0.0
 20
0.0
 30
0.0
  0
VERTEX
  5
BA
330
B9
100
AcDbEntity
  8
Layer 1
370
     0
100
AcDbVertex
100
AcDb2dVertex
 10
12.17787855055796
 20
12.92544704537975
 30
0.0
  0
VERTEX
  5
BB
330
B9
100
AcDbEntity
  8
Layer 1
370
     0
100
AcDbVertex
100
AcDb2dVertex
 10
12.22095946960101
 20
12.92544704537975
 30
0.0
  0
SEQEND
  5
BC
330
B9
100
AcDbEntity
  8
Layer 1
370
     0
  0
POLYLINE
  5
BD
330
3C
100
AcDbEntity
  8
Layer 1
 62
    28
420
  1118219
370
    35
100
AcDb2dPolyline
 66
     1
 10
0.0
 20
0.0
 30
0.0
  0
VERTEX
  5
BE
330
BD
100
AcDbEntity
  8
Layer 1
 62
    28
420
  1118219
370
    35
100
AcDbVertex
100
AcDb2dVertex
 10
12.17787855055796
 20
12.92544704537975
 30
0.0
  0
VERTEX
  5
BF
330
BD
100
AcDbEntity
  8
Layer 1
 62
    28
420
  1118219
370
    35
100
AcDbVertex
100
AcDb2dVertex
 10
12.22095946960101
 20
12.92544704537975
 30
0.0
  0
SEQEND
  5
C0
330
BD
100
AcDbEntity
  8
Layer 1
370
    35
  0
POLYLINE
  5
C1
330
3C
100
AcDbEntity
  8
Layer 1
370
     0
100
AcDb2dPolyline
 66
     1
 10
0.0
 20
0.0
 30
0.0
  0
VERTEX
  5
C2
330
C1
100
AcDbEntity
  8
Layer 1
370
     0
100
AcDbVertex
100
AcDb2dVertex
 10
12.73770656691106
 20
12.111887746538
 30
0.0
  0
VERTEX
  5
C3
330
C1
100
AcDbEntity
  8
Layer 1
370
     0
100
AcDbVertex
100
AcDb2dVertex
 10
12.78073580952183
 20
12.111887746538
 30
0.0
  0
SEQEND
  5
C4
330
C1
100
AcDbEntity
  8
Layer 1
370
     0
  0
POLYLINE
  5
C5
330
3C
100
AcDbEntity
  8
Layer 1
 62
    28
420
  1118219
370
    35
100
AcDb2dPolyline
 66
     1
 10
0.0
 20
0.0
 30
0.0
  0
VERTEX
  5
C6
330
C5
100
AcDbEntity
  8
Layer 1
 62
    28
420
  1118219
370
    35
100
AcDbVertex
100
AcDb2dVertex
 10
12.73770656691106
 20
12.111887746538
 30
0.0
  0
VERTEX
  5
C7
330
C5
100
AcDbEntity
  8
Layer 1
 62
    28
420
  1118219
370
    35
100
AcDbVertex
100
AcDb2dVertex
 10
12.78073580952183
 20
12.111887746538
 30
0.0
  0
SEQEND
  5
C8
330
C5
100
AcDbEntity
  8
Layer 1
370
    35
  0
POLYLINE
  5
C9
330
3C
100
AcDbEntity
  8
Layer 1
370
     0
100
AcDb2dPolyline
 66
     1
 10
0.0
 20
0.0
 30
0.0
  0
VERTEX
  5
CA
330
C9
100
AcDbEntity
  8
Layer 1
370
     0
100
AcDbVertex
100
AcDb2dVertex
 10
12.17787855055796
 20
12.111887746538
 30
0.0
  0
VERTEX
  5
CB
330
C9
100
AcDbEntity
  8
Layer 1
370
     0
100
AcDbVertex
100
AcDb2dVertex
 10
12.13479763151491
 20
12.111887746538
 30
0.0
  0
SEQEND
  5
CC
330
C9
100
AcDbEntity
  8
Layer 1
370
     0
  0
POLYLINE
  5
CD
330
3C
100
AcDbEntity
  8
Layer 1
 62
    28
420
  1118219
370
    35
100
AcDb2dPolyline
 66
     1
 10
0.0
 20
0.0
 30
0.0
  0
VERTEX
  5
CE
330
CD
100
AcDbEntity
  8
Layer 1
 62
    28
420
  1118219
370
    35
100
AcDbVertex
100
AcDb2dVertex
 10
12.17787855055796
 20
12.111887746538
 30
0.0
  0
VERTEX
  5
CF
330
CD
100
AcDbEntity
  8
Layer 1
 62
    28
420
  1118219
370
    35
100
AcDbVertex
100
AcDb2dVertex
 10
12.13479763151491
 20
12.111887746538
 30
0.0
  0
SEQEND
  5
D0
330
CD
100
AcDbEntity
  8
Layer 1
370
    35
  0
SPLINE
  5
D1
330
3C
100
AcDbEntity
  8
Layer 1
 62
    28
420
  1118219
370
    35
100
AcDbSpline
210
0.0
220
0.0
230
1.0
 70
    11
 71
     3
 72
    17
 73
    13
 74
     0
 42
0.0000000001
 43
0.0000000001
 40
0.0
 40
0.0
 40
0.0
 40
0.0
 40
1.0
 40
1.0
 40
1.0
 40
2.0
 40
2.0
 40
2.0
 40
3.0
 40
3.0
 40
3.0
 40
4.0
 40
4.0
 40
4.0
 40
4.0
 10
12.78073580952183
 20
12.49725612751805
 30
0.0
 10
12.78073580952183
 20
12.41162827923216
 30
0.0
 10
12.72340942064727
 20
12.31173773563734
 30
0.0
 10
12.61137491546695
 20
12.31173773563734
 30
0.0
 10
12.50817708020629
 20
12.31173773563734
 30
0.0
 10
12.43627793742912
 20
12.41162827923216
 30
0.0
 10
12.43627793742912
 20
12.49725612751805
 30
0.0
 10
12.43627793742912
 20
12.62574096364044
 30
0.0
 10
12.52073445325002
 20
12.69266194344142
 30
0.0
 10
12.60689629133612
 20
12.69266194344142
 30
0.0
 10
12.7099735482548
 20
12.69266194344142
 30
0.0
 10
12.78073580952183
 20
12.62574096364044
 30
0.0
 10
12.78073580952183
 20
12.49725612751805
 30
0.0
  0
POLYLINE
  5
D2
330
3C
100
AcDbEntity
  8
Layer 1
370
     0
100
AcDb2dPolyline
 66
     1
 10
0.0
 20
0.0
 30
0.0
  0
VERTEX
  5
D3
330
D2
100
AcDbEntity
  8
Layer 1
370
     0
100
AcDbVertex
100
AcDb2dVertex
 10
12.78073580952183
 20
12.92544704537975
 30
0.0
  0
VERTEX
  5
D4
330
D2
100
AcDbEntity
  8
Layer 1
370
     0
100
AcDbVertex
100
AcDb2dVertex
 10
12.82381672856488
 20
12.88262450849809
 30
0.0
  0
SEQEND
  5
D5
330
D2
100
AcDbEntity
  8
Layer 1
370
     0
  0
POLYLINE
  5
D6
330
3C
100
AcDbEntity
  8
Layer 1
 62
    28
420
  1118219
370
    35
100
AcDb2dPolyline
 66
     1
 10
0.0
 20
0.0
 30
0.0
  0
VERTEX
  5
D7
330
D6
100
AcDbEntity
  8
Layer 1
 62
    28
420
  1118219
370
    35
100
AcDbVertex
100
AcDb2dVertex
 10
12.78073580952183
 20
12.92544704537975
 30
0.0
  0
VERTEX
  5
D8
330
D6
100
AcDbEntity
  8
Layer 1
 62
    28
420
  1118219
370
    35
100
AcDbVertex
100
AcDb2dVertex
 10
12.82381672856488
 20
12.88262450849809
 30
0.0
  0
SEQEND
  5
D9
330
D6
100
AcDbEntity
  8
Layer 1
370
    35
  0
POLYLINE
  5
DA
330
3C
100
AcDbEntity
  8
Layer 1
370
     0
100
AcDb2dPolyline
 66
     1
 10
0.0
 20
0.0
 30
0.0
  0
VERTEX
  5
DB
330
DA
100
AcDbEntity
  8
Layer 1
370
     0
100
AcDbVertex
100
AcDb2dVertex
 10
12.17787855055796
 20
12.111887746538
 30
0.0
  0
VERTEX
  5
DC
330
DA
100
AcDbEntity
  8
Layer 1
370
     0
100
AcDbVertex
100
AcDb2dVertex
 10
12.22095946960101
 20
12.111887746538
 30
0.0
  0
SEQEND
  5
DD
330
DA
100
AcDbEntity
  8
Layer 1
370
     0
  0
POLYLINE
  5
DE
330
3C
100
AcDbEntity
  8
Layer 1
 62
    28
420
  1118219
370
    35
100
AcDb2dPolyline
 66
     1
 10
0.0
 20
0.0
 30
0.0
  0
VERTEX
  5
DF
330
DE
100
AcDbEntity
  8
Layer 1
 62
    28
420
  1118219
370
    35
100
AcDbVertex
100
AcDb2dVertex
 10
12.17787855055796
 20
12.111887746538
 30
0.0
  0
VERTEX
  5
E0
330
DE
100
AcDbEntity
  8
Layer 1
 62
    28
420
  1118219
370
    35
100
AcDbVertex
100
AcDb2dVertex
 10
12.22095946960101
 20
12.111887746538
 30
0.0
  0
SEQEND
  5
E1
330
DE
100
AcDbEntity
  8
Layer 1
370
    35
  0
POLYLINE
  5
E2
330
3C
100
AcDbEntity
  8
Layer 1
 62
   250
420
  1842203
370
    18
100
AcDb2dPolyline
 66
     1
 10
0.0
 20
0.0
 30
0.0
  0
VERTEX
  5
E3
330
E2
100
AcDbEntity
  8
Layer 1
 62
   250
420
  1842203
370
    18
100
AcDbVertex
100
AcDb2dVertex
 10
24.06259670079859
 20
12.64866807409478
 30
0.0
  0
VERTEX
  5
E4
330
E2
100
AcDbEntity
  8
Layer 1
 62
   250
420
  1842203
370
    18
100
AcDbVertex
100
AcDb2dVertex
 10
24.06259670079859
 20
13.98770778730168
 30
0.0
  0
SEQEND
  5
E5
330
E2
100
AcDbEntity
  8
Layer 1
370
    18
  0
POLYLINE
  5
E6
330
3C
100
AcDbEntity
  8
Layer 1
 62
   250
420
  1842203
370
    18
100
AcDb2dPolyline
 66
     1
 10
0.0
 20
0.0
 30
0.0
  0
VERTEX
  5
E7
330
E6
100
AcDbEntity
  8
Layer 1
 62
   250
420
  1842203
370
    18
100
AcDbVertex
100
AcDb2dVertex
 10
25.26424600605373
 20
12.47133178399154
 30
0.0
  0
VERTEX
  5
E8
330
E6
100
AcDbEntity
  8
Layer 1
 62
   250
420
  1842203
370
    18
100
AcDbVertex
100
AcDb2dVertex
 10
26.55973971232708
 20
12.47133178399154
 30
0.0
  0
SEQEND
  5
E9
330
E6
100
AcDbEntity
  8
Layer 1
370
    18
  0
POLYLINE
  5
EA
330
3C
100
AcDbEntity
  8
Layer 1
 62
   250
420
  1842203
370
    18
100
AcDb2dPolyline
 66
     1
 10
0.0
 20
0.0
 30
0.0
  0
VERTEX
  5
EB
330
EA
100
AcDbEntity
  8
Layer 1
 62
   250
420
  1842203
370
    18
100
AcDbVertex
100
AcDb2dVertex
 10
24.06259670079859
 20
12.26898410066539
 30
0.0
  0
VERTEX
  5
EC
330
EA
100
AcDbEntity
  8
Layer 1
 62
   250
420
  1842203
370
    18
100
AcDbVertex
100
AcDb2dVertex
 10
24.06259670079859
 20
11.00158514807426
 30
0.0
  0
SEQEND
  5
ED
330
EA
100
AcDbEntity
  8
Layer 1
370
    18
  0
POLYLINE
  5
EE
330
3C
100
AcDbEntity
  8
Layer 1
 62
   250
420
  1842203
370
    18
100
AcDb2dPolyline
 66
     1
 10
0.0
 20
0.0
 30
0.0
  0
VERTEX
  5
EF
330
EE
100
AcDbEntity
  8
Layer 1
 62
   250
420
  1842203
370
    18
100
AcDbVertex
100
AcDb2dVertex
 10
23.87277193956132
 20
12.45880886190266
 30
0.0
  0
VERTEX
  5
F0
330
EE
100
AcDbEntity
  8
Layer 1
 62
   250
420
  1842203
370
    18
100
AcDbVertex
100
AcDb2dVertex
 10
22.57617580273269
 20
12.45894666572207
 30
0.0
  0
SEQEND
  5
F1
330
EE
100
AcDbEntity
  8
Layer 1
370
    18
  0
POLYLINE
  5
F2
330
3C
100
AcDbEntity
  8
Layer 1
370
     0
100
AcDb2dPolyline
 66
     1
 10
0.0
 20
0.0
 30
0.0
  0
VERTEX
  5
F3
330
F2
100
AcDbEntity
  8
Layer 1
370
     0
100
AcDbVertex
100
AcDb2dVertex
 10
26.25457315424365
 20
12.65771144974356
 30
0.0
  0
VERTEX
  5
F4
330
F2
100
AcDbEntity
  8
Layer 1
370
     0
100
AcDbVertex
100
AcDb2dVertex
 10
24.45706013385969
 20
12.56238565766669
 30
0.0
  0
SEQEND
  5
F5
330
F2
100
AcDbEntity
  8
Layer 1
370
     0
  0
POLYLINE
  5
F6
330
3C
100
AcDbEntity
  8
Layer 1
 62
    28
420
  1118219
370
    35
100
AcDb2dPolyline
 66
     1
 10
0.0
 20
0.0
 30
0.0
  0
VERTEX
  5
F7
330
F6
100
AcDbEntity
  8
Layer 1
 62
    28
420
  1118219
370
    35
100
AcDbVertex
100
AcDb2dVertex
 10
26.25457315424365
 20
12.65771144974356
 30
0.0
  0
VERTEX
  5
F8
330
F6
100
AcDbEntity
  8
Layer 1
 62
    28
420
  1118219
370
    35
100
AcDbVertex
100
AcDb2dVertex
 10
24.45706013385969
 20
12.56238565766669
 30
0.0
  0
SEQEND
  5
F9
330
F6
100
AcDbEntity
  8
Layer 1
370
    35
  0
POLYLINE
  5
FA
330
3C
100
AcDbEntity
  8
Layer 1
370
     0
100
AcDb2dPolyline
 66
     1
 10
0.0
 20
0.0
 30
0.0
  0
VERTEX
  5
FB
330
FA
100
AcDbEntity
  8
Layer 1
370
     0
100
AcDbVertex
100
AcDb2dVertex
 10
24.47080606484584
 20
12.35678235910698
 30
0.0
  0
VERTEX
  5
FC
330
FA
100
AcDbEntity
  8
Layer 1
370
     0
100
AcDbVertex
100
AcDb2dVertex
 10
26.25457315424365
 20
12.2701726586078
 30
0.0
  0
SEQEND
  5
FD
330
FA
100
AcDbEntity
  8
Layer 1
370
     0
  0
POLYLINE
  5
FE
330
3C
100
AcDbEntity
  8
Layer 1
 62
    28
420
  1118219
370
    35
100
AcDb2dPolyline
 66
     1
 10
0.0
 20
0.0
 30
0.0
  0
VERTEX
  5
FF
330
FE
100
AcDbEntity
  8
Layer 1
 62
    28
420
  1118219
370
    35
100
AcDbVertex
100
AcDb2dVertex
 10
24.47080606484584
 20
12.35678235910698
 30
0.0
  0
VERTEX
  5
100
330
FE
100
AcDbEntity
  8
Layer 1
 62
    28
420
  1118219
370
    35
100
AcDbVertex
100
AcDb2dVertex
 10
26.25457315424365
 20
12.2701726586078
 30
0.0
  0
SEQEND
  5
101
330
FE
100
AcDbEntity
  8
Layer 1
370
    35
  0
POLYLINE
  5
102
330
3C
100
AcDbEntity
  8
Layer 1
370
     0
100
AcDb2dPolyline
 66
     1
 10
0.0
 20
0.0
 30
0.0
  0
VERTEX
  5
103
330
102
100
AcDbEntity
  8
Layer 1
370
     0
100
AcDbVertex
100
AcDb2dVertex
 10
26.29736124017045
 20
12.65771144974356
 30
0.0
  0
VERTEX
  5
104
330
102
100
AcDbEntity
  8
Layer 1
370
     0
100
AcDbVertex
100
AcDb2dVertex
 10
26.25457315424365
 20
12.65771144974356
 30
0.0
  0
SEQEND
  5
105
330
102
100
AcDbEntity
  8
Layer 1
370
     0
  0
POLYLINE
  5
106
330
3C
100
AcDbEntity
  8
Layer 1
 62
    28
420
  1118219
370
    35
100
AcDb2dPolyline
 66
     1
 10
0.0
 20
0.0
 30
0.0
  0
VERTEX
  5
107
330
106
100
AcDbEntity
  8
Layer 1
 62
    28
420
  1118219
370
    35
100
AcDbVertex
100
AcDb2dVertex
 10
26.29736124017045
 20
12.65771144974356
 30
0.0
  0
VERTEX
  5
108
330
106
100
AcDbEntity
  8
Layer 1
 62
    28
420
  1118219
370
    35
100
AcDbVertex
100
AcDb2dVertex
 10
26.25457315424365
 20
12.65771144974356
 30
0.0
  0
SEQEND
  5
109
330
106
100
AcDbEntity
  8
Layer 1
370
    35
  0
POLYLINE
  5
10A
330
3C
100
AcDbEntity
  8
Layer 1
370
     0
100
AcDb2dPolyline
 66
     1
 10
0.0
 20
0.0
 30
0.0
  0
VERTEX
  5
10B
330
10A
100
AcDbEntity
  8
Layer 1
370
     0
100
AcDbVertex
100
AcDb2dVertex
 10
26.29736124017045
 20
12.2701726586078
 30
0.0
  0
VERTEX
  5
10C
330
10A
100
AcDbEntity
  8
Layer 1
370
     0
100
AcDbVertex
100
AcDb2dVertex
 10
26.25457315424365
 20
12.2701726586078
 30
0.0
  0
SEQEND
  5
10D
330
10A
100
AcDbEntity
  8
Layer 1
370
     0
  0
POLYLINE
  5
10E
330
3C
100
AcDbEntity
  8
Layer 1
 62
    28
420
  1118219
370
    35
100
AcDb2dPolyline
 66
     1
 10
0.0
 20
0.0
 30
0.0
  0
VERTEX
  5
10F
330
10E
100
AcDbEntity
  8
Layer 1
 62
    28
420
  1118219
370
    35
100
AcDbVertex
100
AcDb2dVertex
 10
26.29736124017045
 20
12.2701726586078
 30
0.0
  0
VERTEX
  5
110
330
10E
100
AcDbEntity
  8
Layer 1
 62
    28
420
  1118219
370
    35
100
AcDbVertex
100
AcDb2dVertex
 10
26.25457315424365
 20
12.2701726586078
 30
0.0
  0
SEQEND
  5
111
330
10E
100
AcDbEntity
  8
Layer 1
370
    35
  0
POLYLINE
  5
112
330
3C
100
AcDbEntity
  8
Layer 1
370
     0
100
AcDb2dPolyline
 66
     1
 10
0.0
 20
0.0
 30
0.0
  0
VERTEX
  5
113
330
112
100
AcDbEntity
  8
Layer 1
370
     0
100
AcDbVertex
100
AcDb2dVertex
 10
26.29736124017045
 20
12.44242743287029
 30
0.0
  0
VERTEX
  5
114
330
112
100
AcDbEntity
  8
Layer 1
370
     0
100
AcDbVertex
100
AcDb2dVertex
 10
26.29736124017045
 20
12.65772867522098
 30
0.0
  0
SEQEND
  5
115
330
112
100
AcDbEntity
  8
Layer 1
370
     0
  0
POLYLINE
  5
116
330
3C
100
AcDbEntity
  8
Layer 1
 62
    28
420
  1118219
370
    35
100
AcDb2dPolyline
 66
     1
 10
0.0
 20
0.0
 30
0.0
  0
VERTEX
  5
117
330
116
100
AcDbEntity
  8
Layer 1
 62
    28
420
  1118219
370
    35
100
AcDbVertex
100
AcDb2dVertex
 10
26.29736124017045
 20
12.44242743287029
 30
0.0
  0
VERTEX
  5
118
330
116
100
AcDbEntity
  8
Layer 1
 62
    28
420
  1118219
370
    35
100
AcDbVertex
100
AcDb2dVertex
 10
26.29736124017045
 20
12.65772867522098
 30
0.0
  0
SEQEND
  5
119
330
116
100
AcDbEntity
  8
Layer 1
370
    35
  0
POLYLINE
  5
11A
330
3C
100
AcDbEntity
  8
Layer 1
370
     0
100
AcDb2dPolyline
 66
     1
 10
0.0
 20
0.0
 30
0.0
  0
VERTEX
  5
11B
330
11A
100
AcDbEntity
  8
Layer 1
370
     0
100
AcDbVertex
100
AcDb2dVertex
 10
26.29736124017045
 20
12.44242743287029
 30
0.0
  0
VERTEX
  5
11C
330
11A
100
AcDbEntity
  8
Layer 1
370
     0
100
AcDbVertex
100
AcDb2dVertex
 10
26.29736124017045
 20
12.27015543313038
 30
0.0
  0
SEQEND
  5
11D
330
11A
100
AcDbEntity
  8
Layer 1
370
     0
  0
POLYLINE
  5
11E
330
3C
100
AcDbEntity
  8
Layer 1
 62
    28
420
  1118219
370
    35
100
AcDb2dPolyline
 66
     1
 10
0.0
 20
0.0
 30
0.0
  0
VERTEX
  5
11F
330
11E
100
AcDbEntity
  8
Layer 1
 62
    28
420
  1118219
370
    35
100
AcDbVertex
100
AcDb2dVertex
 10
26.29736124017045
 20
12.44242743287029
 30
0.0
  0
VERTEX
  5
120
330
11E
100
AcDbEntity
  8
Layer 1
 62
    28
420
  1118219
370
    35
100
AcDbVertex
100
AcDb2dVertex
 10
26.29736124017045
 20
12.27015543313038
 30
0.0
  0
SEQEND
  5
121
330
11E
100
AcDbEntity
  8
Layer 1
370
    35
  0
SPLINE
  5
122
330
3C
100
AcDbEntity
  8
Layer 1
 62
   250
420
  1842203
370
    35
100
AcDbSpline
210
0.0
220
0.0
230
1.0
 70
    11
 71
     3
 72
    17
 73
    13
 74
     0
 42
0.0000000001
 43
0.0000000001
 40
0.0
 40
0.0
 40
0.0
 40
0.0
 40
1.0
 40
1.0
 40
1.0
 40
2.0
 40
2.0
 40
2.0
 40
3.0
 40
3.0
 40
3.0
 40
4.0
 40
4.0
 40
4.0
 40
4.0
 10
23.65435288579648
 20
12.45880886190266
 30
0.0
 10
23.65435288579648
 20
12.23334458787048
 30
0.0
 10
23.83711520128898
 20
12.05056504690055
 30
0.0
 10
24.06256224984373
 20
12.05056504690055
 30
0.0
 10
24.28807820030819
 20
12.05056504690055
 30
0.0
 10
24.47084051580069
 20
12.23334458787048
 30
0.0
 10
24.47084051580069
 20
12.45880886190266
 30
0.0
 10
24.47084051580069
 20
12.68430758688969
 30
0.0
 10
24.28807820030819
 20
12.86708712785962
 30
0.0
 10
24.06256224984373
 20
12.86708712785962
 30
0.0
 10
23.83711520128898
 20
12.86708712785962
 30
0.0
 10
23.65435288579648
 20
12.68430758688969
 30
0.0
 10
23.65435288579648
 20
12.45880886190266
 30
0.0
  0
POLYLINE
  5
123
330
3C
100
AcDbEntity
  8
Layer 1
 62
   250
420
  2827298
370
    18
100
AcDb2dPolyline
 66
     1
 10
0.0
 20
0.0
 30
0.0
  0
VERTEX
  5
124
330
123
100
AcDbEntity
  8
Layer 1
 62
   250
420
  2827298
370
    18
100
AcDbVertex
100
AcDb2dVertex
 10
3.815270995139932
 20
11.23263047679254
 30
0.0
  0
VERTEX
  5
125
330
123
100
AcDbEntity
  8
Layer 1
 62
   250
420
  2827298
370
    18
100
AcDbVertex
100
AcDb2dVertex
 10
3.759701604962852
 20
10.89921413573006
 30
0.0
  0
SEQEND
  5
126
330
123
100
AcDbEntity
  8
Layer 1
370
    18
  0
POLYLINE
  5
127
330
3C
100
AcDbEntity
  8
Layer 1
 62
   250
420
  2827298
370
    18
100
AcDb2dPolyline
 66
     1
 10
0.0
 20
0.0
 30
0.0
  0
VERTEX
  5
128
330
127
100
AcDbEntity
  8
Layer 1
 62
   250
420
  2827298
370
    18
100
AcDbVertex
100
AcDb2dVertex
 10
3.759701604962852
 20
10.89921413573006
 30
0.0
  0
VERTEX
  5
129
330
127
100
AcDbEntity
  8
Layer 1
 62
   250
420
  2827298
370
    18
100
AcDbVertex
100
AcDb2dVertex
 10
3.704132214785772
 20
11.23263047679254
 30
0.0
  0
SEQEND
  5
12A
330
127
100
AcDbEntity
  8
Layer 1
370
    18
  0
POLYLINE
  5
12B
330
3C
100
AcDbEntity
  8
Layer 1
 62
   250
420
  2827298
370
    18
100
AcDb2dPolyline
 66
     1
 10
0.0
 20
0.0
 30
0.0
  0
VERTEX
  5
12C
330
12B
100
AcDbEntity
  8
Layer 1
 62
   250
420
  2827298
370
    18
100
AcDbVertex
100
AcDb2dVertex
 10
3.815270995139932
 20
11.23263047679254
 30
0.0
  0
VERTEX
  5
12D
330
12B
100
AcDbEntity
  8
Layer 1
 62
   250
420
  2827298
370
    18
100
AcDbVertex
100
AcDb2dVertex
 10
3.704149440263198
 20
11.23263047679254
 30
0.0
  0
SEQEND
  5
12E
330
12B
100
AcDbEntity
  8
Layer 1
370
    18
  0
POLYLINE
  5
12F
330
3C
100
AcDbEntity
  8
Layer 1
 62
   250
420
  2827298
370
    18
100
AcDb2dPolyline
 66
     1
 10
0.0
 20
0.0
 30
0.0
  0
VERTEX
  5
130
330
12F
100
AcDbEntity
  8
Layer 1
 62
   250
420
  2827298
370
    18
100
AcDbVertex
100
AcDb2dVertex
 10
3.759701604962852
 20
10.89921413573006
 30
0.0
  0
VERTEX
  5
131
330
12F
100
AcDbEntity
  8
Layer 1
 62
   250
420
  2827298
370
    18
100
AcDbVertex
100
AcDb2dVertex
 10
3.759701604962852
 20
11.23263047679254
 30
0.0
  0
SEQEND
  5
132
330
12F
100
AcDbEntity
  8
Layer 1
370
    18
  0
ENDBLK
  5
3F
330
3C
100
AcDbEntity
  8
0
100
AcDbBlockEnd
  0
BLOCK
  5
136
330
134
100
AcDbEntity
  8
0
100
AcDbBlockBegin
  2
block 3
 70
     0
 71
     0
 10
0.0
 20
0.0
 30
0.0
  3
block 3
  1

  0
SPLINE
  5
138
330
134
100
AcDbEntity
  8
Layer 1
 62
    28
420
  1118219
370
    25
100
AcDbSpline
210
0.0
220
0.0
230
1.0
 70
     8
 71
     3
 72
     8
 73
     4
 74
     0
 42
0.0000000001
 43
0.0000000001
 40
0.0
 40
0.0
 40
0.0
 40
0.0
 40
1.0
 40
1.0
 40
1.0
 40
1.0
 10
6.507888724501499
 20
13.59403672620218
 30
0.0
 10
6.498862574330145
 20
13.58521728175995
 30
0.0
 10
6.493781058489401
 20
13.57312499660672
 30
0.0
 10
6.493781058489401
 20
13.56048149617585
 30
0.0
  0
POLYLINE
  5
139
330
134
100
AcDbEntity
  8
Layer 1
 62
    28
420
  1118219
370
    25
100
AcDb2dPolyline
 66
     1
 10
0.0
 20
0.0
 30
0.0
  0
VERTEX
  5
13A
330
139
100
AcDbEntity
  8
Layer 1
 62
    28
420
  1118219
370
    25
100
AcDbVertex
100
AcDb2dVertex
 10
6.507888724501499
 20
11.21671413565068
 30
0.0
  0
VERTEX
  5
13B
330
139
100
AcDbEntity
  8
Layer 1
 62
    28
420
  1118219
370
    25
100
AcDbVertex
100
AcDb2dVertex
 10
6.507888724501499
 20
13.7948513420374
 30
0.0
  0
SEQEND
  5
13C
330
139
100
AcDbEntity
  8
Layer 1
370
    25
  0
POLYLINE
  5
13D
330
134
100
AcDbEntity
  8
Layer 1
370
     0
100
AcDb2dPolyline
 66
     1
 10
0.0
 20
0.0
 30
0.0
  0
VERTEX
  5
13E
330
13D
100
AcDbEntity
  8
Layer 1
370
     0
100
AcDbVertex
100
AcDb2dVertex
 10
6.496123723419371
 20
9.75695827664062
 30
0.0
  0
VERTEX
  5
13F
330
13D
100
AcDbEntity
  8
Layer 1
370
     0
100
AcDbVertex
100
AcDb2dVertex
 10
6.045298528219578
 20
9.75695827664062
 30
0.0
  0
VERTEX
  5
140
330
13D
100
AcDbEntity
  8
Layer 1
370
     0
100
AcDbVertex
100
AcDb2dVertex
 10
6.045298528219578
 20
11.69764946539156
 30
0.0
  0
VERTEX
  5
141
330
13D
100
AcDbEntity
  8
Layer 1
370
     0
100
AcDbVertex
100
AcDb2dVertex
 10
6.496123723419371
 20
11.69764946539156
 30
0.0
  0
VERTEX
  5
142
330
13D
100
AcDbEntity
  8
Layer 1
370
     0
100
AcDbVertex
100
AcDb2dVertex
 10
6.496123723419371
 20
9.75695827664062
 30
0.0
  0
SEQEND
  5
143
330
13D
100
AcDbEntity
  8
Layer 1
370
     0
  0
HATCH
  5
144
330
134
100
AcDbEntity
  8
Layer 1
 62
     7
420
 15527148
100
AcDbHatch
 10
0.0
 20
0.0
 30
0.0
210
0.0
220
0.0
230
1.0
  2
SOLID
 70
     1
 71
     0
 91
        1
 92
        1
 93
        4
 72
     1
 10
6.496123723419371
 20
9.75695827664062
 11
6.045298528219578
 21
9.75695827664062
 72
     1
 10
6.045298528219578
 20
9.75695827664062
 11
6.045298528219578
 21
11.69764946539156
 72
     1
 10
6.045298528219578
 20
11.69764946539156
 11
6.496123723419371
 21
11.69764946539156
 72
     1
 10
6.496123723419371
 20
11.69764946539156
 11
6.496123723419371
 21
9.75695827664062
 97
        0
 75
     2
 76
     1
 98
        0
  0
POLYLINE
  5
145
330
134
100
AcDbEntity
  8
Layer 1
370
     0
100
AcDb2dPolyline
 66
     1
 10
0.0
 20
0.0
 30
0.0
  0
VERTEX
  5
146
330
145
100
AcDbEntity
  8
Layer 1
370
     0
100
AcDbVertex
100
AcDb2dVertex
 10
6.496123723419371
 20
13.32063394849276
 30
0.0
  0
VERTEX
  5
147
330
145
100
AcDbEntity
  8
Layer 1
370
     0
100
AcDbVertex
100
AcDb2dVertex
 10
6.045298528219578
 20
13.32063394849276
 30
0.0
  0
VERTEX
  5
148
330
145
100
AcDbEntity
  8
Layer 1
370
     0
100
AcDbVertex
100
AcDb2dVertex
 10
6.045298528219578
 20
14.78040703298024
 30
0.0
  0
VERTEX
  5
149
330
145
100
AcDbEntity
  8
Layer 1
370
     0
100
AcDbVertex
100
AcDb2dVertex
 10
6.496123723419371
 20
14.78040703298024
 30
0.0
  0
VERTEX
  5
14A
330
145
100
AcDbEntity
  8
Layer 1
370
     0
100
AcDbVertex
100
AcDb2dVertex
 10
6.496123723419371
 20
13.32063394849276
 30
0.0
  0
SEQEND
  5
14B
330
145
100
AcDbEntity
  8
Layer 1
370
     0
  0
HATCH
  5
14C
330
134
100
AcDbEntity
  8
Layer 1
 62
     7
420
 15527148
100
AcDbHatch
 10
0.0
 20
0.0
 30
0.0
210
0.0
220
0.0
230
1.0
  2
SOLID
 70
     1
 71
     0
 91
        1
 92
        1
 93
        4
 72
     1
 10
6.496123723419371
 20
13.32063394849276
 11
6.045298528219578
 21
13.32063394849276
 72
     1
 10
6.045298528219578
 20
13.32063394849276
 11
6.045298528219578
 21
14.78040703298024
 72
     1
 10
6.045298528219578
 20
14.78040703298024
 11
6.496123723419371
 21
14.78040703298024
 72
     1
 10
6.496123723419371
 20
14.78040703298024
 11
6.496123723419371
 21
13.32063394849276
 97
        0
 75
     2
 76
     1
 98
        0
  0
POLYLINE
  5
14D
330
134
100
AcDbEntity
  8
Layer 1
370
     0
100
AcDb2dPolyline
 66
     1
 10
0.0
 20
0.0
 30
0.0
  0
VERTEX
  5
14E
330
14D
100
AcDbEntity
  8
Layer 1
370
     0
100
AcDbVertex
100
AcDb2dVertex
 10
6.049518770189009
 20
9.68688503447064
 30
0.0
  0
VERTEX
  5
14F
330
14D
100
AcDbEntity
  8
Layer 1
370
     0
100
AcDbVertex
100
AcDb2dVertex
 10
6.049518770189009
 20
14.87237385695899
 30
0.0
  0
SEQEND
  5
150
330
14D
100
AcDbEntity
  8
Layer 1
370
     0
  0
POLYLINE
  5
151
330
134
100
AcDbEntity
  8
Layer 1
 62
   250
420
  1842203
370
    53
100
AcDb2dPolyline
 66
     1
 10
0.0
 20
0.0
 30
0.0
  0
VERTEX
  5
152
330
151
100
AcDbEntity
  8
Layer 1
 62
   250
420
  1842203
370
    53
100
AcDbVertex
100
AcDb2dVertex
 10
6.049518770189009
 20
9.68688503447064
 30
0.0
  0
VERTEX
  5
153
330
151
100
AcDbEntity
  8
Layer 1
 62
   250
420
  1842203
370
    53
100
AcDbVertex
100
AcDb2dVertex
 10
6.049518770189009
 20
14.87237385695899
 30
0.0
  0
SEQEND
  5
154
330
151
100
AcDbEntity
  8
Layer 1
370
    53
  0
POLYLINE
  5
155
330
134
100
AcDbEntity
  8
Layer 1
370
     0
100
AcDb2dPolyline
 66
     1
 10
0.0
 20
0.0
 30
0.0
  0
VERTEX
  5
156
330
155
100
AcDbEntity
  8
Layer 1
370
     0
100
AcDbVertex
100
AcDb2dVertex
 10
6.508129881185467
 20
9.68688503447064
 30
0.0
  0
VERTEX
  5
157
330
155
100
AcDbEntity
  8
Layer 1
370
     0
100
AcDbVertex
100
AcDb2dVertex
 10
6.508129881185467
 20
14.87237385695899
 30
0.0
  0
SEQEND
  5
158
330
155
100
AcDbEntity
  8
Layer 1
370
     0
  0
POLYLINE
  5
159
330
134
100
AcDbEntity
  8
Layer 1
 62
   250
420
  1842203
370
    53
100
AcDb2dPolyline
 66
     1
 10
0.0
 20
0.0
 30
0.0
  0
VERTEX
  5
15A
330
159
100
AcDbEntity
  8
Layer 1
 62
   250
420
  1842203
370
    53
100
AcDbVertex
100
AcDb2dVertex
 10
6.508129881185467
 20
9.68688503447064
 30
0.0
  0
VERTEX
  5
15B
330
159
100
AcDbEntity
  8
Layer 1
 62
   250
420
  1842203
370
    53
100
AcDbVertex
100
AcDb2dVertex
 10
6.508129881185467
 20
14.87237385695899
 30
0.0
  0
SEQEND
  5
15C
330
159
100
AcDbEntity
  8
Layer 1
370
    53
  0
POLYLINE
  5
15D
330
134
100
AcDbEntity
  8
Layer 1
 62
    28
420
  1249805
370
    35
100
AcDb2dPolyline
 66
     1
 10
0.0
 20
0.0
 30
0.0
  0
VERTEX
  5
15E
330
15D
100
AcDbEntity
  8
Layer 1
 62
    28
420
  1249805
370
    35
100
AcDbVertex
100
AcDb2dVertex
 10
6.516294757485509
 20
11.70481526400088
 30
0.0
  0
VERTEX
  5
15F
330
15D
100
AcDbEntity
  8
Layer 1
 62
    28
420
  1249805
370
    35
100
AcDbVertex
100
AcDb2dVertex
 10
6.055892196836721
 20
11.70481526400088
 30
0.0
  0
VERTEX
  5
160
330
15D
100
AcDbEntity
  8
Layer 1
 62
    28
420
  1249805
370
    35
100
AcDbVertex
100
AcDb2dVertex
 10
6.055892196836721
 20
13.31631035365877
 30
0.0
  0
VERTEX
  5
161
330
15D
100
AcDbEntity
  8
Layer 1
 62
    28
420
  1249805
370
    35
100
AcDbVertex
100
AcDb2dVertex
 10
6.516294757485509
 20
13.31631035365877
 30
0.0
  0
VERTEX
  5
162
330
15D
100
AcDbEntity
  8
Layer 1
 62
    28
420
  1249805
370
    35
100
AcDbVertex
100
AcDb2dVertex
 10
6.516294757485509
 20
11.70481526400088
 30
0.0
  0
SEQEND
  5
163
330
15D
100
AcDbEntity
  8
Layer 1
370
    35
  0
ENDBLK
  5
137
330
134
100
AcDbEntity
  8
0
100
AcDbBlockEnd
  0
BLOCK
  5
168
330
166
100
AcDbEntity
  8
0
100
AcDbBlockBegin
  2
block 4
 70
     0
 71
     0
 10
0.0
 20
0.0
 30
0.0
  3
block 4
  1

  0
POLYLINE
  5
16A
330
166
100
AcDbEntity
  8
Layer 1
 62
    28
420
  1249805
370
    18
100
AcDb2dPolyline
 66
     1
 10
0.0
 20
0.0
 30
0.0
  0
VERTEX
  5
16B
330
16A
100
AcDbEntity
  8
Layer 1
 62
    28
420
  1249805
370
    18
100
AcDbVertex
100
AcDb2dVertex
 10
5.060259601599518
 20
13.30513101880913
 30
0.0
  0
VERTEX
  5
16C
330
16A
100
AcDbEntity
  8
Layer 1
 62
    28
420
  1249805
370
    18
100
AcDbVertex
100
AcDb2dVertex
 10
5.060259601599518
 20
11.70497029329771
 30
0.0
  0
SEQEND
  5
16D
330
16A
100
AcDbEntity
  8
Layer 1
370
    18
  0
POLYLINE
  5
16E
330
166
100
AcDbEntity
  8
Layer 1
 62
    28
420
  1249805
370
    18
100
AcDb2dPolyline
 66
     1
 10
0.0
 20
0.0
 30
0.0
  0
VERTEX
  5
16F
330
16E
100
AcDbEntity
  8
Layer 1
 62
    28
420
  1249805
370
    18
100
AcDbVertex
100
AcDb2dVertex
 10
4.945675725760108
 20
11.69654703483628
 30
0.0
  0
VERTEX
  5
170
330
16E
100
AcDbEntity
  8
Layer 1
 62
    28
420
  1249805
370
    18
100
AcDbVertex
100
AcDb2dVertex
 10
5.937398137621553
 20
11.69654703483628
 30
0.0
  0
SEQEND
  5
171
330
16E
100
AcDbEntity
  8
Layer 1
370
    18
  0
POLYLINE
  5
172
330
166
100
AcDbEntity
  8
Layer 1
 62
    28
420
  1249805
370
    18
100
AcDb2dPolyline
 66
     1
 10
0.0
 20
0.0
 30
0.0
  0
VERTEX
  5
173
330
172
100
AcDbEntity
  8
Layer 1
 62
    28
420
  1249805
370
    18
100
AcDbVertex
100
AcDb2dVertex
 10
4.980953503529067
 20
13.30409749016356
 30
0.0
  0
VERTEX
  5
174
330
172
100
AcDbEntity
  8
Layer 1
 62
    28
420
  1249805
370
    18
100
AcDbVertex
100
AcDb2dVertex
 10
5.943719887836986
 20
13.30409749016356
 30
0.0
  0
SEQEND
  5
175
330
172
100
AcDbEntity
  8
Layer 1
370
    18
  0
POLYLINE
  5
176
330
166
100
AcDbEntity
  8
Layer 1
 62
    28
420
  1249805
370
    18
100
AcDb2dPolyline
 66
     1
 10
0.0
 20
0.0
 30
0.0
  0
VERTEX
  5
177
330
176
100
AcDbEntity
  8
Layer 1
 62
    28
420
  1249805
370
    18
100
AcDbVertex
100
AcDb2dVertex
 10
5.060259601599518
 20
11.69654703483628
 30
0.0
  0
VERTEX
  5
178
330
176
100
AcDbEntity
  8
Layer 1
 62
    28
420
  1249805
370
    18
100
AcDbVertex
100
AcDb2dVertex
 10
5.060259601599518
 20
12.02982557207935
 30
0.0
  0
SEQEND
  5
179
330
176
100
AcDbEntity
  8
Layer 1
370
    18
  0
POLYLINE
  5
17A
330
166
100
AcDbEntity
  8
Layer 1
 62
    28
420
  1249805
370
    18
100
AcDb2dPolyline
 66
     1
 10
0.0
 20
0.0
 30
0.0
  0
VERTEX
  5
17B
330
17A
100
AcDbEntity
  8
Layer 1
 62
    28
420
  1249805
370
    18
100
AcDbVertex
100
AcDb2dVertex
 10
5.115863442731451
 20
12.02982557207935
 30
0.0
  0
VERTEX
  5
17C
330
17A
100
AcDbEntity
  8
Layer 1
 62
    28
420
  1249805
370
    18
100
AcDbVertex
100
AcDb2dVertex
 10
5.004741887854717
 20
12.02982557207935
 30
0.0
  0
SEQEND
  5
17D
330
17A
100
AcDbEntity
  8
Layer 1
370
    18
  0
POLYLINE
  5
17E
330
166
100
AcDbEntity
  8
Layer 1
 62
    28
420
  1249805
370
    18
100
AcDb2dPolyline
 66
     1
 10
0.0
 20
0.0
 30
0.0
  0
VERTEX
  5
17F
330
17E
100
AcDbEntity
  8
Layer 1
 62
    28
420
  1249805
370
    18
100
AcDbVertex
100
AcDb2dVertex
 10
5.060259601599518
 20
11.69654703483628
 30
0.0
  0
VERTEX
  5
180
330
17E
100
AcDbEntity
  8
Layer 1
 62
    28
420
  1249805
370
    18
100
AcDbVertex
100
AcDb2dVertex
 10
5.00472466237729
 20
12.02982557207935
 30
0.0
  0
SEQEND
  5
181
330
17E
100
AcDbEntity
  8
Layer 1
370
    18
  0
POLYLINE
  5
182
330
166
100
AcDbEntity
  8
Layer 1
 62
    28
420
  1249805
370
    18
100
AcDb2dPolyline
 66
     1
 10
0.0
 20
0.0
 30
0.0
  0
VERTEX
  5
183
330
182
100
AcDbEntity
  8
Layer 1
 62
    28
420
  1249805
370
    18
100
AcDbVertex
100
AcDb2dVertex
 10
5.115863442731451
 20
12.02982557207935
 30
0.0
  0
VERTEX
  5
184
330
182
100
AcDbEntity
  8
Layer 1
 62
    28
420
  1249805
370
    18
100
AcDbVertex
100
AcDb2dVertex
 10
5.060259601599518
 20
11.69654703483628
 30
0.0
  0
SEQEND
  5
185
330
182
100
AcDbEntity
  8
Layer 1
370
    18
  0
POLYLINE
  5
186
330
166
100
AcDbEntity
  8
Layer 1
 62
    28
420
  1249805
370
    18
100
AcDb2dPolyline
 66
     1
 10
0.0
 20
0.0
 30
0.0
  0
VERTEX
  5
187
330
186
100
AcDbEntity
  8
Layer 1
 62
    28
420
  1249805
370
    18
100
AcDbVertex
100
AcDb2dVertex
 10
5.060259601599518
 20
13.30409749016356
 30
0.0
  0
VERTEX
  5
188
330
186
100
AcDbEntity
  8
Layer 1
 62
    28
420
  1249805
370
    18
100
AcDbVertex
100
AcDb2dVertex
 10
5.060259601599518
 20
12.97090508030762
 30
0.0
  0
SEQEND
  5
189
330
186
100
AcDbEntity
  8
Layer 1
370
    18
  0
POLYLINE
  5
18A
330
166
100
AcDbEntity
  8
Layer 1
 62
    28
420
  1249805
370
    18
100
AcDb2dPolyline
 66
     1
 10
0.0
 20
0.0
 30
0.0
  0
VERTEX
  5
18B
330
18A
100
AcDbEntity
  8
Layer 1
 62
    28
420
  1249805
370
    18
100
AcDbVertex
100
AcDb2dVertex
 10
5.00472466237729
 20
12.97088785483019
 30
0.0
  0
VERTEX
  5
18C
330
18A
100
AcDbEntity
  8
Layer 1
 62
    28
420
  1249805
370
    18
100
AcDbVertex
100
AcDb2dVertex
 10
5.115846217254024
 20
12.97088785483019
 30
0.0
  0
SEQEND
  5
18D
330
18A
100
AcDbEntity
  8
Layer 1
370
    18
  0
POLYLINE
  5
18E
330
166
100
AcDbEntity
  8
Layer 1
 62
    28
420
  1249805
370
    18
100
AcDb2dPolyline
 66
     1
 10
0.0
 20
0.0
 30
0.0
  0
VERTEX
  5
18F
330
18E
100
AcDbEntity
  8
Layer 1
 62
    28
420
  1249805
370
    18
100
AcDbVertex
100
AcDb2dVertex
 10
5.060259601599518
 20
13.30409749016356
 30
0.0
  0
VERTEX
  5
190
330
18E
100
AcDbEntity
  8
Layer 1
 62
    28
420
  1249805
370
    18
100
AcDbVertex
100
AcDb2dVertex
 10
5.115863442731451
 20
12.97090508030762
 30
0.0
  0
SEQEND
  5
191
330
18E
100
AcDbEntity
  8
Layer 1
370
    18
  0
POLYLINE
  5
192
330
166
100
AcDbEntity
  8
Layer 1
 62
    28
420
  1249805
370
    18
100
AcDb2dPolyline
 66
     1
 10
0.0
 20
0.0
 30
0.0
  0
VERTEX
  5
193
330
192
100
AcDbEntity
  8
Layer 1
 62
    28
420
  1249805
370
    18
100
AcDbVertex
100
AcDb2dVertex
 10
5.00472466237729
 20
12.97088785483019
 30
0.0
  0
VERTEX
  5
194
330
192
100
AcDbEntity
  8
Layer 1
 62
    28
420
  1249805
370
    18
100
AcDbVertex
100
AcDb2dVertex
 10
5.060242376122091
 20
13.30408026468613
 30
0.0
  0
SEQEND
  5
195
330
192
100
AcDbEntity
  8
Layer 1
370
    18
  0
ENDBLK
  5
169
330
166
100
AcDbEntity
  8
0
100
AcDbBlockEnd
  0
BLOCK
  5
19A
330
198
100
AcDbEntity
  8
0
100
AcDbBlockBegin
  2
block 5
 70
     0
 71
     0
 10
0.0
 20
0.0
 30
0.0
  3
block 5
  1

  0
POLYLINE
  5
19C
330
198
100
AcDbEntity
  8
Layer 1
 62
    28
420
  1184012
370
    18
100
AcDb2dPolyline
 66
     1
 10
0.0
 20
0.0
 30
0.0
  0
VERTEX
  5
19D
330
19C
100
AcDbEntity
  8
Layer 1
 62
    28
420
  1184012
370
    18
100
AcDbVertex
100
AcDb2dVertex
 10
7.501488713402405
 20
15.53317762198476
 30
0.0
  0
VERTEX
  5
19E
330
19C
100
AcDbEntity
  8
Layer 1
 62
    28
420
  1184012
370
    18
100
AcDbVertex
100
AcDb2dVertex
 10
4.234728595946526
 20
15.53317762198476
 30
0.0
  0
SEQEND
  5
19F
330
19C
100
AcDbEntity
  8
Layer 1
370
    18
  0
POLYLINE
  5
1A0
330
198
100
AcDbEntity
  8
Layer 1
 62
    28
420
  1184012
370
    18
100
AcDb2dPolyline
 66
     1
 10
0.0
 20
0.0
 30
0.0
  0
VERTEX
  5
1A1
330
1A0
100
AcDbEntity
  8
Layer 1
 62
    28
420
  1184012
370
    18
100
AcDbVertex
100
AcDb2dVertex
 10
6.038873425139586
 20
15.73833305813139
 30
0.0
  0
VERTEX
  5
1A2
330
1A0
100
AcDbEntity
  8
Layer 1
 62
    28
420
  1184012
370
    18
100
AcDbVertex
100
AcDb2dVertex
 10
6.038873425139586
 20
14.98084268831208
 30
0.0
  0
SEQEND
  5
1A3
330
1A0
100
AcDbEntity
  8
Layer 1
370
    18
  0
POLYLINE
  5
1A4
330
198
100
AcDbEntity
  8
Layer 1
 62
    28
420
  1184012
370
    18
100
AcDb2dPolyline
 66
     1
 10
0.0
 20
0.0
 30
0.0
  0
VERTEX
  5
1A5
330
1A4
100
AcDbEntity
  8
Layer 1
 62
    28
420
  1184012
370
    18
100
AcDbVertex
100
AcDb2dVertex
 10
6.513710935871572
 20
15.75104546047196
 30
0.0
  0
VERTEX
  5
1A6
330
1A4
100
AcDbEntity
  8
Layer 1
 62
    28
420
  1184012
370
    18
100
AcDbVertex
100
AcDb2dVertex
 10
6.513710935871572
 20
14.98085991378951
 30
0.0
  0
SEQEND
  5
1A7
330
1A4
100
AcDbEntity
  8
Layer 1
370
    18
  0
POLYLINE
  5
1A8
330
198
100
AcDbEntity
  8
Layer 1
 62
    28
420
  1184012
370
    18
100
AcDb2dPolyline
 66
     1
 10
0.0
 20
0.0
 30
0.0
  0
VERTEX
  5
1A9
330
1A8
100
AcDbEntity
  8
Layer 1
 62
    28
420
  1184012
370
    18
100
AcDbVertex
100
AcDb2dVertex
 10
6.038873425139586
 20
15.53317762198476
 30
0.0
  0
VERTEX
  5
1AA
330
1A8
100
AcDbEntity
  8
Layer 1
 62
    28
420
  1184012
370
    18
100
AcDbVertex
100
AcDb2dVertex
 10
5.705612113373943
 20
15.53317762198476
 30
0.0
  0
SEQEND
  5
1AB
330
1A8
100
AcDbEntity
  8
Layer 1
370
    18
  0
POLYLINE
  5
1AC
330
198
100
AcDbEntity
  8
Layer 1
 62
    28
420
  1184012
370
    18
100
AcDb2dPolyline
 66
     1
 10
0.0
 20
0.0
 30
0.0
  0
VERTEX
  5
1AD
330
1AC
100
AcDbEntity
  8
Layer 1
 62
    28
420
  1184012
370
    18
100
AcDbVertex
100
AcDb2dVertex
 10
5.705594887896518
 20
15.47764268276253
 30
0.0
  0
VERTEX
  5
1AE
330
1AC
100
AcDbEntity
  8
Layer 1
 62
    28
420
  1184012
370
    18
100
AcDbVertex
100
AcDb2dVertex
 10
5.705594887896518
 20
15.58869533572956
 30
0.0
  0
SEQEND
  5
1AF
330
1AC
100
AcDbEntity
  8
Layer 1
370
    18
  0
POLYLINE
  5
1B0
330
198
100
AcDbEntity
  8
Layer 1
 62
    28
420
  1184012
370
    18
100
AcDb2dPolyline
 66
     1
 10
0.0
 20
0.0
 30
0.0
  0
VERTEX
  5
1B1
330
1B0
100
AcDbEntity
  8
Layer 1
 62
    28
420
  1184012
370
    18
100
AcDbVertex
100
AcDb2dVertex
 10
6.038873425139586
 20
15.53317762198476
 30
0.0
  0
VERTEX
  5
1B2
330
1B0
100
AcDbEntity
  8
Layer 1
 62
    28
420
  1184012
370
    18
100
AcDbVertex
100
AcDb2dVertex
 10
5.705612113373943
 20
15.58869533572956
 30
0.0
  0
SEQEND
  5
1B3
330
1B0
100
AcDbEntity
  8
Layer 1
370
    18
  0
POLYLINE
  5
1B4
330
198
100
AcDbEntity
  8
Layer 1
 62
    28
420
  1184012
370
    18
100
AcDb2dPolyline
 66
     1
 10
0.0
 20
0.0
 30
0.0
  0
VERTEX
  5
1B5
330
1B4
100
AcDbEntity
  8
Layer 1
 62
    28
420
  1184012
370
    18
100
AcDbVertex
100
AcDb2dVertex
 10
5.705594887896518
 20
15.47764268276253
 30
0.0
  0
VERTEX
  5
1B6
330
1B4
100
AcDbEntity
  8
Layer 1
 62
    28
420
  1184012
370
    18
100
AcDbVertex
100
AcDb2dVertex
 10
6.038856199662161
 20
15.53316039650733
 30
0.0
  0
SEQEND
  5
1B7
330
1B4
100
AcDbEntity
  8
Layer 1
370
    18
  0
POLYLINE
  5
1B8
330
198
100
AcDbEntity
  8
Layer 1
 62
    28
420
  1184012
370
    18
100
AcDb2dPolyline
 66
     1
 10
0.0
 20
0.0
 30
0.0
  0
VERTEX
  5
1B9
330
1B8
100
AcDbEntity
  8
Layer 1
 62
    28
420
  1184012
370
    18
100
AcDbVertex
100
AcDb2dVertex
 10
6.513710935871572
 20
15.53317762198476
 30
0.0
  0
VERTEX
  5
1BA
330
1B8
100
AcDbEntity
  8
Layer 1
 62
    28
420
  1184012
370
    18
100
AcDbVertex
100
AcDb2dVertex
 10
6.180552976970486
 20
15.53317762198476
 30
0.0
  0
SEQEND
  5
1BB
330
1B8
100
AcDbEntity
  8
Layer 1
370
    18
  0
POLYLINE
  5
1BC
330
198
100
AcDbEntity
  8
Layer 1
 62
    28
420
  1184012
370
    25
100
AcDb2dPolyline
 66
     1
 10
0.0
 20
0.0
 30
0.0
  0
VERTEX
  5
1BD
330
1BC
100
AcDbEntity
  8
Layer 1
 62
    28
420
  1184012
370
    25
100
AcDbVertex
100
AcDb2dVertex
 10
6.843130966171161
 20
15.58871256120699
 30
0.0
  0
VERTEX
  5
1BE
330
1BC
100
AcDbEntity
  8
Layer 1
 62
    28
420
  1184012
370
    25
100
AcDbVertex
100
AcDb2dVertex
 10
6.843130966171161
 20
15.47765990823996
 30
0.0
  0
SEQEND
  5
1BF
330
1BC
100
AcDbEntity
  8
Layer 1
370
    25
  0
POLYLINE
  5
1C0
330
198
100
AcDbEntity
  8
Layer 1
 62
    28
420
  1184012
370
    18
100
AcDb2dPolyline
 66
     1
 10
0.0
 20
0.0
 30
0.0
  0
VERTEX
  5
1C1
330
1C0
100
AcDbEntity
  8
Layer 1
 62
    28
420
  1184012
370
    18
100
AcDbVertex
100
AcDb2dVertex
 10
6.509990232747502
 20
15.53317762198476
 30
0.0
  0
VERTEX
  5
1C2
330
1C0
100
AcDbEntity
  8
Layer 1
 62
    28
420
  1184012
370
    18
100
AcDbVertex
100
AcDb2dVertex
 10
6.843113740693735
 20
15.47764268276253
 30
0.0
  0
SEQEND
  5
1C3
330
1C0
100
AcDbEntity
  8
Layer 1
370
    18
  0
POLYLINE
  5
1C4
330
198
100
AcDbEntity
  8
Layer 1
 62
    28
420
  1184012
370
    18
100
AcDb2dPolyline
 66
     1
 10
0.0
 20
0.0
 30
0.0
  0
VERTEX
  5
1C5
330
1C4
100
AcDbEntity
  8
Layer 1
 62
    28
420
  1184012
370
    18
100
AcDbVertex
100
AcDb2dVertex
 10
6.843130966171161
 20
15.58871256120699
 30
0.0
  0
VERTEX
  5
1C6
330
1C4
100
AcDbEntity
  8
Layer 1
 62
    28
420
  1184012
370
    18
100
AcDbVertex
100
AcDb2dVertex
 10
6.510007458224928
 20
15.53317762198476
 30
0.0
  0
SEQEND
  5
1C7
330
1C4
100
AcDbEntity
  8
Layer 1
370
    18
  0
POLYLINE
  5
1C8
330
198
100
AcDbEntity
  8
Layer 1
 62
   250
420
  1842203
370
    25
100
AcDb2dPolyline
 66
     1
 10
0.0
 20
0.0
 30
0.0
  0
VERTEX
  5
1C9
330
1C8
100
AcDbEntity
  8
Layer 1
 62
   250
420
  1842203
370
    25
100
AcDbVertex
100
AcDb2dVertex
 10
6.504357501629118
 20
10.90238362357649
 30
0.0
  0
VERTEX
  5
1CA
330
1C8
100
AcDbEntity
  8
Layer 1
 62
   250
420
  1842203
370
    25
100
AcDbVertex
100
AcDb2dVertex
 10
6.504357501629118
 20
14.10277397650903
 30
0.0
  0
SEQEND
  5
1CB
330
1C8
100
AcDbEntity
  8
Layer 1
370
    25
  0
POLYLINE
  5
1CC
330
198
100
AcDbEntity
  8
Layer 1
 62
   250
420
  1842203
370
    35
100
AcDb2dPolyline
 66
     1
 10
0.0
 20
0.0
 30
0.0
  0
VERTEX
  5
1CD
330
1CC
100
AcDbEntity
  8
Layer 1
 62
   250
420
  1842203
370
    35
100
AcDbVertex
100
AcDb2dVertex
 10
6.754109698832305
 20
11.9078002899918
 30
0.0
  0
VERTEX
  5
1CE
330
1CC
100
AcDbEntity
  8
Layer 1
 62
   250
420
  1842203
370
    35
100
AcDbVertex
100
AcDb2dVertex
 10
6.754109698832305
 20
13.09735731009371
 30
0.0
  0
SEQEND
  5
1CF
330
1CC
100
AcDbEntity
  8
Layer 1
370
    35
  0
POLYLINE
  5
1D0
330
198
100
AcDbEntity
  8
Layer 1
 62
   250
420
  1842203
370
    35
100
AcDb2dPolyline
 66
     1
 10
0.0
 20
0.0
 30
0.0
  0
VERTEX
  5
1D1
330
1D0
100
AcDbEntity
  8
Layer 1
 62
   250
420
  1842203
370
    35
100
AcDbVertex
100
AcDb2dVertex
 10
6.754109698832305
 20
11.97973388372382
 30
0.0
  0
VERTEX
  5
1D2
330
1D0
100
AcDbEntity
  8
Layer 1
 62
   250
420
  1842203
370
    35
100
AcDbVertex
100
AcDb2dVertex
 10
6.754109698832305
 20
12.5025443490879
 30
0.0
  0
SEQEND
  5
1D3
330
1D0
100
AcDbEntity
  8
Layer 1
370
    35
  0
POLYLINE
  5
1D4
330
198
100
AcDbEntity
  8
Layer 1
 62
   250
420
  1842203
370
    35
100
AcDb2dPolyline
 66
     1
 10
0.0
 20
0.0
 30
0.0
  0
VERTEX
  5
1D5
330
1D4
100
AcDbEntity
  8
Layer 1
 62
   250
420
  1842203
370
    35
100
AcDbVertex
100
AcDb2dVertex
 10
11.03402072206788
 20
12.91145995770963
 30
0.0
  0
VERTEX
  5
1D6
330
1D4
100
AcDbEntity
  8
Layer 1
 62
   250
420
  1842203
370
    35
100
AcDbVertex
100
AcDb2dVertex
 10
11.03402072206788
 20
12.10673732878755
 30
0.0
  0
SEQEND
  5
1D7
330
1D4
100
AcDbEntity
  8
Layer 1
370
    35
  0
POLYLINE
  5
1D8
330
198
100
AcDbEntity
  8
Layer 1
 62
   250
420
  1842203
370
    35
100
AcDb2dPolyline
 66
     1
 10
0.0
 20
0.0
 30
0.0
  0
VERTEX
  5
1D9
330
1D8
100
AcDbEntity
  8
Layer 1
 62
   250
420
  1842203
370
    35
100
AcDbVertex
100
AcDb2dVertex
 10
8.903935409015334
 20
11.79349202179121
 30
0.0
  0
VERTEX
  5
1DA
330
1D8
100
AcDbEntity
  8
Layer 1
 62
   250
420
  1842203
370
    35
100
AcDbVertex
100
AcDb2dVertex
 10
8.6718048752192
 20
11.79349202179121
 30
0.0
  0
SEQEND
  5
1DB
330
1D8
100
AcDbEntity
  8
Layer 1
370
    35
  0
POLYLINE
  5
1DC
330
198
100
AcDbEntity
  8
Layer 1
 62
   250
420
  1842203
370
    35
100
AcDb2dPolyline
 66
     1
 10
0.0
 20
0.0
 30
0.0
  0
VERTEX
  5
1DD
330
1DC
100
AcDbEntity
  8
Layer 1
 62
   250
420
  1842203
370
    35
100
AcDbVertex
100
AcDb2dVertex
 10
8.923693031623243
 20
11.7278629527972
 30
0.0
  0
VERTEX
  5
1DE
330
1DC
100
AcDbEntity
  8
Layer 1
 62
   250
420
  1842203
370
    35
100
AcDbVertex
100
AcDb2dVertex
 10
8.923693031623243
 20
11.64743719869404
 30
0.0
  0
SEQEND
  5
1DF
330
1DC
100
AcDbEntity
  8
Layer 1
370
    35
  0
POLYLINE
  5
1E0
330
198
100
AcDbEntity
  8
Layer 1
 62
   250
420
  1842203
370
    35
100
AcDb2dPolyline
 66
     1
 10
0.0
 20
0.0
 30
0.0
  0
VERTEX
  5
1E1
330
1E0
100
AcDbEntity
  8
Layer 1
 62
   250
420
  1842203
370
    35
100
AcDbVertex
100
AcDb2dVertex
 10
9.173462454303856
 20
11.64741997321662
 30
0.0
  0
VERTEX
  5
1E2
330
1E0
100
AcDbEntity
  8
Layer 1
 62
   250
420
  1842203
370
    35
100
AcDbVertex
100
AcDb2dVertex
 10
8.923693031623243
 20
11.64741997321662
 30
0.0
  0
SEQEND
  5
1E3
330
1E0
100
AcDbEntity
  8
Layer 1
370
    35
  0
POLYLINE
  5
1E4
330
198
100
AcDbEntity
  8
Layer 1
 62
   250
420
  1842203
370
    35
100
AcDb2dPolyline
 66
     1
 10
0.0
 20
0.0
 30
0.0
  0
VERTEX
  5
1E5
330
1E4
100
AcDbEntity
  8
Layer 1
 62
   250
420
  1842203
370
    35
100
AcDbVertex
100
AcDb2dVertex
 10
8.923693031623243
 20
13.21376708654031
 30
0.0
  0
VERTEX
  5
1E6
330
1E4
100
AcDbEntity
  8
Layer 1
 62
   250
420
  1842203
370
    35
100
AcDbVertex
100
AcDb2dVertex
 10
8.923693031623243
 20
11.7278629527972
 30
0.0
  0
SEQEND
  5
1E7
330
1E4
100
AcDbEntity
  8
Layer 1
370
    35
  0
POLYLINE
  5
1E8
330
198
100
AcDbEntity
  8
Layer 1
 62
   250
420
  1842203
370
    35
100
AcDb2dPolyline
 66
     1
 10
0.0
 20
0.0
 30
0.0
  0
VERTEX
  5
1E9
330
1E8
100
AcDbEntity
  8
Layer 1
 62
   250
420
  1842203
370
    35
100
AcDbVertex
100
AcDb2dVertex
 10
9.173462454303856
 20
13.35770317591404
 30
0.0
  0
VERTEX
  5
1EA
330
1E8
100
AcDbEntity
  8
Layer 1
 62
   250
420
  1842203
370
    35
100
AcDbVertex
100
AcDb2dVertex
 10
8.923693031623243
 20
13.35770317591404
 30
0.0
  0
SEQEND
  5
1EB
330
1E8
100
AcDbEntity
  8
Layer 1
370
    35
  0
POLYLINE
  5
1EC
330
198
100
AcDbEntity
  8
Layer 1
 62
   250
420
  1842203
370
    35
100
AcDb2dPolyline
 66
     1
 10
0.0
 20
0.0
 30
0.0
  0
VERTEX
  5
1ED
330
1EC
100
AcDbEntity
  8
Layer 1
 62
   250
420
  1842203
370
    35
100
AcDbVertex
100
AcDb2dVertex
 10
8.923693031623243
 20
13.27726019633346
 30
0.0
  0
VERTEX
  5
1EE
330
1EC
100
AcDbEntity
  8
Layer 1
 62
   250
420
  1842203
370
    35
100
AcDbVertex
100
AcDb2dVertex
 10
8.923693031623243
 20
13.35770317591404
 30
0.0
  0
SEQEND
  5
1EF
330
1EC
100
AcDbEntity
  8
Layer 1
370
    35
  0
POLYLINE
  5
1F0
330
198
100
AcDbEntity
  8
Layer 1
 62
   250
420
  1842203
370
    35
100
AcDb2dPolyline
 66
     1
 10
0.0
 20
0.0
 30
0.0
  0
VERTEX
  5
1F1
330
1F0
100
AcDbEntity
  8
Layer 1
 62
   250
420
  1842203
370
    35
100
AcDbVertex
100
AcDb2dVertex
 10
8.923693031623243
 20
13.21376708654031
 30
0.0
  0
VERTEX
  5
1F2
330
1F0
100
AcDbEntity
  8
Layer 1
 62
   250
420
  1842203
370
    35
100
AcDbVertex
100
AcDb2dVertex
 10
8.923693031623243
 20
13.27726019633346
 30
0.0
  0
SEQEND
  5
1F3
330
1F0
100
AcDbEntity
  8
Layer 1
370
    35
  0
POLYLINE
  5
1F4
330
198
100
AcDbEntity
  8
Layer 1
 62
   250
420
  1842203
370
    35
100
AcDb2dPolyline
 66
     1
 10
0.0
 20
0.0
 30
0.0
  0
VERTEX
  5
1F5
330
1F4
100
AcDbEntity
  8
Layer 1
 62
   250
420
  1842203
370
    35
100
AcDbVertex
100
AcDb2dVertex
 10
8.903935409015334
 20
13.21376708654031
 30
0.0
  0
VERTEX
  5
1F6
330
1F4
100
AcDbEntity
  8
Layer 1
 62
   250
420
  1842203
370
    35
100
AcDbVertex
100
AcDb2dVertex
 10
6.754109698832305
 20
13.21376708654031
 30
0.0
  0
SEQEND
  5
1F7
330
1F4
100
AcDbEntity
  8
Layer 1
370
    35
  0
POLYLINE
  5
1F8
330
198
100
AcDbEntity
  8
Layer 1
 62
   250
420
  1842203
370
    35
100
AcDb2dPolyline
 66
     1
 10
0.0
 20
0.0
 30
0.0
  0
VERTEX
  5
1F9
330
1F8
100
AcDbEntity
  8
Layer 1
 62
   250
420
  1842203
370
    35
100
AcDbVertex
100
AcDb2dVertex
 10
8.523648543876032
 20
10.85366997341505
 30
0.0
  0
VERTEX
  5
1FA
330
1F8
100
AcDbEntity
  8
Layer 1
 62
   250
420
  1842203
370
    35
100
AcDbVertex
100
AcDb2dVertex
 10
8.661228432079485
 20
10.85366997341505
 30
0.0
  0
SEQEND
  5
1FB
330
1F8
100
AcDbEntity
  8
Layer 1
370
    35
  0
POLYLINE
  5
1FC
330
198
100
AcDbEntity
  8
Layer 1
 62
   250
420
  1842203
370
    25
100
AcDb2dPolyline
 66
     1
 10
0.0
 20
0.0
 30
0.0
  0
VERTEX
  5
1FD
330
1FC
100
AcDbEntity
  8
Layer 1
 62
   250
420
  1842203
370
    25
100
AcDbVertex
100
AcDb2dVertex
 10
6.512815211045407
 20
10.90238362357649
 30
0.0
  0
VERTEX
  5
1FE
330
1FC
100
AcDbEntity
  8
Layer 1
 62
   250
420
  1842203
370
    25
100
AcDbVertex
100
AcDb2dVertex
 10
6.521272920461695
 20
10.90450235729991
 30
0.0
  0
SEQEND
  5
1FF
330
1FC
100
AcDbEntity
  8
Layer 1
370
    25
  0
POLYLINE
  5
200
330
198
100
AcDbEntity
  8
Layer 1
 62
   250
420
  1842203
370
    25
100
AcDb2dPolyline
 66
     1
 10
0.0
 20
0.0
 30
0.0
  0
VERTEX
  5
201
330
200
100
AcDbEntity
  8
Layer 1
 62
   250
420
  1842203
370
    25
100
AcDbVertex
100
AcDb2dVertex
 10
6.521290145939122
 20
10.90448513182249
 30
0.0
  0
VERTEX
  5
202
330
200
100
AcDbEntity
  8
Layer 1
 62
   250
420
  1842203
370
    25
100
AcDbVertex
100
AcDb2dVertex
 10
6.531866589078838
 20
10.90448513182249
 30
0.0
  0
SEQEND
  5
203
330
200
100
AcDbEntity
  8
Layer 1
370
    25
  0
POLYLINE
  5
204
330
198
100
AcDbEntity
  8
Layer 1
 62
   250
420
  1842203
370
    25
100
AcDb2dPolyline
 66
     1
 10
0.0
 20
0.0
 30
0.0
  0
VERTEX
  5
205
330
204
100
AcDbEntity
  8
Layer 1
 62
   250
420
  1842203
370
    25
100
AcDbVertex
100
AcDb2dVertex
 10
6.531866589078838
 20
10.90448513182249
 30
0.0
  0
VERTEX
  5
206
330
204
100
AcDbEntity
  8
Layer 1
 62
   250
420
  1842203
370
    25
100
AcDbVertex
100
AcDb2dVertex
 10
6.542443032218555
 20
10.90660386554592
 30
0.0
  0
SEQEND
  5
207
330
204
100
AcDbEntity
  8
Layer 1
370
    25
  0
POLYLINE
  5
208
330
198
100
AcDbEntity
  8
Layer 1
 62
   250
420
  1842203
370
    25
100
AcDb2dPolyline
 66
     1
 10
0.0
 20
0.0
 30
0.0
  0
VERTEX
  5
209
330
208
100
AcDbEntity
  8
Layer 1
 62
   250
420
  1842203
370
    25
100
AcDbVertex
100
AcDb2dVertex
 10
6.542443032218555
 20
10.90658664006849
 30
0.0
  0
VERTEX
  5
20A
330
208
100
AcDbEntity
  8
Layer 1
 62
   250
420
  1842203
370
    25
100
AcDbVertex
100
AcDb2dVertex
 10
6.55091796711227
 20
10.90873982474677
 30
0.0
  0
SEQEND
  5
20B
330
208
100
AcDbEntity
  8
Layer 1
370
    25
  0
POLYLINE
  5
20C
330
198
100
AcDbEntity
  8
Layer 1
 62
   250
420
  1842203
370
    25
100
AcDb2dPolyline
 66
     1
 10
0.0
 20
0.0
 30
0.0
  0
VERTEX
  5
20D
330
20C
100
AcDbEntity
  8
Layer 1
 62
   250
420
  1842203
370
    25
100
AcDbVertex
100
AcDb2dVertex
 10
6.55091796711227
 20
10.90872259926935
 30
0.0
  0
VERTEX
  5
20E
330
20C
100
AcDbEntity
  8
Layer 1
 62
   250
420
  1842203
370
    25
100
AcDbVertex
100
AcDb2dVertex
 10
6.561494410251987
 20
10.91292561576135
 30
0.0
  0
SEQEND
  5
20F
330
20C
100
AcDbEntity
  8
Layer 1
370
    25
  0
POLYLINE
  5
210
330
198
100
AcDbEntity
  8
Layer 1
 62
   250
420
  1842203
370
    25
100
AcDb2dPolyline
 66
     1
 10
0.0
 20
0.0
 30
0.0
  0
VERTEX
  5
211
330
210
100
AcDbEntity
  8
Layer 1
 62
   250
420
  1842203
370
    25
100
AcDbVertex
100
AcDb2dVertex
 10
6.561494410251987
 20
10.91292561576135
 30
0.0
  0
VERTEX
  5
212
330
210
100
AcDbEntity
  8
Layer 1
 62
   250
420
  1842203
370
    25
100
AcDbVertex
100
AcDb2dVertex
 10
6.569952119668275
 20
10.91719753416306
 30
0.0
  0
SEQEND
  5
213
330
210
100
AcDbEntity
  8
Layer 1
370
    25
  0
POLYLINE
  5
214
330
198
100
AcDbEntity
  8
Layer 1
 62
   250
420
  1842203
370
    25
100
AcDb2dPolyline
 66
     1
 10
0.0
 20
0.0
 30
0.0
  0
VERTEX
  5
215
330
214
100
AcDbEntity
  8
Layer 1
 62
   250
420
  1842203
370
    25
100
AcDbVertex
100
AcDb2dVertex
 10
6.569969345145702
 20
10.91719753416306
 30
0.0
  0
VERTEX
  5
216
330
214
100
AcDbEntity
  8
Layer 1
 62
   250
420
  1842203
370
    25
100
AcDbVertex
100
AcDb2dVertex
 10
6.578444280039416
 20
10.92140055065506
 30
0.0
  0
SEQEND
  5
217
330
214
100
AcDbEntity
  8
Layer 1
370
    25
  0
POLYLINE
  5
218
330
198
100
AcDbEntity
  8
Layer 1
 62
   250
420
  1842203
370
    25
100
AcDb2dPolyline
 66
     1
 10
0.0
 20
0.0
 30
0.0
  0
VERTEX
  5
219
330
218
100
AcDbEntity
  8
Layer 1
 62
   250
420
  1842203
370
    25
100
AcDbVertex
100
AcDb2dVertex
 10
6.57842705456199
 20
10.92140055065506
 30
0.0
  0
VERTEX
  5
21A
330
218
100
AcDbEntity
  8
Layer 1
 62
   250
420
  1842203
370
    25
100
AcDbVertex
100
AcDb2dVertex
 10
6.586901989455704
 20
10.9277912027802
 30
0.0
  0
SEQEND
  5
21B
330
218
100
AcDbEntity
  8
Layer 1
370
    25
  0
POLYLINE
  5
21C
330
198
100
AcDbEntity
  8
Layer 1
 62
   250
420
  1842203
370
    25
100
AcDb2dPolyline
 66
     1
 10
0.0
 20
0.0
 30
0.0
  0
VERTEX
  5
21D
330
21C
100
AcDbEntity
  8
Layer 1
 62
   250
420
  1842203
370
    25
100
AcDbVertex
100
AcDb2dVertex
 10
6.586901989455704
 20
10.92777397730278
 30
0.0
  0
VERTEX
  5
21E
330
21C
100
AcDbEntity
  8
Layer 1
 62
   250
420
  1842203
370
    25
100
AcDbVertex
100
AcDb2dVertex
 10
6.595359698871993
 20
10.93413017847306
 30
0.0
  0
SEQEND
  5
21F
330
21C
100
AcDbEntity
  8
Layer 1
370
    25
  0
POLYLINE
  5
220
330
198
100
AcDbEntity
  8
Layer 1
 62
   250
420
  1842203
370
    35
100
AcDb2dPolyline
 66
     1
 10
0.0
 20
0.0
 30
0.0
  0
VERTEX
  5
221
330
220
100
AcDbEntity
  8
Layer 1
 62
   250
420
  1842203
370
    35
100
AcDbVertex
100
AcDb2dVertex
 10
6.595359698871993
 20
10.93411295299564
 30
0.0
  0
VERTEX
  5
222
330
220
100
AcDbEntity
  8
Layer 1
 62
   250
420
  1842203
370
    35
100
AcDbVertex
100
AcDb2dVertex
 10
6.601715900042278
 20
10.94050360512078
 30
0.0
  0
SEQEND
  5
223
330
220
100
AcDbEntity
  8
Layer 1
370
    35
  0
POLYLINE
  5
224
330
198
100
AcDbEntity
  8
Layer 1
 62
   250
420
  1842203
370
    35
100
AcDb2dPolyline
 66
     1
 10
0.0
 20
0.0
 30
0.0
  0
VERTEX
  5
225
330
224
100
AcDbEntity
  8
Layer 1
 62
   250
420
  1842203
370
    35
100
AcDbVertex
100
AcDb2dVertex
 10
6.601715900042278
 20
10.94048637964335
 30
0.0
  0
VERTEX
  5
226
330
224
100
AcDbEntity
  8
Layer 1
 62
   250
420
  1842203
370
    35
100
AcDbVertex
100
AcDb2dVertex
 10
6.608072101212564
 20
10.94890963810479
 30
0.0
  0
SEQEND
  5
227
330
224
100
AcDbEntity
  8
Layer 1
370
    35
  0
POLYLINE
  5
228
330
198
100
AcDbEntity
  8
Layer 1
 62
   250
420
  1842203
370
    35
100
AcDb2dPolyline
 66
     1
 10
0.0
 20
0.0
 30
0.0
  0
VERTEX
  5
229
330
228
100
AcDbEntity
  8
Layer 1
 62
   250
420
  1842203
370
    35
100
AcDbVertex
100
AcDb2dVertex
 10
6.608072101212564
 20
10.94892686358221
 30
0.0
  0
VERTEX
  5
22A
330
228
100
AcDbEntity
  8
Layer 1
 62
   250
420
  1842203
370
    35
100
AcDbVertex
100
AcDb2dVertex
 10
6.614428302382851
 20
10.95740179847593
 30
0.0
  0
SEQEND
  5
22B
330
228
100
AcDbEntity
  8
Layer 1
370
    35
  0
POLYLINE
  5
22C
330
198
100
AcDbEntity
  8
Layer 1
 62
   250
420
  1842203
370
    35
100
AcDb2dPolyline
 66
     1
 10
0.0
 20
0.0
 30
0.0
  0
VERTEX
  5
22D
330
22C
100
AcDbEntity
  8
Layer 1
 62
   250
420
  1842203
370
    35
100
AcDbVertex
100
AcDb2dVertex
 10
6.614411076905425
 20
10.95740179847593
 30
0.0
  0
VERTEX
  5
22E
330
22C
100
AcDbEntity
  8
Layer 1
 62
   250
420
  1842203
370
    35
100
AcDbVertex
100
AcDb2dVertex
 10
6.620767278075711
 20
10.96582505693736
 30
0.0
  0
SEQEND
  5
22F
330
22C
100
AcDbEntity
  8
Layer 1
370
    35
  0
POLYLINE
  5
230
330
198
100
AcDbEntity
  8
Layer 1
 62
   250
420
  1842203
370
    35
100
AcDb2dPolyline
 66
     1
 10
0.0
 20
0.0
 30
0.0
  0
VERTEX
  5
231
330
230
100
AcDbEntity
  8
Layer 1
 62
   250
420
  1842203
370
    35
100
AcDbVertex
100
AcDb2dVertex
 10
6.620767278075711
 20
10.96584228241479
 30
0.0
  0
VERTEX
  5
232
330
230
100
AcDbEntity
  8
Layer 1
 62
   250
420
  1842203
370
    35
100
AcDbVertex
100
AcDb2dVertex
 10
6.625004745522568
 20
10.9743172173085
 30
0.0
  0
SEQEND
  5
233
330
230
100
AcDbEntity
  8
Layer 1
370
    35
  0
POLYLINE
  5
234
330
198
100
AcDbEntity
  8
Layer 1
 62
   250
420
  1842203
370
    35
100
AcDb2dPolyline
 66
     1
 10
0.0
 20
0.0
 30
0.0
  0
VERTEX
  5
235
330
234
100
AcDbEntity
  8
Layer 1
 62
   250
420
  1842203
370
    35
100
AcDbVertex
100
AcDb2dVertex
 10
6.625004745522568
 20
10.9743172173085
 30
0.0
  0
VERTEX
  5
236
330
234
100
AcDbEntity
  8
Layer 1
 62
   250
420
  1842203
370
    35
100
AcDbVertex
100
AcDb2dVertex
 10
6.629242212969425
 20
10.98279215220222
 30
0.0
  0
SEQEND
  5
237
330
234
100
AcDbEntity
  8
Layer 1
370
    35
  0
POLYLINE
  5
238
330
198
100
AcDbEntity
  8
Layer 1
 62
   250
420
  1842203
370
    35
100
AcDb2dPolyline
 66
     1
 10
0.0
 20
0.0
 30
0.0
  0
VERTEX
  5
239
330
238
100
AcDbEntity
  8
Layer 1
 62
   250
420
  1842203
370
    35
100
AcDbVertex
100
AcDb2dVertex
 10
6.629224987491999
 20
10.98279215220222
 30
0.0
  0
VERTEX
  5
23A
330
238
100
AcDbEntity
  8
Layer 1
 62
   250
420
  1842203
370
    35
100
AcDbVertex
100
AcDb2dVertex
 10
6.631343721215427
 20
10.99340304629679
 30
0.0
  0
SEQEND
  5
23B
330
238
100
AcDbEntity
  8
Layer 1
370
    35
  0
POLYLINE
  5
23C
330
198
100
AcDbEntity
  8
Layer 1
 62
   250
420
  1842203
370
    35
100
AcDb2dPolyline
 66
     1
 10
0.0
 20
0.0
 30
0.0
  0
VERTEX
  5
23D
330
23C
100
AcDbEntity
  8
Layer 1
 62
   250
420
  1842203
370
    35
100
AcDbVertex
100
AcDb2dVertex
 10
8.709907631286065
 20
11.42941433091001
 30
0.0
  0
VERTEX
  5
23E
330
23C
100
AcDbEntity
  8
Layer 1
 62
   250
420
  1842203
370
    35
100
AcDbVertex
100
AcDb2dVertex
 10
8.709907631286065
 20
10.90240084905391
 30
0.0
  0
SEQEND
  5
23F
330
23C
100
AcDbEntity
  8
Layer 1
370
    35
  0
POLYLINE
  5
240
330
198
100
AcDbEntity
  8
Layer 1
 62
   250
420
  1842203
370
    35
100
AcDb2dPolyline
 66
     1
 10
0.0
 20
0.0
 30
0.0
  0
VERTEX
  5
241
330
240
100
AcDbEntity
  8
Layer 1
 62
   250
420
  1842203
370
    35
100
AcDbVertex
100
AcDb2dVertex
 10
6.631343721215427
 20
10.99340304629679
 30
0.0
  0
VERTEX
  5
242
330
240
100
AcDbEntity
  8
Layer 1
 62
   250
420
  1842203
370
    35
100
AcDbVertex
100
AcDb2dVertex
 10
6.64827636552543
 20
11.04843844667365
 30
0.0
  0
SEQEND
  5
243
330
240
100
AcDbEntity
  8
Layer 1
370
    35
  0
POLYLINE
  5
244
330
198
100
AcDbEntity
  8
Layer 1
 62
   250
420
  1842203
370
    35
100
AcDb2dPolyline
 66
     1
 10
0.0
 20
0.0
 30
0.0
  0
VERTEX
  5
245
330
244
100
AcDbEntity
  8
Layer 1
 62
   250
420
  1842203
370
    35
100
AcDbVertex
100
AcDb2dVertex
 10
6.64827636552543
 20
11.04842122119623
 30
0.0
  0
VERTEX
  5
246
330
244
100
AcDbEntity
  8
Layer 1
 62
   250
420
  1842203
370
    35
100
AcDbVertex
100
AcDb2dVertex
 10
6.663090276112005
 20
11.10557535529652
 30
0.0
  0
SEQEND
  5
247
330
244
100
AcDbEntity
  8
Layer 1
370
    35
  0
POLYLINE
  5
248
330
198
100
AcDbEntity
  8
Layer 1
 62
   250
420
  1842203
370
    35
100
AcDb2dPolyline
 66
     1
 10
0.0
 20
0.0
 30
0.0
  0
VERTEX
  5
249
330
248
100
AcDbEntity
  8
Layer 1
 62
   250
420
  1842203
370
    35
100
AcDbVertex
100
AcDb2dVertex
 10
6.663107501589431
 20
11.10557535529652
 30
0.0
  0
VERTEX
  5
24A
330
248
100
AcDbEntity
  8
Layer 1
 62
   250
420
  1842203
370
    35
100
AcDbVertex
100
AcDb2dVertex
 10
6.675802678452577
 20
11.16061075567339
 30
0.0
  0
SEQEND
  5
24B
330
248
100
AcDbEntity
  8
Layer 1
370
    35
  0
POLYLINE
  5
24C
330
198
100
AcDbEntity
  8
Layer 1
 62
   250
420
  1842203
370
    35
100
AcDb2dPolyline
 66
     1
 10
0.0
 20
0.0
 30
0.0
  0
VERTEX
  5
24D
330
24C
100
AcDbEntity
  8
Layer 1
 62
   250
420
  1842203
370
    35
100
AcDbVertex
100
AcDb2dVertex
 10
6.675802678452577
 20
11.16059353019596
 30
0.0
  0
VERTEX
  5
24E
330
24C
100
AcDbEntity
  8
Layer 1
 62
   250
420
  1842203
370
    35
100
AcDbVertex
100
AcDb2dVertex
 10
6.688497855315722
 20
11.21774766429626
 30
0.0
  0
SEQEND
  5
24F
330
24C
100
AcDbEntity
  8
Layer 1
370
    35
  0
POLYLINE
  5
250
330
198
100
AcDbEntity
  8
Layer 1
 62
   250
420
  1842203
370
    35
100
AcDb2dPolyline
 66
     1
 10
0.0
 20
0.0
 30
0.0
  0
VERTEX
  5
251
330
250
100
AcDbEntity
  8
Layer 1
 62
   250
420
  1842203
370
    35
100
AcDbVertex
100
AcDb2dVertex
 10
6.688497855315722
 20
11.21774766429626
 30
0.0
  0
VERTEX
  5
252
330
250
100
AcDbEntity
  8
Layer 1
 62
   250
420
  1842203
370
    35
100
AcDbVertex
100
AcDb2dVertex
 10
6.701193032178868
 20
11.27490179839655
 30
0.0
  0
SEQEND
  5
253
330
250
100
AcDbEntity
  8
Layer 1
370
    35
  0
POLYLINE
  5
254
330
198
100
AcDbEntity
  8
Layer 1
 62
   250
420
  1842203
370
    35
100
AcDb2dPolyline
 66
     1
 10
0.0
 20
0.0
 30
0.0
  0
VERTEX
  5
255
330
254
100
AcDbEntity
  8
Layer 1
 62
   250
420
  1842203
370
    35
100
AcDbVertex
100
AcDb2dVertex
 10
6.701193032178868
 20
11.27490179839655
 30
0.0
  0
VERTEX
  5
256
330
254
100
AcDbEntity
  8
Layer 1
 62
   250
420
  1842203
370
    35
100
AcDbVertex
100
AcDb2dVertex
 10
6.709667967072583
 20
11.33205593249685
 30
0.0
  0
SEQEND
  5
257
330
254
100
AcDbEntity
  8
Layer 1
370
    35
  0
POLYLINE
  5
258
330
198
100
AcDbEntity
  8
Layer 1
 62
   250
420
  1842203
370
    35
100
AcDb2dPolyline
 66
     1
 10
0.0
 20
0.0
 30
0.0
  0
VERTEX
  5
259
330
258
100
AcDbEntity
  8
Layer 1
 62
   250
420
  1842203
370
    35
100
AcDbVertex
100
AcDb2dVertex
 10
6.709667967072583
 20
11.33205593249685
 30
0.0
  0
VERTEX
  5
25A
330
258
100
AcDbEntity
  8
Layer 1
 62
   250
420
  1842203
370
    35
100
AcDbVertex
100
AcDb2dVertex
 10
6.7202444102123
 20
11.38921006659714
 30
0.0
  0
SEQEND
  5
25B
330
258
100
AcDbEntity
  8
Layer 1
370
    35
  0
POLYLINE
  5
25C
330
198
100
AcDbEntity
  8
Layer 1
 62
   250
420
  1842203
370
    35
100
AcDb2dPolyline
 66
     1
 10
0.0
 20
0.0
 30
0.0
  0
VERTEX
  5
25D
330
25C
100
AcDbEntity
  8
Layer 1
 62
   250
420
  1842203
370
    35
100
AcDbVertex
100
AcDb2dVertex
 10
6.7202444102123
 20
11.38921006659714
 30
0.0
  0
VERTEX
  5
25E
330
25C
100
AcDbEntity
  8
Layer 1
 62
   250
420
  1842203
370
    35
100
AcDbVertex
100
AcDb2dVertex
 10
6.728702119628588
 20
11.44636420069744
 30
0.0
  0
SEQEND
  5
25F
330
25C
100
AcDbEntity
  8
Layer 1
370
    35
  0
POLYLINE
  5
260
330
198
100
AcDbEntity
  8
Layer 1
 62
   250
420
  1842203
370
    35
100
AcDb2dPolyline
 66
     1
 10
0.0
 20
0.0
 30
0.0
  0
VERTEX
  5
261
330
260
100
AcDbEntity
  8
Layer 1
 62
   250
420
  1842203
370
    35
100
AcDbVertex
100
AcDb2dVertex
 10
6.728719345106014
 20
11.44636420069744
 30
0.0
  0
VERTEX
  5
262
330
260
100
AcDbEntity
  8
Layer 1
 62
   250
420
  1842203
370
    35
100
AcDbVertex
100
AcDb2dVertex
 10
6.7350755462763
 20
11.50348388384288
 30
0.0
  0
SEQEND
  5
263
330
260
100
AcDbEntity
  8
Layer 1
370
    35
  0
POLYLINE
  5
264
330
198
100
AcDbEntity
  8
Layer 1
 62
   250
420
  1842203
370
    35
100
AcDb2dPolyline
 66
     1
 10
0.0
 20
0.0
 30
0.0
  0
VERTEX
  5
265
330
264
100
AcDbEntity
  8
Layer 1
 62
   250
420
  1842203
370
    35
100
AcDbVertex
100
AcDb2dVertex
 10
6.735058320798874
 20
11.50348388384288
 30
0.0
  0
VERTEX
  5
266
330
264
100
AcDbEntity
  8
Layer 1
 62
   250
420
  1842203
370
    35
100
AcDbVertex
100
AcDb2dVertex
 10
6.74141452196916
 20
11.56063801794317
 30
0.0
  0
SEQEND
  5
267
330
264
100
AcDbEntity
  8
Layer 1
370
    35
  0
POLYLINE
  5
268
330
198
100
AcDbEntity
  8
Layer 1
 62
   250
420
  1842203
370
    35
100
AcDb2dPolyline
 66
     1
 10
0.0
 20
0.0
 30
0.0
  0
VERTEX
  5
269
330
268
100
AcDbEntity
  8
Layer 1
 62
   250
420
  1842203
370
    35
100
AcDbVertex
100
AcDb2dVertex
 10
6.74141452196916
 20
11.56063801794317
 30
0.0
  0
VERTEX
  5
26A
330
268
100
AcDbEntity
  8
Layer 1
 62
   250
420
  1842203
370
    35
100
AcDbVertex
100
AcDb2dVertex
 10
6.745651989416017
 20
11.61779215204347
 30
0.0
  0
SEQEND
  5
26B
330
268
100
AcDbEntity
  8
Layer 1
370
    35
  0
POLYLINE
  5
26C
330
198
100
AcDbEntity
  8
Layer 1
 62
   250
420
  1842203
370
    35
100
AcDb2dPolyline
 66
     1
 10
0.0
 20
0.0
 30
0.0
  0
VERTEX
  5
26D
330
26C
100
AcDbEntity
  8
Layer 1
 62
   250
420
  1842203
370
    35
100
AcDbVertex
100
AcDb2dVertex
 10
6.745651989416017
 20
11.61779215204347
 30
0.0
  0
VERTEX
  5
26E
330
26C
100
AcDbEntity
  8
Layer 1
 62
   250
420
  1842203
370
    35
100
AcDbVertex
100
AcDb2dVertex
 10
6.749889456862874
 20
11.67706501986719
 30
0.0
  0
SEQEND
  5
26F
330
26C
100
AcDbEntity
  8
Layer 1
370
    35
  0
POLYLINE
  5
270
330
198
100
AcDbEntity
  8
Layer 1
 62
   250
420
  1842203
370
    35
100
AcDb2dPolyline
 66
     1
 10
0.0
 20
0.0
 30
0.0
  0
VERTEX
  5
271
330
270
100
AcDbEntity
  8
Layer 1
 62
   250
420
  1842203
370
    35
100
AcDbVertex
100
AcDb2dVertex
 10
6.749889456862874
 20
11.67704779438976
 30
0.0
  0
VERTEX
  5
272
330
270
100
AcDbEntity
  8
Layer 1
 62
   250
420
  1842203
370
    35
100
AcDbVertex
100
AcDb2dVertex
 10
6.752008190586303
 20
11.73423637944491
 30
0.0
  0
SEQEND
  5
273
330
270
100
AcDbEntity
  8
Layer 1
370
    35
  0
POLYLINE
  5
274
330
198
100
AcDbEntity
  8
Layer 1
 62
   250
420
  1842203
370
    35
100
AcDb2dPolyline
 66
     1
 10
0.0
 20
0.0
 30
0.0
  0
VERTEX
  5
275
330
274
100
AcDbEntity
  8
Layer 1
 62
   250
420
  1842203
370
    35
100
AcDbVertex
100
AcDb2dVertex
 10
6.751990965108877
 20
11.73423637944491
 30
0.0
  0
VERTEX
  5
276
330
274
100
AcDbEntity
  8
Layer 1
 62
   250
420
  1842203
370
    35
100
AcDbVertex
100
AcDb2dVertex
 10
6.754109698832305
 20
11.79135606259035
 30
0.0
  0
SEQEND
  5
277
330
274
100
AcDbEntity
  8
Layer 1
370
    35
  0
POLYLINE
  5
278
330
198
100
AcDbEntity
  8
Layer 1
 62
   250
420
  1842203
370
    35
100
AcDb2dPolyline
 66
     1
 10
0.0
 20
0.0
 30
0.0
  0
VERTEX
  5
279
330
278
100
AcDbEntity
  8
Layer 1
 62
   250
420
  1842203
370
    35
100
AcDbVertex
100
AcDb2dVertex
 10
6.754109698832305
 20
11.79135606259035
 30
0.0
  0
VERTEX
  5
27A
330
278
100
AcDbEntity
  8
Layer 1
 62
   250
420
  1842203
370
    35
100
AcDbVertex
100
AcDb2dVertex
 10
6.754109698832305
 20
11.85062893041408
 30
0.0
  0
SEQEND
  5
27B
330
278
100
AcDbEntity
  8
Layer 1
370
    35
  0
POLYLINE
  5
27C
330
198
100
AcDbEntity
  8
Layer 1
 62
   250
420
  1842203
370
    35
100
AcDb2dPolyline
 66
     1
 10
0.0
 20
0.0
 30
0.0
  0
VERTEX
  5
27D
330
27C
100
AcDbEntity
  8
Layer 1
 62
   250
420
  1842203
370
    35
100
AcDbVertex
100
AcDb2dVertex
 10
6.754109698832305
 20
11.85061170493665
 30
0.0
  0
VERTEX
  5
27E
330
27C
100
AcDbEntity
  8
Layer 1
 62
   250
420
  1842203
370
    35
100
AcDbVertex
100
AcDb2dVertex
 10
6.754109698832305
 20
11.9078002899918
 30
0.0
  0
SEQEND
  5
27F
330
27C
100
AcDbEntity
  8
Layer 1
370
    35
  0
POLYLINE
  5
280
330
198
100
AcDbEntity
  8
Layer 1
 62
   250
420
  1842203
370
    35
100
AcDb2dPolyline
 66
     1
 10
0.0
 20
0.0
 30
0.0
  0
VERTEX
  5
281
330
280
100
AcDbEntity
  8
Layer 1
 62
   250
420
  1842203
370
    35
100
AcDbVertex
100
AcDb2dVertex
 10
7.386990964950127
 20
11.42941433091001
 30
0.0
  0
VERTEX
  5
282
330
280
100
AcDbEntity
  8
Layer 1
 62
   250
420
  1842203
370
    35
100
AcDbVertex
100
AcDb2dVertex
 10
7.386990964950127
 20
10.90240084905391
 30
0.0
  0
SEQEND
  5
283
330
280
100
AcDbEntity
  8
Layer 1
370
    35
  0
POLYLINE
  5
284
330
198
100
AcDbEntity
  8
Layer 1
 62
   250
420
  1842203
370
    35
100
AcDb2dPolyline
 66
     1
 10
0.0
 20
0.0
 30
0.0
  0
VERTEX
  5
285
330
284
100
AcDbEntity
  8
Layer 1
 62
   250
420
  1842203
370
    35
100
AcDbVertex
100
AcDb2dVertex
 10
7.475891653946999
 20
11.47809353011659
 30
0.0
  0
VERTEX
  5
286
330
284
100
AcDbEntity
  8
Layer 1
 62
   250
420
  1842203
370
    35
100
AcDbVertex
100
AcDb2dVertex
 10
7.435670164156707
 20
11.47809353011659
 30
0.0
  0
SEQEND
  5
287
330
284
100
AcDbEntity
  8
Layer 1
370
    35
  0
POLYLINE
  5
288
330
198
100
AcDbEntity
  8
Layer 1
 62
   250
420
  1842203
370
    35
100
AcDb2dPolyline
 66
     1
 10
0.0
 20
0.0
 30
0.0
  0
VERTEX
  5
289
330
288
100
AcDbEntity
  8
Layer 1
 62
   250
420
  1842203
370
    35
100
AcDbVertex
100
AcDb2dVertex
 10
7.475891653946999
 20
11.47809353011659
 30
0.0
  0
VERTEX
  5
28A
330
288
100
AcDbEntity
  8
Layer 1
 62
   250
420
  1842203
370
    35
100
AcDbVertex
100
AcDb2dVertex
 10
7.484349363363287
 20
11.47809353011659
 30
0.0
  0
SEQEND
  5
28B
330
288
100
AcDbEntity
  8
Layer 1
370
    35
  0
POLYLINE
  5
28C
330
198
100
AcDbEntity
  8
Layer 1
 62
   250
420
  1842203
370
    35
100
AcDb2dPolyline
 66
     1
 10
0.0
 20
0.0
 30
0.0
  0
VERTEX
  5
28D
330
28C
100
AcDbEntity
  8
Layer 1
 62
   250
420
  1842203
370
    35
100
AcDbVertex
100
AcDb2dVertex
 10
7.484366588840714
 20
11.47809353011659
 30
0.0
  0
VERTEX
  5
28E
330
28C
100
AcDbEntity
  8
Layer 1
 62
   250
420
  1842203
370
    35
100
AcDbVertex
100
AcDb2dVertex
 10
7.49494303198043
 20
11.48233099756344
 30
0.0
  0
SEQEND
  5
28F
330
28C
100
AcDbEntity
  8
Layer 1
370
    35
  0
POLYLINE
  5
290
330
198
100
AcDbEntity
  8
Layer 1
 62
   250
420
  1842203
370
    35
100
AcDb2dPolyline
 66
     1
 10
0.0
 20
0.0
 30
0.0
  0
VERTEX
  5
291
330
290
100
AcDbEntity
  8
Layer 1
 62
   250
420
  1842203
370
    35
100
AcDbVertex
100
AcDb2dVertex
 10
7.503417966874145
 20
11.4865684650103
 30
0.0
  0
VERTEX
  5
292
330
290
100
AcDbEntity
  8
Layer 1
 62
   250
420
  1842203
370
    35
100
AcDbVertex
100
AcDb2dVertex
 10
7.49494303198043
 20
11.48233099756344
 30
0.0
  0
VERTEX
  5
293
330
290
100
AcDbEntity
  8
Layer 1
 62
   250
420
  1842203
370
    35
100
AcDbVertex
100
AcDb2dVertex
 10
8.612549232872905
 20
11.47809353011659
 30
0.0
  0
VERTEX
  5
294
330
290
100
AcDbEntity
  8
Layer 1
 62
   250
420
  1842203
370
    35
100
AcDbVertex
100
AcDb2dVertex
 10
8.62312567601262
 20
11.47809353011659
 30
0.0
  0
SEQEND
  5
295
330
290
100
AcDbEntity
  8
Layer 1
370
    35
  0
POLYLINE
  5
296
330
198
100
AcDbEntity
  8
Layer 1
 62
   250
420
  1842203
370
    35
100
AcDb2dPolyline
 66
     1
 10
0.0
 20
0.0
 30
0.0
  0
VERTEX
  5
297
330
296
100
AcDbEntity
  8
Layer 1
 62
   250
420
  1842203
370
    35
100
AcDbVertex
100
AcDb2dVertex
 10
7.503417966874145
 20
11.4865684650103
 30
0.0
  0
VERTEX
  5
298
330
296
100
AcDbEntity
  8
Layer 1
 62
   250
420
  1842203
370
    35
100
AcDbVertex
100
AcDb2dVertex
 10
7.509774168044431
 20
11.49292466618059
 30
0.0
  0
SEQEND
  5
299
330
296
100
AcDbEntity
  8
Layer 1
370
    35
  0
POLYLINE
  5
29A
330
198
100
AcDbEntity
  8
Layer 1
 62
   250
420
  1842203
370
    35
100
AcDb2dPolyline
 66
     1
 10
0.0
 20
0.0
 30
0.0
  0
VERTEX
  5
29B
330
29A
100
AcDbEntity
  8
Layer 1
 62
   250
420
  1842203
370
    35
100
AcDbVertex
100
AcDb2dVertex
 10
7.509774168044431
 20
11.49290744070316
 30
0.0
  0
VERTEX
  5
29C
330
29A
100
AcDbEntity
  8
Layer 1
 62
   250
420
  1842203
370
    35
100
AcDbVertex
100
AcDb2dVertex
 10
7.516130369214717
 20
11.50138237559688
 30
0.0
  0
SEQEND
  5
29D
330
29A
100
AcDbEntity
  8
Layer 1
370
    35
  0
POLYLINE
  5
29E
330
198
100
AcDbEntity
  8
Layer 1
 62
   250
420
  1842203
370
    35
100
AcDb2dPolyline
 66
     1
 10
0.0
 20
0.0
 30
0.0
  0
VERTEX
  5
29F
330
29E
100
AcDbEntity
  8
Layer 1
 62
   250
420
  1842203
370
    35
100
AcDbVertex
100
AcDb2dVertex
 10
7.51611314373729
 20
11.50138237559688
 30
0.0
  0
VERTEX
  5
2A0
330
29E
100
AcDbEntity
  8
Layer 1
 62
   250
420
  1842203
370
    35
100
AcDbVertex
100
AcDb2dVertex
 10
7.520350611184148
 20
11.50984008501317
 30
0.0
  0
SEQEND
  5
2A1
330
29E
100
AcDbEntity
  8
Layer 1
370
    35
  0
POLYLINE
  5
2A2
330
198
100
AcDbEntity
  8
Layer 1
 62
   250
420
  1842203
370
    35
100
AcDb2dPolyline
 66
     1
 10
0.0
 20
0.0
 30
0.0
  0
VERTEX
  5
2A3
330
2A2
100
AcDbEntity
  8
Layer 1
 62
   250
420
  1842203
370
    35
100
AcDbVertex
100
AcDb2dVertex
 10
7.520350611184148
 20
11.50985731049059
 30
0.0
  0
VERTEX
  5
2A4
330
2A2
100
AcDbEntity
  8
Layer 1
 62
   250
420
  1842203
370
    35
100
AcDbVertex
100
AcDb2dVertex
 10
7.524588078631005
 20
11.51829779442945
 30
0.0
  0
SEQEND
  5
2A5
330
2A2
100
AcDbEntity
  8
Layer 1
370
    35
  0
POLYLINE
  5
2A6
330
198
100
AcDbEntity
  8
Layer 1
 62
   250
420
  1842203
370
    35
100
AcDb2dPolyline
 66
     1
 10
0.0
 20
0.0
 30
0.0
  0
VERTEX
  5
2A7
330
2A6
100
AcDbEntity
  8
Layer 1
 62
   250
420
  1842203
370
    35
100
AcDbVertex
100
AcDb2dVertex
 10
7.524588078631005
 20
11.51829779442945
 30
0.0
  0
VERTEX
  5
2A8
330
2A6
100
AcDbEntity
  8
Layer 1
 62
   250
420
  1842203
370
    35
100
AcDbVertex
100
AcDb2dVertex
 10
7.524588078631005
 20
11.52890868852402
 30
0.0
  0
SEQEND
  5
2A9
330
2A6
100
AcDbEntity
  8
Layer 1
370
    35
  0
POLYLINE
  5
2AA
330
198
100
AcDbEntity
  8
Layer 1
 62
   250
420
  1842203
370
    35
100
AcDb2dPolyline
 66
     1
 10
0.0
 20
0.0
 30
0.0
  0
VERTEX
  5
2AB
330
2AA
100
AcDbEntity
  8
Layer 1
 62
   250
420
  1842203
370
    35
100
AcDbVertex
100
AcDb2dVertex
 10
7.42509372101699
 20
11.79349202179121
 30
0.0
  0
VERTEX
  5
2AC
330
2AA
100
AcDbEntity
  8
Layer 1
 62
   250
420
  1842203
370
    35
100
AcDbVertex
100
AcDb2dVertex
 10
6.754109698832305
 20
11.79349202179121
 30
0.0
  0
SEQEND
  5
2AD
330
2AA
100
AcDbEntity
  8
Layer 1
370
    35
  0
POLYLINE
  5
2AE
330
198
100
AcDbEntity
  8
Layer 1
 62
   250
420
  1842203
370
    35
100
AcDb2dPolyline
 66
     1
 10
0.0
 20
0.0
 30
0.0
  0
VERTEX
  5
2AF
330
2AE
100
AcDbEntity
  8
Layer 1
 62
   250
420
  1842203
370
    35
100
AcDbVertex
100
AcDb2dVertex
 10
7.573267277837585
 20
10.85366997341505
 30
0.0
  0
VERTEX
  5
2B0
330
2AE
100
AcDbEntity
  8
Layer 1
 62
   250
420
  1842203
370
    35
100
AcDbVertex
100
AcDb2dVertex
 10
7.435687389634134
 20
10.85366997341505
 30
0.0
  0
SEQEND
  5
2B1
330
2AE
100
AcDbEntity
  8
Layer 1
370
    35
  0
POLYLINE
  5
2B2
330
198
100
AcDbEntity
  8
Layer 1
 62
   250
420
  1842203
370
    35
100
AcDb2dPolyline
 66
     1
 10
0.0
 20
0.0
 30
0.0
  0
VERTEX
  5
2B3
330
2B2
100
AcDbEntity
  8
Layer 1
 62
   250
420
  1842203
370
    35
100
AcDbVertex
100
AcDb2dVertex
 10
7.435687389634134
 20
10.85366997341505
 30
0.0
  0
VERTEX
  5
2B4
330
2B2
100
AcDbEntity
  8
Layer 1
 62
   250
420
  1842203
370
    35
100
AcDbVertex
100
AcDb2dVertex
 10
7.387008190427553
 20
10.90238362357649
 30
0.0
  0
SEQEND
  5
2B5
330
2B2
100
AcDbEntity
  8
Layer 1
370
    35
  0
POLYLINE
  5
2B6
330
198
100
AcDbEntity
  8
Layer 1
 62
   250
420
  1842203
370
    35
100
AcDb2dPolyline
 66
     1
 10
0.0
 20
0.0
 30
0.0
  0
VERTEX
  5
2B7
330
2B6
100
AcDbEntity
  8
Layer 1
 62
   250
420
  1842203
370
    35
100
AcDbVertex
100
AcDb2dVertex
 10
8.661228432079485
 20
10.85366997341505
 30
0.0
  0
VERTEX
  5
2B8
330
2B6
100
AcDbEntity
  8
Layer 1
 62
   250
420
  1842203
370
    35
100
AcDbVertex
100
AcDb2dVertex
 10
8.709907631286065
 20
10.90238362357649
 30
0.0
  0
SEQEND
  5
2B9
330
2B6
100
AcDbEntity
  8
Layer 1
370
    35
  0
POLYLINE
  5
2BA
330
198
100
AcDbEntity
  8
Layer 1
 62
   250
420
  1842203
370
    35
100
AcDb2dPolyline
 66
     1
 10
0.0
 20
0.0
 30
0.0
  0
VERTEX
  5
2BB
330
2BA
100
AcDbEntity
  8
Layer 1
 62
   250
420
  1842203
370
    35
100
AcDbVertex
100
AcDb2dVertex
 10
8.523648543876032
 20
10.85366997341505
 30
0.0
  0
VERTEX
  5
2BC
330
2BA
100
AcDbEntity
  8
Layer 1
 62
   250
420
  1842203
370
    35
100
AcDbVertex
100
AcDb2dVertex
 10
7.573267277837585
 20
10.85366997341505
 30
0.0
  0
SEQEND
  5
2BD
330
2BA
100
AcDbEntity
  8
Layer 1
370
    35
  0
POLYLINE
  5
2BE
330
198
100
AcDbEntity
  8
Layer 1
 62
   250
420
  1842203
370
    35
100
AcDb2dPolyline
 66
     1
 10
0.0
 20
0.0
 30
0.0
  0
VERTEX
  5
2BF
330
2BE
100
AcDbEntity
  8
Layer 1
 62
   250
420
  1842203
370
    35
100
AcDbVertex
100
AcDb2dVertex
 10
6.754109698832305
 20
11.79349202179121
 30
0.0
  0
VERTEX
  5
2C0
330
2BE
100
AcDbEntity
  8
Layer 1
 62
   250
420
  1842203
370
    35
100
AcDbVertex
100
AcDb2dVertex
 10
6.754109698832305
 20
11.97971665824639
 30
0.0
  0
SEQEND
  5
2C1
330
2BE
100
AcDbEntity
  8
Layer 1
370
    35
  0
POLYLINE
  5
2C2
330
198
100
AcDbEntity
  8
Layer 1
 62
   250
420
  1842203
370
    35
100
AcDb2dPolyline
 66
     1
 10
0.0
 20
0.0
 30
0.0
  0
VERTEX
  5
2C3
330
2C2
100
AcDbEntity
  8
Layer 1
 62
   250
420
  1842203
370
    35
100
AcDbVertex
100
AcDb2dVertex
 10
7.524588078631005
 20
11.69399766417719
 30
0.0
  0
VERTEX
  5
2C4
330
2C2
100
AcDbEntity
  8
Layer 1
 62
   250
420
  1842203
370
    35
100
AcDbVertex
100
AcDb2dVertex
 10
7.524588078631005
 20
11.70247259907091
 30
0.0
  0
SEQEND
  5
2C5
330
2C2
100
AcDbEntity
  8
Layer 1
370
    35
  0
POLYLINE
  5
2C6
330
198
100
AcDbEntity
  8
Layer 1
 62
   250
420
  1842203
370
    35
100
AcDb2dPolyline
 66
     1
 10
0.0
 20
0.0
 30
0.0
  0
VERTEX
  5
2C7
330
2C6
100
AcDbEntity
  8
Layer 1
 62
   250
420
  1842203
370
    35
100
AcDbVertex
100
AcDb2dVertex
 10
7.524588078631005
 20
11.70247259907091
 30
0.0
  0
VERTEX
  5
2C8
330
2C6
100
AcDbEntity
  8
Layer 1
 62
   250
420
  1842203
370
    35
100
AcDbVertex
100
AcDb2dVertex
 10
7.522469344907576
 20
11.71304904221063
 30
0.0
  0
SEQEND
  5
2C9
330
2C6
100
AcDbEntity
  8
Layer 1
370
    35
  0
POLYLINE
  5
2CA
330
198
100
AcDbEntity
  8
Layer 1
 62
   250
420
  1842203
370
    35
100
AcDb2dPolyline
 66
     1
 10
0.0
 20
0.0
 30
0.0
  0
VERTEX
  5
2CB
330
2CA
100
AcDbEntity
  8
Layer 1
 62
   250
420
  1842203
370
    35
100
AcDbVertex
100
AcDb2dVertex
 10
7.522469344907576
 20
11.71304904221063
 30
0.0
  0
VERTEX
  5
2CC
330
2CA
100
AcDbEntity
  8
Layer 1
 62
   250
420
  1842203
370
    35
100
AcDbVertex
100
AcDb2dVertex
 10
7.520350611184148
 20
11.72150675162691
 30
0.0
  0
SEQEND
  5
2CD
330
2CA
100
AcDbEntity
  8
Layer 1
370
    35
  0
POLYLINE
  5
2CE
330
198
100
AcDbEntity
  8
Layer 1
 62
   250
420
  1842203
370
    35
100
AcDb2dPolyline
 66
     1
 10
0.0
 20
0.0
 30
0.0
  0
VERTEX
  5
2CF
330
2CE
100
AcDbEntity
  8
Layer 1
 62
   250
420
  1842203
370
    35
100
AcDbVertex
100
AcDb2dVertex
 10
7.520350611184148
 20
11.72152397710434
 30
0.0
  0
VERTEX
  5
2D0
330
2CE
100
AcDbEntity
  8
Layer 1
 62
   250
420
  1842203
370
    35
100
AcDbVertex
100
AcDb2dVertex
 10
7.518231877460719
 20
11.73210042024406
 30
0.0
  0
SEQEND
  5
2D1
330
2CE
100
AcDbEntity
  8
Layer 1
370
    35
  0
POLYLINE
  5
2D2
330
198
100
AcDbEntity
  8
Layer 1
 62
   250
420
  1842203
370
    35
100
AcDb2dPolyline
 66
     1
 10
0.0
 20
0.0
 30
0.0
  0
VERTEX
  5
2D3
330
2D2
100
AcDbEntity
  8
Layer 1
 62
   250
420
  1842203
370
    35
100
AcDbVertex
100
AcDb2dVertex
 10
7.518231877460719
 20
11.73210042024406
 30
0.0
  0
VERTEX
  5
2D4
330
2D2
100
AcDbEntity
  8
Layer 1
 62
   250
420
  1842203
370
    35
100
AcDbVertex
100
AcDb2dVertex
 10
7.513994410013862
 20
11.74057535513777
 30
0.0
  0
SEQEND
  5
2D5
330
2D2
100
AcDbEntity
  8
Layer 1
370
    35
  0
POLYLINE
  5
2D6
330
198
100
AcDbEntity
  8
Layer 1
 62
   250
420
  1842203
370
    35
100
AcDb2dPolyline
 66
     1
 10
0.0
 20
0.0
 30
0.0
  0
VERTEX
  5
2D7
330
2D6
100
AcDbEntity
  8
Layer 1
 62
   250
420
  1842203
370
    35
100
AcDbVertex
100
AcDb2dVertex
 10
7.513994410013862
 20
11.74057535513777
 30
0.0
  0
VERTEX
  5
2D8
330
2D6
100
AcDbEntity
  8
Layer 1
 62
   250
420
  1842203
370
    35
100
AcDbVertex
100
AcDb2dVertex
 10
7.507638208843576
 20
11.74905029003149
 30
0.0
  0
SEQEND
  5
2D9
330
2D6
100
AcDbEntity
  8
Layer 1
370
    35
  0
POLYLINE
  5
2DA
330
198
100
AcDbEntity
  8
Layer 1
 62
   250
420
  1842203
370
    35
100
AcDb2dPolyline
 66
     1
 10
0.0
 20
0.0
 30
0.0
  0
VERTEX
  5
2DB
330
2DA
100
AcDbEntity
  8
Layer 1
 62
   250
420
  1842203
370
    35
100
AcDbVertex
100
AcDb2dVertex
 10
7.507655434321002
 20
11.74905029003149
 30
0.0
  0
VERTEX
  5
2DC
330
2DA
100
AcDbEntity
  8
Layer 1
 62
   250
420
  1842203
370
    35
100
AcDbVertex
100
AcDb2dVertex
 10
7.501299233150716
 20
11.75747354849292
 30
0.0
  0
SEQEND
  5
2DD
330
2DA
100
AcDbEntity
  8
Layer 1
370
    35
  0
POLYLINE
  5
2DE
330
198
100
AcDbEntity
  8
Layer 1
 62
   250
420
  1842203
370
    35
100
AcDb2dPolyline
 66
     1
 10
0.0
 20
0.0
 30
0.0
  0
VERTEX
  5
2DF
330
2DE
100
AcDbEntity
  8
Layer 1
 62
   250
420
  1842203
370
    35
100
AcDbVertex
100
AcDb2dVertex
 10
7.501299233150716
 20
11.75749077397035
 30
0.0
  0
VERTEX
  5
2E0
330
2DE
100
AcDbEntity
  8
Layer 1
 62
   250
420
  1842203
370
    35
100
AcDbVertex
100
AcDb2dVertex
 10
7.49494303198043
 20
11.76388142609549
 30
0.0
  0
SEQEND
  5
2E1
330
2DE
100
AcDbEntity
  8
Layer 1
370
    35
  0
POLYLINE
  5
2E2
330
198
100
AcDbEntity
  8
Layer 1
 62
   250
420
  1842203
370
    35
100
AcDb2dPolyline
 66
     1
 10
0.0
 20
0.0
 30
0.0
  0
VERTEX
  5
2E3
330
2E2
100
AcDbEntity
  8
Layer 1
 62
   250
420
  1842203
370
    35
100
AcDbVertex
100
AcDb2dVertex
 10
7.49494303198043
 20
11.76386420061806
 30
0.0
  0
VERTEX
  5
2E4
330
2E2
100
AcDbEntity
  8
Layer 1
 62
   250
420
  1842203
370
    35
100
AcDbVertex
100
AcDb2dVertex
 10
7.488586830810144
 20
11.77022040178835
 30
0.0
  0
SEQEND
  5
2E5
330
2E2
100
AcDbEntity
  8
Layer 1
370
    35
  0
POLYLINE
  5
2E6
330
198
100
AcDbEntity
  8
Layer 1
 62
   250
420
  1842203
370
    35
100
AcDb2dPolyline
 66
     1
 10
0.0
 20
0.0
 30
0.0
  0
VERTEX
  5
2E7
330
2E6
100
AcDbEntity
  8
Layer 1
 62
   250
420
  1842203
370
    35
100
AcDbVertex
100
AcDb2dVertex
 10
7.488604056287571
 20
11.77020317631092
 30
0.0
  0
VERTEX
  5
2E8
330
2E6
100
AcDbEntity
  8
Layer 1
 62
   250
420
  1842203
370
    35
100
AcDbVertex
100
AcDb2dVertex
 10
7.480146346871282
 20
11.77655937748121
 30
0.0
  0
SEQEND
  5
2E9
330
2E6
100
AcDbEntity
  8
Layer 1
370
    35
  0
POLYLINE
  5
2EA
330
198
100
AcDbEntity
  8
Layer 1
 62
   250
420
  1842203
370
    35
100
AcDb2dPolyline
 66
     1
 10
0.0
 20
0.0
 30
0.0
  0
VERTEX
  5
2EB
330
2EA
100
AcDbEntity
  8
Layer 1
 62
   250
420
  1842203
370
    35
100
AcDbVertex
100
AcDb2dVertex
 10
7.480129121393856
 20
11.77654215200378
 30
0.0
  0
VERTEX
  5
2EC
330
2EA
100
AcDbEntity
  8
Layer 1
 62
   250
420
  1842203
370
    35
100
AcDbVertex
100
AcDb2dVertex
 10
7.471671411977567
 20
11.78077961945064
 30
0.0
  0
SEQEND
  5
2ED
330
2EA
100
AcDbEntity
  8
Layer 1
370
    35
  0
POLYLINE
  5
2EE
330
198
100
AcDbEntity
  8
Layer 1
 62
   250
420
  1842203
370
    35
100
AcDb2dPolyline
 66
     1
 10
0.0
 20
0.0
 30
0.0
  0
VERTEX
  5
2EF
330
2EE
100
AcDbEntity
  8
Layer 1
 62
   250
420
  1842203
370
    35
100
AcDbVertex
100
AcDb2dVertex
 10
7.471671411977567
 20
11.78077961945064
 30
0.0
  0
VERTEX
  5
2F0
330
2EE
100
AcDbEntity
  8
Layer 1
 62
   250
420
  1842203
370
    35
100
AcDbVertex
100
AcDb2dVertex
 10
7.463196477083853
 20
11.7850170868975
 30
0.0
  0
SEQEND
  5
2F1
330
2EE
100
AcDbEntity
  8
Layer 1
370
    35
  0
POLYLINE
  5
2F2
330
198
100
AcDbEntity
  8
Layer 1
 62
   250
420
  1842203
370
    35
100
AcDb2dPolyline
 66
     1
 10
0.0
 20
0.0
 30
0.0
  0
VERTEX
  5
2F3
330
2F2
100
AcDbEntity
  8
Layer 1
 62
   250
420
  1842203
370
    35
100
AcDbVertex
100
AcDb2dVertex
 10
7.463196477083853
 20
11.7850170868975
 30
0.0
  0
VERTEX
  5
2F4
330
2F2
100
AcDbEntity
  8
Layer 1
 62
   250
420
  1842203
370
    35
100
AcDbVertex
100
AcDb2dVertex
 10
7.454738767667565
 20
11.78925455434435
 30
0.0
  0
SEQEND
  5
2F5
330
2F2
100
AcDbEntity
  8
Layer 1
370
    35
  0
POLYLINE
  5
2F6
330
198
100
AcDbEntity
  8
Layer 1
 62
   250
420
  1842203
370
    35
100
AcDb2dPolyline
 66
     1
 10
0.0
 20
0.0
 30
0.0
  0
VERTEX
  5
2F7
330
2F6
100
AcDbEntity
  8
Layer 1
 62
   250
420
  1842203
370
    35
100
AcDbVertex
100
AcDb2dVertex
 10
7.454738767667565
 20
11.78925455434435
 30
0.0
  0
VERTEX
  5
2F8
330
2F6
100
AcDbEntity
  8
Layer 1
 62
   250
420
  1842203
370
    35
100
AcDbVertex
100
AcDb2dVertex
 10
7.444162324527848
 20
11.79137328806778
 30
0.0
  0
SEQEND
  5
2F9
330
2F6
100
AcDbEntity
  8
Layer 1
370
    35
  0
POLYLINE
  5
2FA
330
198
100
AcDbEntity
  8
Layer 1
 62
   250
420
  1842203
370
    35
100
AcDb2dPolyline
 66
     1
 10
0.0
 20
0.0
 30
0.0
  0
VERTEX
  5
2FB
330
2FA
100
AcDbEntity
  8
Layer 1
 62
   250
420
  1842203
370
    35
100
AcDbVertex
100
AcDb2dVertex
 10
7.444145099050422
 20
11.79135606259035
 30
0.0
  0
VERTEX
  5
2FC
330
2FA
100
AcDbEntity
  8
Layer 1
 62
   250
420
  1842203
370
    35
100
AcDbVertex
100
AcDb2dVertex
 10
7.435670164156707
 20
11.79350924726864
 30
0.0
  0
SEQEND
  5
2FD
330
2FA
100
AcDbEntity
  8
Layer 1
370
    35
  0
POLYLINE
  5
2FE
330
198
100
AcDbEntity
  8
Layer 1
 62
   250
420
  1842203
370
    35
100
AcDb2dPolyline
 66
     1
 10
0.0
 20
0.0
 30
0.0
  0
VERTEX
  5
2FF
330
2FE
100
AcDbEntity
  8
Layer 1
 62
   250
420
  1842203
370
    35
100
AcDbVertex
100
AcDb2dVertex
 10
7.435687389634134
 20
11.79349202179121
 30
0.0
  0
VERTEX
  5
300
330
2FE
100
AcDbEntity
  8
Layer 1
 62
   250
420
  1842203
370
    35
100
AcDbVertex
100
AcDb2dVertex
 10
7.425110946494416
 20
11.79349202179121
 30
0.0
  0
SEQEND
  5
301
330
2FE
100
AcDbEntity
  8
Layer 1
370
    35
  0
POLYLINE
  5
302
330
198
100
AcDbEntity
  8
Layer 1
 62
   250
420
  1842203
370
    35
100
AcDb2dPolyline
 66
     1
 10
0.0
 20
0.0
 30
0.0
  0
VERTEX
  5
303
330
302
100
AcDbEntity
  8
Layer 1
 62
   250
420
  1842203
370
    35
100
AcDbVertex
100
AcDb2dVertex
 10
7.524588078631005
 20
11.69399766417719
 30
0.0
  0
VERTEX
  5
304
330
302
100
AcDbEntity
  8
Layer 1
 62
   250
420
  1842203
370
    35
100
AcDbVertex
100
AcDb2dVertex
 10
7.524588078631005
 20
11.5288914630466
 30
0.0
  0
VERTEX
  5
305
330
302
100
AcDbEntity
  8
Layer 1
 62
   250
420
  1842203
370
    35
100
AcDbVertex
100
AcDb2dVertex
 10
8.57444647680604
 20
11.51831501990688
 30
0.0
  0
VERTEX
  5
306
330
302
100
AcDbEntity
  8
Layer 1
 62
   250
420
  1842203
370
    35
100
AcDbVertex
100
AcDb2dVertex
 10
8.57656521052947
 20
11.50984008501317
 30
0.0
  0
SEQEND
  5
307
330
302
100
AcDbEntity
  8
Layer 1
370
    35
  0
POLYLINE
  5
308
330
198
100
AcDbEntity
  8
Layer 1
 62
   250
420
  1842203
370
    35
100
AcDb2dPolyline
 66
     1
 10
0.0
 20
0.0
 30
0.0
  0
VERTEX
  5
309
330
308
100
AcDbEntity
  8
Layer 1
 62
   250
420
  1842203
370
    35
100
AcDbVertex
100
AcDb2dVertex
 10
7.386990964950127
 20
11.42941433091001
 30
0.0
  0
VERTEX
  5
30A
330
308
100
AcDbEntity
  8
Layer 1
 62
   250
420
  1842203
370
    35
100
AcDbVertex
100
AcDb2dVertex
 10
7.435670164156707
 20
11.47809353011659
 30
0.0
  0
SEQEND
  5
30B
330
308
100
AcDbEntity
  8
Layer 1
370
    35
  0
POLYLINE
  5
30C
330
198
100
AcDbEntity
  8
Layer 1
 62
   250
420
  1842203
370
    35
100
AcDb2dPolyline
 66
     1
 10
0.0
 20
0.0
 30
0.0
  0
VERTEX
  5
30D
330
30C
100
AcDbEntity
  8
Layer 1
 62
   250
420
  1842203
370
    35
100
AcDbVertex
100
AcDb2dVertex
 10
8.62312567601262
 20
11.47809353011659
 30
0.0
  0
VERTEX
  5
30E
330
30C
100
AcDbEntity
  8
Layer 1
 62
   250
420
  1842203
370
    35
100
AcDbVertex
100
AcDb2dVertex
 10
8.661228432079485
 20
11.47809353011659
 30
0.0
  0
SEQEND
  5
30F
330
30C
100
AcDbEntity
  8
Layer 1
370
    35
  0
POLYLINE
  5
310
330
198
100
AcDbEntity
  8
Layer 1
 62
   250
420
  1842203
370
    35
100
AcDb2dPolyline
 66
     1
 10
0.0
 20
0.0
 30
0.0
  0
VERTEX
  5
311
330
310
100
AcDbEntity
  8
Layer 1
 62
   250
420
  1842203
370
    35
100
AcDbVertex
100
AcDb2dVertex
 10
8.671822100696627
 20
11.79349202179121
 30
0.0
  0
VERTEX
  5
312
330
310
100
AcDbEntity
  8
Layer 1
 62
   250
420
  1842203
370
    35
100
AcDbVertex
100
AcDb2dVertex
 10
8.663347165802913
 20
11.79349202179121
 30
0.0
  0
SEQEND
  5
313
330
310
100
AcDbEntity
  8
Layer 1
370
    35
  0
POLYLINE
  5
314
330
198
100
AcDbEntity
  8
Layer 1
 62
   250
420
  1842203
370
    35
100
AcDb2dPolyline
 66
     1
 10
0.0
 20
0.0
 30
0.0
  0
VERTEX
  5
315
330
314
100
AcDbEntity
  8
Layer 1
 62
   250
420
  1842203
370
    35
100
AcDbVertex
100
AcDb2dVertex
 10
8.663347165802913
 20
11.79349202179121
 30
0.0
  0
VERTEX
  5
316
330
314
100
AcDbEntity
  8
Layer 1
 62
   250
420
  1842203
370
    35
100
AcDbVertex
100
AcDb2dVertex
 10
8.652770722663195
 20
11.79133883711293
 30
0.0
  0
SEQEND
  5
317
330
314
100
AcDbEntity
  8
Layer 1
370
    35
  0
POLYLINE
  5
318
330
198
100
AcDbEntity
  8
Layer 1
 62
   250
420
  1842203
370
    35
100
AcDb2dPolyline
 66
     1
 10
0.0
 20
0.0
 30
0.0
  0
VERTEX
  5
319
330
318
100
AcDbEntity
  8
Layer 1
 62
   250
420
  1842203
370
    35
100
AcDbVertex
100
AcDb2dVertex
 10
8.652770722663195
 20
11.79135606259035
 30
0.0
  0
VERTEX
  5
31A
330
318
100
AcDbEntity
  8
Layer 1
 62
   250
420
  1842203
370
    35
100
AcDbVertex
100
AcDb2dVertex
 10
8.644313013246908
 20
11.78923732886693
 30
0.0
  0
SEQEND
  5
31B
330
318
100
AcDbEntity
  8
Layer 1
370
    35
  0
POLYLINE
  5
31C
330
198
100
AcDbEntity
  8
Layer 1
 62
   250
420
  1842203
370
    35
100
AcDb2dPolyline
 66
     1
 10
0.0
 20
0.0
 30
0.0
  0
VERTEX
  5
31D
330
31C
100
AcDbEntity
  8
Layer 1
 62
   250
420
  1842203
370
    35
100
AcDbVertex
100
AcDb2dVertex
 10
8.644295787769481
 20
11.78925455434435
 30
0.0
  0
VERTEX
  5
31E
330
31C
100
AcDbEntity
  8
Layer 1
 62
   250
420
  1842203
370
    35
100
AcDbVertex
100
AcDb2dVertex
 10
8.633719344629764
 20
11.7850170868975
 30
0.0
  0
SEQEND
  5
31F
330
31C
100
AcDbEntity
  8
Layer 1
370
    35
  0
POLYLINE
  5
320
330
198
100
AcDbEntity
  8
Layer 1
 62
   250
420
  1842203
370
    35
100
AcDb2dPolyline
 66
     1
 10
0.0
 20
0.0
 30
0.0
  0
VERTEX
  5
321
330
320
100
AcDbEntity
  8
Layer 1
 62
   250
420
  1842203
370
    35
100
AcDbVertex
100
AcDb2dVertex
 10
8.633719344629764
 20
11.7850170868975
 30
0.0
  0
VERTEX
  5
322
330
320
100
AcDbEntity
  8
Layer 1
 62
   250
420
  1842203
370
    35
100
AcDbVertex
100
AcDb2dVertex
 10
8.625261635213475
 20
11.78077961945064
 30
0.0
  0
SEQEND
  5
323
330
320
100
AcDbEntity
  8
Layer 1
370
    35
  0
POLYLINE
  5
324
330
198
100
AcDbEntity
  8
Layer 1
 62
   250
420
  1842203
370
    35
100
AcDb2dPolyline
 66
     1
 10
0.0
 20
0.0
 30
0.0
  0
VERTEX
  5
325
330
324
100
AcDbEntity
  8
Layer 1
 62
   250
420
  1842203
370
    35
100
AcDbVertex
100
AcDb2dVertex
 10
8.62524440973605
 20
11.78077961945064
 30
0.0
  0
VERTEX
  5
326
330
324
100
AcDbEntity
  8
Layer 1
 62
   250
420
  1842203
370
    35
100
AcDbVertex
100
AcDb2dVertex
 10
8.616769474842334
 20
11.77654215200378
 30
0.0
  0
SEQEND
  5
327
330
324
100
AcDbEntity
  8
Layer 1
370
    35
  0
POLYLINE
  5
328
330
198
100
AcDbEntity
  8
Layer 1
 62
   250
420
  1842203
370
    35
100
AcDb2dPolyline
 66
     1
 10
0.0
 20
0.0
 30
0.0
  0
VERTEX
  5
329
330
328
100
AcDbEntity
  8
Layer 1
 62
   250
420
  1842203
370
    35
100
AcDbVertex
100
AcDb2dVertex
 10
8.61678670031976
 20
11.77654215200378
 30
0.0
  0
VERTEX
  5
32A
330
328
100
AcDbEntity
  8
Layer 1
 62
   250
420
  1842203
370
    35
100
AcDbVertex
100
AcDb2dVertex
 10
8.608328990903473
 20
11.7701859508335
 30
0.0
  0
SEQEND
  5
32B
330
328
100
AcDbEntity
  8
Layer 1
370
    35
  0
POLYLINE
  5
32C
330
198
100
AcDbEntity
  8
Layer 1
 62
   250
420
  1842203
370
    35
100
AcDb2dPolyline
 66
     1
 10
0.0
 20
0.0
 30
0.0
  0
VERTEX
  5
32D
330
32C
100
AcDbEntity
  8
Layer 1
 62
   250
420
  1842203
370
    35
100
AcDbVertex
100
AcDb2dVertex
 10
8.608311765426047
 20
11.77020317631092
 30
0.0
  0
VERTEX
  5
32E
330
32C
100
AcDbEntity
  8
Layer 1
 62
   250
420
  1842203
370
    35
100
AcDbVertex
100
AcDb2dVertex
 10
8.60195556425576
 20
11.76384697514063
 30
0.0
  0
SEQEND
  5
32F
330
32C
100
AcDbEntity
  8
Layer 1
370
    35
  0
POLYLINE
  5
330
330
198
100
AcDbEntity
  8
Layer 1
 62
   250
420
  1842203
370
    35
100
AcDb2dPolyline
 66
     1
 10
0.0
 20
0.0
 30
0.0
  0
VERTEX
  5
331
330
330
100
AcDbEntity
  8
Layer 1
 62
   250
420
  1842203
370
    35
100
AcDbVertex
100
AcDb2dVertex
 10
8.60195556425576
 20
11.76386420061806
 30
0.0
  0
VERTEX
  5
332
330
330
100
AcDbEntity
  8
Layer 1
 62
   250
420
  1842203
370
    35
100
AcDbVertex
100
AcDb2dVertex
 10
8.595599363085475
 20
11.75747354849292
 30
0.0
  0
SEQEND
  5
333
330
330
100
AcDbEntity
  8
Layer 1
370
    35
  0
POLYLINE
  5
334
330
198
100
AcDbEntity
  8
Layer 1
 62
   250
420
  1842203
370
    35
100
AcDb2dPolyline
 66
     1
 10
0.0
 20
0.0
 30
0.0
  0
VERTEX
  5
335
330
334
100
AcDbEntity
  8
Layer 1
 62
   250
420
  1842203
370
    35
100
AcDbVertex
100
AcDb2dVertex
 10
8.595616588562901
 20
11.75749077397035
 30
0.0
  0
VERTEX
  5
336
330
334
100
AcDbEntity
  8
Layer 1
 62
   250
420
  1842203
370
    35
100
AcDbVertex
100
AcDb2dVertex
 10
8.589260387392615
 20
11.74905029003149
 30
0.0
  0
SEQEND
  5
337
330
334
100
AcDbEntity
  8
Layer 1
370
    35
  0
POLYLINE
  5
338
330
198
100
AcDbEntity
  8
Layer 1
 62
   250
420
  1842203
370
    35
100
AcDb2dPolyline
 66
     1
 10
0.0
 20
0.0
 30
0.0
  0
VERTEX
  5
339
330
338
100
AcDbEntity
  8
Layer 1
 62
   250
420
  1842203
370
    35
100
AcDbVertex
100
AcDb2dVertex
 10
8.589260387392615
 20
11.74905029003149
 30
0.0
  0
VERTEX
  5
33A
330
338
100
AcDbEntity
  8
Layer 1
 62
   250
420
  1842203
370
    35
100
AcDbVertex
100
AcDb2dVertex
 10
8.585022919945757
 20
11.74057535513777
 30
0.0
  0
SEQEND
  5
33B
330
338
100
AcDbEntity
  8
Layer 1
370
    35
  0
POLYLINE
  5
33C
330
198
100
AcDbEntity
  8
Layer 1
 62
   250
420
  1842203
370
    35
100
AcDb2dPolyline
 66
     1
 10
0.0
 20
0.0
 30
0.0
  0
VERTEX
  5
33D
330
33C
100
AcDbEntity
  8
Layer 1
 62
   250
420
  1842203
370
    35
100
AcDbVertex
100
AcDb2dVertex
 10
8.585022919945757
 20
11.74057535513777
 30
0.0
  0
VERTEX
  5
33E
330
33C
100
AcDbEntity
  8
Layer 1
 62
   250
420
  1842203
370
    35
100
AcDbVertex
100
AcDb2dVertex
 10
8.580785452498901
 20
11.73210042024406
 30
0.0
  0
SEQEND
  5
33F
330
33C
100
AcDbEntity
  8
Layer 1
370
    35
  0
POLYLINE
  5
340
330
198
100
AcDbEntity
  8
Layer 1
 62
   250
420
  1842203
370
    35
100
AcDb2dPolyline
 66
     1
 10
0.0
 20
0.0
 30
0.0
  0
VERTEX
  5
341
330
340
100
AcDbEntity
  8
Layer 1
 62
   250
420
  1842203
370
    35
100
AcDbVertex
100
AcDb2dVertex
 10
8.580802677976326
 20
11.73210042024406
 30
0.0
  0
VERTEX
  5
342
330
340
100
AcDbEntity
  8
Layer 1
 62
   250
420
  1842203
370
    35
100
AcDbVertex
100
AcDb2dVertex
 10
8.57656521052947
 20
11.72152397710434
 30
0.0
  0
SEQEND
  5
343
330
340
100
AcDbEntity
  8
Layer 1
370
    35
  0
POLYLINE
  5
344
330
198
100
AcDbEntity
  8
Layer 1
 62
   250
420
  1842203
370
    35
100
AcDb2dPolyline
 66
     1
 10
0.0
 20
0.0
 30
0.0
  0
VERTEX
  5
345
330
344
100
AcDbEntity
  8
Layer 1
 62
   250
420
  1842203
370
    35
100
AcDbVertex
100
AcDb2dVertex
 10
8.57656521052947
 20
11.72152397710434
 30
0.0
  0
VERTEX
  5
346
330
344
100
AcDbEntity
  8
Layer 1
 62
   250
420
  1842203
370
    35
100
AcDbVertex
100
AcDb2dVertex
 10
8.57444647680604
 20
11.71304904221063
 30
0.0
  0
SEQEND
  5
347
330
344
100
AcDbEntity
  8
Layer 1
370
    35
  0
POLYLINE
  5
348
330
198
100
AcDbEntity
  8
Layer 1
 62
   250
420
  1842203
370
    35
100
AcDb2dPolyline
 66
     1
 10
0.0
 20
0.0
 30
0.0
  0
VERTEX
  5
349
330
348
100
AcDbEntity
  8
Layer 1
 62
   250
420
  1842203
370
    35
100
AcDbVertex
100
AcDb2dVertex
 10
8.57444647680604
 20
11.71304904221063
 30
0.0
  0
VERTEX
  5
34A
330
348
100
AcDbEntity
  8
Layer 1
 62
   250
420
  1842203
370
    35
100
AcDbVertex
100
AcDb2dVertex
 10
8.572327743082612
 20
11.70247259907091
 30
0.0
  0
SEQEND
  5
34B
330
348
100
AcDbEntity
  8
Layer 1
370
    35
  0
POLYLINE
  5
34C
330
198
100
AcDbEntity
  8
Layer 1
 62
   250
420
  1842203
370
    35
100
AcDb2dPolyline
 66
     1
 10
0.0
 20
0.0
 30
0.0
  0
VERTEX
  5
34D
330
34C
100
AcDbEntity
  8
Layer 1
 62
   250
420
  1842203
370
    35
100
AcDbVertex
100
AcDb2dVertex
 10
8.572327743082612
 20
11.70247259907091
 30
0.0
  0
VERTEX
  5
34E
330
34C
100
AcDbEntity
  8
Layer 1
 62
   250
420
  1842203
370
    35
100
AcDbVertex
100
AcDb2dVertex
 10
8.572327743082612
 20
11.69399766417719
 30
0.0
  0
SEQEND
  5
34F
330
34C
100
AcDbEntity
  8
Layer 1
370
    35
  0
POLYLINE
  5
350
330
198
100
AcDbEntity
  8
Layer 1
 62
   250
420
  1842203
370
    35
100
AcDb2dPolyline
 66
     1
 10
0.0
 20
0.0
 30
0.0
  0
VERTEX
  5
351
330
350
100
AcDbEntity
  8
Layer 1
 62
   250
420
  1842203
370
    35
100
AcDbVertex
100
AcDb2dVertex
 10
8.572327743082612
 20
11.52890868852402
 30
0.0
  0
VERTEX
  5
352
330
350
100
AcDbEntity
  8
Layer 1
 62
   250
420
  1842203
370
    35
100
AcDbVertex
100
AcDb2dVertex
 10
8.572327743082612
 20
11.69401488965462
 30
0.0
  0
SEQEND
  5
353
330
350
100
AcDbEntity
  8
Layer 1
370
    35
  0
POLYLINE
  5
354
330
198
100
AcDbEntity
  8
Layer 1
 62
   250
420
  1842203
370
    35
100
AcDb2dPolyline
 66
     1
 10
0.0
 20
0.0
 30
0.0
  0
VERTEX
  5
355
330
354
100
AcDbEntity
  8
Layer 1
 62
   250
420
  1842203
370
    35
100
AcDbVertex
100
AcDb2dVertex
 10
8.572327743082612
 20
11.52890868852402
 30
0.0
  0
VERTEX
  5
356
330
354
100
AcDbEntity
  8
Layer 1
 62
   250
420
  1842203
370
    35
100
AcDbVertex
100
AcDb2dVertex
 10
8.57444647680604
 20
11.51829779442945
 30
0.0
  0
SEQEND
  5
357
330
354
100
AcDbEntity
  8
Layer 1
370
    35
  0
POLYLINE
  5
358
330
198
100
AcDbEntity
  8
Layer 1
 62
   250
420
  1842203
370
    35
100
AcDb2dPolyline
 66
     1
 10
0.0
 20
0.0
 30
0.0
  0
VERTEX
  5
359
330
358
100
AcDbEntity
  8
Layer 1
 62
   250
420
  1842203
370
    35
100
AcDbVertex
100
AcDb2dVertex
 10
8.57656521052947
 20
11.50985731049059
 30
0.0
  0
VERTEX
  5
35A
330
358
100
AcDbEntity
  8
Layer 1
 62
   250
420
  1842203
370
    35
100
AcDbVertex
100
AcDb2dVertex
 10
8.580802677976326
 20
11.50138237559688
 30
0.0
  0
SEQEND
  5
35B
330
358
100
AcDbEntity
  8
Layer 1
370
    35
  0
POLYLINE
  5
35C
330
198
100
AcDbEntity
  8
Layer 1
 62
   250
420
  1842203
370
    35
100
AcDb2dPolyline
 66
     1
 10
0.0
 20
0.0
 30
0.0
  0
VERTEX
  5
35D
330
35C
100
AcDbEntity
  8
Layer 1
 62
   250
420
  1842203
370
    35
100
AcDbVertex
100
AcDb2dVertex
 10
8.580802677976326
 20
11.50138237559688
 30
0.0
  0
VERTEX
  5
35E
330
35C
100
AcDbEntity
  8
Layer 1
 62
   250
420
  1842203
370
    35
100
AcDbVertex
100
AcDb2dVertex
 10
8.587158879146612
 20
11.49290744070316
 30
0.0
  0
SEQEND
  5
35F
330
35C
100
AcDbEntity
  8
Layer 1
370
    35
  0
POLYLINE
  5
360
330
198
100
AcDbEntity
  8
Layer 1
 62
   250
420
  1842203
370
    35
100
AcDb2dPolyline
 66
     1
 10
0.0
 20
0.0
 30
0.0
  0
VERTEX
  5
361
330
360
100
AcDbEntity
  8
Layer 1
 62
   250
420
  1842203
370
    35
100
AcDbVertex
100
AcDb2dVertex
 10
8.587141653669185
 20
11.49290744070316
 30
0.0
  0
VERTEX
  5
362
330
360
100
AcDbEntity
  8
Layer 1
 62
   250
420
  1842203
370
    35
100
AcDbVertex
100
AcDb2dVertex
 10
8.595599363085475
 20
11.48655123953288
 30
0.0
  0
SEQEND
  5
363
330
360
100
AcDbEntity
  8
Layer 1
370
    35
  0
POLYLINE
  5
364
330
198
100
AcDbEntity
  8
Layer 1
 62
   250
420
  1842203
370
    35
100
AcDb2dPolyline
 66
     1
 10
0.0
 20
0.0
 30
0.0
  0
VERTEX
  5
365
330
364
100
AcDbEntity
  8
Layer 1
 62
   250
420
  1842203
370
    35
100
AcDbVertex
100
AcDb2dVertex
 10
8.595616588562901
 20
11.4865684650103
 30
0.0
  0
VERTEX
  5
366
330
364
100
AcDbEntity
  8
Layer 1
 62
   250
420
  1842203
370
    35
100
AcDbVertex
100
AcDb2dVertex
 10
8.604091523456615
 20
11.48233099756344
 30
0.0
  0
SEQEND
  5
367
330
364
100
AcDbEntity
  8
Layer 1
370
    35
  0
POLYLINE
  5
368
330
198
100
AcDbEntity
  8
Layer 1
 62
   250
420
  1842203
370
    35
100
AcDb2dPolyline
 66
     1
 10
0.0
 20
0.0
 30
0.0
  0
VERTEX
  5
369
330
368
100
AcDbEntity
  8
Layer 1
 62
   250
420
  1842203
370
    35
100
AcDbVertex
100
AcDb2dVertex
 10
8.604074297979189
 20
11.48233099756344
 30
0.0
  0
VERTEX
  5
36A
330
368
100
AcDbEntity
  8
Layer 1
 62
   250
420
  1842203
370
    35
100
AcDbVertex
100
AcDb2dVertex
 10
8.612532007395478
 20
11.47809353011659
 30
0.0
  0
SEQEND
  5
36B
330
368
100
AcDbEntity
  8
Layer 1
370
    35
  0
POLYLINE
  5
36C
330
198
100
AcDbEntity
  8
Layer 1
 62
   250
420
  1842203
370
    35
100
AcDb2dPolyline
 66
     1
 10
0.0
 20
0.0
 30
0.0
  0
VERTEX
  5
36D
330
36C
100
AcDbEntity
  8
Layer 1
 62
   250
420
  1842203
370
    35
100
AcDbVertex
100
AcDb2dVertex
 10
8.709907631286065
 20
11.42941433091001
 30
0.0
  0
VERTEX
  5
36E
330
36C
100
AcDbEntity
  8
Layer 1
 62
   250
420
  1842203
370
    35
100
AcDbVertex
100
AcDb2dVertex
 10
8.661228432079485
 20
11.47809353011659
 30
0.0
  0
SEQEND
  5
36F
330
36C
100
AcDbEntity
  8
Layer 1
370
    35
  0
POLYLINE
  5
370
330
198
100
AcDbEntity
  8
Layer 1
 62
   250
420
  1842203
370
    35
100
AcDb2dPolyline
 66
     1
 10
0.0
 20
0.0
 30
0.0
  0
VERTEX
  5
371
330
370
100
AcDbEntity
  8
Layer 1
 62
   250
420
  1842203
370
    35
100
AcDbVertex
100
AcDb2dVertex
 10
9.173462454303856
 20
11.68552272928348
 30
0.0
  0
VERTEX
  5
372
330
370
100
AcDbEntity
  8
Layer 1
 62
   250
420
  1842203
370
    35
100
AcDbVertex
100
AcDb2dVertex
 10
10.86043958604357
 20
11.9078002899918
 30
0.0
  0
SEQEND
  5
373
330
370
100
AcDbEntity
  8
Layer 1
370
    35
  0
POLYLINE
  5
374
330
198
100
AcDbEntity
  8
Layer 1
 62
   250
420
  1842203
370
    35
100
AcDb2dPolyline
 66
     1
 10
0.0
 20
0.0
 30
0.0
  0
VERTEX
  5
375
330
374
100
AcDbEntity
  8
Layer 1
 62
   250
420
  1842203
370
    35
100
AcDbVertex
100
AcDb2dVertex
 10
10.86043958604357
 20
11.9078002899918
 30
0.0
  0
VERTEX
  5
376
330
374
100
AcDbEntity
  8
Layer 1
 62
   250
420
  1842203
370
    35
100
AcDbVertex
100
AcDb2dVertex
 10
10.87737223035357
 20
11.90991902371523
 30
0.0
  0
SEQEND
  5
377
330
374
100
AcDbEntity
  8
Layer 1
370
    35
  0
POLYLINE
  5
378
330
198
100
AcDbEntity
  8
Layer 1
 62
   250
420
  1842203
370
    35
100
AcDb2dPolyline
 66
     1
 10
0.0
 20
0.0
 30
0.0
  0
VERTEX
  5
379
330
378
100
AcDbEntity
  8
Layer 1
 62
   250
420
  1842203
370
    35
100
AcDbVertex
100
AcDb2dVertex
 10
10.87737223035357
 20
11.9099017982378
 30
0.0
  0
VERTEX
  5
37A
330
378
100
AcDbEntity
  8
Layer 1
 62
   250
420
  1842203
370
    35
100
AcDbVertex
100
AcDb2dVertex
 10
10.89430487466358
 20
11.91625799940809
 30
0.0
  0
SEQEND
  5
37B
330
378
100
AcDbEntity
  8
Layer 1
370
    35
  0
POLYLINE
  5
37C
330
198
100
AcDbEntity
  8
Layer 1
 62
   250
420
  1842203
370
    35
100
AcDb2dPolyline
 66
     1
 10
0.0
 20
0.0
 30
0.0
  0
VERTEX
  5
37D
330
37C
100
AcDbEntity
  8
Layer 1
 62
   250
420
  1842203
370
    35
100
AcDbVertex
100
AcDb2dVertex
 10
10.894322100141
 20
11.91624077393066
 30
0.0
  0
VERTEX
  5
37E
330
37C
100
AcDbEntity
  8
Layer 1
 62
   250
420
  1842203
370
    35
100
AcDbVertex
100
AcDb2dVertex
 10
10.91125474445101
 20
11.9226314260558
 30
0.0
  0
SEQEND
  5
37F
330
37C
100
AcDbEntity
  8
Layer 1
370
    35
  0
POLYLINE
  5
380
330
198
100
AcDbEntity
  8
Layer 1
 62
   250
420
  1842203
370
    35
100
AcDb2dPolyline
 66
     1
 10
0.0
 20
0.0
 30
0.0
  0
VERTEX
  5
381
330
380
100
AcDbEntity
  8
Layer 1
 62
   250
420
  1842203
370
    35
100
AcDbVertex
100
AcDb2dVertex
 10
10.91125474445101
 20
11.92261420057837
 30
0.0
  0
VERTEX
  5
382
330
380
100
AcDbEntity
  8
Layer 1
 62
   250
420
  1842203
370
    35
100
AcDbVertex
100
AcDb2dVertex
 10
10.92818738876101
 20
11.92897040174866
 30
0.0
  0
SEQEND
  5
383
330
380
100
AcDbEntity
  8
Layer 1
370
    35
  0
POLYLINE
  5
384
330
198
100
AcDbEntity
  8
Layer 1
 62
   250
420
  1842203
370
    35
100
AcDb2dPolyline
 66
     1
 10
0.0
 20
0.0
 30
0.0
  0
VERTEX
  5
385
330
384
100
AcDbEntity
  8
Layer 1
 62
   250
420
  1842203
370
    35
100
AcDbVertex
100
AcDb2dVertex
 10
10.92818738876101
 20
11.92895317627123
 30
0.0
  0
VERTEX
  5
386
330
384
100
AcDbEntity
  8
Layer 1
 62
   250
420
  1842203
370
    35
100
AcDbVertex
100
AcDb2dVertex
 10
10.94300129934758
 20
11.93952961941095
 30
0.0
  0
SEQEND
  5
387
330
384
100
AcDbEntity
  8
Layer 1
370
    35
  0
POLYLINE
  5
388
330
198
100
AcDbEntity
  8
Layer 1
 62
   250
420
  1842203
370
    35
100
AcDb2dPolyline
 66
     1
 10
0.0
 20
0.0
 30
0.0
  0
VERTEX
  5
389
330
388
100
AcDbEntity
  8
Layer 1
 62
   250
420
  1842203
370
    35
100
AcDbVertex
100
AcDb2dVertex
 10
10.94300129934758
 20
11.93952961941095
 30
0.0
  0
VERTEX
  5
38A
330
388
100
AcDbEntity
  8
Layer 1
 62
   250
420
  1842203
370
    35
100
AcDbVertex
100
AcDb2dVertex
 10
10.95781520993416
 20
11.95010606255067
 30
0.0
  0
SEQEND
  5
38B
330
388
100
AcDbEntity
  8
Layer 1
370
    35
  0
POLYLINE
  5
38C
330
198
100
AcDbEntity
  8
Layer 1
 62
   250
420
  1842203
370
    35
100
AcDb2dPolyline
 66
     1
 10
0.0
 20
0.0
 30
0.0
  0
VERTEX
  5
38D
330
38C
100
AcDbEntity
  8
Layer 1
 62
   250
420
  1842203
370
    35
100
AcDbVertex
100
AcDb2dVertex
 10
10.95781520993416
 20
11.95010606255067
 30
0.0
  0
VERTEX
  5
38E
330
38C
100
AcDbEntity
  8
Layer 1
 62
   250
420
  1842203
370
    35
100
AcDbVertex
100
AcDb2dVertex
 10
10.9705103867973
 20
11.96071695664524
 30
0.0
  0
SEQEND
  5
38F
330
38C
100
AcDbEntity
  8
Layer 1
370
    35
  0
POLYLINE
  5
390
330
198
100
AcDbEntity
  8
Layer 1
 62
   250
420
  1842203
370
    35
100
AcDb2dPolyline
 66
     1
 10
0.0
 20
0.0
 30
0.0
  0
VERTEX
  5
391
330
390
100
AcDbEntity
  8
Layer 1
 62
   250
420
  1842203
370
    35
100
AcDbVertex
100
AcDb2dVertex
 10
10.9705103867973
 20
11.96071695664524
 30
0.0
  0
VERTEX
  5
392
330
390
100
AcDbEntity
  8
Layer 1
 62
   250
420
  1842203
370
    35
100
AcDbVertex
100
AcDb2dVertex
 10
10.98320556366045
 20
11.97337768255353
 30
0.0
  0
SEQEND
  5
393
330
390
100
AcDbEntity
  8
Layer 1
370
    35
  0
POLYLINE
  5
394
330
198
100
AcDbEntity
  8
Layer 1
 62
   250
420
  1842203
370
    35
100
AcDb2dPolyline
 66
     1
 10
0.0
 20
0.0
 30
0.0
  0
VERTEX
  5
395
330
394
100
AcDbEntity
  8
Layer 1
 62
   250
420
  1842203
370
    35
100
AcDbVertex
100
AcDb2dVertex
 10
10.98320556366045
 20
11.97339490803096
 30
0.0
  0
VERTEX
  5
396
330
394
100
AcDbEntity
  8
Layer 1
 62
   250
420
  1842203
370
    35
100
AcDbVertex
100
AcDb2dVertex
 10
10.99590074052359
 20
11.98820881861753
 30
0.0
  0
SEQEND
  5
397
330
394
100
AcDbEntity
  8
Layer 1
370
    35
  0
POLYLINE
  5
398
330
198
100
AcDbEntity
  8
Layer 1
 62
   250
420
  1842203
370
    35
100
AcDb2dPolyline
 66
     1
 10
0.0
 20
0.0
 30
0.0
  0
VERTEX
  5
399
330
398
100
AcDbEntity
  8
Layer 1
 62
   250
420
  1842203
370
    35
100
AcDbVertex
100
AcDb2dVertex
 10
10.99591796600102
 20
11.98820881861753
 30
0.0
  0
VERTEX
  5
39A
330
398
100
AcDbEntity
  8
Layer 1
 62
   250
420
  1842203
370
    35
100
AcDbVertex
100
AcDb2dVertex
 10
11.00437567541731
 20
12.0030227292041
 30
0.0
  0
SEQEND
  5
39B
330
398
100
AcDbEntity
  8
Layer 1
370
    35
  0
POLYLINE
  5
39C
330
198
100
AcDbEntity
  8
Layer 1
 62
   250
420
  1842203
370
    35
100
AcDb2dPolyline
 66
     1
 10
0.0
 20
0.0
 30
0.0
  0
VERTEX
  5
39D
330
39C
100
AcDbEntity
  8
Layer 1
 62
   250
420
  1842203
370
    35
100
AcDbVertex
100
AcDb2dVertex
 10
11.00437567541731
 20
12.0030227292041
 30
0.0
  0
VERTEX
  5
39E
330
39C
100
AcDbEntity
  8
Layer 1
 62
   250
420
  1842203
370
    35
100
AcDbVertex
100
AcDb2dVertex
 10
11.01285061031102
 20
12.01995537351411
 30
0.0
  0
SEQEND
  5
39F
330
39C
100
AcDbEntity
  8
Layer 1
370
    35
  0
POLYLINE
  5
3A0
330
198
100
AcDbEntity
  8
Layer 1
 62
   250
420
  1842203
370
    35
100
AcDb2dPolyline
 66
     1
 10
0.0
 20
0.0
 30
0.0
  0
VERTEX
  5
3A1
330
3A0
100
AcDbEntity
  8
Layer 1
 62
   250
420
  1842203
370
    35
100
AcDbVertex
100
AcDb2dVertex
 10
11.01285061031102
 20
12.01997259899153
 30
0.0
  0
VERTEX
  5
3A2
330
3A0
100
AcDbEntity
  8
Layer 1
 62
   250
420
  1842203
370
    35
100
AcDbVertex
100
AcDb2dVertex
 10
11.02132554520474
 20
12.03478650957811
 30
0.0
  0
SEQEND
  5
3A3
330
3A0
100
AcDbEntity
  8
Layer 1
370
    35
  0
POLYLINE
  5
3A4
330
198
100
AcDbEntity
  8
Layer 1
 62
   250
420
  1842203
370
    35
100
AcDb2dPolyline
 66
     1
 10
0.0
 20
0.0
 30
0.0
  0
VERTEX
  5
3A5
330
3A4
100
AcDbEntity
  8
Layer 1
 62
   250
420
  1842203
370
    35
100
AcDbVertex
100
AcDb2dVertex
 10
11.02130831972731
 20
12.03478650957811
 30
0.0
  0
VERTEX
  5
3A6
330
3A4
100
AcDbEntity
  8
Layer 1
 62
   250
420
  1842203
370
    35
100
AcDbVertex
100
AcDb2dVertex
 10
11.02554578717417
 20
12.05171915388811
 30
0.0
  0
SEQEND
  5
3A7
330
3A4
100
AcDbEntity
  8
Layer 1
370
    35
  0
POLYLINE
  5
3A8
330
198
100
AcDbEntity
  8
Layer 1
 62
   250
420
  1842203
370
    35
100
AcDb2dPolyline
 66
     1
 10
0.0
 20
0.0
 30
0.0
  0
VERTEX
  5
3A9
330
3A8
100
AcDbEntity
  8
Layer 1
 62
   250
420
  1842203
370
    35
100
AcDbVertex
100
AcDb2dVertex
 10
11.02554578717417
 20
12.05173637936554
 30
0.0
  0
VERTEX
  5
3AA
330
3A8
100
AcDbEntity
  8
Layer 1
 62
   250
420
  1842203
370
    35
100
AcDbVertex
100
AcDb2dVertex
 10
11.02978325462102
 20
12.07075330644412
 30
0.0
  0
SEQEND
  5
3AB
330
3A8
100
AcDbEntity
  8
Layer 1
370
    35
  0
POLYLINE
  5
3AC
330
198
100
AcDbEntity
  8
Layer 1
 62
   250
420
  1842203
370
    35
100
AcDb2dPolyline
 66
     1
 10
0.0
 20
0.0
 30
0.0
  0
VERTEX
  5
3AD
330
3AC
100
AcDbEntity
  8
Layer 1
 62
   250
420
  1842203
370
    35
100
AcDbVertex
100
AcDb2dVertex
 10
11.02978325462102
 20
12.07075330644412
 30
0.0
  0
VERTEX
  5
3AE
330
3AC
100
AcDbEntity
  8
Layer 1
 62
   250
420
  1842203
370
    35
100
AcDbVertex
100
AcDb2dVertex
 10
11.03190198834445
 20
12.08768595075412
 30
0.0
  0
SEQEND
  5
3AF
330
3AC
100
AcDbEntity
  8
Layer 1
370
    35
  0
POLYLINE
  5
3B0
330
198
100
AcDbEntity
  8
Layer 1
 62
   250
420
  1842203
370
    35
100
AcDb2dPolyline
 66
     1
 10
0.0
 20
0.0
 30
0.0
  0
VERTEX
  5
3B1
330
3B0
100
AcDbEntity
  8
Layer 1
 62
   250
420
  1842203
370
    35
100
AcDbVertex
100
AcDb2dVertex
 10
11.03190198834445
 20
12.08770317623155
 30
0.0
  0
VERTEX
  5
3B2
330
3B0
100
AcDbEntity
  8
Layer 1
 62
   250
420
  1842203
370
    35
100
AcDbVertex
100
AcDb2dVertex
 10
11.03402072206788
 20
12.10675455426498
 30
0.0
  0
SEQEND
  5
3B3
330
3B0
100
AcDbEntity
  8
Layer 1
370
    35
  0
POLYLINE
  5
3B4
330
198
100
AcDbEntity
  8
Layer 1
 62
   250
420
  1842203
370
    35
100
AcDb2dPolyline
 66
     1
 10
0.0
 20
0.0
 30
0.0
  0
VERTEX
  5
3B5
330
3B4
100
AcDbEntity
  8
Layer 1
 62
   250
420
  1842203
370
    35
100
AcDbVertex
100
AcDb2dVertex
 10
6.754109698832305
 20
13.02749077365285
 30
0.0
  0
VERTEX
  5
3B6
330
3B4
100
AcDbEntity
  8
Layer 1
 62
   250
420
  1842203
370
    35
100
AcDbVertex
100
AcDb2dVertex
 10
6.754109698832305
 20
12.50256157456533
 30
0.0
  0
SEQEND
  5
3B7
330
3B4
100
AcDbEntity
  8
Layer 1
370
    35
  0
POLYLINE
  5
3B8
330
198
100
AcDbEntity
  8
Layer 1
 62
   250
420
  1842203
370
    25
100
AcDb2dPolyline
 66
     1
 10
0.0
 20
0.0
 30
0.0
  0
VERTEX
  5
3B9
330
3B8
100
AcDbEntity
  8
Layer 1
 62
   250
420
  1842203
370
    25
100
AcDbVertex
100
AcDb2dVertex
 10
6.512815211045407
 20
14.10277397650903
 30
0.0
  0
VERTEX
  5
3BA
330
3B8
100
AcDbEntity
  8
Layer 1
 62
   250
420
  1842203
370
    25
100
AcDbVertex
100
AcDb2dVertex
 10
6.504340276151693
 20
14.10277397650903
 30
0.0
  0
SEQEND
  5
3BB
330
3B8
100
AcDbEntity
  8
Layer 1
370
    25
  0
POLYLINE
  5
3BC
330
198
100
AcDbEntity
  8
Layer 1
 62
   250
420
  1842203
370
    35
100
AcDb2dPolyline
 66
     1
 10
0.0
 20
0.0
 30
0.0
  0
VERTEX
  5
3BD
330
3BC
100
AcDbEntity
  8
Layer 1
 62
   250
420
  1842203
370
    35
100
AcDbVertex
100
AcDb2dVertex
 10
6.754109698832305
 20
13.09735731009371
 30
0.0
  0
VERTEX
  5
3BE
330
3BC
100
AcDbEntity
  8
Layer 1
 62
   250
420
  1842203
370
    35
100
AcDbVertex
100
AcDb2dVertex
 10
6.754109698832305
 20
13.15663017791744
 30
0.0
  0
SEQEND
  5
3BF
330
3BC
100
AcDbEntity
  8
Layer 1
370
    35
  0
POLYLINE
  5
3C0
330
198
100
AcDbEntity
  8
Layer 1
 62
   250
420
  1842203
370
    35
100
AcDb2dPolyline
 66
     1
 10
0.0
 20
0.0
 30
0.0
  0
VERTEX
  5
3C1
330
3C0
100
AcDbEntity
  8
Layer 1
 62
   250
420
  1842203
370
    35
100
AcDbVertex
100
AcDb2dVertex
 10
6.754109698832305
 20
13.15661295244001
 30
0.0
  0
VERTEX
  5
3C2
330
3C0
100
AcDbEntity
  8
Layer 1
 62
   250
420
  1842203
370
    35
100
AcDbVertex
100
AcDb2dVertex
 10
6.754109698832305
 20
13.21376708654031
 30
0.0
  0
SEQEND
  5
3C3
330
3C0
100
AcDbEntity
  8
Layer 1
370
    35
  0
POLYLINE
  5
3C4
330
198
100
AcDbEntity
  8
Layer 1
 62
   250
420
  1842203
370
    35
100
AcDb2dPolyline
 66
     1
 10
0.0
 20
0.0
 30
0.0
  0
VERTEX
  5
3C5
330
3C4
100
AcDbEntity
  8
Layer 1
 62
   250
420
  1842203
370
    35
100
AcDbVertex
100
AcDb2dVertex
 10
6.754109698832305
 20
13.21376708654031
 30
0.0
  0
VERTEX
  5
3C6
330
3C4
100
AcDbEntity
  8
Layer 1
 62
   250
420
  1842203
370
    35
100
AcDbVertex
100
AcDb2dVertex
 10
6.751990965108877
 20
13.27303995436403
 30
0.0
  0
SEQEND
  5
3C7
330
3C4
100
AcDbEntity
  8
Layer 1
370
    35
  0
POLYLINE
  5
3C8
330
198
100
AcDbEntity
  8
Layer 1
 62
   250
420
  1842203
370
    35
100
AcDb2dPolyline
 66
     1
 10
0.0
 20
0.0
 30
0.0
  0
VERTEX
  5
3C9
330
3C8
100
AcDbEntity
  8
Layer 1
 62
   250
420
  1842203
370
    35
100
AcDbVertex
100
AcDb2dVertex
 10
6.751990965108877
 20
13.2730227288866
 30
0.0
  0
VERTEX
  5
3CA
330
3C8
100
AcDbEntity
  8
Layer 1
 62
   250
420
  1842203
370
    35
100
AcDbVertex
100
AcDb2dVertex
 10
6.749872231385448
 20
13.3301768629869
 30
0.0
  0
SEQEND
  5
3CB
330
3C8
100
AcDbEntity
  8
Layer 1
370
    35
  0
POLYLINE
  5
3CC
330
198
100
AcDbEntity
  8
Layer 1
 62
   250
420
  1842203
370
    35
100
AcDb2dPolyline
 66
     1
 10
0.0
 20
0.0
 30
0.0
  0
VERTEX
  5
3CD
330
3CC
100
AcDbEntity
  8
Layer 1
 62
   250
420
  1842203
370
    35
100
AcDbVertex
100
AcDb2dVertex
 10
6.749889456862874
 20
13.3301768629869
 30
0.0
  0
VERTEX
  5
3CE
330
3CC
100
AcDbEntity
  8
Layer 1
 62
   250
420
  1842203
370
    35
100
AcDbVertex
100
AcDb2dVertex
 10
6.745651989416017
 20
13.38733099708719
 30
0.0
  0
SEQEND
  5
3CF
330
3CC
100
AcDbEntity
  8
Layer 1
370
    35
  0
POLYLINE
  5
3D0
330
198
100
AcDbEntity
  8
Layer 1
 62
   250
420
  1842203
370
    35
100
AcDb2dPolyline
 66
     1
 10
0.0
 20
0.0
 30
0.0
  0
VERTEX
  5
3D1
330
3D0
100
AcDbEntity
  8
Layer 1
 62
   250
420
  1842203
370
    35
100
AcDbVertex
100
AcDb2dVertex
 10
6.745651989416017
 20
13.38733099708719
 30
0.0
  0
VERTEX
  5
3D2
330
3D0
100
AcDbEntity
  8
Layer 1
 62
   250
420
  1842203
370
    35
100
AcDbVertex
100
AcDb2dVertex
 10
6.74141452196916
 20
13.44448513118749
 30
0.0
  0
SEQEND
  5
3D3
330
3D0
100
AcDbEntity
  8
Layer 1
370
    35
  0
POLYLINE
  5
3D4
330
198
100
AcDbEntity
  8
Layer 1
 62
   250
420
  1842203
370
    35
100
AcDb2dPolyline
 66
     1
 10
0.0
 20
0.0
 30
0.0
  0
VERTEX
  5
3D5
330
3D4
100
AcDbEntity
  8
Layer 1
 62
   250
420
  1842203
370
    35
100
AcDbVertex
100
AcDb2dVertex
 10
6.74141452196916
 20
13.44448513118749
 30
0.0
  0
VERTEX
  5
3D6
330
3D4
100
AcDbEntity
  8
Layer 1
 62
   250
420
  1842203
370
    35
100
AcDbVertex
100
AcDb2dVertex
 10
6.735058320798874
 20
13.50375799901121
 30
0.0
  0
SEQEND
  5
3D7
330
3D4
100
AcDbEntity
  8
Layer 1
370
    35
  0
POLYLINE
  5
3D8
330
198
100
AcDbEntity
  8
Layer 1
 62
   250
420
  1842203
370
    35
100
AcDb2dPolyline
 66
     1
 10
0.0
 20
0.0
 30
0.0
  0
VERTEX
  5
3D9
330
3D8
100
AcDbEntity
  8
Layer 1
 62
   250
420
  1842203
370
    35
100
AcDbVertex
100
AcDb2dVertex
 10
6.735058320798874
 20
13.50374077353379
 30
0.0
  0
VERTEX
  5
3DA
330
3D8
100
AcDbEntity
  8
Layer 1
 62
   250
420
  1842203
370
    35
100
AcDbVertex
100
AcDb2dVertex
 10
6.728702119628588
 20
13.56089490763408
 30
0.0
  0
SEQEND
  5
3DB
330
3D8
100
AcDbEntity
  8
Layer 1
370
    35
  0
POLYLINE
  5
3DC
330
198
100
AcDbEntity
  8
Layer 1
 62
   250
420
  1842203
370
    35
100
AcDb2dPolyline
 66
     1
 10
0.0
 20
0.0
 30
0.0
  0
VERTEX
  5
3DD
330
3DC
100
AcDbEntity
  8
Layer 1
 62
   250
420
  1842203
370
    35
100
AcDbVertex
100
AcDb2dVertex
 10
6.728719345106014
 20
13.56089490763408
 30
0.0
  0
VERTEX
  5
3DE
330
3DC
100
AcDbEntity
  8
Layer 1
 62
   250
420
  1842203
370
    35
100
AcDbVertex
100
AcDb2dVertex
 10
6.720261635689726
 20
13.61804904173438
 30
0.0
  0
SEQEND
  5
3DF
330
3DC
100
AcDbEntity
  8
Layer 1
370
    35
  0
POLYLINE
  5
3E0
330
198
100
AcDbEntity
  8
Layer 1
 62
   250
420
  1842203
370
    35
100
AcDb2dPolyline
 66
     1
 10
0.0
 20
0.0
 30
0.0
  0
VERTEX
  5
3E1
330
3E0
100
AcDbEntity
  8
Layer 1
 62
   250
420
  1842203
370
    35
100
AcDbVertex
100
AcDb2dVertex
 10
6.7202444102123
 20
13.61804904173438
 30
0.0
  0
VERTEX
  5
3E2
330
3E0
100
AcDbEntity
  8
Layer 1
 62
   250
420
  1842203
370
    35
100
AcDbVertex
100
AcDb2dVertex
 10
6.709667967072583
 20
13.67520317583467
 30
0.0
  0
SEQEND
  5
3E3
330
3E0
100
AcDbEntity
  8
Layer 1
370
    35
  0
POLYLINE
  5
3E4
330
198
100
AcDbEntity
  8
Layer 1
 62
   250
420
  1842203
370
    35
100
AcDb2dPolyline
 66
     1
 10
0.0
 20
0.0
 30
0.0
  0
VERTEX
  5
3E5
330
3E4
100
AcDbEntity
  8
Layer 1
 62
   250
420
  1842203
370
    35
100
AcDbVertex
100
AcDb2dVertex
 10
6.709667967072583
 20
13.67520317583467
 30
0.0
  0
VERTEX
  5
3E6
330
3E4
100
AcDbEntity
  8
Layer 1
 62
   250
420
  1842203
370
    35
100
AcDbVertex
100
AcDb2dVertex
 10
6.701193032178868
 20
13.73235730993497
 30
0.0
  0
SEQEND
  5
3E7
330
3E4
100
AcDbEntity
  8
Layer 1
370
    35
  0
POLYLINE
  5
3E8
330
198
100
AcDbEntity
  8
Layer 1
 62
   250
420
  1842203
370
    35
100
AcDb2dPolyline
 66
     1
 10
0.0
 20
0.0
 30
0.0
  0
VERTEX
  5
3E9
330
3E8
100
AcDbEntity
  8
Layer 1
 62
   250
420
  1842203
370
    35
100
AcDbVertex
100
AcDb2dVertex
 10
6.701193032178868
 20
13.73235730993497
 30
0.0
  0
VERTEX
  5
3EA
330
3E8
100
AcDbEntity
  8
Layer 1
 62
   250
420
  1842203
370
    35
100
AcDbVertex
100
AcDb2dVertex
 10
6.688497855315722
 20
13.78951144403526
 30
0.0
  0
SEQEND
  5
3EB
330
3E8
100
AcDbEntity
  8
Layer 1
370
    35
  0
POLYLINE
  5
3EC
330
198
100
AcDbEntity
  8
Layer 1
 62
   250
420
  1842203
370
    35
100
AcDb2dPolyline
 66
     1
 10
0.0
 20
0.0
 30
0.0
  0
VERTEX
  5
3ED
330
3EC
100
AcDbEntity
  8
Layer 1
 62
   250
420
  1842203
370
    35
100
AcDbVertex
100
AcDb2dVertex
 10
6.688497855315722
 20
13.78951144403526
 30
0.0
  0
VERTEX
  5
3EE
330
3EC
100
AcDbEntity
  8
Layer 1
 62
   250
420
  1842203
370
    35
100
AcDbVertex
100
AcDb2dVertex
 10
6.675802678452577
 20
13.84454684441213
 30
0.0
  0
SEQEND
  5
3EF
330
3EC
100
AcDbEntity
  8
Layer 1
370
    35
  0
POLYLINE
  5
3F0
330
198
100
AcDbEntity
  8
Layer 1
 62
   250
420
  1842203
370
    35
100
AcDb2dPolyline
 66
     1
 10
0.0
 20
0.0
 30
0.0
  0
VERTEX
  5
3F1
330
3F0
100
AcDbEntity
  8
Layer 1
 62
   250
420
  1842203
370
    35
100
AcDbVertex
100
AcDb2dVertex
 10
6.675802678452577
 20
13.8445296189347
 30
0.0
  0
VERTEX
  5
3F2
330
3F0
100
AcDbEntity
  8
Layer 1
 62
   250
420
  1842203
370
    35
100
AcDbVertex
100
AcDb2dVertex
 10
6.663107501589431
 20
13.90168375303499
 30
0.0
  0
SEQEND
  5
3F3
330
3F0
100
AcDbEntity
  8
Layer 1
370
    35
  0
POLYLINE
  5
3F4
330
198
100
AcDbEntity
  8
Layer 1
 62
   250
420
  1842203
370
    35
100
AcDb2dPolyline
 66
     1
 10
0.0
 20
0.0
 30
0.0
  0
VERTEX
  5
3F5
330
3F4
100
AcDbEntity
  8
Layer 1
 62
   250
420
  1842203
370
    35
100
AcDbVertex
100
AcDb2dVertex
 10
6.663107501589431
 20
13.90168375303499
 30
0.0
  0
VERTEX
  5
3F6
330
3F4
100
AcDbEntity
  8
Layer 1
 62
   250
420
  1842203
370
    35
100
AcDbVertex
100
AcDb2dVertex
 10
6.648293591002857
 20
13.95671915341186
 30
0.0
  0
SEQEND
  5
3F7
330
3F4
100
AcDbEntity
  8
Layer 1
370
    35
  0
POLYLINE
  5
3F8
330
198
100
AcDbEntity
  8
Layer 1
 62
   250
420
  1842203
370
    35
100
AcDb2dPolyline
 66
     1
 10
0.0
 20
0.0
 30
0.0
  0
VERTEX
  5
3F9
330
3F8
100
AcDbEntity
  8
Layer 1
 62
   250
420
  1842203
370
    35
100
AcDbVertex
100
AcDb2dVertex
 10
6.64827636552543
 20
13.95671915341186
 30
0.0
  0
VERTEX
  5
3FA
330
3F8
100
AcDbEntity
  8
Layer 1
 62
   250
420
  1842203
370
    35
100
AcDbVertex
100
AcDb2dVertex
 10
6.631343721215427
 20
14.01387328751216
 30
0.0
  0
SEQEND
  5
3FB
330
3F8
100
AcDbEntity
  8
Layer 1
370
    35
  0
POLYLINE
  5
3FC
330
198
100
AcDbEntity
  8
Layer 1
 62
   250
420
  1842203
370
    35
100
AcDb2dPolyline
 66
     1
 10
0.0
 20
0.0
 30
0.0
  0
VERTEX
  5
3FD
330
3FC
100
AcDbEntity
  8
Layer 1
 62
   250
420
  1842203
370
    35
100
AcDbVertex
100
AcDb2dVertex
 10
6.754109698832305
 20
13.21376708654031
 30
0.0
  0
VERTEX
  5
3FE
330
3FC
100
AcDbEntity
  8
Layer 1
 62
   250
420
  1842203
370
    35
100
AcDbVertex
100
AcDb2dVertex
 10
6.754109698832305
 20
13.02750799913028
 30
0.0
  0
SEQEND
  5
3FF
330
3FC
100
AcDbEntity
  8
Layer 1
370
    35
  0
POLYLINE
  5
400
330
198
100
AcDbEntity
  8
Layer 1
 62
   250
420
  1842203
370
    35
100
AcDb2dPolyline
 66
     1
 10
0.0
 20
0.0
 30
0.0
  0
VERTEX
  5
401
330
400
100
AcDbEntity
  8
Layer 1
 62
   250
420
  1842203
370
    35
100
AcDbVertex
100
AcDb2dVertex
 10
6.631343721215427
 20
14.01385606203473
 30
0.0
  0
VERTEX
  5
402
330
400
100
AcDbEntity
  8
Layer 1
 62
   250
420
  1842203
370
    35
100
AcDbVertex
100
AcDb2dVertex
 10
6.629224987491999
 20
14.02233099692844
 30
0.0
  0
SEQEND
  5
403
330
400
100
AcDbEntity
  8
Layer 1
370
    35
  0
POLYLINE
  5
404
330
198
100
AcDbEntity
  8
Layer 1
 62
   250
420
  1842203
370
    35
100
AcDb2dPolyline
 66
     1
 10
0.0
 20
0.0
 30
0.0
  0
VERTEX
  5
405
330
404
100
AcDbEntity
  8
Layer 1
 62
   250
420
  1842203
370
    35
100
AcDbVertex
100
AcDb2dVertex
 10
6.629224987491999
 20
14.02233099692844
 30
0.0
  0
VERTEX
  5
406
330
404
100
AcDbEntity
  8
Layer 1
 62
   250
420
  1842203
370
    35
100
AcDbVertex
100
AcDb2dVertex
 10
6.624987520045141
 20
14.03290744006816
 30
0.0
  0
SEQEND
  5
407
330
404
100
AcDbEntity
  8
Layer 1
370
    35
  0
POLYLINE
  5
408
330
198
100
AcDbEntity
  8
Layer 1
 62
   250
420
  1842203
370
    35
100
AcDb2dPolyline
 66
     1
 10
0.0
 20
0.0
 30
0.0
  0
VERTEX
  5
409
330
408
100
AcDbEntity
  8
Layer 1
 62
   250
420
  1842203
370
    35
100
AcDbVertex
100
AcDb2dVertex
 10
6.625004745522568
 20
14.03290744006816
 30
0.0
  0
VERTEX
  5
40A
330
408
100
AcDbEntity
  8
Layer 1
 62
   250
420
  1842203
370
    35
100
AcDbVertex
100
AcDb2dVertex
 10
6.620767278075711
 20
14.04138237496188
 30
0.0
  0
SEQEND
  5
40B
330
408
100
AcDbEntity
  8
Layer 1
370
    35
  0
POLYLINE
  5
40C
330
198
100
AcDbEntity
  8
Layer 1
 62
   250
420
  1842203
370
    35
100
AcDb2dPolyline
 66
     1
 10
0.0
 20
0.0
 30
0.0
  0
VERTEX
  5
40D
330
40C
100
AcDbEntity
  8
Layer 1
 62
   250
420
  1842203
370
    35
100
AcDbVertex
100
AcDb2dVertex
 10
6.620767278075711
 20
14.04138237496188
 30
0.0
  0
VERTEX
  5
40E
330
40C
100
AcDbEntity
  8
Layer 1
 62
   250
420
  1842203
370
    35
100
AcDbVertex
100
AcDb2dVertex
 10
6.614411076905425
 20
14.04984008437816
 30
0.0
  0
SEQEND
  5
40F
330
40C
100
AcDbEntity
  8
Layer 1
370
    35
  0
POLYLINE
  5
410
330
198
100
AcDbEntity
  8
Layer 1
 62
   250
420
  1842203
370
    35
100
AcDb2dPolyline
 66
     1
 10
0.0
 20
0.0
 30
0.0
  0
VERTEX
  5
411
330
410
100
AcDbEntity
  8
Layer 1
 62
   250
420
  1842203
370
    35
100
AcDbVertex
100
AcDb2dVertex
 10
6.614411076905425
 20
14.04985730985559
 30
0.0
  0
VERTEX
  5
412
330
410
100
AcDbEntity
  8
Layer 1
 62
   250
420
  1842203
370
    35
100
AcDbVertex
100
AcDb2dVertex
 10
6.608054875735139
 20
14.05833224474931
 30
0.0
  0
SEQEND
  5
413
330
410
100
AcDbEntity
  8
Layer 1
370
    35
  0
POLYLINE
  5
414
330
198
100
AcDbEntity
  8
Layer 1
 62
   250
420
  1842203
370
    35
100
AcDb2dPolyline
 66
     1
 10
0.0
 20
0.0
 30
0.0
  0
VERTEX
  5
415
330
414
100
AcDbEntity
  8
Layer 1
 62
   250
420
  1842203
370
    35
100
AcDbVertex
100
AcDb2dVertex
 10
6.608072101212564
 20
14.05831501927188
 30
0.0
  0
VERTEX
  5
416
330
414
100
AcDbEntity
  8
Layer 1
 62
   250
420
  1842203
370
    35
100
AcDbVertex
100
AcDb2dVertex
 10
6.601715900042278
 20
14.06467122044216
 30
0.0
  0
SEQEND
  5
417
330
414
100
AcDbEntity
  8
Layer 1
370
    35
  0
POLYLINE
  5
418
330
198
100
AcDbEntity
  8
Layer 1
 62
   250
420
  1842203
370
    35
100
AcDb2dPolyline
 66
     1
 10
0.0
 20
0.0
 30
0.0
  0
VERTEX
  5
419
330
418
100
AcDbEntity
  8
Layer 1
 62
   250
420
  1842203
370
    35
100
AcDbVertex
100
AcDb2dVertex
 10
6.601715900042278
 20
14.06467122044216
 30
0.0
  0
VERTEX
  5
41A
330
418
100
AcDbEntity
  8
Layer 1
 62
   250
420
  1842203
370
    35
100
AcDbVertex
100
AcDb2dVertex
 10
6.595359698871993
 20
14.07102742161245
 30
0.0
  0
SEQEND
  5
41B
330
418
100
AcDbEntity
  8
Layer 1
370
    35
  0
POLYLINE
  5
41C
330
198
100
AcDbEntity
  8
Layer 1
 62
   250
420
  1842203
370
    25
100
AcDb2dPolyline
 66
     1
 10
0.0
 20
0.0
 30
0.0
  0
VERTEX
  5
41D
330
41C
100
AcDbEntity
  8
Layer 1
 62
   250
420
  1842203
370
    25
100
AcDbVertex
100
AcDb2dVertex
 10
6.595359698871993
 20
14.07101019613502
 30
0.0
  0
VERTEX
  5
41E
330
41C
100
AcDbEntity
  8
Layer 1
 62
   250
420
  1842203
370
    25
100
AcDbVertex
100
AcDb2dVertex
 10
6.586901989455704
 20
14.07736639730531
 30
0.0
  0
SEQEND
  5
41F
330
41C
100
AcDbEntity
  8
Layer 1
370
    25
  0
POLYLINE
  5
420
330
198
100
AcDbEntity
  8
Layer 1
 62
   250
420
  1842203
370
    25
100
AcDb2dPolyline
 66
     1
 10
0.0
 20
0.0
 30
0.0
  0
VERTEX
  5
421
330
420
100
AcDbEntity
  8
Layer 1
 62
   250
420
  1842203
370
    25
100
AcDbVertex
100
AcDb2dVertex
 10
6.586901989455704
 20
14.07736639730531
 30
0.0
  0
VERTEX
  5
422
330
420
100
AcDbEntity
  8
Layer 1
 62
   250
420
  1842203
370
    25
100
AcDbVertex
100
AcDb2dVertex
 10
6.57842705456199
 20
14.0837225984756
 30
0.0
  0
SEQEND
  5
423
330
420
100
AcDbEntity
  8
Layer 1
370
    25
  0
POLYLINE
  5
424
330
198
100
AcDbEntity
  8
Layer 1
 62
   250
420
  1842203
370
    25
100
AcDb2dPolyline
 66
     1
 10
0.0
 20
0.0
 30
0.0
  0
VERTEX
  5
425
330
424
100
AcDbEntity
  8
Layer 1
 62
   250
420
  1842203
370
    25
100
AcDbVertex
100
AcDb2dVertex
 10
6.57842705456199
 20
14.0837225984756
 30
0.0
  0
VERTEX
  5
426
330
424
100
AcDbEntity
  8
Layer 1
 62
   250
420
  1842203
370
    25
100
AcDbVertex
100
AcDb2dVertex
 10
6.569952119668275
 20
14.08796006592245
 30
0.0
  0
SEQEND
  5
427
330
424
100
AcDbEntity
  8
Layer 1
370
    25
  0
POLYLINE
  5
428
330
198
100
AcDbEntity
  8
Layer 1
 62
   250
420
  1842203
370
    25
100
AcDb2dPolyline
 66
     1
 10
0.0
 20
0.0
 30
0.0
  0
VERTEX
  5
429
330
428
100
AcDbEntity
  8
Layer 1
 62
   250
420
  1842203
370
    25
100
AcDbVertex
100
AcDb2dVertex
 10
6.569969345145702
 20
14.08796006592245
 30
0.0
  0
VERTEX
  5
42A
330
428
100
AcDbEntity
  8
Layer 1
 62
   250
420
  1842203
370
    25
100
AcDbVertex
100
AcDb2dVertex
 10
6.561511635729413
 20
14.09219753336931
 30
0.0
  0
SEQEND
  5
42B
330
428
100
AcDbEntity
  8
Layer 1
370
    25
  0
POLYLINE
  5
42C
330
198
100
AcDbEntity
  8
Layer 1
 62
   250
420
  1842203
370
    25
100
AcDb2dPolyline
 66
     1
 10
0.0
 20
0.0
 30
0.0
  0
VERTEX
  5
42D
330
42C
100
AcDbEntity
  8
Layer 1
 62
   250
420
  1842203
370
    25
100
AcDbVertex
100
AcDb2dVertex
 10
6.561494410251987
 20
14.09218030789189
 30
0.0
  0
VERTEX
  5
42E
330
42C
100
AcDbEntity
  8
Layer 1
 62
   250
420
  1842203
370
    25
100
AcDbVertex
100
AcDb2dVertex
 10
6.55091796711227
 20
14.09641777533874
 30
0.0
  0
SEQEND
  5
42F
330
42C
100
AcDbEntity
  8
Layer 1
370
    25
  0
POLYLINE
  5
430
330
198
100
AcDbEntity
  8
Layer 1
 62
   250
420
  1842203
370
    25
100
AcDb2dPolyline
 66
     1
 10
0.0
 20
0.0
 30
0.0
  0
VERTEX
  5
431
330
430
100
AcDbEntity
  8
Layer 1
 62
   250
420
  1842203
370
    25
100
AcDbVertex
100
AcDb2dVertex
 10
6.55091796711227
 20
14.09641777533874
 30
0.0
  0
VERTEX
  5
432
330
430
100
AcDbEntity
  8
Layer 1
 62
   250
420
  1842203
370
    25
100
AcDbVertex
100
AcDb2dVertex
 10
6.542443032218555
 20
14.09853650906217
 30
0.0
  0
SEQEND
  5
433
330
430
100
AcDbEntity
  8
Layer 1
370
    25
  0
POLYLINE
  5
434
330
198
100
AcDbEntity
  8
Layer 1
 62
   250
420
  1842203
370
    25
100
AcDb2dPolyline
 66
     1
 10
0.0
 20
0.0
 30
0.0
  0
VERTEX
  5
435
330
434
100
AcDbEntity
  8
Layer 1
 62
   250
420
  1842203
370
    25
100
AcDbVertex
100
AcDb2dVertex
 10
6.542443032218555
 20
14.09853650906217
 30
0.0
  0
VERTEX
  5
436
330
434
100
AcDbEntity
  8
Layer 1
 62
   250
420
  1842203
370
    25
100
AcDbVertex
100
AcDb2dVertex
 10
6.531866589078838
 20
14.1006552427856
 30
0.0
  0
SEQEND
  5
437
330
434
100
AcDbEntity
  8
Layer 1
370
    25
  0
POLYLINE
  5
438
330
198
100
AcDbEntity
  8
Layer 1
 62
   250
420
  1842203
370
    25
100
AcDb2dPolyline
 66
     1
 10
0.0
 20
0.0
 30
0.0
  0
VERTEX
  5
439
330
438
100
AcDbEntity
  8
Layer 1
 62
   250
420
  1842203
370
    25
100
AcDbVertex
100
AcDb2dVertex
 10
6.531866589078838
 20
14.10063801730817
 30
0.0
  0
VERTEX
  5
43A
330
438
100
AcDbEntity
  8
Layer 1
 62
   250
420
  1842203
370
    25
100
AcDbVertex
100
AcDb2dVertex
 10
6.521290145939122
 20
14.10279120198645
 30
0.0
  0
SEQEND
  5
43B
330
438
100
AcDbEntity
  8
Layer 1
370
    25
  0
POLYLINE
  5
43C
330
198
100
AcDbEntity
  8
Layer 1
 62
   250
420
  1842203
370
    35
100
AcDb2dPolyline
 66
     1
 10
0.0
 20
0.0
 30
0.0
  0
VERTEX
  5
43D
330
43C
100
AcDbEntity
  8
Layer 1
 62
   250
420
  1842203
370
    35
100
AcDbVertex
100
AcDb2dVertex
 10
9.173462454303856
 20
13.31960041984718
 30
0.0
  0
VERTEX
  5
43E
330
43C
100
AcDbEntity
  8
Layer 1
 62
   250
420
  1842203
370
    35
100
AcDbVertex
100
AcDb2dVertex
 10
9.173462454303856
 20
13.35770317591404
 30
0.0
  0
SEQEND
  5
43F
330
43C
100
AcDbEntity
  8
Layer 1
370
    35
  0
POLYLINE
  5
440
330
198
100
AcDbEntity
  8
Layer 1
 62
   250
420
  1842203
370
    35
100
AcDb2dPolyline
 66
     1
 10
0.0
 20
0.0
 30
0.0
  0
VERTEX
  5
441
330
440
100
AcDbEntity
  8
Layer 1
 62
   250
420
  1842203
370
    35
100
AcDbVertex
100
AcDb2dVertex
 10
10.86043958604357
 20
13.09945881833972
 30
0.0
  0
VERTEX
  5
442
330
440
100
AcDbEntity
  8
Layer 1
 62
   250
420
  1842203
370
    35
100
AcDbVertex
100
AcDb2dVertex
 10
9.173462454303856
 20
13.31958319436976
 30
0.0
  0
VERTEX
  5
443
330
440
100
AcDbEntity
  8
Layer 1
 62
   250
420
  1842203
370
    35
100
AcDbVertex
100
AcDb2dVertex
 10
9.173462454303856
 20
11.68552272928348
 30
0.0
  0
VERTEX
  5
444
330
440
100
AcDbEntity
  8
Layer 1
 62
   250
420
  1842203
370
    35
100
AcDbVertex
100
AcDb2dVertex
 10
9.173462454303856
 20
11.64741997321662
 30
0.0
  0
SEQEND
  5
445
330
440
100
AcDbEntity
  8
Layer 1
370
    35
  0
POLYLINE
  5
446
330
198
100
AcDbEntity
  8
Layer 1
 62
   250
420
  1842203
370
    35
100
AcDb2dPolyline
 66
     1
 10
0.0
 20
0.0
 30
0.0
  0
VERTEX
  5
447
330
446
100
AcDbEntity
  8
Layer 1
 62
   250
420
  1842203
370
    35
100
AcDbVertex
100
AcDb2dVertex
 10
11.03402072206788
 20
12.90050455406654
 30
0.0
  0
VERTEX
  5
448
330
446
100
AcDbEntity
  8
Layer 1
 62
   250
420
  1842203
370
    35
100
AcDbVertex
100
AcDb2dVertex
 10
11.03190198834445
 20
12.91740274742169
 30
0.0
  0
SEQEND
  5
449
330
446
100
AcDbEntity
  8
Layer 1
370
    35
  0
POLYLINE
  5
44A
330
198
100
AcDbEntity
  8
Layer 1
 62
   250
420
  1842203
370
    35
100
AcDb2dPolyline
 66
     1
 10
0.0
 20
0.0
 30
0.0
  0
VERTEX
  5
44B
330
44A
100
AcDbEntity
  8
Layer 1
 62
   250
420
  1842203
370
    35
100
AcDbVertex
100
AcDb2dVertex
 10
11.03190198834445
 20
12.91741997289912
 30
0.0
  0
VERTEX
  5
44C
330
44A
100
AcDbEntity
  8
Layer 1
 62
   250
420
  1842203
370
    35
100
AcDbVertex
100
AcDb2dVertex
 10
11.02978325462102
 20
12.93647135093255
 30
0.0
  0
SEQEND
  5
44D
330
44A
100
AcDbEntity
  8
Layer 1
370
    35
  0
POLYLINE
  5
44E
330
198
100
AcDbEntity
  8
Layer 1
 62
   250
420
  1842203
370
    35
100
AcDb2dPolyline
 66
     1
 10
0.0
 20
0.0
 30
0.0
  0
VERTEX
  5
44F
330
44E
100
AcDbEntity
  8
Layer 1
 62
   250
420
  1842203
370
    35
100
AcDbVertex
100
AcDb2dVertex
 10
11.02978325462102
 20
12.93647135093255
 30
0.0
  0
VERTEX
  5
450
330
44E
100
AcDbEntity
  8
Layer 1
 62
   250
420
  1842203
370
    35
100
AcDbVertex
100
AcDb2dVertex
 10
11.02554578717417
 20
12.95340399524255
 30
0.0
  0
SEQEND
  5
451
330
44E
100
AcDbEntity
  8
Layer 1
370
    35
  0
POLYLINE
  5
452
330
198
100
AcDbEntity
  8
Layer 1
 62
   250
420
  1842203
370
    35
100
AcDb2dPolyline
 66
     1
 10
0.0
 20
0.0
 30
0.0
  0
VERTEX
  5
453
330
452
100
AcDbEntity
  8
Layer 1
 62
   250
420
  1842203
370
    35
100
AcDbVertex
100
AcDb2dVertex
 10
11.02554578717417
 20
12.95342122071998
 30
0.0
  0
VERTEX
  5
454
330
452
100
AcDbEntity
  8
Layer 1
 62
   250
420
  1842203
370
    35
100
AcDbVertex
100
AcDb2dVertex
 10
11.02130831972731
 20
12.97031941407513
 30
0.0
  0
SEQEND
  5
455
330
452
100
AcDbEntity
  8
Layer 1
370
    35
  0
POLYLINE
  5
456
330
198
100
AcDbEntity
  8
Layer 1
 62
   250
420
  1842203
370
    35
100
AcDb2dPolyline
 66
     1
 10
0.0
 20
0.0
 30
0.0
  0
VERTEX
  5
457
330
456
100
AcDbEntity
  8
Layer 1
 62
   250
420
  1842203
370
    35
100
AcDbVertex
100
AcDb2dVertex
 10
11.02130831972731
 20
12.97033663955255
 30
0.0
  0
VERTEX
  5
458
330
456
100
AcDbEntity
  8
Layer 1
 62
   250
420
  1842203
370
    35
100
AcDbVertex
100
AcDb2dVertex
 10
11.0128333848336
 20
12.98726928386256
 30
0.0
  0
SEQEND
  5
459
330
456
100
AcDbEntity
  8
Layer 1
370
    35
  0
POLYLINE
  5
45A
330
198
100
AcDbEntity
  8
Layer 1
 62
   250
420
  1842203
370
    35
100
AcDb2dPolyline
 66
     1
 10
0.0
 20
0.0
 30
0.0
  0
VERTEX
  5
45B
330
45A
100
AcDbEntity
  8
Layer 1
 62
   250
420
  1842203
370
    35
100
AcDbVertex
100
AcDb2dVertex
 10
11.01285061031102
 20
12.98728650933998
 30
0.0
  0
VERTEX
  5
45C
330
45A
100
AcDbEntity
  8
Layer 1
 62
   250
420
  1842203
370
    35
100
AcDbVertex
100
AcDb2dVertex
 10
11.00437567541731
 20
13.00210041992656
 30
0.0
  0
SEQEND
  5
45D
330
45A
100
AcDbEntity
  8
Layer 1
370
    35
  0
POLYLINE
  5
45E
330
198
100
AcDbEntity
  8
Layer 1
 62
   250
420
  1842203
370
    35
100
AcDb2dPolyline
 66
     1
 10
0.0
 20
0.0
 30
0.0
  0
VERTEX
  5
45F
330
45E
100
AcDbEntity
  8
Layer 1
 62
   250
420
  1842203
370
    35
100
AcDbVertex
100
AcDb2dVertex
 10
11.00437567541731
 20
13.00210041992656
 30
0.0
  0
VERTEX
  5
460
330
45E
100
AcDbEntity
  8
Layer 1
 62
   250
420
  1842203
370
    35
100
AcDbVertex
100
AcDb2dVertex
 10
10.99590074052359
 20
13.01903306423656
 30
0.0
  0
SEQEND
  5
461
330
45E
100
AcDbEntity
  8
Layer 1
370
    35
  0
POLYLINE
  5
462
330
198
100
AcDbEntity
  8
Layer 1
 62
   250
420
  1842203
370
    35
100
AcDb2dPolyline
 66
     1
 10
0.0
 20
0.0
 30
0.0
  0
VERTEX
  5
463
330
462
100
AcDbEntity
  8
Layer 1
 62
   250
420
  1842203
370
    35
100
AcDbVertex
100
AcDb2dVertex
 10
10.99591796600102
 20
13.01905028971399
 30
0.0
  0
VERTEX
  5
464
330
462
100
AcDbEntity
  8
Layer 1
 62
   250
420
  1842203
370
    35
100
AcDbVertex
100
AcDb2dVertex
 10
10.98322278913787
 20
13.03171101562228
 30
0.0
  0
SEQEND
  5
465
330
462
100
AcDbEntity
  8
Layer 1
370
    35
  0
POLYLINE
  5
466
330
198
100
AcDbEntity
  8
Layer 1
 62
   250
420
  1842203
370
    35
100
AcDb2dPolyline
 66
     1
 10
0.0
 20
0.0
 30
0.0
  0
VERTEX
  5
467
330
466
100
AcDbEntity
  8
Layer 1
 62
   250
420
  1842203
370
    35
100
AcDbVertex
100
AcDb2dVertex
 10
10.9705103867973
 20
13.04444064344028
 30
0.0
  0
VERTEX
  5
468
330
466
100
AcDbEntity
  8
Layer 1
 62
   250
420
  1842203
370
    35
100
AcDbVertex
100
AcDb2dVertex
 10
10.95781520993416
 20
13.05713582030342
 30
0.0
  0
SEQEND
  5
469
330
466
100
AcDbEntity
  8
Layer 1
370
    35
  0
POLYLINE
  5
46A
330
198
100
AcDbEntity
  8
Layer 1
 62
   250
420
  1842203
370
    35
100
AcDb2dPolyline
 66
     1
 10
0.0
 20
0.0
 30
0.0
  0
VERTEX
  5
46B
330
46A
100
AcDbEntity
  8
Layer 1
 62
   250
420
  1842203
370
    35
100
AcDbVertex
100
AcDb2dVertex
 10
10.95781520993416
 20
13.05715304578085
 30
0.0
  0
VERTEX
  5
46C
330
46A
100
AcDbEntity
  8
Layer 1
 62
   250
420
  1842203
370
    35
100
AcDbVertex
100
AcDb2dVertex
 10
10.94300129934758
 20
13.06769503796571
 30
0.0
  0
SEQEND
  5
46D
330
46A
100
AcDbEntity
  8
Layer 1
370
    35
  0
POLYLINE
  5
46E
330
198
100
AcDbEntity
  8
Layer 1
 62
   250
420
  1842203
370
    35
100
AcDb2dPolyline
 66
     1
 10
0.0
 20
0.0
 30
0.0
  0
VERTEX
  5
46F
330
46E
100
AcDbEntity
  8
Layer 1
 62
   250
420
  1842203
370
    35
100
AcDbVertex
100
AcDb2dVertex
 10
10.94300129934758
 20
13.06769503796571
 30
0.0
  0
VERTEX
  5
470
330
46E
100
AcDbEntity
  8
Layer 1
 62
   250
420
  1842203
370
    35
100
AcDbVertex
100
AcDb2dVertex
 10
10.92818738876101
 20
13.07616997285943
 30
0.0
  0
SEQEND
  5
471
330
46E
100
AcDbEntity
  8
Layer 1
370
    35
  0
POLYLINE
  5
472
330
198
100
AcDbEntity
  8
Layer 1
 62
   250
420
  1842203
370
    35
100
AcDb2dPolyline
 66
     1
 10
0.0
 20
0.0
 30
0.0
  0
VERTEX
  5
473
330
472
100
AcDbEntity
  8
Layer 1
 62
   250
420
  1842203
370
    35
100
AcDbVertex
100
AcDb2dVertex
 10
10.92818738876101
 20
13.07616997285943
 30
0.0
  0
VERTEX
  5
474
330
472
100
AcDbEntity
  8
Layer 1
 62
   250
420
  1842203
370
    35
100
AcDbVertex
100
AcDb2dVertex
 10
10.91125474445101
 20
13.08464490775314
 30
0.0
  0
SEQEND
  5
475
330
472
100
AcDbEntity
  8
Layer 1
370
    35
  0
POLYLINE
  5
476
330
198
100
AcDbEntity
  8
Layer 1
 62
   250
420
  1842203
370
    35
100
AcDb2dPolyline
 66
     1
 10
0.0
 20
0.0
 30
0.0
  0
VERTEX
  5
477
330
476
100
AcDbEntity
  8
Layer 1
 62
   250
420
  1842203
370
    35
100
AcDbVertex
100
AcDb2dVertex
 10
10.91125474445101
 20
13.08464490775314
 30
0.0
  0
VERTEX
  5
478
330
476
100
AcDbEntity
  8
Layer 1
 62
   250
420
  1842203
370
    35
100
AcDbVertex
100
AcDb2dVertex
 10
10.894322100141
 20
13.09100110892343
 30
0.0
  0
SEQEND
  5
479
330
476
100
AcDbEntity
  8
Layer 1
370
    35
  0
POLYLINE
  5
47A
330
198
100
AcDbEntity
  8
Layer 1
 62
   250
420
  1842203
370
    35
100
AcDb2dPolyline
 66
     1
 10
0.0
 20
0.0
 30
0.0
  0
VERTEX
  5
47B
330
47A
100
AcDbEntity
  8
Layer 1
 62
   250
420
  1842203
370
    35
100
AcDbVertex
100
AcDb2dVertex
 10
10.894322100141
 20
13.090983883446
 30
0.0
  0
VERTEX
  5
47C
330
47A
100
AcDbEntity
  8
Layer 1
 62
   250
420
  1842203
370
    35
100
AcDbVertex
100
AcDb2dVertex
 10
10.877389455831
 20
13.09522135089286
 30
0.0
  0
SEQEND
  5
47D
330
47A
100
AcDbEntity
  8
Layer 1
370
    35
  0
POLYLINE
  5
47E
330
198
100
AcDbEntity
  8
Layer 1
 62
   250
420
  1842203
370
    35
100
AcDb2dPolyline
 66
     1
 10
0.0
 20
0.0
 30
0.0
  0
VERTEX
  5
47F
330
47E
100
AcDbEntity
  8
Layer 1
 62
   250
420
  1842203
370
    35
100
AcDbVertex
100
AcDb2dVertex
 10
10.87737223035357
 20
13.09522135089286
 30
0.0
  0
VERTEX
  5
480
330
47E
100
AcDbEntity
  8
Layer 1
 62
   250
420
  1842203
370
    35
100
AcDbVertex
100
AcDb2dVertex
 10
10.86043958604357
 20
13.09945881833972
 30
0.0
  0
SEQEND
  5
481
330
47E
100
AcDbEntity
  8
Layer 1
370
    35
  0
POLYLINE
  5
482
330
198
100
AcDbEntity
  8
Layer 1
 62
   250
420
  1842203
370
     9
100
AcDb2dPolyline
 66
     1
 10
0.0
 20
0.0
 30
0.0
  0
VERTEX
  5
483
330
482
100
AcDbEntity
  8
Layer 1
 62
   250
420
  1842203
370
     9
100
AcDbVertex
100
AcDb2dVertex
 10
6.604609780249889
 20
13.94874375736351
 30
0.0
  0
VERTEX
  5
484
330
482
100
AcDbEntity
  8
Layer 1
 62
   250
420
  1842203
370
     9
100
AcDbVertex
100
AcDb2dVertex
 10
6.604609780249889
 20
11.08990017083864
 30
0.0
  0
SEQEND
  5
485
330
482
100
AcDbEntity
  8
Layer 1
370
     9
  0
SPLINE
  5
486
330
198
100
AcDbEntity
  8
Layer 1
 62
   250
420
  1842203
370
    35
100
AcDbSpline
210
0.0
220
0.0
230
1.0
 70
     8
 71
     3
 72
    11
 73
     7
 74
     0
 42
0.0000000001
 43
0.0000000001
 40
0.0
 40
0.0
 40
0.0
 40
0.0
 40
1.0
 40
1.0
 40
1.0
 40
2.0
 40
2.0
 40
2.0
 40
2.0
 10
9.104336613392318
 20
13.35725531350096
 30
0.0
 10
9.18179958537816
 20
13.23051025059862
 30
0.0
 10
9.167691919366062
 20
12.99815578559595
 30
0.0
 10
9.13248304350681
 20
12.87847316843837
 30
0.0
 10
9.13248304350681
 20
12.87847316843837
 30
0.0
 10
8.921281464783569
 20
12.87847316843837
 30
0.0
 10
8.921281464783569
 20
12.87847316843837
 30
0.0
  0
SPLINE
  5
487
330
198
100
AcDbEntity
  8
Layer 1
 62
   250
420
  1842203
370
    35
100
AcDbSpline
210
0.0
220
0.0
230
1.0
 70
     8
 71
     3
 72
    11
 73
     7
 74
     0
 42
0.0000000001
 43
0.0000000001
 40
0.0
 40
0.0
 40
0.0
 40
0.0
 40
1.0
 40
1.0
 40
1.0
 40
2.0
 40
2.0
 40
2.0
 40
2.0
 10
9.104336613392318
 20
11.64614528788707
 30
0.0
 10
9.18179958537816
 20
11.77290757626684
 30
0.0
 10
9.167691919366062
 20
12.00524481579209
 30
0.0
 10
9.13248304350681
 20
12.1249446584271
 30
0.0
 10
9.13248304350681
 20
12.1249446584271
 30
0.0
 10
8.921281464783569
 20
12.1249446584271
 30
0.0
 10
8.921281464783569
 20
12.1249446584271
 30
0.0
  0
SPLINE
  5
488
330
198
100
AcDbEntity
  8
Layer 1
 62
   250
420
  1842203
370
    35
100
AcDbSpline
210
0.0
220
0.0
230
1.0
 70
     8
 71
     3
 72
     8
 73
     4
 74
     0
 42
0.0000000001
 43
0.0000000001
 40
0.0
 40
0.0
 40
0.0
 40
0.0
 40
1.0
 40
1.0
 40
1.0
 40
1.0
 10
9.132500268984236
 20
12.87845594296094
 30
0.0
 10
9.160646699098727
 20
12.68830389765258
 30
0.0
 10
9.160646699098727
 20
12.329101016883
 30
0.0
 10
9.132500268984236
 20
12.12496188390452
 30
0.0
  0
SPLINE
  5
489
330
198
100
AcDbEntity
  8
Layer 1
 62
    28
420
  1118219
370
    35
100
AcDbSpline
210
0.0
220
0.0
230
1.0
 70
     8
 71
     3
 72
     8
 73
     4
 74
     0
 42
0.0000000001
 43
0.0000000001
 40
0.0
 40
0.0
 40
0.0
 40
0.0
 40
1.0
 40
1.0
 40
1.0
 40
1.0
 10
7.532408445382522
 20
11.80544650312503
 30
0.0
 10
7.651040308417101
 20
11.9240783661596
 30
0.0
 10
8.422156030880572
 20
11.92948716607145
 30
0.0
 10
8.546179468349566
 20
11.81083807755944
 30
0.0
  0
SPLINE
  5
48A
330
198
100
AcDbEntity
  8
Layer 1
 62
    28
420
  1118219
370
    35
100
AcDbSpline
210
0.0
220
0.0
230
1.0
 70
    11
 71
     3
 72
    29
 73
    25
 74
     0
 42
0.0000000001
 43
0.0000000001
 40
0.0
 40
0.0
 40
0.0
 40
0.0
 40
1.0
 40
1.0
 40
1.0
 40
2.0
 40
2.0
 40
2.0
 40
3.0
 40
3.0
 40
3.0
 40
4.0
 40
4.0
 40
4.0
 40
5.0
 40
5.0
 40
5.0
 40
6.0
 40
6.0
 40
6.0
 40
7.0
 40
7.0
 40
7.0
 40
8.0
 40
8.0
 40
8.0
 40
8.0
 10
7.516457653285816
 20
12.38808105159048
 30
0.0
 10
7.516457653285816
 20
12.27763129033337
 30
0.0
 10
7.426919621624172
 20
12.18809325867173
 30
0.0
 10
7.316469860367063
 20
12.18809325867173
 30
0.0
 10
7.316469860367063
 20
12.18809325867173
 30
0.0
 10
6.97769639582502
 20
12.18809325867173
 30
0.0
 10
6.97769639582502
 20
12.18809325867173
 30
0.0
 10
6.86724663456791
 20
12.18809325867173
 30
0.0
 10
6.777708602906267
 20
12.27763129033337
 30
0.0
 10
6.777708602906267
 20
12.38808105159048
 30
0.0
 10
6.777708602906267
 20
12.38808105159048
 30
0.0
 10
6.777708602906267
 20
12.59745672970654
 30
0.0
 10
6.777708602906267
 20
12.59745672970654
 30
0.0
 10
6.777708602906267
 20
12.70787204000879
 30
0.0
 10
6.86724663456791
 20
12.79744452262529
 30
0.0
 10
6.97769639582502
 20
12.79744452262529
 30
0.0
 10
6.97769639582502
 20
12.79744452262529
 30
0.0
 10
7.316469860367063
 20
12.79744452262529
 30
0.0
 10
7.316469860367063
 20
12.79744452262529
 30
0.0
 10
7.426919621624172
 20
12.79744452262529
 30
0.0
 10
7.516457653285816
 20
12.70787204000879
 30
0.0
 10
7.516457653285816
 20
12.59745672970654
 30
0.0
 10
7.516457653285816
 20
12.59745672970654
 30
0.0
 10
7.516457653285816
 20
12.38808105159048
 30
0.0
 10
7.516457653285816
 20
12.38808105159048
 30
0.0
  0
SPLINE
  5
48B
330
198
100
AcDbEntity
  8
Layer 1
 62
    28
420
  1118219
370
    35
100
AcDbSpline
210
0.0
220
0.0
230
1.0
 70
    11
 71
     3
 72
    29
 73
    25
 74
     0
 42
0.0000000001
 43
0.0000000001
 40
0.0
 40
0.0
 40
0.0
 40
0.0
 40
1.0
 40
1.0
 40
1.0
 40
2.0
 40
2.0
 40
2.0
 40
3.0
 40
3.0
 40
3.0
 40
4.0
 40
4.0
 40
4.0
 40
5.0
 40
5.0
 40
5.0
 40
6.0
 40
6.0
 40
6.0
 40
7.0
 40
7.0
 40
7.0
 40
8.0
 40
8.0
 40
8.0
 40
8.0
 10
7.516457653285816
 20
11.93820325764913
 30
0.0
 10
7.516457653285816
 20
11.8736766192104
 30
0.0
 10
7.426919621624172
 20
11.82139729522173
 30
0.0
 10
7.316469860367063
 20
11.82139729522173
 30
0.0
 10
7.316469860367063
 20
11.82139729522173
 30
0.0
 10
6.97769639582502
 20
11.82139729522173
 30
0.0
 10
6.97769639582502
 20
11.82139729522173
 30
0.0
 10
6.86724663456791
 20
11.82139729522173
 30
0.0
 10
6.777708602906267
 20
11.8736766192104
 30
0.0
 10
6.777708602906267
 20
11.93820325764913
 30
0.0
 10
6.777708602906267
 20
11.93820325764913
 30
0.0
 10
6.777708602906267
 20
12.06046969642065
 30
0.0
 10
6.777708602906267
 20
12.06046969642065
 30
0.0
 10
6.777708602906267
 20
12.12499633485938
 30
0.0
 10
6.86724663456791
 20
12.17727565884804
 30
0.0
 10
6.97769639582502
 20
12.17727565884804
 30
0.0
 10
6.97769639582502
 20
12.17727565884804
 30
0.0
 10
7.316469860367063
 20
12.17727565884804
 30
0.0
 10
7.316469860367063
 20
12.17727565884804
 30
0.0
 10
7.426919621624172
 20
12.17727565884804
 30
0.0
 10
7.516457653285816
 20
12.12499633485938
 30
0.0
 10
7.516457653285816
 20
12.06046969642065
 30
0.0
 10
7.516457653285816
 20
12.06046969642065
 30
0.0
 10
7.516457653285816
 20
11.93820325764913
 30
0.0
 10
7.516457653285816
 20
11.93820325764913
 30
0.0
  0
SPLINE
  5
48C
330
198
100
AcDbEntity
  8
Layer 1
 62
    28
420
  1118219
370
    35
100
AcDbSpline
210
0.0
220
0.0
230
1.0
 70
    11
 71
     3
 72
    29
 73
    25
 74
     0
 42
0.0000000001
 43
0.0000000001
 40
0.0
 40
0.0
 40
0.0
 40
0.0
 40
1.0
 40
1.0
 40
1.0
 40
2.0
 40
2.0
 40
2.0
 40
3.0
 40
3.0
 40
3.0
 40
4.0
 40
4.0
 40
4.0
 40
5.0
 40
5.0
 40
5.0
 40
6.0
 40
6.0
 40
6.0
 40
7.0
 40
7.0
 40
7.0
 40
8.0
 40
8.0
 40
8.0
 40
8.0
 10
7.516457653285816
 20
12.94659993165918
 30
0.0
 10
7.516457653285816
 20
12.88207329322045
 30
0.0
 10
7.426919621624172
 20
12.82979396923179
 30
0.0
 10
7.316469860367063
 20
12.82979396923179
 30
0.0
 10
7.316469860367063
 20
12.82979396923179
 30
0.0
 10
6.97769639582502
 20
12.82979396923179
 30
0.0
 10
6.97769639582502
 20
12.82979396923179
 30
0.0
 10
6.86724663456791
 20
12.82979396923179
 30
0.0
 10
6.777708602906267
 20
12.88207329322045
 30
0.0
 10
6.777708602906267
 20
12.94659993165918
 30
0.0
 10
6.777708602906267
 20
12.94659993165918
 30
0.0
 10
6.777708602906267
 20
13.0688663704307
 30
0.0
 10
6.777708602906267
 20
13.0688663704307
 30
0.0
 10
6.777708602906267
 20
13.13339300886943
 30
0.0
 10
6.86724663456791
 20
13.1856723328581
 30
0.0
 10
6.97769639582502
 20
13.1856723328581
 30
0.0
 10
6.97769639582502
 20
13.1856723328581
 30
0.0
 10
7.316469860367063
 20
13.1856723328581
 30
0.0
 10
7.316469860367063
 20
13.1856723328581
 30
0.0
 10
7.426919621624172
 20
13.1856723328581
 30
0.0
 10
7.516457653285816
 20
13.13339300886943
 30
0.0
 10
7.516457653285816
 20
13.0688663704307
 30
0.0
 10
7.516457653285816
 20
13.0688663704307
 30
0.0
 10
7.516457653285816
 20
12.94659993165918
 30
0.0
 10
7.516457653285816
 20
12.94659993165918
 30
0.0
  0
POLYLINE
  5
48D
330
198
100
AcDbEntity
  8
Layer 1
 62
   250
420
  1842203
370
    35
100
AcDb2dPolyline
 66
     1
 10
0.0
 20
0.0
 30
0.0
  0
VERTEX
  5
48E
330
48D
100
AcDbEntity
  8
Layer 1
 62
   250
420
  1842203
370
    35
100
AcDbVertex
100
AcDb2dVertex
 10
8.685878090276447
 20
11.45284098020971
 30
0.0
  0
VERTEX
  5
48F
330
48D
100
AcDbEntity
  8
Layer 1
 62
   250
420
  1842203
370
    35
100
AcDbVertex
100
AcDb2dVertex
 10
7.839952119350775
 20
11.39642754163874
 30
0.0
  0
SEQEND
  5
490
330
48D
100
AcDbEntity
  8
Layer 1
370
    35
  0
POLYLINE
  5
491
330
198
100
AcDbEntity
  8
Layer 1
 62
   250
420
  1842203
370
    35
100
AcDb2dPolyline
 66
     1
 10
0.0
 20
0.0
 30
0.0
  0
VERTEX
  5
492
330
491
100
AcDbEntity
  8
Layer 1
 62
   250
420
  1842203
370
    35
100
AcDbVertex
100
AcDb2dVertex
 10
8.685878090276447
 20
11.36543890774892
 30
0.0
  0
VERTEX
  5
493
330
491
100
AcDbEntity
  8
Layer 1
 62
   250
420
  1842203
370
    35
100
AcDbVertex
100
AcDb2dVertex
 10
7.839952119350775
 20
11.30902546917795
 30
0.0
  0
SEQEND
  5
494
330
491
100
AcDbEntity
  8
Layer 1
370
    35
  0
POLYLINE
  5
495
330
198
100
AcDbEntity
  8
Layer 1
 62
   250
420
  1842203
370
    35
100
AcDb2dPolyline
 66
     1
 10
0.0
 20
0.0
 30
0.0
  0
VERTEX
  5
496
330
495
100
AcDbEntity
  8
Layer 1
 62
   250
420
  1842203
370
    35
100
AcDbVertex
100
AcDb2dVertex
 10
8.685878090276447
 20
11.27803683528813
 30
0.0
  0
VERTEX
  5
497
330
495
100
AcDbEntity
  8
Layer 1
 62
   250
420
  1842203
370
    35
100
AcDbVertex
100
AcDb2dVertex
 10
7.839952119350775
 20
11.22162339671716
 30
0.0
  0
SEQEND
  5
498
330
495
100
AcDbEntity
  8
Layer 1
370
    35
  0
POLYLINE
  5
499
330
198
100
AcDbEntity
  8
Layer 1
 62
   250
420
  1842203
370
    35
100
AcDb2dPolyline
 66
     1
 10
0.0
 20
0.0
 30
0.0
  0
VERTEX
  5
49A
330
499
100
AcDbEntity
  8
Layer 1
 62
   250
420
  1842203
370
    35
100
AcDbVertex
100
AcDb2dVertex
 10
8.685878090276447
 20
11.19063476282734
 30
0.0
  0
VERTEX
  5
49B
330
499
100
AcDbEntity
  8
Layer 1
 62
   250
420
  1842203
370
    35
100
AcDbVertex
100
AcDb2dVertex
 10
7.839952119350775
 20
11.13422132425637
 30
0.0
  0
SEQEND
  5
49C
330
499
100
AcDbEntity
  8
Layer 1
370
    35
  0
POLYLINE
  5
49D
330
198
100
AcDbEntity
  8
Layer 1
 62
   250
420
  1842203
370
    35
100
AcDb2dPolyline
 66
     1
 10
0.0
 20
0.0
 30
0.0
  0
VERTEX
  5
49E
330
49D
100
AcDbEntity
  8
Layer 1
 62
   250
420
  1842203
370
    35
100
AcDbVertex
100
AcDb2dVertex
 10
8.685878090276447
 20
11.10323269036655
 30
0.0
  0
VERTEX
  5
49F
330
49D
100
AcDbEntity
  8
Layer 1
 62
   250
420
  1842203
370
    35
100
AcDbVertex
100
AcDb2dVertex
 10
7.839952119350775
 20
11.04681925179559
 30
0.0
  0
SEQEND
  5
4A0
330
49D
100
AcDbEntity
  8
Layer 1
370
    35
  0
POLYLINE
  5
4A1
330
198
100
AcDbEntity
  8
Layer 1
 62
   250
420
  1842203
370
    35
100
AcDb2dPolyline
 66
     1
 10
0.0
 20
0.0
 30
0.0
  0
VERTEX
  5
4A2
330
4A1
100
AcDbEntity
  8
Layer 1
 62
   250
420
  1842203
370
    35
100
AcDbVertex
100
AcDb2dVertex
 10
8.685878090276447
 20
11.01583061790576
 30
0.0
  0
VERTEX
  5
4A3
330
4A1
100
AcDbEntity
  8
Layer 1
 62
   250
420
  1842203
370
    35
100
AcDbVertex
100
AcDb2dVertex
 10
7.839952119350775
 20
10.9594171793348
 30
0.0
  0
SEQEND
  5
4A4
330
4A1
100
AcDbEntity
  8
Layer 1
370
    35
  0
POLYLINE
  5
4A5
330
198
100
AcDbEntity
  8
Layer 1
 62
   250
420
  1842203
370
    35
100
AcDb2dPolyline
 66
     1
 10
0.0
 20
0.0
 30
0.0
  0
VERTEX
  5
4A6
330
4A5
100
AcDbEntity
  8
Layer 1
 62
   250
420
  1842203
370
    35
100
AcDbVertex
100
AcDb2dVertex
 10
8.685878090276447
 20
10.92842854544497
 30
0.0
  0
VERTEX
  5
4A7
330
4A5
100
AcDbEntity
  8
Layer 1
 62
   250
420
  1842203
370
    35
100
AcDbVertex
100
AcDb2dVertex
 10
7.839952119350775
 20
10.87201510687401
 30
0.0
  0
SEQEND
  5
4A8
330
4A5
100
AcDbEntity
  8
Layer 1
370
    35
  0
POLYLINE
  5
4A9
330
198
100
AcDbEntity
  8
Layer 1
 62
   250
420
  2827298
370
    18
100
AcDb2dPolyline
 66
     1
 10
0.0
 20
0.0
 30
0.0
  0
VERTEX
  5
4AA
330
4A9
100
AcDbEntity
  8
Layer 1
 62
   250
420
  2827298
370
    18
100
AcDbVertex
100
AcDb2dVertex
 10
3.704132214785772
 20
13.7789694518504
 30
0.0
  0
VERTEX
  5
4AB
330
4A9
100
AcDbEntity
  8
Layer 1
 62
   250
420
  2827298
370
    18
100
AcDbVertex
100
AcDb2dVertex
 10
3.759701604962852
 20
14.11235134195802
 30
0.0
  0
SEQEND
  5
4AC
330
4A9
100
AcDbEntity
  8
Layer 1
370
    18
  0
POLYLINE
  5
4AD
330
198
100
AcDbEntity
  8
Layer 1
 62
   250
420
  2827298
370
    18
100
AcDb2dPolyline
 66
     1
 10
0.0
 20
0.0
 30
0.0
  0
VERTEX
  5
4AE
330
4AD
100
AcDbEntity
  8
Layer 1
 62
   250
420
  2827298
370
    18
100
AcDbVertex
100
AcDb2dVertex
 10
3.759701604962852
 20
14.11235134195802
 30
0.0
  0
VERTEX
  5
4AF
330
4AD
100
AcDbEntity
  8
Layer 1
 62
   250
420
  2827298
370
    18
100
AcDbVertex
100
AcDb2dVertex
 10
3.815270995139932
 20
13.7789694518504
 30
0.0
  0
SEQEND
  5
4B0
330
4AD
100
AcDbEntity
  8
Layer 1
370
    18
  0
POLYLINE
  5
4B1
330
198
100
AcDbEntity
  8
Layer 1
 62
   250
420
  2827298
370
    18
100
AcDb2dPolyline
 66
     1
 10
0.0
 20
0.0
 30
0.0
  0
VERTEX
  5
4B2
330
4B1
100
AcDbEntity
  8
Layer 1
 62
   250
420
  2827298
370
    18
100
AcDbVertex
100
AcDb2dVertex
 10
3.704132214785772
 20
13.7789694518504
 30
0.0
  0
VERTEX
  5
4B3
330
4B1
100
AcDbEntity
  8
Layer 1
 62
   250
420
  2827298
370
    18
100
AcDbVertex
100
AcDb2dVertex
 10
3.815253769662506
 20
13.7789694518504
 30
0.0
  0
SEQEND
  5
4B4
330
4B1
100
AcDbEntity
  8
Layer 1
370
    18
  0
POLYLINE
  5
4B5
330
198
100
AcDbEntity
  8
Layer 1
 62
   250
420
  2827298
370
    18
100
AcDb2dPolyline
 66
     1
 10
0.0
 20
0.0
 30
0.0
  0
VERTEX
  5
4B6
330
4B5
100
AcDbEntity
  8
Layer 1
 62
   250
420
  2827298
370
    18
100
AcDbVertex
100
AcDb2dVertex
 10
3.759701604962852
 20
14.11235134195802
 30
0.0
  0
VERTEX
  5
4B7
330
4B5
100
AcDbEntity
  8
Layer 1
 62
   250
420
  2827298
370
    18
100
AcDbVertex
100
AcDb2dVertex
 10
3.759701604962852
 20
13.7789694518504
 30
0.0
  0
SEQEND
  5
4B8
330
4B5
100
AcDbEntity
  8
Layer 1
370
    18
  0
POLYLINE
  5
4B9
330
198
100
AcDbEntity
  8
Layer 1
 62
   250
420
  2827298
370
    18
100
AcDb2dPolyline
 66
     1
 10
0.0
 20
0.0
 30
0.0
  0
VERTEX
  5
4BA
330
4B9
100
AcDbEntity
  8
Layer 1
 62
   250
420
  2827298
370
    18
100
AcDbVertex
100
AcDb2dVertex
 10
6.414147676347851
 20
14.11235134195802
 30
0.0
  0
VERTEX
  5
4BB
330
4B9
100
AcDbEntity
  8
Layer 1
 62
   250
420
  2827298
370
    18
100
AcDbVertex
100
AcDb2dVertex
 10
3.635281981513054
 20
14.11235134195802
 30
0.0
  0
SEQEND
  5
4BC
330
4B9
100
AcDbEntity
  8
Layer 1
370
    18
  0
POLYLINE
  5
4BD
330
198
100
AcDbEntity
  8
Layer 1
 62
   250
420
  2827298
370
    18
100
AcDb2dPolyline
 66
     1
 10
0.0
 20
0.0
 30
0.0
  0
VERTEX
  5
4BE
330
4BD
100
AcDbEntity
  8
Layer 1
 62
   250
420
  2827298
370
    18
100
AcDbVertex
100
AcDb2dVertex
 10
3.759701604962852
 20
14.11235134195802
 30
0.0
  0
VERTEX
  5
4BF
330
4BD
100
AcDbEntity
  8
Layer 1
 62
   250
420
  2827298
370
    18
100
AcDbVertex
100
AcDb2dVertex
 10
3.759701604962852
 20
10.89921413573006
 30
0.0
  0
SEQEND
  5
4C0
330
4BD
100
AcDbEntity
  8
Layer 1
370
    18
  0
POLYLINE
  5
4C1
330
198
100
AcDbEntity
  8
Layer 1
 62
   250
420
  1842203
370
    18
100
AcDb2dPolyline
 66
     1
 10
0.0
 20
0.0
 30
0.0
  0
VERTEX
  5
4C2
330
4C1
100
AcDbEntity
  8
Layer 1
 62
   250
420
  1842203
370
    18
100
AcDbVertex
100
AcDb2dVertex
 10
6.846197101153034
 20
8.595823294292016
 30
0.0
  0
VERTEX
  5
4C3
330
4C1
100
AcDbEntity
  8
Layer 1
 62
   250
420
  1842203
370
    18
100
AcDbVertex
100
AcDb2dVertex
 10
6.512815211045407
 20
8.651358233514243
 30
0.0
  0
SEQEND
  5
4C4
330
4C1
100
AcDbEntity
  8
Layer 1
370
    18
  0
POLYLINE
  5
4C5
330
198
100
AcDbEntity
  8
Layer 1
 62
   250
420
  1842203
370
    18
100
AcDb2dPolyline
 66
     1
 10
0.0
 20
0.0
 30
0.0
  0
VERTEX
  5
4C6
330
4C5
100
AcDbEntity
  8
Layer 1
 62
   250
420
  1842203
370
    18
100
AcDbVertex
100
AcDb2dVertex
 10
6.512815211045407
 20
8.651358233514243
 30
0.0
  0
VERTEX
  5
4C7
330
4C5
100
AcDbEntity
  8
Layer 1
 62
   250
420
  1842203
370
    18
100
AcDbVertex
100
AcDb2dVertex
 10
6.846197101153034
 20
8.706927623691323
 30
0.0
  0
SEQEND
  5
4C8
330
4C5
100
AcDbEntity
  8
Layer 1
370
    18
  0
POLYLINE
  5
4C9
330
198
100
AcDbEntity
  8
Layer 1
 62
   250
420
  1842203
370
    18
100
AcDb2dPolyline
 66
     1
 10
0.0
 20
0.0
 30
0.0
  0
VERTEX
  5
4CA
330
4C9
100
AcDbEntity
  8
Layer 1
 62
   250
420
  1842203
370
    18
100
AcDbVertex
100
AcDb2dVertex
 10
6.846197101153034
 20
8.595823294292016
 30
0.0
  0
VERTEX
  5
4CB
330
4C9
100
AcDbEntity
  8
Layer 1
 62
   250
420
  1842203
370
    18
100
AcDbVertex
100
AcDb2dVertex
 10
6.846197101153034
 20
8.706927623691323
 30
0.0
  0
SEQEND
  5
4CC
330
4C9
100
AcDbEntity
  8
Layer 1
370
    18
  0
POLYLINE
  5
4CD
330
198
100
AcDbEntity
  8
Layer 1
 62
   250
420
  1842203
370
    18
100
AcDb2dPolyline
 66
     1
 10
0.0
 20
0.0
 30
0.0
  0
VERTEX
  5
4CE
330
4CD
100
AcDbEntity
  8
Layer 1
 62
   250
420
  1842203
370
    18
100
AcDbVertex
100
AcDb2dVertex
 10
6.512815211045407
 20
8.651358233514243
 30
0.0
  0
VERTEX
  5
4CF
330
4CD
100
AcDbEntity
  8
Layer 1
 62
   250
420
  1842203
370
    18
100
AcDbVertex
100
AcDb2dVertex
 10
6.846197101153034
 20
8.651358233514243
 30
0.0
  0
SEQEND
  5
4D0
330
4CD
100
AcDbEntity
  8
Layer 1
370
    18
  0
POLYLINE
  5
4D1
330
198
100
AcDbEntity
  8
Layer 1
 62
   250
420
  1842203
370
    18
100
AcDb2dPolyline
 66
     1
 10
0.0
 20
0.0
 30
0.0
  0
VERTEX
  5
4D2
330
4D1
100
AcDbEntity
  8
Layer 1
 62
   250
420
  1842203
370
    18
100
AcDbVertex
100
AcDb2dVertex
 10
12.47322658650843
 20
8.706927623691323
 30
0.0
  0
VERTEX
  5
4D3
330
4D1
100
AcDbEntity
  8
Layer 1
 62
   250
420
  1842203
370
    18
100
AcDbVertex
100
AcDb2dVertex
 10
12.80664292757091
 20
8.651358233514243
 30
0.0
  0
SEQEND
  5
4D4
330
4D1
100
AcDbEntity
  8
Layer 1
370
    18
  0
POLYLINE
  5
4D5
330
198
100
AcDbEntity
  8
Layer 1
 62
   250
420
  1842203
370
    18
100
AcDb2dPolyline
 66
     1
 10
0.0
 20
0.0
 30
0.0
  0
VERTEX
  5
4D6
330
4D5
100
AcDbEntity
  8
Layer 1
 62
   250
420
  1842203
370
    18
100
AcDbVertex
100
AcDb2dVertex
 10
12.80664292757091
 20
8.651358233514243
 30
0.0
  0
VERTEX
  5
4D7
330
4D5
100
AcDbEntity
  8
Layer 1
 62
   250
420
  1842203
370
    18
100
AcDbVertex
100
AcDb2dVertex
 10
12.47322658650843
 20
8.595823294292016
 30
0.0
  0
SEQEND
  5
4D8
330
4D5
100
AcDbEntity
  8
Layer 1
370
    18
  0
POLYLINE
  5
4D9
330
198
100
AcDbEntity
  8
Layer 1
 62
   250
420
  1842203
370
    18
100
AcDb2dPolyline
 66
     1
 10
0.0
 20
0.0
 30
0.0
  0
VERTEX
  5
4DA
330
4D9
100
AcDbEntity
  8
Layer 1
 62
   250
420
  1842203
370
    18
100
AcDbVertex
100
AcDb2dVertex
 10
12.47322658650843
 20
8.706927623691323
 30
0.0
  0
VERTEX
  5
4DB
330
4D9
100
AcDbEntity
  8
Layer 1
 62
   250
420
  1842203
370
    18
100
AcDbVertex
100
AcDb2dVertex
 10
12.47322658650843
 20
8.595823294292016
 30
0.0
  0
SEQEND
  5
4DC
330
4D9
100
AcDbEntity
  8
Layer 1
370
    18
  0
POLYLINE
  5
4DD
330
198
100
AcDbEntity
  8
Layer 1
 62
   250
420
  1842203
370
    18
100
AcDb2dPolyline
 66
     1
 10
0.0
 20
0.0
 30
0.0
  0
VERTEX
  5
4DE
330
4DD
100
AcDbEntity
  8
Layer 1
 62
   250
420
  1842203
370
    18
100
AcDbVertex
100
AcDb2dVertex
 10
12.80664292757091
 20
8.651358233514243
 30
0.0
  0
VERTEX
  5
4DF
330
4DD
100
AcDbEntity
  8
Layer 1
 62
   250
420
  1842203
370
    18
100
AcDbVertex
100
AcDb2dVertex
 10
12.47322658650843
 20
8.651358233514243
 30
0.0
  0
SEQEND
  5
4E0
330
4DD
100
AcDbEntity
  8
Layer 1
370
    18
  0
POLYLINE
  5
4E1
330
198
100
AcDbEntity
  8
Layer 1
 62
   250
420
  1842203
370
    18
100
AcDb2dPolyline
 66
     1
 10
0.0
 20
0.0
 30
0.0
  0
VERTEX
  5
4E2
330
4E1
100
AcDbEntity
  8
Layer 1
 62
   250
420
  1842203
370
    18
100
AcDbVertex
100
AcDb2dVertex
 10
12.80664292757091
 20
8.48998996098514
 30
0.0
  0
VERTEX
  5
4E3
330
4E1
100
AcDbEntity
  8
Layer 1
 62
   250
420
  1842203
370
    18
100
AcDbVertex
100
AcDb2dVertex
 10
12.80664292757091
 20
11.15399617234171
 30
0.0
  0
SEQEND
  5
4E4
330
4E1
100
AcDbEntity
  8
Layer 1
370
    18
  0
POLYLINE
  5
4E5
330
198
100
AcDbEntity
  8
Layer 1
 62
   250
420
  1842203
370
    18
100
AcDb2dPolyline
 66
     1
 10
0.0
 20
0.0
 30
0.0
  0
VERTEX
  5
4E6
330
4E5
100
AcDbEntity
  8
Layer 1
 62
   250
420
  1842203
370
    18
100
AcDbVertex
100
AcDb2dVertex
 10
6.512815211045407
 20
8.651358233514243
 30
0.0
  0
VERTEX
  5
4E7
330
4E5
100
AcDbEntity
  8
Layer 1
 62
   250
420
  1842203
370
    18
100
AcDbVertex
100
AcDb2dVertex
 10
12.80664292757091
 20
8.651358233514243
 30
0.0
  0
SEQEND
  5
4E8
330
4E5
100
AcDbEntity
  8
Layer 1
370
    18
  0
ENDBLK
  5
19B
330
198
100
AcDbEntity
  8
0
100
AcDbBlockEnd
  0
BLOCK
  5
4EC
330
4EA
100
AcDbEntity
  8
0
100
AcDbBlockBegin
  2
block 6
 70
     0
 71
     0
 10
0.0
 20
0.0
 30
0.0
  3
block 6
  1

  0
POLYLINE
  5
4EE
330
4EA
100
AcDbEntity
  8
Layer 1
 62
   250
420
  1842203
370
    18
100
AcDb2dPolyline
 66
     1
 10
0.0
 20
0.0
 30
0.0
  0
VERTEX
  5
4EF
330
4EE
100
AcDbEntity
  8
Layer 1
 62
   250
420
  1842203
370
    18
100
AcDbVertex
100
AcDb2dVertex
 10
6.50540825575212
 20
8.430424260045172
 30
0.0
  0
VERTEX
  5
4F0
330
4EE
100
AcDbEntity
  8
Layer 1
 62
   250
420
  1842203
370
    18
100
AcDbVertex
100
AcDb2dVertex
 10
6.50540825575212
 20
9.632831486307069
 30
0.0
  0
SEQEND
  5
4F1
330
4EE
100
AcDbEntity
  8
Layer 1
370
    18
  0
POLYLINE
  5
4F2
330
4EA
100
AcDbEntity
  8
Layer 1
 62
   250
420
  2827298
370
    18
100
AcDb2dPolyline
 66
     1
 10
0.0
 20
0.0
 30
0.0
  0
VERTEX
  5
4F3
330
4F2
100
AcDbEntity
  8
Layer 1
 62
   250
420
  2827298
370
    18
100
AcDbVertex
100
AcDb2dVertex
 10
6.414147676347851
 20
10.89921413573006
 30
0.0
  0
VERTEX
  5
4F4
330
4F2
100
AcDbEntity
  8
Layer 1
 62
   250
420
  2827298
370
    18
100
AcDbVertex
100
AcDb2dVertex
 10
3.609960529696468
 20
10.89921413573006
 30
0.0
  0
SEQEND
  5
4F5
330
4F2
100
AcDbEntity
  8
Layer 1
370
    18
  0
POLYLINE
  5
4F6
330
4EA
100
AcDbEntity
  8
Layer 1
 62
    28
420
  1118219
370
    35
100
AcDb2dPolyline
 66
     1
 10
0.0
 20
0.0
 30
0.0
  0
VERTEX
  5
4F7
330
4F6
100
AcDbEntity
  8
Layer 1
 62
    28
420
  1118219
370
    35
100
AcDbVertex
100
AcDb2dVertex
 10
12.12582315777584
 20
12.74175455410623
 30
0.0
  0
VERTEX
  5
4F8
330
4F6
100
AcDbEntity
  8
Layer 1
 62
    28
420
  1118219
370
    35
100
AcDbVertex
100
AcDb2dVertex
 10
11.03207424311872
 20
12.74175455410623
 30
0.0
  0
SEQEND
  5
4F9
330
4F6
100
AcDbEntity
  8
Layer 1
370
    35
  0
POLYLINE
  5
4FA
330
4EA
100
AcDbEntity
  8
Layer 1
 62
    28
420
  1118219
370
    35
100
AcDb2dPolyline
 66
     1
 10
0.0
 20
0.0
 30
0.0
  0
VERTEX
  5
4FB
330
4FA
100
AcDbEntity
  8
Layer 1
 62
    28
420
  1118219
370
    35
100
AcDbVertex
100
AcDb2dVertex
 10
11.03207424311872
 20
12.3011440670202
 30
0.0
  0
VERTEX
  5
4FC
330
4FA
100
AcDbEntity
  8
Layer 1
 62
    28
420
  1118219
370
    35
100
AcDbVertex
100
AcDb2dVertex
 10
12.12582315777584
 20
12.3011440670202
 30
0.0
  0
SEQEND
  5
4FD
330
4FA
100
AcDbEntity
  8
Layer 1
370
    35
  0
POLYLINE
  5
4FE
330
4EA
100
AcDbEntity
  8
Layer 1
 62
    28
420
  1118219
370
    35
100
AcDb2dPolyline
 66
     1
 10
0.0
 20
0.0
 30
0.0
  0
VERTEX
  5
4FF
330
4FE
100
AcDbEntity
  8
Layer 1
 62
    28
420
  1118219
370
    35
100
AcDbVertex
100
AcDb2dVertex
 10
11.03207424311872
 20
12.14644205425506
 30
0.0
  0
VERTEX
  5
500
330
4FE
100
AcDbEntity
  8
Layer 1
 62
    28
420
  1118219
370
    35
100
AcDbVertex
100
AcDb2dVertex
 10
11.03207424311872
 20
12.07497354841355
 30
0.0
  0
SEQEND
  5
501
330
4FE
100
AcDbEntity
  8
Layer 1
370
    35
  0
POLYLINE
  5
502
330
4EA
100
AcDbEntity
  8
Layer 1
 62
    28
420
  1118219
370
    35
100
AcDb2dPolyline
 66
     1
 10
0.0
 20
0.0
 30
0.0
  0
VERTEX
  5
503
330
502
100
AcDbEntity
  8
Layer 1
 62
    28
420
  1118219
370
    35
100
AcDbVertex
100
AcDb2dVertex
 10
18.36296182809155
 20
12.3508223439175
 30
0.0
  0
VERTEX
  5
504
330
502
100
AcDbEntity
  8
Layer 1
 62
    28
420
  1118219
370
    35
100
AcDbVertex
100
AcDb2dVertex
 10
18.36296182809155
 20
12.30986015859788
 30
0.0
  0
SEQEND
  5
505
330
502
100
AcDbEntity
  8
Layer 1
370
    35
  0
POLYLINE
  5
506
330
4EA
100
AcDbEntity
  8
Layer 1
 62
    28
420
  1118219
370
    35
100
AcDb2dPolyline
 66
     1
 10
0.0
 20
0.0
 30
0.0
  0
VERTEX
  5
507
330
506
100
AcDbEntity
  8
Layer 1
 62
    28
420
  1118219
370
    35
100
AcDbVertex
100
AcDb2dVertex
 10
18.36296182809155
 20
12.30987738407531
 30
0.0
  0
VERTEX
  5
508
330
506
100
AcDbEntity
  8
Layer 1
 62
    28
420
  1118219
370
    35
100
AcDbVertex
100
AcDb2dVertex
 10
18.40264932808163
 20
12.30987738407531
 30
0.0
  0
SEQEND
  5
509
330
506
100
AcDbEntity
  8
Layer 1
370
    35
  0
POLYLINE
  5
50A
330
4EA
100
AcDbEntity
  8
Layer 1
 62
    28
420
  1118219
370
    35
100
AcDb2dPolyline
 66
     1
 10
0.0
 20
0.0
 30
0.0
  0
VERTEX
  5
50B
330
50A
100
AcDbEntity
  8
Layer 1
 62
    28
420
  1118219
370
    35
100
AcDbVertex
100
AcDb2dVertex
 10
18.40264932808163
 20
12.30987738407531
 30
0.0
  0
VERTEX
  5
50C
330
50A
100
AcDbEntity
  8
Layer 1
 62
    28
420
  1118219
370
    35
100
AcDbVertex
100
AcDb2dVertex
 10
18.40264932808163
 20
12.39049261843015
 30
0.0
  0
SEQEND
  5
50D
330
50A
100
AcDbEntity
  8
Layer 1
370
    35
  0
POLYLINE
  5
50E
330
4EA
100
AcDbEntity
  8
Layer 1
 62
    28
420
  1118219
370
    35
100
AcDb2dPolyline
 66
     1
 10
0.0
 20
0.0
 30
0.0
  0
VERTEX
  5
50F
330
50E
100
AcDbEntity
  8
Layer 1
 62
    28
420
  1118219
370
    35
100
AcDbVertex
100
AcDb2dVertex
 10
18.45542819091565
 20
12.44327148126418
 30
0.0
  0
VERTEX
  5
510
330
50E
100
AcDbEntity
  8
Layer 1
 62
    28
420
  1118219
370
    35
100
AcDbVertex
100
AcDb2dVertex
 10
18.48660630505717
 20
12.44327148126418
 30
0.0
  0
SEQEND
  5
511
330
50E
100
AcDbEntity
  8
Layer 1
370
    35
  0
POLYLINE
  5
512
330
4EA
100
AcDbEntity
  8
Layer 1
 62
    28
420
  1118219
370
    35
100
AcDb2dPolyline
 66
     1
 10
0.0
 20
0.0
 30
0.0
  0
VERTEX
  5
513
330
512
100
AcDbEntity
  8
Layer 1
 62
    28
420
  1118219
370
    35
100
AcDbVertex
100
AcDb2dVertex
 10
18.53962632457516
 20
12.39019978531391
 30
0.0
  0
VERTEX
  5
514
330
512
100
AcDbEntity
  8
Layer 1
 62
    28
420
  1118219
370
    35
100
AcDbVertex
100
AcDb2dVertex
 10
18.53962632457516
 20
12.30987738407531
 30
0.0
  0
SEQEND
  5
515
330
512
100
AcDbEntity
  8
Layer 1
370
    35
  0
POLYLINE
  5
516
330
4EA
100
AcDbEntity
  8
Layer 1
 62
    28
420
  1118219
370
    35
100
AcDb2dPolyline
 66
     1
 10
0.0
 20
0.0
 30
0.0
  0
VERTEX
  5
517
330
516
100
AcDbEntity
  8
Layer 1
 62
    28
420
  1118219
370
    35
100
AcDbVertex
100
AcDb2dVertex
 10
18.53962632457516
 20
12.30987738407531
 30
0.0
  0
VERTEX
  5
518
330
516
100
AcDbEntity
  8
Layer 1
 62
    28
420
  1118219
370
    35
100
AcDbVertex
100
AcDb2dVertex
 10
18.57931382456524
 20
12.30987738407531
 30
0.0
  0
SEQEND
  5
519
330
516
100
AcDbEntity
  8
Layer 1
370
    35
  0
POLYLINE
  5
51A
330
4EA
100
AcDbEntity
  8
Layer 1
 62
    28
420
  1118219
370
    35
100
AcDb2dPolyline
 66
     1
 10
0.0
 20
0.0
 30
0.0
  0
VERTEX
  5
51B
330
51A
100
AcDbEntity
  8
Layer 1
 62
    28
420
  1118219
370
    35
100
AcDbVertex
100
AcDb2dVertex
 10
18.57931382456524
 20
12.30987738407531
 30
0.0
  0
VERTEX
  5
51C
330
51A
100
AcDbEntity
  8
Layer 1
 62
    28
420
  1118219
370
    35
100
AcDbVertex
100
AcDb2dVertex
 10
18.57931382456524
 20
12.35054673627868
 30
0.0
  0
SEQEND
  5
51D
330
51A
100
AcDbEntity
  8
Layer 1
370
    35
  0
POLYLINE
  5
51E
330
4EA
100
AcDbEntity
  8
Layer 1
 62
    28
420
  1118219
370
    35
100
AcDb2dPolyline
 66
     1
 10
0.0
 20
0.0
 30
0.0
  0
VERTEX
  5
51F
330
51E
100
AcDbEntity
  8
Layer 1
 62
    28
420
  1118219
370
    35
100
AcDbVertex
100
AcDb2dVertex
 10
18.57931382456524
 20
12.56717434039119
 30
0.0
  0
VERTEX
  5
520
330
51E
100
AcDbEntity
  8
Layer 1
 62
    28
420
  1118219
370
    35
100
AcDbVertex
100
AcDb2dVertex
 10
18.57931382456524
 20
12.5911349794911
 30
0.0
  0
SEQEND
  5
521
330
51E
100
AcDbEntity
  8
Layer 1
370
    35
  0
POLYLINE
  5
522
330
4EA
100
AcDbEntity
  8
Layer 1
 62
    28
420
  1118219
370
    35
100
AcDb2dPolyline
 66
     1
 10
0.0
 20
0.0
 30
0.0
  0
VERTEX
  5
523
330
522
100
AcDbEntity
  8
Layer 1
 62
    28
420
  1118219
370
    35
100
AcDbVertex
100
AcDb2dVertex
 10
18.57931382456524
 20
12.59111775401368
 30
0.0
  0
VERTEX
  5
524
330
522
100
AcDbEntity
  8
Layer 1
 62
    28
420
  1118219
370
    35
100
AcDbVertex
100
AcDb2dVertex
 10
18.53962632457516
 20
12.59111775401368
 30
0.0
  0
SEQEND
  5
525
330
522
100
AcDbEntity
  8
Layer 1
370
    35
  0
POLYLINE
  5
526
330
4EA
100
AcDbEntity
  8
Layer 1
 62
    28
420
  1118219
370
    35
100
AcDb2dPolyline
 66
     1
 10
0.0
 20
0.0
 30
0.0
  0
VERTEX
  5
527
330
526
100
AcDbEntity
  8
Layer 1
 62
    28
420
  1118219
370
    35
100
AcDbVertex
100
AcDb2dVertex
 10
18.53962632457516
 20
12.59111775401368
 30
0.0
  0
VERTEX
  5
528
330
526
100
AcDbEntity
  8
Layer 1
 62
    28
420
  1118219
370
    35
100
AcDbVertex
100
AcDb2dVertex
 10
18.53962632457516
 20
12.52755574231082
 30
0.0
  0
SEQEND
  5
529
330
526
100
AcDbEntity
  8
Layer 1
370
    35
  0
POLYLINE
  5
52A
330
4EA
100
AcDbEntity
  8
Layer 1
 62
    28
420
  1118219
370
    35
100
AcDb2dPolyline
 66
     1
 10
0.0
 20
0.0
 30
0.0
  0
VERTEX
  5
52B
330
52A
100
AcDbEntity
  8
Layer 1
 62
    28
420
  1118219
370
    35
100
AcDbVertex
100
AcDb2dVertex
 10
18.48788099038671
 20
12.47572428073524
 30
0.0
  0
VERTEX
  5
52C
330
52A
100
AcDbEntity
  8
Layer 1
 62
    28
420
  1118219
370
    35
100
AcDbVertex
100
AcDb2dVertex
 10
18.45411905463126
 20
12.47572428073524
 30
0.0
  0
SEQEND
  5
52D
330
52A
100
AcDbEntity
  8
Layer 1
370
    35
  0
POLYLINE
  5
52E
330
4EA
100
AcDbEntity
  8
Layer 1
 62
    28
420
  1118219
370
    35
100
AcDb2dPolyline
 66
     1
 10
0.0
 20
0.0
 30
0.0
  0
VERTEX
  5
52F
330
52E
100
AcDbEntity
  8
Layer 1
 62
    28
420
  1118219
370
    35
100
AcDbVertex
100
AcDb2dVertex
 10
18.40264932808163
 20
12.52722845823972
 30
0.0
  0
VERTEX
  5
530
330
52E
100
AcDbEntity
  8
Layer 1
 62
    28
420
  1118219
370
    35
100
AcDbVertex
100
AcDb2dVertex
 10
18.40264932808163
 20
12.59111775401368
 30
0.0
  0
SEQEND
  5
531
330
52E
100
AcDbEntity
  8
Layer 1
370
    35
  0
POLYLINE
  5
532
330
4EA
100
AcDbEntity
  8
Layer 1
 62
    28
420
  1118219
370
    35
100
AcDb2dPolyline
 66
     1
 10
0.0
 20
0.0
 30
0.0
  0
VERTEX
  5
533
330
532
100
AcDbEntity
  8
Layer 1
 62
    28
420
  1118219
370
    35
100
AcDbVertex
100
AcDb2dVertex
 10
18.40264932808163
 20
12.59111775401368
 30
0.0
  0
VERTEX
  5
534
330
532
100
AcDbEntity
  8
Layer 1
 62
    28
420
  1118219
370
    35
100
AcDbVertex
100
AcDb2dVertex
 10
18.36296182809155
 20
12.59111775401368
 30
0.0
  0
SEQEND
  5
535
330
532
100
AcDbEntity
  8
Layer 1
370
    35
  0
POLYLINE
  5
536
330
4EA
100
AcDbEntity
  8
Layer 1
 62
    28
420
  1118219
370
    35
100
AcDb2dPolyline
 66
     1
 10
0.0
 20
0.0
 30
0.0
  0
VERTEX
  5
537
330
536
100
AcDbEntity
  8
Layer 1
 62
    28
420
  1118219
370
    35
100
AcDbVertex
100
AcDb2dVertex
 10
18.36296182809155
 20
12.59111775401368
 30
0.0
  0
VERTEX
  5
538
330
536
100
AcDbEntity
  8
Layer 1
 62
    28
420
  1118219
370
    35
100
AcDbVertex
100
AcDb2dVertex
 10
18.36296182809155
 20
12.56688150727495
 30
0.0
  0
SEQEND
  5
539
330
536
100
AcDbEntity
  8
Layer 1
370
    35
  0
POLYLINE
  5
53A
330
4EA
100
AcDbEntity
  8
Layer 1
 62
    28
420
  1118219
370
    35
100
AcDb2dPolyline
 66
     1
 10
0.0
 20
0.0
 30
0.0
  0
VERTEX
  5
53B
330
53A
100
AcDbEntity
  8
Layer 1
 62
    28
420
  1118219
370
    35
100
AcDbVertex
100
AcDb2dVertex
 10
18.36296182809155
 20
12.56688150727495
 30
0.0
  0
VERTEX
  5
53C
330
53A
100
AcDbEntity
  8
Layer 1
 62
    28
420
  1118219
370
    35
100
AcDbVertex
100
AcDb2dVertex
 10
18.36296182809155
 20
12.35080511844007
 30
0.0
  0
SEQEND
  5
53D
330
53A
100
AcDbEntity
  8
Layer 1
370
    35
  0
POLYLINE
  5
53E
330
4EA
100
AcDbEntity
  8
Layer 1
 62
    28
420
  1118219
370
    35
100
AcDb2dPolyline
 66
     1
 10
0.0
 20
0.0
 30
0.0
  0
VERTEX
  5
53F
330
53E
100
AcDbEntity
  8
Layer 1
 62
    28
420
  1118219
370
    35
100
AcDbVertex
100
AcDb2dVertex
 10
18.57931382456524
 20
12.35054673627868
 30
0.0
  0
VERTEX
  5
540
330
53E
100
AcDbEntity
  8
Layer 1
 62
    28
420
  1118219
370
    35
100
AcDbVertex
100
AcDb2dVertex
 10
18.57931382456524
 20
12.56719156586862
 30
0.0
  0
SEQEND
  5
541
330
53E
100
AcDbEntity
  8
Layer 1
370
    35
  0
POLYLINE
  5
542
330
4EA
100
AcDbEntity
  8
Layer 1
 62
    28
420
  1118219
370
    35
100
AcDb2dPolyline
 66
     1
 10
0.0
 20
0.0
 30
0.0
  0
VERTEX
  5
543
330
542
100
AcDbEntity
  8
Layer 1
 62
    28
420
  1118219
370
    35
100
AcDbVertex
100
AcDb2dVertex
 10
18.48657185410232
 20
12.44327148126418
 30
0.0
  0
VERTEX
  5
544
330
542
100
AcDbEntity
  8
Layer 1
 62
    28
420
  1118219
370
    35
100
AcDbVertex
100
AcDb2dVertex
 10
18.53966077553001
 20
12.44327148126418
 30
0.0
  0
SEQEND
  5
545
330
542
100
AcDbEntity
  8
Layer 1
370
    35
  0
POLYLINE
  5
546
330
4EA
100
AcDbEntity
  8
Layer 1
 62
    28
420
  1118219
370
    35
100
AcDb2dPolyline
 66
     1
 10
0.0
 20
0.0
 30
0.0
  0
VERTEX
  5
547
330
546
100
AcDbEntity
  8
Layer 1
 62
    28
420
  1118219
370
    35
100
AcDbVertex
100
AcDb2dVertex
 10
18.53962632457516
 20
12.44327148126418
 30
0.0
  0
VERTEX
  5
548
330
546
100
AcDbEntity
  8
Layer 1
 62
    28
420
  1118219
370
    35
100
AcDbVertex
100
AcDb2dVertex
 10
18.53962632457516
 20
12.39021701079133
 30
0.0
  0
SEQEND
  5
549
330
546
100
AcDbEntity
  8
Layer 1
370
    35
  0
POLYLINE
  5
54A
330
4EA
100
AcDbEntity
  8
Layer 1
 62
    28
420
  1118219
370
    35
100
AcDb2dPolyline
 66
     1
 10
0.0
 20
0.0
 30
0.0
  0
VERTEX
  5
54B
330
54A
100
AcDbEntity
  8
Layer 1
 62
    28
420
  1118219
370
    35
100
AcDbVertex
100
AcDb2dVertex
 10
18.53962632457516
 20
12.47572428073524
 30
0.0
  0
VERTEX
  5
54C
330
54A
100
AcDbEntity
  8
Layer 1
 62
    28
420
  1118219
370
    35
100
AcDbVertex
100
AcDb2dVertex
 10
18.48788099038671
 20
12.47572428073524
 30
0.0
  0
SEQEND
  5
54D
330
54A
100
AcDbEntity
  8
Layer 1
370
    35
  0
POLYLINE
  5
54E
330
4EA
100
AcDbEntity
  8
Layer 1
 62
    28
420
  1118219
370
    35
100
AcDb2dPolyline
 66
     1
 10
0.0
 20
0.0
 30
0.0
  0
VERTEX
  5
54F
330
54E
100
AcDbEntity
  8
Layer 1
 62
    28
420
  1118219
370
    35
100
AcDbVertex
100
AcDb2dVertex
 10
18.53962632457516
 20
12.52753851683339
 30
0.0
  0
VERTEX
  5
550
330
54E
100
AcDbEntity
  8
Layer 1
 62
    28
420
  1118219
370
    35
100
AcDbVertex
100
AcDb2dVertex
 10
18.53962632457516
 20
12.47570705525781
 30
0.0
  0
SEQEND
  5
551
330
54E
100
AcDbEntity
  8
Layer 1
370
    35
  0
POLYLINE
  5
552
330
4EA
100
AcDbEntity
  8
Layer 1
 62
    28
420
  1118219
370
    35
100
AcDb2dPolyline
 66
     1
 10
0.0
 20
0.0
 30
0.0
  0
VERTEX
  5
553
330
552
100
AcDbEntity
  8
Layer 1
 62
    28
420
  1118219
370
    35
100
AcDbVertex
100
AcDb2dVertex
 10
18.40264932808163
 20
12.44327148126418
 30
0.0
  0
VERTEX
  5
554
330
552
100
AcDbEntity
  8
Layer 1
 62
    28
420
  1118219
370
    35
100
AcDbVertex
100
AcDb2dVertex
 10
18.45542819091565
 20
12.44327148126418
 30
0.0
  0
SEQEND
  5
555
330
552
100
AcDbEntity
  8
Layer 1
370
    35
  0
POLYLINE
  5
556
330
4EA
100
AcDbEntity
  8
Layer 1
 62
    28
420
  1118219
370
    35
100
AcDb2dPolyline
 66
     1
 10
0.0
 20
0.0
 30
0.0
  0
VERTEX
  5
557
330
556
100
AcDbEntity
  8
Layer 1
 62
    28
420
  1118219
370
    35
100
AcDbVertex
100
AcDb2dVertex
 10
18.40264932808163
 20
12.39049261843015
 30
0.0
  0
VERTEX
  5
558
330
556
100
AcDbEntity
  8
Layer 1
 62
    28
420
  1118219
370
    35
100
AcDbVertex
100
AcDb2dVertex
 10
18.40264932808163
 20
12.44327148126418
 30
0.0
  0
SEQEND
  5
559
330
556
100
AcDbEntity
  8
Layer 1
370
    35
  0
POLYLINE
  5
55A
330
4EA
100
AcDbEntity
  8
Layer 1
 62
    28
420
  1118219
370
    35
100
AcDb2dPolyline
 66
     1
 10
0.0
 20
0.0
 30
0.0
  0
VERTEX
  5
55B
330
55A
100
AcDbEntity
  8
Layer 1
 62
    28
420
  1118219
370
    35
100
AcDbVertex
100
AcDb2dVertex
 10
18.45411905463126
 20
12.47572428073524
 30
0.0
  0
VERTEX
  5
55C
330
55A
100
AcDbEntity
  8
Layer 1
 62
    28
420
  1118219
370
    35
100
AcDbVertex
100
AcDb2dVertex
 10
18.40264932808163
 20
12.47572428073524
 30
0.0
  0
SEQEND
  5
55D
330
55A
100
AcDbEntity
  8
Layer 1
370
    35
  0
POLYLINE
  5
55E
330
4EA
100
AcDbEntity
  8
Layer 1
 62
    28
420
  1118219
370
    35
100
AcDb2dPolyline
 66
     1
 10
0.0
 20
0.0
 30
0.0
  0
VERTEX
  5
55F
330
55E
100
AcDbEntity
  8
Layer 1
 62
    28
420
  1118219
370
    35
100
AcDbVertex
100
AcDb2dVertex
 10
18.40264932808163
 20
12.47572428073524
 30
0.0
  0
VERTEX
  5
560
330
55E
100
AcDbEntity
  8
Layer 1
 62
    28
420
  1118219
370
    35
100
AcDbVertex
100
AcDb2dVertex
 10
18.40264932808163
 20
12.52722845823972
 30
0.0
  0
SEQEND
  5
561
330
55E
100
AcDbEntity
  8
Layer 1
370
    35
  0
POLYLINE
  5
562
330
4EA
100
AcDbEntity
  8
Layer 1
 62
   250
420
  1842203
370
    18
100
AcDb2dPolyline
 66
     1
 10
0.0
 20
0.0
 30
0.0
  0
VERTEX
  5
563
330
562
100
AcDbEntity
  8
Layer 1
 62
   250
420
  1842203
370
    18
100
AcDbVertex
100
AcDb2dVertex
 10
18.47100002250898
 20
12.45886053833494
 30
0.0
  0
VERTEX
  5
564
330
562
100
AcDbEntity
  8
Layer 1
 62
   250
420
  1842203
370
    18
100
AcDbVertex
100
AcDb2dVertex
 10
18.35383232505564
 20
12.45886053833494
 30
0.0
  0
SEQEND
  5
565
330
562
100
AcDbEntity
  8
Layer 1
370
    18
  0
POLYLINE
  5
566
330
4EA
100
AcDbEntity
  8
Layer 1
 62
   250
420
  1842203
370
    18
100
AcDb2dPolyline
 66
     1
 10
0.0
 20
0.0
 30
0.0
  0
VERTEX
  5
567
330
566
100
AcDbEntity
  8
Layer 1
 62
   250
420
  1842203
370
    18
100
AcDbVertex
100
AcDb2dVertex
 10
18.47100002250898
 20
12.45886053833494
 30
0.0
  0
VERTEX
  5
568
330
566
100
AcDbEntity
  8
Layer 1
 62
   250
420
  1842203
370
    18
100
AcDbVertex
100
AcDb2dVertex
 10
18.47100002250898
 20
12.34167561540416
 30
0.0
  0
SEQEND
  5
569
330
566
100
AcDbEntity
  8
Layer 1
370
    18
  0
POLYLINE
  5
56A
330
4EA
100
AcDbEntity
  8
Layer 1
 62
   250
420
  1842203
370
    18
100
AcDb2dPolyline
 66
     1
 10
0.0
 20
0.0
 30
0.0
  0
VERTEX
  5
56B
330
56A
100
AcDbEntity
  8
Layer 1
 62
   250
420
  1842203
370
    18
100
AcDbVertex
100
AcDb2dVertex
 10
18.47100002250898
 20
12.45886053833494
 30
0.0
  0
VERTEX
  5
56C
330
56A
100
AcDbEntity
  8
Layer 1
 62
   250
420
  1842203
370
    18
100
AcDbVertex
100
AcDb2dVertex
 10
18.58813326900748
 20
12.45886053833494
 30
0.0
  0
SEQEND
  5
56D
330
56A
100
AcDbEntity
  8
Layer 1
370
    18
  0
POLYLINE
  5
56E
330
4EA
100
AcDbEntity
  8
Layer 1
 62
    28
420
  1118219
370
    35
100
AcDb2dPolyline
 66
     1
 10
0.0
 20
0.0
 30
0.0
  0
VERTEX
  5
56F
330
56E
100
AcDbEntity
  8
Layer 1
 62
    28
420
  1118219
370
    35
100
AcDbVertex
100
AcDb2dVertex
 10
18.35569267661767
 20
12.34412163319869
 30
0.0
  0
VERTEX
  5
570
330
56E
100
AcDbEntity
  8
Layer 1
 62
    28
420
  1118219
370
    35
100
AcDbVertex
100
AcDb2dVertex
 10
18.35569267661767
 20
12.30062730269741
 30
0.0
  0
SEQEND
  5
571
330
56E
100
AcDbEntity
  8
Layer 1
370
    35
  0
POLYLINE
  5
572
330
4EA
100
AcDbEntity
  8
Layer 1
 62
    28
420
  1118219
370
    35
100
AcDb2dPolyline
 66
     1
 10
0.0
 20
0.0
 30
0.0
  0
VERTEX
  5
573
330
572
100
AcDbEntity
  8
Layer 1
 62
    28
420
  1118219
370
    35
100
AcDbVertex
100
AcDb2dVertex
 10
18.35569267661767
 20
12.30061007721999
 30
0.0
  0
VERTEX
  5
574
330
572
100
AcDbEntity
  8
Layer 1
 62
    28
420
  1118219
370
    35
100
AcDbVertex
100
AcDb2dVertex
 10
18.39772284153772
 20
12.30061007721999
 30
0.0
  0
SEQEND
  5
575
330
572
100
AcDbEntity
  8
Layer 1
370
    35
  0
POLYLINE
  5
576
330
4EA
100
AcDbEntity
  8
Layer 1
 62
    28
420
  1118219
370
    35
100
AcDb2dPolyline
 66
     1
 10
0.0
 20
0.0
 30
0.0
  0
VERTEX
  5
577
330
576
100
AcDbEntity
  8
Layer 1
 62
    28
420
  1118219
370
    35
100
AcDbVertex
100
AcDb2dVertex
 10
18.39772284153772
 20
12.30061007721999
 30
0.0
  0
VERTEX
  5
578
330
576
100
AcDbEntity
  8
Layer 1
 62
    28
420
  1118219
370
    35
100
AcDbVertex
100
AcDb2dVertex
 10
18.39772284153772
 20
12.38615179811874
 30
0.0
  0
SEQEND
  5
579
330
576
100
AcDbEntity
  8
Layer 1
370
    35
  0
POLYLINE
  5
57A
330
4EA
100
AcDbEntity
  8
Layer 1
 62
    28
420
  1118219
370
    35
100
AcDb2dPolyline
 66
     1
 10
0.0
 20
0.0
 30
0.0
  0
VERTEX
  5
57B
330
57A
100
AcDbEntity
  8
Layer 1
 62
    28
420
  1118219
370
    35
100
AcDbVertex
100
AcDb2dVertex
 10
18.45374009412788
 20
12.44223795261861
 30
0.0
  0
VERTEX
  5
57C
330
57A
100
AcDbEntity
  8
Layer 1
 62
    28
420
  1118219
370
    35
100
AcDbVertex
100
AcDb2dVertex
 10
18.48684746174114
 20
12.44223795261861
 30
0.0
  0
SEQEND
  5
57D
330
57A
100
AcDbEntity
  8
Layer 1
370
    35
  0
POLYLINE
  5
57E
330
4EA
100
AcDbEntity
  8
Layer 1
 62
    28
420
  1118219
370
    35
100
AcDb2dPolyline
 66
     1
 10
0.0
 20
0.0
 30
0.0
  0
VERTEX
  5
57F
330
57E
100
AcDbEntity
  8
Layer 1
 62
    28
420
  1118219
370
    35
100
AcDbVertex
100
AcDb2dVertex
 10
18.54314032197012
 20
12.38591064143477
 30
0.0
  0
VERTEX
  5
580
330
57E
100
AcDbEntity
  8
Layer 1
 62
    28
420
  1118219
370
    35
100
AcDbVertex
100
AcDb2dVertex
 10
18.54314032197012
 20
12.30061007721999
 30
0.0
  0
SEQEND
  5
581
330
57E
100
AcDbEntity
  8
Layer 1
370
    35
  0
POLYLINE
  5
582
330
4EA
100
AcDbEntity
  8
Layer 1
 62
    28
420
  1118219
370
    35
100
AcDb2dPolyline
 66
     1
 10
0.0
 20
0.0
 30
0.0
  0
VERTEX
  5
583
330
582
100
AcDbEntity
  8
Layer 1
 62
    28
420
  1118219
370
    35
100
AcDbVertex
100
AcDb2dVertex
 10
18.54314032197012
 20
12.30061007721999
 30
0.0
  0
VERTEX
  5
584
330
582
100
AcDbEntity
  8
Layer 1
 62
    28
420
  1118219
370
    35
100
AcDbVertex
100
AcDb2dVertex
 10
18.58523938879987
 20
12.30061007721999
 30
0.0
  0
SEQEND
  5
585
330
582
100
AcDbEntity
  8
Layer 1
370
    35
  0
POLYLINE
  5
586
330
4EA
100
AcDbEntity
  8
Layer 1
 62
    28
420
  1118219
370
    35
100
AcDb2dPolyline
 66
     1
 10
0.0
 20
0.0
 30
0.0
  0
VERTEX
  5
587
330
586
100
AcDbEntity
  8
Layer 1
 62
    28
420
  1118219
370
    35
100
AcDbVertex
100
AcDb2dVertex
 10
18.58523938879987
 20
12.30061007721999
 30
0.0
  0
VERTEX
  5
588
330
586
100
AcDbEntity
  8
Layer 1
 62
    28
420
  1118219
370
    35
100
AcDbVertex
100
AcDb2dVertex
 10
18.58523938879987
 20
12.3438632510373
 30
0.0
  0
SEQEND
  5
589
330
586
100
AcDbEntity
  8
Layer 1
370
    35
  0
POLYLINE
  5
58A
330
4EA
100
AcDbEntity
  8
Layer 1
 62
    28
420
  1118219
370
    35
100
AcDb2dPolyline
 66
     1
 10
0.0
 20
0.0
 30
0.0
  0
VERTEX
  5
58B
330
58A
100
AcDbEntity
  8
Layer 1
 62
    28
420
  1118219
370
    35
100
AcDbVertex
100
AcDb2dVertex
 10
18.58523938879987
 20
12.57366834538089
 30
0.0
  0
VERTEX
  5
58C
330
58A
100
AcDbEntity
  8
Layer 1
 62
    28
420
  1118219
370
    35
100
AcDbVertex
100
AcDb2dVertex
 10
18.58523938879987
 20
12.59902424815233
 30
0.0
  0
SEQEND
  5
58D
330
58A
100
AcDbEntity
  8
Layer 1
370
    35
  0
POLYLINE
  5
58E
330
4EA
100
AcDbEntity
  8
Layer 1
 62
    28
420
  1118219
370
    35
100
AcDb2dPolyline
 66
     1
 10
0.0
 20
0.0
 30
0.0
  0
VERTEX
  5
58F
330
58E
100
AcDbEntity
  8
Layer 1
 62
    28
420
  1118219
370
    35
100
AcDbVertex
100
AcDb2dVertex
 10
18.58523938879987
 20
12.59904147362975
 30
0.0
  0
VERTEX
  5
590
330
58E
100
AcDbEntity
  8
Layer 1
 62
    28
420
  1118219
370
    35
100
AcDbVertex
100
AcDb2dVertex
 10
18.54317477292497
 20
12.59904147362975
 30
0.0
  0
SEQEND
  5
591
330
58E
100
AcDbEntity
  8
Layer 1
370
    35
  0
POLYLINE
  5
592
330
4EA
100
AcDbEntity
  8
Layer 1
 62
    28
420
  1118219
370
    35
100
AcDb2dPolyline
 66
     1
 10
0.0
 20
0.0
 30
0.0
  0
VERTEX
  5
593
330
592
100
AcDbEntity
  8
Layer 1
 62
    28
420
  1118219
370
    35
100
AcDbVertex
100
AcDb2dVertex
 10
18.54314032197012
 20
12.59904147362975
 30
0.0
  0
VERTEX
  5
594
330
592
100
AcDbEntity
  8
Layer 1
 62
    28
420
  1118219
370
    35
100
AcDbVertex
100
AcDb2dVertex
 10
18.54314032197012
 20
12.53158650402856
 30
0.0
  0
SEQEND
  5
595
330
592
100
AcDbEntity
  8
Layer 1
370
    35
  0
POLYLINE
  5
596
330
4EA
100
AcDbEntity
  8
Layer 1
 62
    28
420
  1118219
370
    35
100
AcDb2dPolyline
 66
     1
 10
0.0
 20
0.0
 30
0.0
  0
VERTEX
  5
597
330
596
100
AcDbEntity
  8
Layer 1
 62
    28
420
  1118219
370
    35
100
AcDbVertex
100
AcDb2dVertex
 10
18.48822549993523
 20
12.47663723103883
 30
0.0
  0
VERTEX
  5
598
330
596
100
AcDbEntity
  8
Layer 1
 62
    28
420
  1118219
370
    35
100
AcDbVertex
100
AcDb2dVertex
 10
18.45232760497893
 20
12.47663723103883
 30
0.0
  0
SEQEND
  5
599
330
596
100
AcDbEntity
  8
Layer 1
370
    35
  0
POLYLINE
  5
59A
330
4EA
100
AcDbEntity
  8
Layer 1
 62
    28
420
  1118219
370
    35
100
AcDb2dPolyline
 66
     1
 10
0.0
 20
0.0
 30
0.0
  0
VERTEX
  5
59B
330
59A
100
AcDbEntity
  8
Layer 1
 62
    28
420
  1118219
370
    35
100
AcDbVertex
100
AcDb2dVertex
 10
18.39772284153772
 20
12.53136257282202
 30
0.0
  0
VERTEX
  5
59C
330
59A
100
AcDbEntity
  8
Layer 1
 62
    28
420
  1118219
370
    35
100
AcDbVertex
100
AcDb2dVertex
 10
18.39772284153772
 20
12.59902424815233
 30
0.0
  0
SEQEND
  5
59D
330
59A
100
AcDbEntity
  8
Layer 1
370
    35
  0
POLYLINE
  5
59E
330
4EA
100
AcDbEntity
  8
Layer 1
 62
    28
420
  1118219
370
    35
100
AcDb2dPolyline
 66
     1
 10
0.0
 20
0.0
 30
0.0
  0
VERTEX
  5
59F
330
59E
100
AcDbEntity
  8
Layer 1
 62
    28
420
  1118219
370
    35
100
AcDbVertex
100
AcDb2dVertex
 10
18.39772284153772
 20
12.59904147362975
 30
0.0
  0
VERTEX
  5
5A0
330
59E
100
AcDbEntity
  8
Layer 1
 62
    28
420
  1118219
370
    35
100
AcDbVertex
100
AcDb2dVertex
 10
18.35569267661767
 20
12.59904147362975
 30
0.0
  0
SEQEND
  5
5A1
330
59E
100
AcDbEntity
  8
Layer 1
370
    35
  0
POLYLINE
  5
5A2
330
4EA
100
AcDbEntity
  8
Layer 1
 62
    28
420
  1118219
370
    35
100
AcDb2dPolyline
 66
     1
 10
0.0
 20
0.0
 30
0.0
  0
VERTEX
  5
5A3
330
5A2
100
AcDbEntity
  8
Layer 1
 62
    28
420
  1118219
370
    35
100
AcDbVertex
100
AcDb2dVertex
 10
18.35569267661767
 20
12.59904147362975
 30
0.0
  0
VERTEX
  5
5A4
330
5A2
100
AcDbEntity
  8
Layer 1
 62
    28
420
  1118219
370
    35
100
AcDbVertex
100
AcDb2dVertex
 10
18.35569267661767
 20
12.57339273774207
 30
0.0
  0
SEQEND
  5
5A5
330
5A2
100
AcDbEntity
  8
Layer 1
370
    35
  0
POLYLINE
  5
5A6
330
4EA
100
AcDbEntity
  8
Layer 1
 62
    28
420
  1118219
370
    35
100
AcDb2dPolyline
 66
     1
 10
0.0
 20
0.0
 30
0.0
  0
VERTEX
  5
5A7
330
5A6
100
AcDbEntity
  8
Layer 1
 62
    28
420
  1118219
370
    35
100
AcDbVertex
100
AcDb2dVertex
 10
18.35569267661767
 20
12.57340996321949
 30
0.0
  0
VERTEX
  5
5A8
330
5A6
100
AcDbEntity
  8
Layer 1
 62
    28
420
  1118219
370
    35
100
AcDbVertex
100
AcDb2dVertex
 10
18.35569267661767
 20
12.34410440772126
 30
0.0
  0
SEQEND
  5
5A9
330
5A6
100
AcDbEntity
  8
Layer 1
370
    35
  0
POLYLINE
  5
5AA
330
4EA
100
AcDbEntity
  8
Layer 1
 62
    28
420
  1118219
370
    35
100
AcDb2dPolyline
 66
     1
 10
0.0
 20
0.0
 30
0.0
  0
VERTEX
  5
5AB
330
5AA
100
AcDbEntity
  8
Layer 1
 62
    28
420
  1118219
370
    35
100
AcDbVertex
100
AcDb2dVertex
 10
18.58523938879987
 20
12.3438632510373
 30
0.0
  0
VERTEX
  5
5AC
330
5AA
100
AcDbEntity
  8
Layer 1
 62
    28
420
  1118219
370
    35
100
AcDbVertex
100
AcDb2dVertex
 10
18.58523938879987
 20
12.57366834538089
 30
0.0
  0
SEQEND
  5
5AD
330
5AA
100
AcDbEntity
  8
Layer 1
370
    35
  0
POLYLINE
  5
5AE
330
4EA
100
AcDbEntity
  8
Layer 1
 62
    28
420
  1118219
370
    35
100
AcDb2dPolyline
 66
     1
 10
0.0
 20
0.0
 30
0.0
  0
VERTEX
  5
5AF
330
5AE
100
AcDbEntity
  8
Layer 1
 62
    28
420
  1118219
370
    35
100
AcDbVertex
100
AcDb2dVertex
 10
18.48681301078628
 20
12.44223795261861
 30
0.0
  0
VERTEX
  5
5B0
330
5AE
100
AcDbEntity
  8
Layer 1
 62
    28
420
  1118219
370
    35
100
AcDbVertex
100
AcDb2dVertex
 10
18.54317477292497
 20
12.44223795261861
 30
0.0
  0
SEQEND
  5
5B1
330
5AE
100
AcDbEntity
  8
Layer 1
370
    35
  0
POLYLINE
  5
5B2
330
4EA
100
AcDbEntity
  8
Layer 1
 62
    28
420
  1118219
370
    35
100
AcDb2dPolyline
 66
     1
 10
0.0
 20
0.0
 30
0.0
  0
VERTEX
  5
5B3
330
5B2
100
AcDbEntity
  8
Layer 1
 62
    28
420
  1118219
370
    35
100
AcDbVertex
100
AcDb2dVertex
 10
18.54314032197012
 20
12.44223795261861
 30
0.0
  0
VERTEX
  5
5B4
330
5B2
100
AcDbEntity
  8
Layer 1
 62
    28
420
  1118219
370
    35
100
AcDbVertex
100
AcDb2dVertex
 10
18.54314032197012
 20
12.38589341595734
 30
0.0
  0
SEQEND
  5
5B5
330
5B2
100
AcDbEntity
  8
Layer 1
370
    35
  0
POLYLINE
  5
5B6
330
4EA
100
AcDbEntity
  8
Layer 1
 62
    28
420
  1118219
370
    35
100
AcDb2dPolyline
 66
     1
 10
0.0
 20
0.0
 30
0.0
  0
VERTEX
  5
5B7
330
5B6
100
AcDbEntity
  8
Layer 1
 62
    28
420
  1118219
370
    35
100
AcDbVertex
100
AcDb2dVertex
 10
18.54314032197012
 20
12.47663723103883
 30
0.0
  0
VERTEX
  5
5B8
330
5B6
100
AcDbEntity
  8
Layer 1
 62
    28
420
  1118219
370
    35
100
AcDbVertex
100
AcDb2dVertex
 10
18.48819104898038
 20
12.47663723103883
 30
0.0
  0
SEQEND
  5
5B9
330
5B6
100
AcDbEntity
  8
Layer 1
370
    35
  0
POLYLINE
  5
5BA
330
4EA
100
AcDbEntity
  8
Layer 1
 62
    28
420
  1118219
370
    35
100
AcDb2dPolyline
 66
     1
 10
0.0
 20
0.0
 30
0.0
  0
VERTEX
  5
5BB
330
5BA
100
AcDbEntity
  8
Layer 1
 62
    28
420
  1118219
370
    35
100
AcDbVertex
100
AcDb2dVertex
 10
18.54314032197012
 20
12.53160372950599
 30
0.0
  0
VERTEX
  5
5BC
330
5BA
100
AcDbEntity
  8
Layer 1
 62
    28
420
  1118219
370
    35
100
AcDbVertex
100
AcDb2dVertex
 10
18.54314032197012
 20
12.47663723103883
 30
0.0
  0
SEQEND
  5
5BD
330
5BA
100
AcDbEntity
  8
Layer 1
370
    35
  0
POLYLINE
  5
5BE
330
4EA
100
AcDbEntity
  8
Layer 1
 62
    28
420
  1118219
370
    35
100
AcDb2dPolyline
 66
     1
 10
0.0
 20
0.0
 30
0.0
  0
VERTEX
  5
5BF
330
5BE
100
AcDbEntity
  8
Layer 1
 62
    28
420
  1118219
370
    35
100
AcDbVertex
100
AcDb2dVertex
 10
18.39772284153772
 20
12.44223795261861
 30
0.0
  0
VERTEX
  5
5C0
330
5BE
100
AcDbEntity
  8
Layer 1
 62
    28
420
  1118219
370
    35
100
AcDbVertex
100
AcDb2dVertex
 10
18.45377454508274
 20
12.44223795261861
 30
0.0
  0
SEQEND
  5
5C1
330
5BE
100
AcDbEntity
  8
Layer 1
370
    35
  0
POLYLINE
  5
5C2
330
4EA
100
AcDbEntity
  8
Layer 1
 62
    28
420
  1118219
370
    35
100
AcDb2dPolyline
 66
     1
 10
0.0
 20
0.0
 30
0.0
  0
VERTEX
  5
5C3
330
5C2
100
AcDbEntity
  8
Layer 1
 62
    28
420
  1118219
370
    35
100
AcDbVertex
100
AcDb2dVertex
 10
18.39772284153772
 20
12.38616902359617
 30
0.0
  0
VERTEX
  5
5C4
330
5C2
100
AcDbEntity
  8
Layer 1
 62
    28
420
  1118219
370
    35
100
AcDbVertex
100
AcDb2dVertex
 10
18.39772284153772
 20
12.44222072714118
 30
0.0
  0
SEQEND
  5
5C5
330
5C2
100
AcDbEntity
  8
Layer 1
370
    35
  0
POLYLINE
  5
5C6
330
4EA
100
AcDbEntity
  8
Layer 1
 62
    28
420
  1118219
370
    35
100
AcDb2dPolyline
 66
     1
 10
0.0
 20
0.0
 30
0.0
  0
VERTEX
  5
5C7
330
5C6
100
AcDbEntity
  8
Layer 1
 62
    28
420
  1118219
370
    35
100
AcDbVertex
100
AcDb2dVertex
 10
18.53962632457516
 20
12.47572428073524
 30
0.0
  0
VERTEX
  5
5C8
330
5C6
100
AcDbEntity
  8
Layer 1
 62
    28
420
  1118219
370
    35
100
AcDbVertex
100
AcDb2dVertex
 10
18.48502156113395
 20
12.47572428073524
 30
0.0
  0
SEQEND
  5
5C9
330
5C6
100
AcDbEntity
  8
Layer 1
370
    35
  0
POLYLINE
  5
5CA
330
4EA
100
AcDbEntity
  8
Layer 1
 62
    28
420
  1118219
370
    35
100
AcDb2dPolyline
 66
     1
 10
0.0
 20
0.0
 30
0.0
  0
VERTEX
  5
5CB
330
5CA
100
AcDbEntity
  8
Layer 1
 62
    28
420
  1118219
370
    35
100
AcDbVertex
100
AcDb2dVertex
 10
18.39772284153772
 20
12.47663723103883
 30
0.0
  0
VERTEX
  5
5CC
330
5CA
100
AcDbEntity
  8
Layer 1
 62
    28
420
  1118219
370
    35
100
AcDbVertex
100
AcDb2dVertex
 10
18.39772284153772
 20
12.53136257282202
 30
0.0
  0
SEQEND
  5
5CD
330
5CA
100
AcDbEntity
  8
Layer 1
370
    35
  0
POLYLINE
  5
5CE
330
4EA
100
AcDbEntity
  8
Layer 1
 62
   250
420
  1842203
370
    18
100
AcDb2dPolyline
 66
     1
 10
0.0
 20
0.0
 30
0.0
  0
VERTEX
  5
5CF
330
5CE
100
AcDbEntity
  8
Layer 1
 62
   250
420
  1842203
370
    18
100
AcDbVertex
100
AcDb2dVertex
 10
18.47034545436679
 20
12.45877441094781
 30
0.0
  0
VERTEX
  5
5D0
330
5CE
100
AcDbEntity
  8
Layer 1
 62
   250
420
  1842203
370
    18
100
AcDbVertex
100
AcDb2dVertex
 10
18.47034545436679
 20
12.5831251324879
 30
0.0
  0
SEQEND
  5
5D1
330
5CE
100
AcDbEntity
  8
Layer 1
370
    18
  0
POLYLINE
  5
5D2
330
4EA
100
AcDbEntity
  8
Layer 1
 62
   250
420
  1842203
370
    18
100
AcDb2dPolyline
 66
     1
 10
0.0
 20
0.0
 30
0.0
  0
VERTEX
  5
5D3
330
5D2
100
AcDbEntity
  8
Layer 1
 62
   250
420
  1842203
370
    18
100
AcDbVertex
100
AcDb2dVertex
 10
18.47034545436679
 20
12.45877441094781
 30
0.0
  0
VERTEX
  5
5D4
330
5D2
100
AcDbEntity
  8
Layer 1
 62
   250
420
  1842203
370
    18
100
AcDbVertex
100
AcDb2dVertex
 10
18.34594305639441
 20
12.45877441094781
 30
0.0
  0
SEQEND
  5
5D5
330
5D2
100
AcDbEntity
  8
Layer 1
370
    18
  0
POLYLINE
  5
5D6
330
4EA
100
AcDbEntity
  8
Layer 1
 62
   250
420
  1842203
370
    18
100
AcDb2dPolyline
 66
     1
 10
0.0
 20
0.0
 30
0.0
  0
VERTEX
  5
5D7
330
5D6
100
AcDbEntity
  8
Layer 1
 62
   250
420
  1842203
370
    18
100
AcDbVertex
100
AcDb2dVertex
 10
18.47034545436679
 20
12.45877441094781
 30
0.0
  0
VERTEX
  5
5D8
330
5D6
100
AcDbEntity
  8
Layer 1
 62
   250
420
  1842203
370
    18
100
AcDbVertex
100
AcDb2dVertex
 10
18.47034545436679
 20
12.33438923845286
 30
0.0
  0
SEQEND
  5
5D9
330
5D6
100
AcDbEntity
  8
Layer 1
370
    18
  0
POLYLINE
  5
5DA
330
4EA
100
AcDbEntity
  8
Layer 1
 62
   250
420
  1842203
370
    18
100
AcDb2dPolyline
 66
     1
 10
0.0
 20
0.0
 30
0.0
  0
VERTEX
  5
5DB
330
5DA
100
AcDbEntity
  8
Layer 1
 62
   250
420
  1842203
370
    18
100
AcDbVertex
100
AcDb2dVertex
 10
18.47034545436679
 20
12.45877441094781
 30
0.0
  0
VERTEX
  5
5DC
330
5DA
100
AcDbEntity
  8
Layer 1
 62
   250
420
  1842203
370
    18
100
AcDbVertex
100
AcDb2dVertex
 10
18.5945755975649
 20
12.45877441094781
 30
0.0
  0
SEQEND
  5
5DD
330
5DA
100
AcDbEntity
  8
Layer 1
370
    18
  0
POLYLINE
  5
5DE
330
4EA
100
AcDbEntity
  8
Layer 1
 62
   250
420
  1842203
370
    35
100
AcDb2dPolyline
 66
     1
 10
0.0
 20
0.0
 30
0.0
  0
VERTEX
  5
5DF
330
5DE
100
AcDbEntity
  8
Layer 1
 62
   250
420
  1842203
370
    35
100
AcDbVertex
100
AcDb2dVertex
 10
23.46563055511449
 20
10.85366997341505
 30
0.0
  0
VERTEX
  5
5E0
330
5DE
100
AcDbEntity
  8
Layer 1
 62
   250
420
  1842203
370
    35
100
AcDbVertex
100
AcDb2dVertex
 10
24.67999226271021
 20
10.85366997341505
 30
0.0
  0
SEQEND
  5
5E1
330
5DE
100
AcDbEntity
  8
Layer 1
370
    35
  0
POLYLINE
  5
5E2
330
4EA
100
AcDbEntity
  8
Layer 1
 62
   250
420
  1842203
370
    35
100
AcDb2dPolyline
 66
     1
 10
0.0
 20
0.0
 30
0.0
  0
VERTEX
  5
5E3
330
5E2
100
AcDbEntity
  8
Layer 1
 62
   250
420
  1842203
370
    35
100
AcDbVertex
100
AcDb2dVertex
 10
24.72867146191679
 20
11.42941433091001
 30
0.0
  0
VERTEX
  5
5E4
330
5E2
100
AcDbEntity
  8
Layer 1
 62
   250
420
  1842203
370
    35
100
AcDbVertex
100
AcDb2dVertex
 10
24.72867146191679
 20
10.90240084905391
 30
0.0
  0
SEQEND
  5
5E5
330
5E2
100
AcDbEntity
  8
Layer 1
370
    35
  0
POLYLINE
  5
5E6
330
4EA
100
AcDbEntity
  8
Layer 1
 62
   250
420
  1842203
370
    35
100
AcDb2dPolyline
 66
     1
 10
0.0
 20
0.0
 30
0.0
  0
VERTEX
  5
5E7
330
5E6
100
AcDbEntity
  8
Layer 1
 62
   250
420
  1842203
370
    35
100
AcDbVertex
100
AcDb2dVertex
 10
23.40575479558085
 20
11.42941433091001
 30
0.0
  0
VERTEX
  5
5E8
330
5E6
100
AcDbEntity
  8
Layer 1
 62
   250
420
  1842203
370
    35
100
AcDbVertex
100
AcDb2dVertex
 10
23.40575479558085
 20
10.90240084905391
 30
0.0
  0
SEQEND
  5
5E9
330
5E6
100
AcDbEntity
  8
Layer 1
370
    35
  0
POLYLINE
  5
5EA
330
4EA
100
AcDbEntity
  8
Layer 1
 62
   250
420
  1842203
370
    35
100
AcDb2dPolyline
 66
     1
 10
0.0
 20
0.0
 30
0.0
  0
VERTEX
  5
5EB
330
5EA
100
AcDbEntity
  8
Layer 1
 62
   250
420
  1842203
370
    35
100
AcDbVertex
100
AcDb2dVertex
 10
23.4946382591003
 20
11.47809353011659
 30
0.0
  0
VERTEX
  5
5EC
330
5EA
100
AcDbEntity
  8
Layer 1
 62
   250
420
  1842203
370
    35
100
AcDbVertex
100
AcDb2dVertex
 10
23.45439954383258
 20
11.47809353011659
 30
0.0
  0
SEQEND
  5
5ED
330
5EA
100
AcDbEntity
  8
Layer 1
370
    35
  0
POLYLINE
  5
5EE
330
4EA
100
AcDbEntity
  8
Layer 1
 62
   250
420
  1842203
370
    35
100
AcDb2dPolyline
 66
     1
 10
0.0
 20
0.0
 30
0.0
  0
VERTEX
  5
5EF
330
5EE
100
AcDbEntity
  8
Layer 1
 62
   250
420
  1842203
370
    35
100
AcDbVertex
100
AcDb2dVertex
 10
23.4946382591003
 20
11.47809353011659
 30
0.0
  0
VERTEX
  5
5F0
330
5EE
100
AcDbEntity
  8
Layer 1
 62
   250
420
  1842203
370
    35
100
AcDbVertex
100
AcDb2dVertex
 10
23.50311319399401
 20
11.47809353011659
 30
0.0
  0
SEQEND
  5
5F1
330
5EE
100
AcDbEntity
  8
Layer 1
370
    35
  0
POLYLINE
  5
5F2
330
4EA
100
AcDbEntity
  8
Layer 1
 62
   250
420
  1842203
370
    35
100
AcDb2dPolyline
 66
     1
 10
0.0
 20
0.0
 30
0.0
  0
VERTEX
  5
5F3
330
5F2
100
AcDbEntity
  8
Layer 1
 62
   250
420
  1842203
370
    35
100
AcDbVertex
100
AcDb2dVertex
 10
23.50314764494886
 20
11.47809353011659
 30
0.0
  0
VERTEX
  5
5F4
330
5F2
100
AcDbEntity
  8
Layer 1
 62
   250
420
  1842203
370
    35
100
AcDbVertex
100
AcDb2dVertex
 10
23.51368963713373
 20
11.48233099756344
 30
0.0
  0
SEQEND
  5
5F5
330
5F2
100
AcDbEntity
  8
Layer 1
370
    35
  0
POLYLINE
  5
5F6
330
4EA
100
AcDbEntity
  8
Layer 1
 62
   250
420
  1842203
370
    35
100
AcDb2dPolyline
 66
     1
 10
0.0
 20
0.0
 30
0.0
  0
VERTEX
  5
5F7
330
5F6
100
AcDbEntity
  8
Layer 1
 62
   250
420
  1842203
370
    35
100
AcDbVertex
100
AcDb2dVertex
 10
24.23967460874043
 20
11.47966104856238
 30
0.0
  0
VERTEX
  5
5F8
330
5F6
100
AcDbEntity
  8
Layer 1
 62
   250
420
  1842203
370
    35
100
AcDbVertex
100
AcDb2dVertex
 10
24.63165757305215
 20
11.47814520654887
 30
0.0
  0
VERTEX
  5
5F9
330
5F6
100
AcDbEntity
  8
Layer 1
 62
   250
420
  1842203
370
    35
100
AcDbVertex
100
AcDb2dVertex
 10
24.64185505568849
 20
11.47814520654887
 30
0.0
  0
SEQEND
  5
5FA
330
5F6
100
AcDbEntity
  8
Layer 1
370
    35
  0
POLYLINE
  5
5FB
330
4EA
100
AcDbEntity
  8
Layer 1
 62
   250
420
  1842203
370
    35
100
AcDb2dPolyline
 66
     1
 10
0.0
 20
0.0
 30
0.0
  0
VERTEX
  5
5FC
330
5FB
100
AcDbEntity
  8
Layer 1
 62
   250
420
  1842203
370
    35
100
AcDbVertex
100
AcDb2dVertex
 10
23.52192341534348
 20
11.48648233762317
 30
0.0
  0
VERTEX
  5
5FD
330
5FB
100
AcDbEntity
  8
Layer 1
 62
   250
420
  1842203
370
    35
100
AcDbVertex
100
AcDb2dVertex
 10
23.51368963713373
 20
11.48234822304087
 30
0.0
  0
VERTEX
  5
5FE
330
5FB
100
AcDbEntity
  8
Layer 1
 62
   250
420
  1842203
370
    35
100
AcDbVertex
100
AcDb2dVertex
 10
23.87273748860647
 20
11.48083238102736
 30
0.0
  0
SEQEND
  5
5FF
330
5FB
100
AcDbEntity
  8
Layer 1
370
    35
  0
POLYLINE
  5
600
330
4EA
100
AcDbEntity
  8
Layer 1
 62
   250
420
  1842203
370
    35
100
AcDb2dPolyline
 66
     1
 10
0.0
 20
0.0
 30
0.0
  0
VERTEX
  5
601
330
600
100
AcDbEntity
  8
Layer 1
 62
   250
420
  1842203
370
    35
100
AcDbVertex
100
AcDb2dVertex
 10
23.52213012107259
 20
11.4865684650103
 30
0.0
  0
VERTEX
  5
602
330
600
100
AcDbEntity
  8
Layer 1
 62
   250
420
  1842203
370
    35
100
AcDbVertex
100
AcDb2dVertex
 10
23.52853799867516
 20
11.49292466618059
 30
0.0
  0
SEQEND
  5
603
330
600
100
AcDbEntity
  8
Layer 1
370
    35
  0
POLYLINE
  5
604
330
4EA
100
AcDbEntity
  8
Layer 1
 62
   250
420
  1842203
370
    35
100
AcDb2dPolyline
 66
     1
 10
0.0
 20
0.0
 30
0.0
  0
VERTEX
  5
605
330
604
100
AcDbEntity
  8
Layer 1
 62
   250
420
  1842203
370
    35
100
AcDbVertex
100
AcDb2dVertex
 10
23.52853799867516
 20
11.49290744070316
 30
0.0
  0
VERTEX
  5
606
330
604
100
AcDbEntity
  8
Layer 1
 62
   250
420
  1842203
370
    35
100
AcDbVertex
100
AcDb2dVertex
 10
23.53487697436801
 20
11.50138237559688
 30
0.0
  0
SEQEND
  5
607
330
604
100
AcDbEntity
  8
Layer 1
370
    35
  0
POLYLINE
  5
608
330
4EA
100
AcDbEntity
  8
Layer 1
 62
   250
420
  1842203
370
    35
100
AcDb2dPolyline
 66
     1
 10
0.0
 20
0.0
 30
0.0
  0
VERTEX
  5
609
330
608
100
AcDbEntity
  8
Layer 1
 62
   250
420
  1842203
370
    35
100
AcDbVertex
100
AcDb2dVertex
 10
23.53487697436801
 20
11.50138237559688
 30
0.0
  0
VERTEX
  5
60A
330
608
100
AcDbEntity
  8
Layer 1
 62
   250
420
  1842203
370
    35
100
AcDbVertex
100
AcDb2dVertex
 10
23.53907999086002
 20
11.50984008501317
 30
0.0
  0
SEQEND
  5
60B
330
608
100
AcDbEntity
  8
Layer 1
370
    35
  0
POLYLINE
  5
60C
330
4EA
100
AcDbEntity
  8
Layer 1
 62
   250
420
  1842203
370
    35
100
AcDb2dPolyline
 66
     1
 10
0.0
 20
0.0
 30
0.0
  0
VERTEX
  5
60D
330
60C
100
AcDbEntity
  8
Layer 1
 62
   250
420
  1842203
370
    35
100
AcDbVertex
100
AcDb2dVertex
 10
23.53907999086002
 20
11.50985731049059
 30
0.0
  0
VERTEX
  5
60E
330
60C
100
AcDbEntity
  8
Layer 1
 62
   250
420
  1842203
370
    35
100
AcDbVertex
100
AcDb2dVertex
 10
23.54331745830688
 20
11.51829779442945
 30
0.0
  0
SEQEND
  5
60F
330
60C
100
AcDbEntity
  8
Layer 1
370
    35
  0
POLYLINE
  5
610
330
4EA
100
AcDbEntity
  8
Layer 1
 62
   250
420
  1842203
370
    35
100
AcDb2dPolyline
 66
     1
 10
0.0
 20
0.0
 30
0.0
  0
VERTEX
  5
611
330
610
100
AcDbEntity
  8
Layer 1
 62
   250
420
  1842203
370
    35
100
AcDbVertex
100
AcDb2dVertex
 10
23.54335190926173
 20
11.51829779442945
 30
0.0
  0
VERTEX
  5
612
330
610
100
AcDbEntity
  8
Layer 1
 62
   250
420
  1842203
370
    35
100
AcDbVertex
100
AcDb2dVertex
 10
23.54335190926173
 20
11.52890868852402
 30
0.0
  0
SEQEND
  5
613
330
610
100
AcDbEntity
  8
Layer 1
370
    35
  0
POLYLINE
  5
614
330
4EA
100
AcDbEntity
  8
Layer 1
 62
   250
420
  1842203
370
    35
100
AcDb2dPolyline
 66
     1
 10
0.0
 20
0.0
 30
0.0
  0
VERTEX
  5
615
330
614
100
AcDbEntity
  8
Layer 1
 62
   250
420
  1842203
370
    35
100
AcDbVertex
100
AcDb2dVertex
 10
23.45439954383258
 20
10.85366997341505
 30
0.0
  0
VERTEX
  5
616
330
614
100
AcDbEntity
  8
Layer 1
 62
   250
420
  1842203
370
    35
100
AcDbVertex
100
AcDb2dVertex
 10
23.405720344626
 20
10.90238362357649
 30
0.0
  0
SEQEND
  5
617
330
614
100
AcDbEntity
  8
Layer 1
370
    35
  0
POLYLINE
  5
618
330
4EA
100
AcDbEntity
  8
Layer 1
 62
   250
420
  1842203
370
    35
100
AcDb2dPolyline
 66
     1
 10
0.0
 20
0.0
 30
0.0
  0
VERTEX
  5
619
330
618
100
AcDbEntity
  8
Layer 1
 62
   250
420
  1842203
370
    35
100
AcDbVertex
100
AcDb2dVertex
 10
24.67995781175535
 20
10.85366997341505
 30
0.0
  0
VERTEX
  5
61A
330
618
100
AcDbEntity
  8
Layer 1
 62
   250
420
  1842203
370
    35
100
AcDbVertex
100
AcDb2dVertex
 10
24.72867146191679
 20
10.90238362357649
 30
0.0
  0
SEQEND
  5
61B
330
618
100
AcDbEntity
  8
Layer 1
370
    35
  0
POLYLINE
  5
61C
330
4EA
100
AcDbEntity
  8
Layer 1
 62
   250
420
  1842203
370
    35
100
AcDb2dPolyline
 66
     1
 10
0.0
 20
0.0
 30
0.0
  0
VERTEX
  5
61D
330
61C
100
AcDbEntity
  8
Layer 1
 62
   250
420
  1842203
370
    35
100
AcDbVertex
100
AcDb2dVertex
 10
24.23319782922816
 20
11.52181179182441
 30
0.0
  0
VERTEX
  5
61E
330
61C
100
AcDbEntity
  8
Layer 1
 62
   250
420
  1842203
370
    35
100
AcDbVertex
100
AcDb2dVertex
 10
24.59327920934647
 20
11.51817721608747
 30
0.0
  0
VERTEX
  5
61F
330
61C
100
AcDbEntity
  8
Layer 1
 62
   250
420
  1842203
370
    35
100
AcDbVertex
100
AcDb2dVertex
 10
24.59531181568277
 20
11.51016736908426
 30
0.0
  0
SEQEND
  5
620
330
61C
100
AcDbEntity
  8
Layer 1
370
    35
  0
POLYLINE
  5
621
330
4EA
100
AcDbEntity
  8
Layer 1
 62
   250
420
  1842203
370
    35
100
AcDb2dPolyline
 66
     1
 10
0.0
 20
0.0
 30
0.0
  0
VERTEX
  5
622
330
621
100
AcDbEntity
  8
Layer 1
 62
   250
420
  1842203
370
    35
100
AcDbVertex
100
AcDb2dVertex
 10
23.54335190926173
 20
11.69399766417719
 30
0.0
  0
VERTEX
  5
623
330
621
100
AcDbEntity
  8
Layer 1
 62
   250
420
  1842203
370
    35
100
AcDbVertex
100
AcDb2dVertex
 10
23.54335190926173
 20
11.5288914630466
 30
0.0
  0
VERTEX
  5
624
330
621
100
AcDbEntity
  8
Layer 1
 62
   250
420
  1842203
370
    35
100
AcDbVertex
100
AcDb2dVertex
 10
23.87718166178244
 20
11.52508463253539
 30
0.0
  0
SEQEND
  5
625
330
621
100
AcDbEntity
  8
Layer 1
370
    35
  0
POLYLINE
  5
626
330
4EA
100
AcDbEntity
  8
Layer 1
 62
   250
420
  1842203
370
    35
100
AcDb2dPolyline
 66
     1
 10
0.0
 20
0.0
 30
0.0
  0
VERTEX
  5
627
330
626
100
AcDbEntity
  8
Layer 1
 62
   250
420
  1842203
370
    35
100
AcDbVertex
100
AcDb2dVertex
 10
23.40575479558085
 20
11.42941433091001
 30
0.0
  0
VERTEX
  5
628
330
626
100
AcDbEntity
  8
Layer 1
 62
   250
420
  1842203
370
    35
100
AcDbVertex
100
AcDb2dVertex
 10
23.45443399478743
 20
11.47809353011659
 30
0.0
  0
SEQEND
  5
629
330
626
100
AcDbEntity
  8
Layer 1
370
    35
  0
POLYLINE
  5
62A
330
4EA
100
AcDbEntity
  8
Layer 1
 62
   250
420
  1842203
370
    35
100
AcDb2dPolyline
 66
     1
 10
0.0
 20
0.0
 30
0.0
  0
VERTEX
  5
62B
330
62A
100
AcDbEntity
  8
Layer 1
 62
   250
420
  1842203
370
    35
100
AcDbVertex
100
AcDb2dVertex
 10
24.64188950664334
 20
11.47809353011659
 30
0.0
  0
VERTEX
  5
62C
330
62A
100
AcDbEntity
  8
Layer 1
 62
   250
420
  1842203
370
    35
100
AcDbVertex
100
AcDb2dVertex
 10
24.67995781175535
 20
11.47809353011659
 30
0.0
  0
SEQEND
  5
62D
330
62A
100
AcDbEntity
  8
Layer 1
370
    35
  0
POLYLINE
  5
62E
330
4EA
100
AcDbEntity
  8
Layer 1
 62
   250
420
  1842203
370
    35
100
AcDb2dPolyline
 66
     1
 10
0.0
 20
0.0
 30
0.0
  0
VERTEX
  5
62F
330
62E
100
AcDbEntity
  8
Layer 1
 62
   250
420
  1842203
370
    35
100
AcDbVertex
100
AcDb2dVertex
 10
24.59107434823591
 20
11.52890868852402
 30
0.0
  0
VERTEX
  5
630
330
62E
100
AcDbEntity
  8
Layer 1
 62
   250
420
  1842203
370
    35
100
AcDbVertex
100
AcDb2dVertex
 10
24.59107434823591
 20
11.69401488965462
 30
0.0
  0
SEQEND
  5
631
330
62E
100
AcDbEntity
  8
Layer 1
370
    35
  0
POLYLINE
  5
632
330
4EA
100
AcDbEntity
  8
Layer 1
 62
   250
420
  1842203
370
    35
100
AcDb2dPolyline
 66
     1
 10
0.0
 20
0.0
 30
0.0
  0
VERTEX
  5
633
330
632
100
AcDbEntity
  8
Layer 1
 62
   250
420
  1842203
370
    35
100
AcDbVertex
100
AcDb2dVertex
 10
24.59107434823591
 20
11.52890868852402
 30
0.0
  0
VERTEX
  5
634
330
632
100
AcDbEntity
  8
Layer 1
 62
   250
420
  1842203
370
    35
100
AcDbVertex
100
AcDb2dVertex
 10
24.59321030743677
 20
11.51829779442945
 30
0.0
  0
SEQEND
  5
635
330
632
100
AcDbEntity
  8
Layer 1
370
    35
  0
POLYLINE
  5
636
330
4EA
100
AcDbEntity
  8
Layer 1
 62
   250
420
  1842203
370
    35
100
AcDb2dPolyline
 66
     1
 10
0.0
 20
0.0
 30
0.0
  0
VERTEX
  5
637
330
636
100
AcDbEntity
  8
Layer 1
 62
   250
420
  1842203
370
    35
100
AcDbVertex
100
AcDb2dVertex
 10
24.59531181568277
 20
11.50985731049059
 30
0.0
  0
VERTEX
  5
638
330
636
100
AcDbEntity
  8
Layer 1
 62
   250
420
  1842203
370
    35
100
AcDbVertex
100
AcDb2dVertex
 10
24.59954928312963
 20
11.50138237559688
 30
0.0
  0
SEQEND
  5
639
330
636
100
AcDbEntity
  8
Layer 1
370
    35
  0
POLYLINE
  5
63A
330
4EA
100
AcDbEntity
  8
Layer 1
 62
   250
420
  1842203
370
    35
100
AcDb2dPolyline
 66
     1
 10
0.0
 20
0.0
 30
0.0
  0
VERTEX
  5
63B
330
63A
100
AcDbEntity
  8
Layer 1
 62
   250
420
  1842203
370
    35
100
AcDbVertex
100
AcDb2dVertex
 10
24.59954928312963
 20
11.50138237559688
 30
0.0
  0
VERTEX
  5
63C
330
63A
100
AcDbEntity
  8
Layer 1
 62
   250
420
  1842203
370
    35
100
AcDbVertex
100
AcDb2dVertex
 10
24.60592270977734
 20
11.49290744070316
 30
0.0
  0
SEQEND
  5
63D
330
63A
100
AcDbEntity
  8
Layer 1
370
    35
  0
POLYLINE
  5
63E
330
4EA
100
AcDbEntity
  8
Layer 1
 62
   250
420
  1842203
370
    35
100
AcDb2dPolyline
 66
     1
 10
0.0
 20
0.0
 30
0.0
  0
VERTEX
  5
63F
330
63E
100
AcDbEntity
  8
Layer 1
 62
   250
420
  1842203
370
    35
100
AcDbVertex
100
AcDb2dVertex
 10
24.60588825882249
 20
11.49290744070316
 30
0.0
  0
VERTEX
  5
640
330
63E
100
AcDbEntity
  8
Layer 1
 62
   250
420
  1842203
370
    35
100
AcDbVertex
100
AcDb2dVertex
 10
24.6143631937162
 20
11.48655123953288
 30
0.0
  0
SEQEND
  5
641
330
63E
100
AcDbEntity
  8
Layer 1
370
    35
  0
POLYLINE
  5
642
330
4EA
100
AcDbEntity
  8
Layer 1
 62
   250
420
  1842203
370
    35
100
AcDb2dPolyline
 66
     1
 10
0.0
 20
0.0
 30
0.0
  0
VERTEX
  5
643
330
642
100
AcDbEntity
  8
Layer 1
 62
   250
420
  1842203
370
    35
100
AcDbVertex
100
AcDb2dVertex
 10
24.61439764467105
 20
11.4865684650103
 30
0.0
  0
VERTEX
  5
644
330
642
100
AcDbEntity
  8
Layer 1
 62
   250
420
  1842203
370
    35
100
AcDbVertex
100
AcDb2dVertex
 10
24.62280367765506
 20
11.48233099756344
 30
0.0
  0
SEQEND
  5
645
330
642
100
AcDbEntity
  8
Layer 1
370
    35
  0
POLYLINE
  5
646
330
4EA
100
AcDbEntity
  8
Layer 1
 62
   250
420
  1842203
370
    35
100
AcDb2dPolyline
 66
     1
 10
0.0
 20
0.0
 30
0.0
  0
VERTEX
  5
647
330
646
100
AcDbEntity
  8
Layer 1
 62
   250
420
  1842203
370
    35
100
AcDbVertex
100
AcDb2dVertex
 10
24.62283812860991
 20
11.48233099756344
 30
0.0
  0
VERTEX
  5
648
330
646
100
AcDbEntity
  8
Layer 1
 62
   250
420
  1842203
370
    35
100
AcDbVertex
100
AcDb2dVertex
 10
24.63127861254878
 20
11.47809353011659
 30
0.0
  0
SEQEND
  5
649
330
646
100
AcDbEntity
  8
Layer 1
370
    35
  0
POLYLINE
  5
64A
330
4EA
100
AcDbEntity
  8
Layer 1
 62
   250
420
  1842203
370
    35
100
AcDb2dPolyline
 66
     1
 10
0.0
 20
0.0
 30
0.0
  0
VERTEX
  5
64B
330
64A
100
AcDbEntity
  8
Layer 1
 62
   250
420
  1842203
370
    35
100
AcDbVertex
100
AcDb2dVertex
 10
24.72867146191679
 20
11.42941433091001
 30
0.0
  0
VERTEX
  5
64C
330
64A
100
AcDbEntity
  8
Layer 1
 62
   250
420
  1842203
370
    35
100
AcDbVertex
100
AcDb2dVertex
 10
24.67995781175535
 20
11.47809353011659
 30
0.0
  0
SEQEND
  5
64D
330
64A
100
AcDbEntity
  8
Layer 1
370
    35
  0
POLYLINE
  5
64E
330
4EA
100
AcDbEntity
  8
Layer 1
 62
   250
420
  1842203
370
    35
100
AcDb2dPolyline
 66
     1
 10
0.0
 20
0.0
 30
0.0
  0
VERTEX
  5
64F
330
64E
100
AcDbEntity
  8
Layer 1
 62
   250
420
  1842203
370
    35
100
AcDbVertex
100
AcDb2dVertex
 10
24.7046591463846
 20
11.45284098020971
 30
0.0
  0
VERTEX
  5
650
330
64E
100
AcDbEntity
  8
Layer 1
 62
   250
420
  1842203
370
    35
100
AcDbVertex
100
AcDb2dVertex
 10
24.39873466729441
 20
11.41883788777029
 30
0.0
  0
SEQEND
  5
651
330
64E
100
AcDbEntity
  8
Layer 1
370
    35
  0
POLYLINE
  5
652
330
4EA
100
AcDbEntity
  8
Layer 1
 62
   250
420
  1842203
370
    35
100
AcDb2dPolyline
 66
     1
 10
0.0
 20
0.0
 30
0.0
  0
VERTEX
  5
653
330
652
100
AcDbEntity
  8
Layer 1
 62
   250
420
  1842203
370
    35
100
AcDbVertex
100
AcDb2dVertex
 10
24.7046591463846
 20
11.36543890774892
 30
0.0
  0
VERTEX
  5
654
330
652
100
AcDbEntity
  8
Layer 1
 62
   250
420
  1842203
370
    35
100
AcDbVertex
100
AcDb2dVertex
 10
24.38367960002387
 20
11.33040228666393
 30
0.0
  0
SEQEND
  5
655
330
652
100
AcDbEntity
  8
Layer 1
370
    35
  0
POLYLINE
  5
656
330
4EA
100
AcDbEntity
  8
Layer 1
 62
   250
420
  1842203
370
    35
100
AcDb2dPolyline
 66
     1
 10
0.0
 20
0.0
 30
0.0
  0
VERTEX
  5
657
330
656
100
AcDbEntity
  8
Layer 1
 62
   250
420
  1842203
370
    35
100
AcDbVertex
100
AcDb2dVertex
 10
24.7046591463846
 20
11.27803683528813
 30
0.0
  0
VERTEX
  5
658
330
656
100
AcDbEntity
  8
Layer 1
 62
   250
420
  1842203
370
    35
100
AcDbVertex
100
AcDb2dVertex
 10
24.37317205879386
 20
11.24229396962866
 30
0.0
  0
SEQEND
  5
659
330
656
100
AcDbEntity
  8
Layer 1
370
    35
  0
POLYLINE
  5
65A
330
4EA
100
AcDbEntity
  8
Layer 1
 62
   250
420
  1842203
370
    35
100
AcDb2dPolyline
 66
     1
 10
0.0
 20
0.0
 30
0.0
  0
VERTEX
  5
65B
330
65A
100
AcDbEntity
  8
Layer 1
 62
   250
420
  1842203
370
    35
100
AcDbVertex
100
AcDb2dVertex
 10
24.7046591463846
 20
11.19063476282734
 30
0.0
  0
VERTEX
  5
65C
330
65A
100
AcDbEntity
  8
Layer 1
 62
   250
420
  1842203
370
    35
100
AcDbVertex
100
AcDb2dVertex
 10
24.35370726930219
 20
11.1535999863609
 30
0.0
  0
SEQEND
  5
65D
330
65A
100
AcDbEntity
  8
Layer 1
370
    35
  0
POLYLINE
  5
65E
330
4EA
100
AcDbEntity
  8
Layer 1
 62
   250
420
  1842203
370
    35
100
AcDb2dPolyline
 66
     1
 10
0.0
 20
0.0
 30
0.0
  0
VERTEX
  5
65F
330
65E
100
AcDbEntity
  8
Layer 1
 62
   250
420
  1842203
370
    35
100
AcDbVertex
100
AcDb2dVertex
 10
24.7046591463846
 20
11.10323269036655
 30
0.0
  0
VERTEX
  5
660
330
65E
100
AcDbEntity
  8
Layer 1
 62
   250
420
  1842203
370
    35
100
AcDbVertex
100
AcDb2dVertex
 10
24.33865220203165
 20
11.06516438525454
 30
0.0
  0
SEQEND
  5
661
330
65E
100
AcDbEntity
  8
Layer 1
370
    35
  0
POLYLINE
  5
662
330
4EA
100
AcDbEntity
  8
Layer 1
 62
   250
420
  1842203
370
    35
100
AcDb2dPolyline
 66
     1
 10
0.0
 20
0.0
 30
0.0
  0
VERTEX
  5
663
330
662
100
AcDbEntity
  8
Layer 1
 62
   250
420
  1842203
370
    35
100
AcDbVertex
100
AcDb2dVertex
 10
24.7046591463846
 20
11.01583061790576
 30
0.0
  0
VERTEX
  5
664
330
662
100
AcDbEntity
  8
Layer 1
 62
   250
420
  1842203
370
    35
100
AcDbVertex
100
AcDb2dVertex
 10
24.32146117556026
 20
10.97664265676105
 30
0.0
  0
SEQEND
  5
665
330
662
100
AcDbEntity
  8
Layer 1
370
    35
  0
POLYLINE
  5
666
330
4EA
100
AcDbEntity
  8
Layer 1
 62
   250
420
  1842203
370
    35
100
AcDb2dPolyline
 66
     1
 10
0.0
 20
0.0
 30
0.0
  0
VERTEX
  5
667
330
666
100
AcDbEntity
  8
Layer 1
 62
   250
420
  1842203
370
    35
100
AcDbVertex
100
AcDb2dVertex
 10
24.7046591463846
 20
10.92842854544497
 30
0.0
  0
VERTEX
  5
668
330
666
100
AcDbEntity
  8
Layer 1
 62
   250
420
  1842203
370
    35
100
AcDbVertex
100
AcDb2dVertex
 10
24.30640610828972
 20
10.88820705565468
 30
0.0
  0
SEQEND
  5
669
330
666
100
AcDbEntity
  8
Layer 1
370
    35
  0
POLYLINE
  5
66A
330
4EA
100
AcDbEntity
  8
Layer 1
 62
   250
420
  1842203
370
    18
100
AcDb2dPolyline
 66
     1
 10
0.0
 20
0.0
 30
0.0
  0
VERTEX
  5
66B
330
66A
100
AcDbEntity
  8
Layer 1
 62
   250
420
  1842203
370
    18
100
AcDbVertex
100
AcDb2dVertex
 10
24.06252779888888
 20
12.45886053833494
 30
0.0
  0
VERTEX
  5
66C
330
66A
100
AcDbEntity
  8
Layer 1
 62
   250
420
  1842203
370
    18
100
AcDbVertex
100
AcDb2dVertex
 10
23.94536010143553
 20
12.45886053833494
 30
0.0
  0
SEQEND
  5
66D
330
66A
100
AcDbEntity
  8
Layer 1
370
    18
  0
POLYLINE
  5
66E
330
4EA
100
AcDbEntity
  8
Layer 1
 62
   250
420
  1842203
370
    18
100
AcDb2dPolyline
 66
     1
 10
0.0
 20
0.0
 30
0.0
  0
VERTEX
  5
66F
330
66E
100
AcDbEntity
  8
Layer 1
 62
   250
420
  1842203
370
    18
100
AcDbVertex
100
AcDb2dVertex
 10
24.06252779888888
 20
12.45886053833494
 30
0.0
  0
VERTEX
  5
670
330
66E
100
AcDbEntity
  8
Layer 1
 62
   250
420
  1842203
370
    18
100
AcDbVertex
100
AcDb2dVertex
 10
24.06252779888888
 20
12.34167561540416
 30
0.0
  0
SEQEND
  5
671
330
66E
100
AcDbEntity
  8
Layer 1
370
    18
  0
POLYLINE
  5
672
330
4EA
100
AcDbEntity
  8
Layer 1
 62
   250
420
  1842203
370
    18
100
AcDb2dPolyline
 66
     1
 10
0.0
 20
0.0
 30
0.0
  0
VERTEX
  5
673
330
672
100
AcDbEntity
  8
Layer 1
 62
   250
420
  1842203
370
    18
100
AcDbVertex
100
AcDb2dVertex
 10
24.06252779888888
 20
12.45886053833494
 30
0.0
  0
VERTEX
  5
674
330
672
100
AcDbEntity
  8
Layer 1
 62
   250
420
  1842203
370
    18
100
AcDbVertex
100
AcDb2dVertex
 10
24.17966104538737
 20
12.45886053833494
 30
0.0
  0
SEQEND
  5
675
330
672
100
AcDbEntity
  8
Layer 1
370
    18
  0
POLYLINE
  5
676
330
4EA
100
AcDbEntity
  8
Layer 1
 62
   250
420
  1842203
370
    18
100
AcDb2dPolyline
 66
     1
 10
0.0
 20
0.0
 30
0.0
  0
VERTEX
  5
677
330
676
100
AcDbEntity
  8
Layer 1
 62
   250
420
  1842203
370
    18
100
AcDbVertex
100
AcDb2dVertex
 10
24.06252779888888
 20
12.69323038419648
 30
0.0
  0
VERTEX
  5
678
330
676
100
AcDbEntity
  8
Layer 1
 62
   250
420
  1842203
370
    18
100
AcDbVertex
100
AcDb2dVertex
 10
24.06252779888888
 20
14.34634222731619
 30
0.0
  0
SEQEND
  5
679
330
676
100
AcDbEntity
  8
Layer 1
370
    18
  0
POLYLINE
  5
67A
330
4EA
100
AcDbEntity
  8
Layer 1
 62
   250
420
  1842203
370
    18
100
AcDb2dPolyline
 66
     1
 10
0.0
 20
0.0
 30
0.0
  0
VERTEX
  5
67B
330
67A
100
AcDbEntity
  8
Layer 1
 62
   250
420
  1842203
370
    18
100
AcDbVertex
100
AcDb2dVertex
 10
23.82815795302733
 20
12.45886053833494
 30
0.0
  0
VERTEX
  5
67C
330
67A
100
AcDbEntity
  8
Layer 1
 62
   250
420
  1842203
370
    18
100
AcDbVertex
100
AcDb2dVertex
 10
22.22870347209039
 20
12.45886053833494
 30
0.0
  0
SEQEND
  5
67D
330
67A
100
AcDbEntity
  8
Layer 1
370
    18
  0
POLYLINE
  5
67E
330
4EA
100
AcDbEntity
  8
Layer 1
 62
   250
420
  1842203
370
    18
100
AcDb2dPolyline
 66
     1
 10
0.0
 20
0.0
 30
0.0
  0
VERTEX
  5
67F
330
67E
100
AcDbEntity
  8
Layer 1
 62
   250
420
  1842203
370
    18
100
AcDbVertex
100
AcDb2dVertex
 10
24.06252779888888
 20
12.22450791795082
 30
0.0
  0
VERTEX
  5
680
330
67E
100
AcDbEntity
  8
Layer 1
 62
   250
420
  1842203
370
    18
100
AcDbVertex
100
AcDb2dVertex
 10
24.06252779888888
 20
10.65983167593747
 30
0.0
  0
SEQEND
  5
681
330
67E
100
AcDbEntity
  8
Layer 1
370
    18
  0
POLYLINE
  5
682
330
4EA
100
AcDbEntity
  8
Layer 1
 62
   250
420
  1842203
370
    18
100
AcDb2dPolyline
 66
     1
 10
0.0
 20
0.0
 30
0.0
  0
VERTEX
  5
683
330
682
100
AcDbEntity
  8
Layer 1
 62
   250
420
  1842203
370
    18
100
AcDbVertex
100
AcDb2dVertex
 10
25.3086532868586
 20
12.47138346042382
 30
0.0
  0
VERTEX
  5
684
330
682
100
AcDbEntity
  8
Layer 1
 62
   250
420
  1842203
370
    18
100
AcDbVertex
100
AcDb2dVertex
 10
26.90938245312508
 20
12.47152126424323
 30
0.0
  0
SEQEND
  5
685
330
682
100
AcDbEntity
  8
Layer 1
370
    18
  0
POLYLINE
  5
686
330
4EA
100
AcDbEntity
  8
Layer 1
 62
   250
420
  1842203
370
    18
100
AcDb2dPolyline
 66
     1
 10
0.0
 20
0.0
 30
0.0
  0
VERTEX
  5
687
330
686
100
AcDbEntity
  8
Layer 1
 62
   250
420
  1842203
370
    18
100
AcDbVertex
100
AcDb2dVertex
 10
24.06187323074668
 20
12.70745862855057
 30
0.0
  0
VERTEX
  5
688
330
686
100
AcDbEntity
  8
Layer 1
 62
   250
420
  1842203
370
    18
100
AcDbVertex
100
AcDb2dVertex
 10
24.06187323074668
 20
14.46178737702691
 30
0.0
  0
SEQEND
  5
689
330
686
100
AcDbEntity
  8
Layer 1
370
    18
  0
POLYLINE
  5
68A
330
4EA
100
AcDbEntity
  8
Layer 1
 62
   250
420
  1842203
370
    18
100
AcDb2dPolyline
 66
     1
 10
0.0
 20
0.0
 30
0.0
  0
VERTEX
  5
68B
330
68A
100
AcDbEntity
  8
Layer 1
 62
   250
420
  1842203
370
    18
100
AcDbVertex
100
AcDb2dVertex
 10
23.81310288575679
 20
12.45877441094781
 30
0.0
  0
VERTEX
  5
68C
330
68A
100
AcDbEntity
  8
Layer 1
 62
   250
420
  1842203
370
    18
100
AcDbVertex
100
AcDb2dVertex
 10
22.11580769303875
 20
12.45877441094781
 30
0.0
  0
SEQEND
  5
68D
330
68A
100
AcDbEntity
  8
Layer 1
370
    18
  0
POLYLINE
  5
68E
330
4EA
100
AcDbEntity
  8
Layer 1
 62
   250
420
  1842203
370
    18
100
AcDb2dPolyline
 66
     1
 10
0.0
 20
0.0
 30
0.0
  0
VERTEX
  5
68F
330
68E
100
AcDbEntity
  8
Layer 1
 62
   250
420
  1842203
370
    18
100
AcDbVertex
100
AcDb2dVertex
 10
24.06187323074668
 20
12.21007296786762
 30
0.0
  0
VERTEX
  5
690
330
68E
100
AcDbEntity
  8
Layer 1
 62
   250
420
  1842203
370
    18
100
AcDbVertex
100
AcDb2dVertex
 10
24.06187323074668
 20
10.54965752231918
 30
0.0
  0
SEQEND
  5
691
330
68E
100
AcDbEntity
  8
Layer 1
370
    18
  0
POLYLINE
  5
692
330
4EA
100
AcDbEntity
  8
Layer 1
 62
   250
420
  1842203
370
    18
100
AcDb2dPolyline
 66
     1
 10
0.0
 20
0.0
 30
0.0
  0
VERTEX
  5
693
330
692
100
AcDbEntity
  8
Layer 1
 62
   250
420
  1842203
370
    18
100
AcDbVertex
100
AcDb2dVertex
 10
25.32226141402533
 20
12.47129733303669
 30
0.0
  0
VERTEX
  5
694
330
692
100
AcDbEntity
  8
Layer 1
 62
   250
420
  1842203
370
    18
100
AcDbVertex
100
AcDb2dVertex
 10
27.02086574302777
 20
12.47146958781095
 30
0.0
  0
SEQEND
  5
695
330
692
100
AcDbEntity
  8
Layer 1
370
    18
  0
SPLINE
  5
696
330
4EA
100
AcDbEntity
  8
Layer 1
 62
   250
420
  1842203
370
    35
100
AcDbSpline
210
0.0
220
0.0
230
1.0
 70
    11
 71
     3
 72
    17
 73
    13
 74
     0
 42
0.0000000001
 43
0.0000000001
 40
0.0
 40
0.0
 40
0.0
 40
0.0
 40
1.0
 40
1.0
 40
1.0
 40
2.0
 40
2.0
 40
2.0
 40
3.0
 40
3.0
 40
3.0
 40
4.0
 40
4.0
 40
4.0
 40
4.0
 10
23.68294717832405
 20
12.45877441094781
 30
0.0
 10
23.68294717832405
 20
12.24953653665116
 30
0.0
 10
23.85265258192746
 20
12.07988280948003
 30
0.0
 10
24.06183877979183
 20
12.07988280948003
 30
0.0
 10
24.27105942861105
 20
12.07988280948003
 30
0.0
 10
24.44069593030476
 20
12.24953653665116
 30
0.0
 10
24.44069593030476
 20
12.45877441094781
 30
0.0
 10
24.44069593030476
 20
12.66801228524445
 30
0.0
 10
24.27105942861105
 20
12.8376143359833
 30
0.0
 10
24.06183877979183
 20
12.8376143359833
 30
0.0
 10
23.85265258192746
 20
12.8376143359833
 30
0.0
 10
23.68294717832405
 20
12.66801228524445
 30
0.0
 10
23.68294717832405
 20
12.45877441094781
 30
0.0
  0
SPLINE
  5
697
330
4EA
100
AcDbEntity
  8
Layer 1
 62
    28
420
  1118219
370
    35
100
AcDbSpline
210
0.0
220
0.0
230
1.0
 70
     8
 71
     3
 72
     8
 73
     4
 74
     0
 42
0.0000000001
 43
0.0000000001
 40
0.0
 40
0.0
 40
0.0
 40
0.0
 40
1.0
 40
1.0
 40
1.0
 40
1.0
 10
24.19406154451572
 20
12.37178574994525
 30
0.0
 10
24.16670748636284
 20
12.34129665490079
 30
0.0
 10
24.20315659659678
 20
12.38194878162673
 30
0.0
 10
24.17576808748904
 20
12.35145968658227
 30
0.0
  0
SPLINE
  5
698
330
4EA
100
AcDbEntity
  8
Layer 1
 62
    28
420
  1118219
370
    35
100
AcDbSpline
210
0.0
220
0.0
230
1.0
 70
     8
 71
     3
 72
     8
 73
     4
 74
     0
 42
0.0000000001
 43
0.0000000001
 40
0.0
 40
0.0
 40
0.0
 40
0.0
 40
1.0
 40
1.0
 40
1.0
 40
1.0
 10
24.17201293341012
 20
12.38852891400356
 30
0.0
 10
24.20512030102337
 20
12.36341416791609
 30
0.0
 10
24.16091972594761
 20
12.39688327055529
 30
0.0
 10
24.19406154451572
 20
12.37176852446782
 30
0.0
  0
SPLINE
  5
699
330
4EA
100
AcDbEntity
  8
Layer 1
 62
    28
420
  1118219
370
    35
100
AcDbSpline
210
0.0
220
0.0
230
1.0
 70
     8
 71
     3
 72
     8
 73
     4
 74
     0
 42
0.0000000001
 43
0.0000000001
 40
0.0
 40
0.0
 40
0.0
 40
0.0
 40
1.0
 40
1.0
 40
1.0
 40
1.0
 10
24.15533867126151
 20
12.37190632828723
 30
0.0
 10
24.18024671161987
 20
12.39681436864559
 30
0.0
 10
24.14707044209691
 20
12.36362087364521
 30
0.0
 10
24.17201293341012
 20
12.38852891400356
 30
0.0
  0
SPLINE
  5
69A
330
4EA
100
AcDbEntity
  8
Layer 1
 62
    28
420
  1118219
370
    35
100
AcDbSpline
210
0.0
220
0.0
230
1.0
 70
     8
 71
     3
 72
     8
 73
     4
 74
     0
 42
0.0000000001
 43
0.0000000001
 40
0.0
 40
0.0
 40
0.0
 40
0.0
 40
1.0
 40
1.0
 40
1.0
 40
1.0
 10
24.17201293341012
 20
12.53275783649355
 30
0.0
 10
24.15478745598387
 20
12.55137857759132
 30
0.0
 10
24.17762843905108
 20
12.5265566646201
 30
0.0
 10
24.16050631448939
 20
12.54517740571787
 30
0.0
  0
SPLINE
  5
69B
330
4EA
100
AcDbEntity
  8
Layer 1
 62
    28
420
  1118219
370
    35
100
AcDbSpline
210
0.0
220
0.0
230
1.0
 70
     8
 71
     3
 72
     8
 73
     4
 74
     0
 42
0.0000000001
 43
0.0000000001
 40
0.0
 40
0.0
 40
0.0
 40
0.0
 40
1.0
 40
1.0
 40
1.0
 40
1.0
 10
24.19406154451572
 20
12.5496560298487
 30
0.0
 10
24.16091972594761
 20
12.52430012707726
 30
0.0
 10
24.20512030102337
 20
12.55809651378756
 30
0.0
 10
24.17201293341012
 20
12.53275783649355
 30
0.0
  0
SPLINE
  5
69C
330
4EA
100
AcDbEntity
  8
Layer 1
 62
    28
420
  1118219
370
    35
100
AcDbSpline
210
0.0
220
0.0
230
1.0
 70
     8
 71
     3
 72
     8
 73
     4
 74
     0
 42
0.0000000001
 43
0.0000000001
 40
0.0
 40
0.0
 40
0.0
 40
0.0
 40
1.0
 40
1.0
 40
1.0
 40
1.0
 10
24.18076347594265
 20
12.56541734169371
 30
0.0
 10
24.20071057880225
 20
12.5417839866649
 30
0.0
 10
24.17411444165612
 20
12.57328938487751
 30
0.0
 10
24.19406154451572
 20
12.5496560298487
 30
0.0
  0
SPLINE
  5
69D
330
4EA
100
AcDbEntity
  8
Layer 1
 62
    28
420
  1118219
370
    35
100
AcDbSpline
210
0.0
220
0.0
230
1.0
 70
     8
 71
     3
 72
    14
 73
    10
 74
     0
 42
0.0000000001
 43
0.0000000001
 40
0.0
 40
0.0
 40
0.0
 40
0.0
 40
1.0
 40
1.0
 40
1.0
 40
2.0
 40
2.0
 40
2.0
 40
3.0
 40
3.0
 40
3.0
 40
3.0
 10
24.07169175287964
 20
12.31278848976034
 30
0.0
 10
24.02287474985366
 20
12.31606133047133
 30
0.0
 10
24.08788370166032
 20
12.31070420699177
 30
0.0
 10
24.03913560054403
 20
12.31547566423884
 30
0.0
 10
23.96527275334028
 20
12.33723144222819
 30
0.0
 10
24.06190768170153
 20
12.30302164405966
 30
0.0
 10
23.99093871470539
 20
12.3325805633231
 30
0.0
 10
23.95342162487102
 20
12.35931450428864
 30
0.0
 10
24.00278984317465
 20
12.32269313928044
 30
0.0
 10
23.966271831031
 20
12.35092569678206
 30
0.0
  0
SPLINE
  5
69E
330
4EA
100
AcDbEntity
  8
Layer 1
 62
    28
420
  1118219
370
    35
100
AcDbSpline
210
0.0
220
0.0
230
1.0
 70
     8
 71
     3
 72
    14
 73
    10
 74
     0
 42
0.0000000001
 43
0.0000000001
 40
0.0
 40
0.0
 40
0.0
 40
0.0
 40
1.0
 40
1.0
 40
1.0
 40
2.0
 40
2.0
 40
2.0
 40
3.0
 40
3.0
 40
3.0
 40
3.0
 10
24.1758025384439
 20
12.3514769120597
 30
0.0
 10
24.14796616692308
 20
12.32922159522499
 30
0.0
 10
24.18548325675745
 20
12.35838432850763
 30
0.0
 10
24.15706121900413
 20
12.33686970720224
 30
0.0
 10
24.08822821120884
 20
12.30321112431135
 30
0.0
 10
24.18221041604646
 20
12.34305365359826
 30
0.0
 10
24.11007011658533
 20
12.31697428077492
 30
0.0
 10
24.05260592389136
 20
12.30953287452678
 30
0.0
 10
24.12946600416728
 20
12.31788723107851
 30
0.0
 10
24.07169175287964
 20
12.31277126428292
 30
0.0
  0
SPLINE
  5
69F
330
4EA
100
AcDbEntity
  8
Layer 1
 62
    28
420
  1118219
370
    35
100
AcDbSpline
210
0.0
220
0.0
230
1.0
 70
     8
 71
     3
 72
    14
 73
    10
 74
     0
 42
0.0000000001
 43
0.0000000001
 40
0.0
 40
0.0
 40
0.0
 40
0.0
 40
1.0
 40
1.0
 40
1.0
 40
2.0
 40
2.0
 40
2.0
 40
3.0
 40
3.0
 40
3.0
 40
3.0
 10
23.92003864961895
 20
12.46227118286533
 30
0.0
 10
23.9303739360747
 20
12.53956190007691
 30
0.0
 10
23.91328626246786
 20
12.43736314250698
 30
0.0
 10
23.92854803546751
 20
12.51337917438902
 30
0.0
 10
23.96499714570146
 20
12.58278062293937
 30
0.0
 10
23.91128810708641
 20
12.49317368936802
 30
0.0
 10
23.95545423120732
 20
12.55818264117469
 30
0.0
 10
23.96534165524998
 20
12.56877630979183
 30
0.0
 10
23.95204358667692
 20
12.55473754568944
 30
0.0
 10
23.96203436358414
 20
12.5652106359646
 30
0.0
  0
SPLINE
  5
6A0
330
4EA
100
AcDbEntity
  8
Layer 1
 62
    28
420
  1118219
370
    35
100
AcDbSpline
210
0.0
220
0.0
230
1.0
 70
     8
 71
     3
 72
    14
 73
    10
 74
     0
 42
0.0000000001
 43
0.0000000001
 40
0.0
 40
0.0
 40
0.0
 40
0.0
 40
1.0
 40
1.0
 40
1.0
 40
2.0
 40
2.0
 40
2.0
 40
3.0
 40
3.0
 40
3.0
 40
3.0
 10
23.95566093693643
 20
12.36198445328971
 30
0.0
 10
23.93137301376542
 20
12.39500569351583
 30
0.0
 10
23.96310234318457
 20
12.35047783436898
 30
0.0
 10
23.93988239961399
 20
12.38423977012443
 30
0.0
 10
23.91139145995097
 20
12.45000664293785
 30
0.0
 10
23.94480888615789
 20
12.36057196414076
 30
0.0
 10
23.92317368651052
 20
12.42893988404554
 30
0.0
 10
23.91762708277927
 20
12.47885931762681
 30
0.0
 10
23.92389715656243
 20
12.41214504355495
 30
0.0
 10
23.9200041986641
 20
12.46228840834276
 30
0.0
  0
SPLINE
  5
6A1
330
4EA
100
AcDbEntity
  8
Layer 1
 62
    28
420
  1118219
370
    35
100
AcDbSpline
210
0.0
220
0.0
230
1.0
 70
     8
 71
     3
 72
     8
 73
     4
 74
     0
 42
0.0000000001
 43
0.0000000001
 40
0.0
 40
0.0
 40
0.0
 40
0.0
 40
1.0
 40
1.0
 40
1.0
 40
1.0
 10
23.966271831031
 20
12.35090847130463
 30
0.0
 10
23.95042439179885
 20
12.36753105702096
 30
0.0
 10
23.97154282712343
 20
12.34536186757338
 30
0.0
 10
23.95562648598158
 20
12.36198445328971
 30
0.0
  0
SPLINE
  5
6A2
330
4EA
100
AcDbEntity
  8
Layer 1
 62
    28
420
  1118219
370
    35
100
AcDbSpline
210
0.0
220
0.0
230
1.0
 70
     8
 71
     3
 72
    14
 73
    10
 74
     0
 42
0.0000000001
 43
0.0000000001
 40
0.0
 40
0.0
 40
0.0
 40
0.0
 40
1.0
 40
1.0
 40
1.0
 40
2.0
 40
2.0
 40
2.0
 40
3.0
 40
3.0
 40
3.0
 40
3.0
 10
24.07134724333112
 20
12.60846380978191
 30
0.0
 10
24.15533867126151
 20
12.59745672970654
 30
0.0
 10
24.0441654399525
 20
12.61566405934608
 30
0.0
 10
24.1268477315985
 20
12.59936875770085
 30
0.0
 10
24.19154662481149
 20
12.56786335948824
 30
0.0
 10
24.1076930007005
 20
12.61425157019713
 30
0.0
 10
24.16884344556369
 20
12.57618326508512
 30
0.0
 10
24.18686129495155
 20
12.56016357107871
 30
0.0
 10
24.16298678323876
 20
12.58172986881637
 30
0.0
 10
24.18076347594265
 20
12.56543456717114
 30
0.0
  0
SPLINE
  5
6A3
330
4EA
100
AcDbEntity
  8
Layer 1
 62
    28
420
  1118219
370
    35
100
AcDbSpline
210
0.0
220
0.0
230
1.0
 70
     8
 71
     3
 72
    14
 73
    10
 74
     0
 42
0.0000000001
 43
0.0000000001
 40
0.0
 40
0.0
 40
0.0
 40
0.0
 40
1.0
 40
1.0
 40
1.0
 40
2.0
 40
2.0
 40
2.0
 40
3.0
 40
3.0
 40
3.0
 40
3.0
 10
23.96206881453899
 20
12.5652106359646
 30
0.0
 10
24.00506360619491
 20
12.60028170800444
 30
0.0
 10
23.94680704153934
 20
12.554840898554
 30
0.0
 10
23.99117987138936
 20
12.58793104068982
 30
0.0
 10
24.06015068300406
 20
12.61795504784377
 30
0.0
 10
23.96630628198585
 20
12.58288397580393
 30
0.0
 10
24.03810207189846
 20
12.60546657670974
 30
0.0
 10
24.08784925070547
 20
12.61078924923445
 30
0.0
 10
24.0214622607047
 20
12.60476033213527
 30
0.0
 10
24.07134724333112
 20
12.60846380978191
 30
0.0
  0
SPLINE
  5
6A4
330
4EA
100
AcDbEntity
  8
Layer 1
 62
    28
420
  1118219
370
    35
100
AcDbSpline
210
0.0
220
0.0
230
1.0
 70
     8
 71
     3
 72
    14
 73
    10
 74
     0
 42
0.0000000001
 43
0.0000000001
 40
0.0
 40
0.0
 40
0.0
 40
0.0
 40
1.0
 40
1.0
 40
1.0
 40
2.0
 40
2.0
 40
2.0
 40
3.0
 40
3.0
 40
3.0
 40
3.0
 10
23.94525674857098
 20
12.46035915487102
 30
0.0
 10
23.95362833060013
 20
12.3976756425169
 30
0.0
 10
23.93974459579458
 20
12.48053018893716
 30
0.0
 10
23.95218139049633
 20
12.41891465618346
 30
0.0
 10
23.98187811357918
 20
12.36270792334161
 30
0.0
 10
23.93802204805195
 20
12.43517550687384
 30
0.0
 10
23.97416109969222
 20
12.38267225167864
 30
0.0
 10
23.99214449812522
 20
12.36486110801989
 30
0.0
 10
23.96792547686392
 20
12.38832220827445
 30
0.0
 10
23.9862878358003
 20
12.37095892702879
 30
0.0
  0
SPLINE
  5
6A5
330
4EA
100
AcDbEntity
  8
Layer 1
 62
    28
420
  1118219
370
    35
100
AcDbSpline
210
0.0
220
0.0
230
1.0
 70
     8
 71
     3
 72
    14
 73
    10
 74
     0
 42
0.0000000001
 43
0.0000000001
 40
0.0
 40
0.0
 40
0.0
 40
0.0
 40
1.0
 40
1.0
 40
1.0
 40
2.0
 40
2.0
 40
2.0
 40
3.0
 40
3.0
 40
3.0
 40
3.0
 10
23.98146470212095
 20
12.54579752290522
 30
0.0
 10
23.94570461098406
 20
12.50223429049423
 30
0.0
 10
23.99152438093788
 20
12.56152438379538
 30
0.0
 10
23.95862371905374
 20
12.51613525077722
 30
0.0
 10
23.93788424423254
 20
12.46254679050415
 30
0.0
 10
23.96168985403562
 20
12.53535888358491
 30
0.0
 10
23.94670368867478
 20
12.47972059149812
 30
0.0
 10
23.94418876897055
 20
12.45069566203489
 30
0.0
 10
23.94701374726845
 20
12.4894185352891
 30
0.0
 10
23.94525674857098
 20
12.46035915487102
 30
0.0
  0
SPLINE
  5
6A6
330
4EA
100
AcDbEntity
  8
Layer 1
 62
    28
420
  1118219
370
    35
100
AcDbSpline
210
0.0
220
0.0
230
1.0
 70
     8
 71
     3
 72
    14
 73
    10
 74
     0
 42
0.0000000001
 43
0.0000000001
 40
0.0
 40
0.0
 40
0.0
 40
0.0
 40
1.0
 40
1.0
 40
1.0
 40
2.0
 40
2.0
 40
2.0
 40
3.0
 40
3.0
 40
3.0
 40
3.0
 10
24.16050631448939
 20
12.54516018024045
 30
0.0
 10
24.12919039652846
 20
12.56996486773424
 30
0.0
 10
24.17153062004218
 20
12.53768432303745
 30
0.0
 10
24.1393189772551
 20
12.56131767806627
 30
0.0
 10
24.07968437440542
 20
12.58784491330269
 30
0.0
 10
24.16091972594761
 20
12.55680460298059
 30
0.0
 10
24.098701301484
 20
12.57683783322732
 30
0.0
 10
24.05536200027956
 20
12.5817470942938
 30
0.0
 10
24.11327405538661
 20
12.57620049056255
 30
0.0
 10
24.0697624994079
 20
12.57962836057037
 30
0.0
  0
SPLINE
  5
6A7
330
4EA
100
AcDbEntity
  8
Layer 1
 62
    28
420
  1118219
370
    35
100
AcDbSpline
210
0.0
220
0.0
230
1.0
 70
     8
 71
     3
 72
    14
 73
    10
 74
     0
 42
0.0000000001
 43
0.0000000001
 40
0.0
 40
0.0
 40
0.0
 40
0.0
 40
1.0
 40
1.0
 40
1.0
 40
2.0
 40
2.0
 40
2.0
 40
3.0
 40
3.0
 40
3.0
 40
3.0
 10
24.0697624994079
 20
12.57962836057037
 30
0.0
 10
24.00192856930333
 20
12.57027492632792
 30
0.0
 10
24.09163885573924
 20
12.58548502289529
 30
0.0
 10
24.02490735618995
 20
12.57204915050282
 30
0.0
 10
23.96368800941706
 20
12.54111219304528
 30
0.0
 10
24.0428563036681
 20
12.58665635536028
 30
0.0
 10
23.98532320906443
 20
12.54925984386789
 30
0.0
 10
23.97953544864921
 20
12.5441438770723
 30
0.0
 10
23.98725246253617
 20
12.55094794065566
 30
0.0
 10
23.98146470212095
 20
12.54579752290522
 30
0.0
  0
SPLINE
  5
6A8
330
4EA
100
AcDbEntity
  8
Layer 1
 62
    28
420
  1118219
370
    35
100
AcDbSpline
210
0.0
220
0.0
230
1.0
 70
     8
 71
     3
 72
    14
 73
    10
 74
     0
 42
0.0000000001
 43
0.0000000001
 40
0.0
 40
0.0
 40
0.0
 40
0.0
 40
1.0
 40
1.0
 40
1.0
 40
2.0
 40
2.0
 40
2.0
 40
3.0
 40
3.0
 40
3.0
 40
3.0
 10
24.07155394906023
 20
12.34165838992674
 30
0.0
 10
24.11461764262586
 20
12.34518961279912
 30
0.0
 10
24.0572912537513
 20
12.3394018523839
 30
0.0
 10
24.10014824158781
 20
12.34455227013435
 30
0.0
 10
24.15916272725014
 20
12.36448214751652
 30
0.0
 10
24.0820959412451
 20
12.3338896996075
 30
0.0
 10
24.13869886006776
 20
12.35986571956628
 30
0.0
 10
24.16391695901978
 20
12.37764241227017
 30
0.0
 10
24.13067178758712
 20
12.35347506744114
 30
0.0
 10
24.15533867126151
 20
12.3718891028098
 30
0.0
  0
SPLINE
  5
6A9
330
4EA
100
AcDbEntity
  8
Layer 1
 62
    28
420
  1118219
370
    35
100
AcDbSpline
210
0.0
220
0.0
230
1.0
 70
     8
 71
     3
 72
    14
 73
    10
 74
     0
 42
0.0000000001
 43
0.0000000001
 40
0.0
 40
0.0
 40
0.0
 40
0.0
 40
1.0
 40
1.0
 40
1.0
 40
2.0
 40
2.0
 40
2.0
 40
3.0
 40
3.0
 40
3.0
 40
3.0
 10
23.98632228675515
 20
12.37095892702879
 30
0.0
 10
24.00806083926708
 20
12.35469807633841
 30
0.0
 10
23.97877752764246
 20
12.37604044286953
 30
0.0
 10
24.00089504065776
 20
12.36027913102451
 30
0.0
 10
24.05694674420278
 20
12.33447536583999
 30
0.0
 10
23.98067233015934
 20
12.36496446088445
 30
0.0
 10
24.03899779672462
 20
12.34503458350228
 30
0.0
 10
24.08757364306665
 20
12.33900566640309
 30
0.0
 10
24.02266804412454
 20
12.34574082807676
 30
0.0
 10
24.07155394906023
 20
12.34164116444931
 30
0.0
  0
SPLINE
  5
6AA
330
4EA
100
AcDbEntity
  8
Layer 1
 62
    28
420
  1118219
370
    35
100
AcDbSpline
210
0.0
220
0.0
230
1.0
 70
     8
 71
     3
 72
    11
 73
     7
 74
     0
 42
0.0000000001
 43
0.0000000001
 40
0.0
 40
0.0
 40
0.0
 40
0.0
 40
1.0
 40
1.0
 40
1.0
 40
2.0
 40
2.0
 40
2.0
 40
2.0
 10
24.34850517511947
 20
10.84576347927641
 30
0.0
 10
24.25462632314641
 20
10.82903754069552
 30
0.0
 10
24.1579569438303
 20
10.82028699816298
 30
0.0
 10
24.05925495817789
 20
10.82028699816298
 30
0.0
 10
23.94408541610599
 20
10.82028699816298
 30
0.0
 10
23.83174085233199
 20
10.83218980306452
 30
0.0
 10
23.72328924645633
 20
10.85475517849291
 30
0.0
  0
SPLINE
  5
6AB
330
4EA
100
AcDbEntity
  8
Layer 1
 62
    28
420
  1118219
370
    35
100
AcDbSpline
210
0.0
220
0.0
230
1.0
 70
     8
 71
     3
 72
     8
 73
     4
 74
     0
 42
0.0000000001
 43
0.0000000001
 40
0.0
 40
0.0
 40
0.0
 40
0.0
 40
1.0
 40
1.0
 40
1.0
 40
1.0
 10
25.68995645516605
 20
12.29759561867039
 30
0.0
 10
25.63135538096195
 20
11.69833848448861
 30
0.0
 10
25.2500522126545
 20
11.19375257424149
 30
0.0
 10
24.72205687858511
 20
10.95993394365759
 30
0.0
  0
SPLINE
  5
6AC
330
4EA
100
AcDbEntity
  8
Layer 1
 62
    28
420
  1118219
370
    35
100
AcDbSpline
210
0.0
220
0.0
230
1.0
 70
     8
 71
     3
 72
    14
 73
    10
 74
     0
 42
0.0000000001
 43
0.0000000001
 40
0.0
 40
0.0
 40
0.0
 40
0.0
 40
1.0
 40
1.0
 40
1.0
 40
2.0
 40
2.0
 40
2.0
 40
3.0
 40
3.0
 40
3.0
 40
3.0
 10
23.41099134071843
 20
10.95352606605502
 30
0.0
 10
22.82849459607239
 20
11.20474242883944
 30
0.0
 10
22.42076754539307
 20
11.78413858754876
 30
0.0
 10
22.42076754539307
 20
12.45879163642523
 30
0.0
 10
22.42076754539307
 20
13.36373209301323
 30
0.0
 10
23.15433172706732
 20
14.09731350016491
 30
0.0
 10
24.05925495817789
 20
14.09731350016491
 30
0.0
 10
24.90709295709788
 20
14.09731350016491
 30
0.0
 10
25.60462143999641
 20
13.45327012467488
 30
0.0
 10
25.68909518129474
 20
12.62773911902188
 30
0.0
  0
POLYLINE
  5
6AD
330
4EA
100
AcDbEntity
  8
Layer 1
 62
   250
420
  1842203
370
    18
100
AcDb2dPolyline
 66
     1
 10
0.0
 20
0.0
 30
0.0
  0
VERTEX
  5
6AE
330
6AD
100
AcDbEntity
  8
Layer 1
 62
   250
420
  1842203
370
    18
100
AcDbVertex
100
AcDb2dVertex
 10
18.47106892441869
 20
12.64866807409478
 30
0.0
  0
VERTEX
  5
6AF
330
6AD
100
AcDbEntity
  8
Layer 1
 62
   250
420
  1842203
370
    18
100
AcDbVertex
100
AcDb2dVertex
 10
18.47106892441869
 20
13.98770778730168
 30
0.0
  0
SEQEND
  5
6B0
330
6AD
100
AcDbEntity
  8
Layer 1
370
    18
  0
POLYLINE
  5
6B1
330
4EA
100
AcDbEntity
  8
Layer 1
 62
   250
420
  1842203
370
    18
100
AcDb2dPolyline
 66
     1
 10
0.0
 20
0.0
 30
0.0
  0
VERTEX
  5
6B2
330
6B1
100
AcDbEntity
  8
Layer 1
 62
   250
420
  1842203
370
    18
100
AcDbVertex
100
AcDb2dVertex
 10
18.66096258756566
 20
12.45880886190266
 30
0.0
  0
VERTEX
  5
6B3
330
6B1
100
AcDbEntity
  8
Layer 1
 62
   250
420
  1842203
370
    18
100
AcDbVertex
100
AcDb2dVertex
 10
19.95645629383901
 20
12.45880886190266
 30
0.0
  0
SEQEND
  5
6B4
330
6B1
100
AcDbEntity
  8
Layer 1
370
    18
  0
POLYLINE
  5
6B5
330
4EA
100
AcDbEntity
  8
Layer 1
 62
   250
420
  1842203
370
    18
100
AcDb2dPolyline
 66
     1
 10
0.0
 20
0.0
 30
0.0
  0
VERTEX
  5
6B6
330
6B5
100
AcDbEntity
  8
Layer 1
 62
   250
420
  1842203
370
    18
100
AcDbVertex
100
AcDb2dVertex
 10
18.47106892441869
 20
12.26898410066539
 30
0.0
  0
VERTEX
  5
6B7
330
6B5
100
AcDbEntity
  8
Layer 1
 62
   250
420
  1842203
370
    18
100
AcDbVertex
100
AcDb2dVertex
 10
18.47106892441869
 20
11.00158514807426
 30
0.0
  0
SEQEND
  5
6B8
330
6B5
100
AcDbEntity
  8
Layer 1
370
    18
  0
POLYLINE
  5
6B9
330
4EA
100
AcDbEntity
  8
Layer 1
 62
   250
420
  1842203
370
    18
100
AcDb2dPolyline
 66
     1
 10
0.0
 20
0.0
 30
0.0
  0
VERTEX
  5
6BA
330
6B9
100
AcDbEntity
  8
Layer 1
 62
   250
420
  1842203
370
    18
100
AcDbVertex
100
AcDb2dVertex
 10
17.29484442384469
 20
12.46099649753579
 30
0.0
  0
VERTEX
  5
6BB
330
6B9
100
AcDbEntity
  8
Layer 1
 62
   250
420
  1842203
370
    18
100
AcDbVertex
100
AcDb2dVertex
 10
15.99824828701606
 20
12.4611343013552
 30
0.0
  0
SEQEND
  5
6BC
330
6B9
100
AcDbEntity
  8
Layer 1
370
    18
  0
POLYLINE
  5
6BD
330
4EA
100
AcDbEntity
  8
Layer 1
370
     0
100
AcDb2dPolyline
 66
     1
 10
0.0
 20
0.0
 30
0.0
  0
VERTEX
  5
6BE
330
6BD
100
AcDbEntity
  8
Layer 1
370
     0
100
AcDbVertex
100
AcDb2dVertex
 10
17.53813706701303
 20
12.33209824995517
 30
0.0
  0
VERTEX
  5
6BF
330
6BD
100
AcDbEntity
  8
Layer 1
370
     0
100
AcDbVertex
100
AcDb2dVertex
 10
17.94017971014169
 20
12.3508223439175
 30
0.0
  0
SEQEND
  5
6C0
330
6BD
100
AcDbEntity
  8
Layer 1
370
     0
  0
POLYLINE
  5
6C1
330
4EA
100
AcDbEntity
  8
Layer 1
 62
    28
420
  1118219
370
    35
100
AcDb2dPolyline
 66
     1
 10
0.0
 20
0.0
 30
0.0
  0
VERTEX
  5
6C2
330
6C1
100
AcDbEntity
  8
Layer 1
 62
    28
420
  1118219
370
    35
100
AcDbVertex
100
AcDb2dVertex
 10
17.53813706701303
 20
12.33209824995517
 30
0.0
  0
VERTEX
  5
6C3
330
6C1
100
AcDbEntity
  8
Layer 1
 62
    28
420
  1118219
370
    35
100
AcDbVertex
100
AcDb2dVertex
 10
17.94017971014169
 20
12.3508223439175
 30
0.0
  0
SEQEND
  5
6C4
330
6C1
100
AcDbEntity
  8
Layer 1
370
    35
  0
POLYLINE
  5
6C5
330
4EA
100
AcDbEntity
  8
Layer 1
370
     0
100
AcDb2dPolyline
 66
     1
 10
0.0
 20
0.0
 30
0.0
  0
VERTEX
  5
6C6
330
6C5
100
AcDbEntity
  8
Layer 1
370
     0
100
AcDbVertex
100
AcDb2dVertex
 10
16.78393676338214
 20
12.29697550148305
 30
0.0
  0
VERTEX
  5
6C7
330
6C5
100
AcDbEntity
  8
Layer 1
370
     0
100
AcDbVertex
100
AcDb2dVertex
 10
17.53817151796789
 20
12.33211547543259
 30
0.0
  0
SEQEND
  5
6C8
330
6C5
100
AcDbEntity
  8
Layer 1
370
     0
  0
POLYLINE
  5
6C9
330
4EA
100
AcDbEntity
  8
Layer 1
 62
    28
420
  1118219
370
    35
100
AcDb2dPolyline
 66
     1
 10
0.0
 20
0.0
 30
0.0
  0
VERTEX
  5
6CA
330
6C9
100
AcDbEntity
  8
Layer 1
 62
    28
420
  1118219
370
    35
100
AcDbVertex
100
AcDb2dVertex
 10
16.78393676338214
 20
12.29697550148305
 30
0.0
  0
VERTEX
  5
6CB
330
6C9
100
AcDbEntity
  8
Layer 1
 62
    28
420
  1118219
370
    35
100
AcDbVertex
100
AcDb2dVertex
 10
17.53817151796789
 20
12.33211547543259
 30
0.0
  0
SEQEND
  5
6CC
330
6C9
100
AcDbEntity
  8
Layer 1
370
    35
  0
POLYLINE
  5
6CD
330
4EA
100
AcDbEntity
  8
Layer 1
370
     0
100
AcDb2dPolyline
 66
     1
 10
0.0
 20
0.0
 30
0.0
  0
VERTEX
  5
6CE
330
6CD
100
AcDbEntity
  8
Layer 1
370
     0
100
AcDbVertex
100
AcDb2dVertex
 10
16.69222832156479
 20
12.29270358308134
 30
0.0
  0
VERTEX
  5
6CF
330
6CD
100
AcDbEntity
  8
Layer 1
370
     0
100
AcDbVertex
100
AcDb2dVertex
 10
16.78397121433699
 20
12.29697550148305
 30
0.0
  0
SEQEND
  5
6D0
330
6CD
100
AcDbEntity
  8
Layer 1
370
     0
  0
POLYLINE
  5
6D1
330
4EA
100
AcDbEntity
  8
Layer 1
 62
    28
420
  1118219
370
    35
100
AcDb2dPolyline
 66
     1
 10
0.0
 20
0.0
 30
0.0
  0
VERTEX
  5
6D2
330
6D1
100
AcDbEntity
  8
Layer 1
 62
    28
420
  1118219
370
    35
100
AcDbVertex
100
AcDb2dVertex
 10
16.69222832156479
 20
12.29270358308134
 30
0.0
  0
VERTEX
  5
6D3
330
6D1
100
AcDbEntity
  8
Layer 1
 62
    28
420
  1118219
370
    35
100
AcDbVertex
100
AcDb2dVertex
 10
16.78397121433699
 20
12.29697550148305
 30
0.0
  0
SEQEND
  5
6D4
330
6D1
100
AcDbEntity
  8
Layer 1
370
    35
  0
POLYLINE
  5
6D5
330
4EA
100
AcDbEntity
  8
Layer 1
370
     0
100
AcDb2dPolyline
 66
     1
 10
0.0
 20
0.0
 30
0.0
  0
VERTEX
  5
6D6
330
6D5
100
AcDbEntity
  8
Layer 1
370
     0
100
AcDbVertex
100
AcDb2dVertex
 10
16.30444837374507
 20
12.27465128273863
 30
0.0
  0
VERTEX
  5
6D7
330
6D5
100
AcDbEntity
  8
Layer 1
370
     0
100
AcDbVertex
100
AcDb2dVertex
 10
16.69222832156479
 20
12.29272080855876
 30
0.0
  0
SEQEND
  5
6D8
330
6D5
100
AcDbEntity
  8
Layer 1
370
     0
  0
POLYLINE
  5
6D9
330
4EA
100
AcDbEntity
  8
Layer 1
 62
    28
420
  1118219
370
    35
100
AcDb2dPolyline
 66
     1
 10
0.0
 20
0.0
 30
0.0
  0
VERTEX
  5
6DA
330
6D9
100
AcDbEntity
  8
Layer 1
 62
    28
420
  1118219
370
    35
100
AcDbVertex
100
AcDb2dVertex
 10
16.30444837374507
 20
12.27465128273863
 30
0.0
  0
VERTEX
  5
6DB
330
6D9
100
AcDbEntity
  8
Layer 1
 62
    28
420
  1118219
370
    35
100
AcDbVertex
100
AcDb2dVertex
 10
16.69222832156479
 20
12.29272080855876
 30
0.0
  0
SEQEND
  5
6DC
330
6D9
100
AcDbEntity
  8
Layer 1
370
    35
  0
POLYLINE
  5
6DD
330
4EA
100
AcDbEntity
  8
Layer 1
370
     0
100
AcDb2dPolyline
 66
     1
 10
0.0
 20
0.0
 30
0.0
  0
VERTEX
  5
6DE
330
6DD
100
AcDbEntity
  8
Layer 1
370
     0
100
AcDbVertex
100
AcDb2dVertex
 10
16.74156208891357
 20
12.64198458885339
 30
0.0
  0
VERTEX
  5
6DF
330
6DD
100
AcDbEntity
  8
Layer 1
370
     0
100
AcDbVertex
100
AcDb2dVertex
 10
16.30441392279021
 20
12.66220729935181
 30
0.0
  0
SEQEND
  5
6E0
330
6DD
100
AcDbEntity
  8
Layer 1
370
     0
  0
POLYLINE
  5
6E1
330
4EA
100
AcDbEntity
  8
Layer 1
 62
    28
420
  1118219
370
    35
100
AcDb2dPolyline
 66
     1
 10
0.0
 20
0.0
 30
0.0
  0
VERTEX
  5
6E2
330
6E1
100
AcDbEntity
  8
Layer 1
 62
    28
420
  1118219
370
    35
100
AcDbVertex
100
AcDb2dVertex
 10
16.74156208891357
 20
12.64198458885339
 30
0.0
  0
VERTEX
  5
6E3
330
6E1
100
AcDbEntity
  8
Layer 1
 62
    28
420
  1118219
370
    35
100
AcDbVertex
100
AcDb2dVertex
 10
16.30441392279021
 20
12.66220729935181
 30
0.0
  0
SEQEND
  5
6E4
330
6E1
100
AcDbEntity
  8
Layer 1
370
    35
  0
POLYLINE
  5
6E5
330
4EA
100
AcDbEntity
  8
Layer 1
370
     0
100
AcDb2dPolyline
 66
     1
 10
0.0
 20
0.0
 30
0.0
  0
VERTEX
  5
6E6
330
6E5
100
AcDbEntity
  8
Layer 1
370
     0
100
AcDbVertex
100
AcDb2dVertex
 10
16.77880357110912
 20
12.64026204111077
 30
0.0
  0
VERTEX
  5
6E7
330
6E5
100
AcDbEntity
  8
Layer 1
370
     0
100
AcDbVertex
100
AcDb2dVertex
 10
16.74152763795871
 20
12.64198458885339
 30
0.0
  0
SEQEND
  5
6E8
330
6E5
100
AcDbEntity
  8
Layer 1
370
     0
  0
POLYLINE
  5
6E9
330
4EA
100
AcDbEntity
  8
Layer 1
 62
    28
420
  1118219
370
    35
100
AcDb2dPolyline
 66
     1
 10
0.0
 20
0.0
 30
0.0
  0
VERTEX
  5
6EA
330
6E9
100
AcDbEntity
  8
Layer 1
 62
    28
420
  1118219
370
    35
100
AcDbVertex
100
AcDb2dVertex
 10
16.77880357110912
 20
12.64026204111077
 30
0.0
  0
VERTEX
  5
6EB
330
6E9
100
AcDbEntity
  8
Layer 1
 62
    28
420
  1118219
370
    35
100
AcDbVertex
100
AcDb2dVertex
 10
16.74152763795871
 20
12.64198458885339
 30
0.0
  0
SEQEND
  5
6EC
330
6E9
100
AcDbEntity
  8
Layer 1
370
    35
  0
POLYLINE
  5
6ED
330
4EA
100
AcDbEntity
  8
Layer 1
370
     0
100
AcDb2dPolyline
 66
     1
 10
0.0
 20
0.0
 30
0.0
  0
VERTEX
  5
6EE
330
6ED
100
AcDbEntity
  8
Layer 1
370
     0
100
AcDbVertex
100
AcDb2dVertex
 10
16.89555785710423
 20
12.63487046667635
 30
0.0
  0
VERTEX
  5
6EF
330
6ED
100
AcDbEntity
  8
Layer 1
370
     0
100
AcDbVertex
100
AcDb2dVertex
 10
16.77880357110912
 20
12.64026204111077
 30
0.0
  0
SEQEND
  5
6F0
330
6ED
100
AcDbEntity
  8
Layer 1
370
     0
  0
POLYLINE
  5
6F1
330
4EA
100
AcDbEntity
  8
Layer 1
 62
    28
420
  1118219
370
    35
100
AcDb2dPolyline
 66
     1
 10
0.0
 20
0.0
 30
0.0
  0
VERTEX
  5
6F2
330
6F1
100
AcDbEntity
  8
Layer 1
 62
    28
420
  1118219
370
    35
100
AcDbVertex
100
AcDb2dVertex
 10
16.89555785710423
 20
12.63487046667635
 30
0.0
  0
VERTEX
  5
6F3
330
6F1
100
AcDbEntity
  8
Layer 1
 62
    28
420
  1118219
370
    35
100
AcDbVertex
100
AcDb2dVertex
 10
16.77880357110912
 20
12.64026204111077
 30
0.0
  0
SEQEND
  5
6F4
330
6F1
100
AcDbEntity
  8
Layer 1
370
    35
  0
POLYLINE
  5
6F5
330
4EA
100
AcDbEntity
  8
Layer 1
370
     0
100
AcDb2dPolyline
 66
     1
 10
0.0
 20
0.0
 30
0.0
  0
VERTEX
  5
6F6
330
6F5
100
AcDbEntity
  8
Layer 1
370
     0
100
AcDbVertex
100
AcDb2dVertex
 10
17.48814873152206
 20
12.60748195756861
 30
0.0
  0
VERTEX
  5
6F7
330
6F5
100
AcDbEntity
  8
Layer 1
370
     0
100
AcDbVertex
100
AcDb2dVertex
 10
16.89555785710423
 20
12.63485324119893
 30
0.0
  0
SEQEND
  5
6F8
330
6F5
100
AcDbEntity
  8
Layer 1
370
     0
  0
POLYLINE
  5
6F9
330
4EA
100
AcDbEntity
  8
Layer 1
 62
    28
420
  1118219
370
    35
100
AcDb2dPolyline
 66
     1
 10
0.0
 20
0.0
 30
0.0
  0
VERTEX
  5
6FA
330
6F9
100
AcDbEntity
  8
Layer 1
 62
    28
420
  1118219
370
    35
100
AcDbVertex
100
AcDb2dVertex
 10
17.48814873152206
 20
12.60748195756861
 30
0.0
  0
VERTEX
  5
6FB
330
6F9
100
AcDbEntity
  8
Layer 1
 62
    28
420
  1118219
370
    35
100
AcDbVertex
100
AcDb2dVertex
 10
16.89555785710423
 20
12.63485324119893
 30
0.0
  0
SEQEND
  5
6FC
330
6F9
100
AcDbEntity
  8
Layer 1
370
    35
  0
POLYLINE
  5
6FD
330
4EA
100
AcDbEntity
  8
Layer 1
370
     0
100
AcDb2dPolyline
 66
     1
 10
0.0
 20
0.0
 30
0.0
  0
VERTEX
  5
6FE
330
6FD
100
AcDbEntity
  8
Layer 1
370
     0
100
AcDbVertex
100
AcDb2dVertex
 10
17.94545070623412
 20
12.58634629676661
 30
0.0
  0
VERTEX
  5
6FF
330
6FD
100
AcDbEntity
  8
Layer 1
370
     0
100
AcDbVertex
100
AcDb2dVertex
 10
17.48814873152206
 20
12.60748195756861
 30
0.0
  0
SEQEND
  5
700
330
6FD
100
AcDbEntity
  8
Layer 1
370
     0
  0
POLYLINE
  5
701
330
4EA
100
AcDbEntity
  8
Layer 1
 62
    28
420
  1118219
370
    35
100
AcDb2dPolyline
 66
     1
 10
0.0
 20
0.0
 30
0.0
  0
VERTEX
  5
702
330
701
100
AcDbEntity
  8
Layer 1
 62
    28
420
  1118219
370
    35
100
AcDbVertex
100
AcDb2dVertex
 10
17.94545070623412
 20
12.58634629676661
 30
0.0
  0
VERTEX
  5
703
330
701
100
AcDbEntity
  8
Layer 1
 62
    28
420
  1118219
370
    35
100
AcDbVertex
100
AcDb2dVertex
 10
17.48814873152206
 20
12.60748195756861
 30
0.0
  0
SEQEND
  5
704
330
701
100
AcDbEntity
  8
Layer 1
370
    35
  0
POLYLINE
  5
705
330
4EA
100
AcDbEntity
  8
Layer 1
370
     0
100
AcDb2dPolyline
 66
     1
 10
0.0
 20
0.0
 30
0.0
  0
VERTEX
  5
706
330
705
100
AcDbEntity
  8
Layer 1
370
     0
100
AcDbVertex
100
AcDb2dVertex
 10
16.26166028781826
 20
12.27465128273863
 30
0.0
  0
VERTEX
  5
707
330
705
100
AcDbEntity
  8
Layer 1
370
     0
100
AcDbVertex
100
AcDb2dVertex
 10
16.30444837374507
 20
12.27465128273863
 30
0.0
  0
SEQEND
  5
708
330
705
100
AcDbEntity
  8
Layer 1
370
     0
  0
POLYLINE
  5
709
330
4EA
100
AcDbEntity
  8
Layer 1
 62
    28
420
  1118219
370
    35
100
AcDb2dPolyline
 66
     1
 10
0.0
 20
0.0
 30
0.0
  0
VERTEX
  5
70A
330
709
100
AcDbEntity
  8
Layer 1
 62
    28
420
  1118219
370
    35
100
AcDbVertex
100
AcDb2dVertex
 10
16.26166028781826
 20
12.27465128273863
 30
0.0
  0
VERTEX
  5
70B
330
709
100
AcDbEntity
  8
Layer 1
 62
    28
420
  1118219
370
    35
100
AcDbVertex
100
AcDb2dVertex
 10
16.30444837374507
 20
12.27465128273863
 30
0.0
  0
SEQEND
  5
70C
330
709
100
AcDbEntity
  8
Layer 1
370
    35
  0
POLYLINE
  5
70D
330
4EA
100
AcDbEntity
  8
Layer 1
370
     0
100
AcDb2dPolyline
 66
     1
 10
0.0
 20
0.0
 30
0.0
  0
VERTEX
  5
70E
330
70D
100
AcDbEntity
  8
Layer 1
370
     0
100
AcDbVertex
100
AcDb2dVertex
 10
16.26166028781826
 20
12.66219007387438
 30
0.0
  0
VERTEX
  5
70F
330
70D
100
AcDbEntity
  8
Layer 1
370
     0
100
AcDbVertex
100
AcDb2dVertex
 10
16.30444837374507
 20
12.66219007387438
 30
0.0
  0
SEQEND
  5
710
330
70D
100
AcDbEntity
  8
Layer 1
370
     0
  0
POLYLINE
  5
711
330
4EA
100
AcDbEntity
  8
Layer 1
 62
    28
420
  1118219
370
    35
100
AcDb2dPolyline
 66
     1
 10
0.0
 20
0.0
 30
0.0
  0
VERTEX
  5
712
330
711
100
AcDbEntity
  8
Layer 1
 62
    28
420
  1118219
370
    35
100
AcDbVertex
100
AcDb2dVertex
 10
16.26166028781826
 20
12.66219007387438
 30
0.0
  0
VERTEX
  5
713
330
711
100
AcDbEntity
  8
Layer 1
 62
    28
420
  1118219
370
    35
100
AcDbVertex
100
AcDb2dVertex
 10
16.30444837374507
 20
12.66219007387438
 30
0.0
  0
SEQEND
  5
714
330
711
100
AcDbEntity
  8
Layer 1
370
    35
  0
POLYLINE
  5
715
330
4EA
100
AcDbEntity
  8
Layer 1
370
     0
100
AcDb2dPolyline
 66
     1
 10
0.0
 20
0.0
 30
0.0
  0
VERTEX
  5
716
330
715
100
AcDbEntity
  8
Layer 1
370
     0
100
AcDbVertex
100
AcDb2dVertex
 10
16.26166028781826
 20
12.48993529961189
 30
0.0
  0
VERTEX
  5
717
330
715
100
AcDbEntity
  8
Layer 1
370
     0
100
AcDbVertex
100
AcDb2dVertex
 10
16.26166028781826
 20
12.2746340572612
 30
0.0
  0
SEQEND
  5
718
330
715
100
AcDbEntity
  8
Layer 1
370
     0
  0
POLYLINE
  5
719
330
4EA
100
AcDbEntity
  8
Layer 1
 62
    28
420
  1118219
370
    35
100
AcDb2dPolyline
 66
     1
 10
0.0
 20
0.0
 30
0.0
  0
VERTEX
  5
71A
330
719
100
AcDbEntity
  8
Layer 1
 62
    28
420
  1118219
370
    35
100
AcDbVertex
100
AcDb2dVertex
 10
16.26166028781826
 20
12.48993529961189
 30
0.0
  0
VERTEX
  5
71B
330
719
100
AcDbEntity
  8
Layer 1
 62
    28
420
  1118219
370
    35
100
AcDbVertex
100
AcDb2dVertex
 10
16.26166028781826
 20
12.2746340572612
 30
0.0
  0
SEQEND
  5
71C
330
719
100
AcDbEntity
  8
Layer 1
370
    35
  0
POLYLINE
  5
71D
330
4EA
100
AcDbEntity
  8
Layer 1
370
     0
100
AcDb2dPolyline
 66
     1
 10
0.0
 20
0.0
 30
0.0
  0
VERTEX
  5
71E
330
71D
100
AcDbEntity
  8
Layer 1
370
     0
100
AcDbVertex
100
AcDb2dVertex
 10
16.26166028781826
 20
12.48993529961189
 30
0.0
  0
VERTEX
  5
71F
330
71D
100
AcDbEntity
  8
Layer 1
370
     0
100
AcDbVertex
100
AcDb2dVertex
 10
16.26166028781826
 20
12.66219007387438
 30
0.0
  0
SEQEND
  5
720
330
71D
100
AcDbEntity
  8
Layer 1
370
     0
  0
POLYLINE
  5
721
330
4EA
100
AcDbEntity
  8
Layer 1
 62
    28
420
  1118219
370
    35
100
AcDb2dPolyline
 66
     1
 10
0.0
 20
0.0
 30
0.0
  0
VERTEX
  5
722
330
721
100
AcDbEntity
  8
Layer 1
 62
    28
420
  1118219
370
    35
100
AcDbVertex
100
AcDb2dVertex
 10
16.26166028781826
 20
12.48993529961189
 30
0.0
  0
VERTEX
  5
723
330
721
100
AcDbEntity
  8
Layer 1
 62
    28
420
  1118219
370
    35
100
AcDbVertex
100
AcDb2dVertex
 10
16.26166028781826
 20
12.66219007387438
 30
0.0
  0
SEQEND
  5
724
330
721
100
AcDbEntity
  8
Layer 1
370
    35
  0
SPLINE
  5
725
330
4EA
100
AcDbEntity
  8
Layer 1
 62
   250
420
  1842203
370
    35
100
AcDbSpline
210
0.0
220
0.0
230
1.0
 70
    11
 71
     3
 72
    17
 73
    13
 74
     0
 42
0.0000000001
 43
0.0000000001
 40
0.0
 40
0.0
 40
0.0
 40
0.0
 40
1.0
 40
1.0
 40
1.0
 40
2.0
 40
2.0
 40
2.0
 40
3.0
 40
3.0
 40
3.0
 40
4.0
 40
4.0
 40
4.0
 40
4.0
 10
18.06282510941658
 20
12.45880886190266
 30
0.0
 10
18.06282510941658
 20
12.23334458787048
 30
0.0
 10
18.24558742490909
 20
12.05056504690055
 30
0.0
 10
18.47103447346384
 20
12.05056504690055
 30
0.0
 10
18.69655042392829
 20
12.05056504690055
 30
0.0
 10
18.8793127394208
 20
12.23334458787048
 30
0.0
 10
18.8793127394208
 20
12.45880886190266
 30
0.0
 10
18.8793127394208
 20
12.68430758688969
 30
0.0
 10
18.69655042392829
 20
12.86708712785962
 30
0.0
 10
18.47103447346384
 20
12.86708712785962
 30
0.0
 10
18.24558742490909
 20
12.86708712785962
 30
0.0
 10
18.06282510941658
 20
12.68430758688969
 30
0.0
 10
18.06282510941658
 20
12.45880886190266
 30
0.0
  0
POLYLINE
  5
726
330
4EA
100
AcDbEntity
  8
Layer 1
 62
   250
420
  1842203
370
    35
100
AcDb2dPolyline
 66
     1
 10
0.0
 20
0.0
 30
0.0
  0
VERTEX
  5
727
330
726
100
AcDbEntity
  8
Layer 1
 62
   250
420
  1842203
370
    35
100
AcDbVertex
100
AcDb2dVertex
 10
17.8741027787346
 20
10.85366997341505
 30
0.0
  0
VERTEX
  5
728
330
726
100
AcDbEntity
  8
Layer 1
 62
   250
420
  1842203
370
    35
100
AcDbVertex
100
AcDb2dVertex
 10
19.08846448633031
 20
10.85366997341505
 30
0.0
  0
SEQEND
  5
729
330
726
100
AcDbEntity
  8
Layer 1
370
    35
  0
POLYLINE
  5
72A
330
4EA
100
AcDbEntity
  8
Layer 1
 62
   250
420
  1842203
370
    35
100
AcDb2dPolyline
 66
     1
 10
0.0
 20
0.0
 30
0.0
  0
VERTEX
  5
72B
330
72A
100
AcDbEntity
  8
Layer 1
 62
   250
420
  1842203
370
    35
100
AcDbVertex
100
AcDb2dVertex
 10
19.13714368553689
 20
11.42941433091001
 30
0.0
  0
VERTEX
  5
72C
330
72A
100
AcDbEntity
  8
Layer 1
 62
   250
420
  1842203
370
    35
100
AcDbVertex
100
AcDb2dVertex
 10
19.13714368553689
 20
10.90240084905391
 30
0.0
  0
SEQEND
  5
72D
330
72A
100
AcDbEntity
  8
Layer 1
370
    35
  0
POLYLINE
  5
72E
330
4EA
100
AcDbEntity
  8
Layer 1
 62
   250
420
  1842203
370
    35
100
AcDb2dPolyline
 66
     1
 10
0.0
 20
0.0
 30
0.0
  0
VERTEX
  5
72F
330
72E
100
AcDbEntity
  8
Layer 1
 62
   250
420
  1842203
370
    35
100
AcDbVertex
100
AcDb2dVertex
 10
17.8141925682461
 20
11.42941433091001
 30
0.0
  0
VERTEX
  5
730
330
72E
100
AcDbEntity
  8
Layer 1
 62
   250
420
  1842203
370
    35
100
AcDbVertex
100
AcDb2dVertex
 10
17.8141925682461
 20
10.90240084905391
 30
0.0
  0
SEQEND
  5
731
330
72E
100
AcDbEntity
  8
Layer 1
370
    35
  0
POLYLINE
  5
732
330
4EA
100
AcDbEntity
  8
Layer 1
 62
   250
420
  1842203
370
    35
100
AcDb2dPolyline
 66
     1
 10
0.0
 20
0.0
 30
0.0
  0
VERTEX
  5
733
330
732
100
AcDbEntity
  8
Layer 1
 62
   250
420
  1842203
370
    35
100
AcDbVertex
100
AcDb2dVertex
 10
17.9031104827204
 20
11.47809353011659
 30
0.0
  0
VERTEX
  5
734
330
732
100
AcDbEntity
  8
Layer 1
 62
   250
420
  1842203
370
    35
100
AcDbVertex
100
AcDb2dVertex
 10
17.86287176745268
 20
11.47809353011659
 30
0.0
  0
SEQEND
  5
735
330
732
100
AcDbEntity
  8
Layer 1
370
    35
  0
POLYLINE
  5
736
330
4EA
100
AcDbEntity
  8
Layer 1
 62
   250
420
  1842203
370
    35
100
AcDb2dPolyline
 66
     1
 10
0.0
 20
0.0
 30
0.0
  0
VERTEX
  5
737
330
736
100
AcDbEntity
  8
Layer 1
 62
   250
420
  1842203
370
    35
100
AcDbVertex
100
AcDb2dVertex
 10
17.9031104827204
 20
11.47809353011659
 30
0.0
  0
VERTEX
  5
738
330
736
100
AcDbEntity
  8
Layer 1
 62
   250
420
  1842203
370
    35
100
AcDbVertex
100
AcDb2dVertex
 10
17.91158541761412
 20
11.47809353011659
 30
0.0
  0
SEQEND
  5
739
330
736
100
AcDbEntity
  8
Layer 1
370
    35
  0
POLYLINE
  5
73A
330
4EA
100
AcDbEntity
  8
Layer 1
 62
   250
420
  1842203
370
    35
100
AcDb2dPolyline
 66
     1
 10
0.0
 20
0.0
 30
0.0
  0
VERTEX
  5
73B
330
73A
100
AcDbEntity
  8
Layer 1
 62
   250
420
  1842203
370
    35
100
AcDbVertex
100
AcDb2dVertex
 10
17.91161986856897
 20
11.47809353011659
 30
0.0
  0
VERTEX
  5
73C
330
73A
100
AcDbEntity
  8
Layer 1
 62
   250
420
  1842203
370
    35
100
AcDbVertex
100
AcDb2dVertex
 10
17.92216186075383
 20
11.48233099756344
 30
0.0
  0
SEQEND
  5
73D
330
73A
100
AcDbEntity
  8
Layer 1
370
    35
  0
POLYLINE
  5
73E
330
4EA
100
AcDbEntity
  8
Layer 1
 62
   250
420
  1842203
370
    35
100
AcDb2dPolyline
 66
     1
 10
0.0
 20
0.0
 30
0.0
  0
VERTEX
  5
73F
330
73E
100
AcDbEntity
  8
Layer 1
 62
   250
420
  1842203
370
    35
100
AcDbVertex
100
AcDb2dVertex
 10
18.64814683236053
 20
11.47966104856238
 30
0.0
  0
VERTEX
  5
740
330
73E
100
AcDbEntity
  8
Layer 1
 62
   250
420
  1842203
370
    35
100
AcDbVertex
100
AcDb2dVertex
 10
19.04012979667226
 20
11.47814520654887
 30
0.0
  0
VERTEX
  5
741
330
73E
100
AcDbEntity
  8
Layer 1
 62
   250
420
  1842203
370
    35
100
AcDbVertex
100
AcDb2dVertex
 10
19.0503272793086
 20
11.47814520654887
 30
0.0
  0
SEQEND
  5
742
330
73E
100
AcDbEntity
  8
Layer 1
370
    35
  0
POLYLINE
  5
743
330
4EA
100
AcDbEntity
  8
Layer 1
 62
   250
420
  1842203
370
    35
100
AcDb2dPolyline
 66
     1
 10
0.0
 20
0.0
 30
0.0
  0
VERTEX
  5
744
330
743
100
AcDbEntity
  8
Layer 1
 62
   250
420
  1842203
370
    35
100
AcDbVertex
100
AcDb2dVertex
 10
17.93039563896358
 20
11.48648233762317
 30
0.0
  0
VERTEX
  5
745
330
743
100
AcDbEntity
  8
Layer 1
 62
   250
420
  1842203
370
    35
100
AcDbVertex
100
AcDb2dVertex
 10
17.92216186075383
 20
11.48234822304087
 30
0.0
  0
VERTEX
  5
746
330
743
100
AcDbEntity
  8
Layer 1
 62
   250
420
  1842203
370
    35
100
AcDbVertex
100
AcDb2dVertex
 10
18.28120971222657
 20
11.48083238102736
 30
0.0
  0
SEQEND
  5
747
330
743
100
AcDbEntity
  8
Layer 1
370
    35
  0
POLYLINE
  5
748
330
4EA
100
AcDbEntity
  8
Layer 1
 62
   250
420
  1842203
370
    35
100
AcDb2dPolyline
 66
     1
 10
0.0
 20
0.0
 30
0.0
  0
VERTEX
  5
749
330
748
100
AcDbEntity
  8
Layer 1
 62
   250
420
  1842203
370
    35
100
AcDbVertex
100
AcDb2dVertex
 10
17.93060234469269
 20
11.4865684650103
 30
0.0
  0
VERTEX
  5
74A
330
748
100
AcDbEntity
  8
Layer 1
 62
   250
420
  1842203
370
    35
100
AcDbVertex
100
AcDb2dVertex
 10
17.93701022229526
 20
11.49292466618059
 30
0.0
  0
SEQEND
  5
74B
330
748
100
AcDbEntity
  8
Layer 1
370
    35
  0
POLYLINE
  5
74C
330
4EA
100
AcDbEntity
  8
Layer 1
 62
   250
420
  1842203
370
    35
100
AcDb2dPolyline
 66
     1
 10
0.0
 20
0.0
 30
0.0
  0
VERTEX
  5
74D
330
74C
100
AcDbEntity
  8
Layer 1
 62
   250
420
  1842203
370
    35
100
AcDbVertex
100
AcDb2dVertex
 10
17.93701022229526
 20
11.49290744070316
 30
0.0
  0
VERTEX
  5
74E
330
74C
100
AcDbEntity
  8
Layer 1
 62
   250
420
  1842203
370
    35
100
AcDbVertex
100
AcDb2dVertex
 10
17.94334919798812
 20
11.50138237559688
 30
0.0
  0
SEQEND
  5
74F
330
74C
100
AcDbEntity
  8
Layer 1
370
    35
  0
POLYLINE
  5
750
330
4EA
100
AcDbEntity
  8
Layer 1
 62
   250
420
  1842203
370
    35
100
AcDb2dPolyline
 66
     1
 10
0.0
 20
0.0
 30
0.0
  0
VERTEX
  5
751
330
750
100
AcDbEntity
  8
Layer 1
 62
   250
420
  1842203
370
    35
100
AcDbVertex
100
AcDb2dVertex
 10
17.94334919798812
 20
11.50138237559688
 30
0.0
  0
VERTEX
  5
752
330
750
100
AcDbEntity
  8
Layer 1
 62
   250
420
  1842203
370
    35
100
AcDbVertex
100
AcDb2dVertex
 10
17.94755221448013
 20
11.50984008501317
 30
0.0
  0
SEQEND
  5
753
330
750
100
AcDbEntity
  8
Layer 1
370
    35
  0
POLYLINE
  5
754
330
4EA
100
AcDbEntity
  8
Layer 1
 62
   250
420
  1842203
370
    35
100
AcDb2dPolyline
 66
     1
 10
0.0
 20
0.0
 30
0.0
  0
VERTEX
  5
755
330
754
100
AcDbEntity
  8
Layer 1
 62
   250
420
  1842203
370
    35
100
AcDbVertex
100
AcDb2dVertex
 10
17.94755221448013
 20
11.50985731049059
 30
0.0
  0
VERTEX
  5
756
330
754
100
AcDbEntity
  8
Layer 1
 62
   250
420
  1842203
370
    35
100
AcDbVertex
100
AcDb2dVertex
 10
17.95178968192698
 20
11.51829779442945
 30
0.0
  0
SEQEND
  5
757
330
754
100
AcDbEntity
  8
Layer 1
370
    35
  0
POLYLINE
  5
758
330
4EA
100
AcDbEntity
  8
Layer 1
 62
   250
420
  1842203
370
    35
100
AcDb2dPolyline
 66
     1
 10
0.0
 20
0.0
 30
0.0
  0
VERTEX
  5
759
330
758
100
AcDbEntity
  8
Layer 1
 62
   250
420
  1842203
370
    35
100
AcDbVertex
100
AcDb2dVertex
 10
17.95178968192698
 20
11.51829779442945
 30
0.0
  0
VERTEX
  5
75A
330
758
100
AcDbEntity
  8
Layer 1
 62
   250
420
  1842203
370
    35
100
AcDbVertex
100
AcDb2dVertex
 10
17.95178968192698
 20
11.52890868852402
 30
0.0
  0
SEQEND
  5
75B
330
758
100
AcDbEntity
  8
Layer 1
370
    35
  0
POLYLINE
  5
75C
330
4EA
100
AcDbEntity
  8
Layer 1
 62
   250
420
  1842203
370
    35
100
AcDb2dPolyline
 66
     1
 10
0.0
 20
0.0
 30
0.0
  0
VERTEX
  5
75D
330
75C
100
AcDbEntity
  8
Layer 1
 62
   250
420
  1842203
370
    35
100
AcDbVertex
100
AcDb2dVertex
 10
17.86287176745268
 20
10.85366997341505
 30
0.0
  0
VERTEX
  5
75E
330
75C
100
AcDbEntity
  8
Layer 1
 62
   250
420
  1842203
370
    35
100
AcDbVertex
100
AcDb2dVertex
 10
17.8141925682461
 20
10.90238362357649
 30
0.0
  0
SEQEND
  5
75F
330
75C
100
AcDbEntity
  8
Layer 1
370
    35
  0
POLYLINE
  5
760
330
4EA
100
AcDbEntity
  8
Layer 1
 62
   250
420
  1842203
370
    35
100
AcDb2dPolyline
 66
     1
 10
0.0
 20
0.0
 30
0.0
  0
VERTEX
  5
761
330
760
100
AcDbEntity
  8
Layer 1
 62
   250
420
  1842203
370
    35
100
AcDbVertex
100
AcDb2dVertex
 10
19.08843003537546
 20
10.85366997341505
 30
0.0
  0
VERTEX
  5
762
330
760
100
AcDbEntity
  8
Layer 1
 62
   250
420
  1842203
370
    35
100
AcDbVertex
100
AcDb2dVertex
 10
19.13714368553689
 20
10.90238362357649
 30
0.0
  0
SEQEND
  5
763
330
760
100
AcDbEntity
  8
Layer 1
370
    35
  0
POLYLINE
  5
764
330
4EA
100
AcDbEntity
  8
Layer 1
 62
   250
420
  1842203
370
    35
100
AcDb2dPolyline
 66
     1
 10
0.0
 20
0.0
 30
0.0
  0
VERTEX
  5
765
330
764
100
AcDbEntity
  8
Layer 1
 62
   250
420
  1842203
370
    35
100
AcDbVertex
100
AcDb2dVertex
 10
18.64167005284826
 20
11.52181179182441
 30
0.0
  0
VERTEX
  5
766
330
764
100
AcDbEntity
  8
Layer 1
 62
   250
420
  1842203
370
    35
100
AcDbVertex
100
AcDb2dVertex
 10
19.00175143296658
 20
11.51817721608747
 30
0.0
  0
VERTEX
  5
767
330
764
100
AcDbEntity
  8
Layer 1
 62
   250
420
  1842203
370
    35
100
AcDbVertex
100
AcDb2dVertex
 10
19.00378403930287
 20
11.51016736908426
 30
0.0
  0
SEQEND
  5
768
330
764
100
AcDbEntity
  8
Layer 1
370
    35
  0
POLYLINE
  5
769
330
4EA
100
AcDbEntity
  8
Layer 1
 62
   250
420
  1842203
370
    35
100
AcDb2dPolyline
 66
     1
 10
0.0
 20
0.0
 30
0.0
  0
VERTEX
  5
76A
330
769
100
AcDbEntity
  8
Layer 1
 62
   250
420
  1842203
370
    35
100
AcDbVertex
100
AcDb2dVertex
 10
17.95178968192698
 20
11.69399766417719
 30
0.0
  0
VERTEX
  5
76B
330
769
100
AcDbEntity
  8
Layer 1
 62
   250
420
  1842203
370
    35
100
AcDbVertex
100
AcDb2dVertex
 10
17.95178968192698
 20
11.5288914630466
 30
0.0
  0
VERTEX
  5
76C
330
769
100
AcDbEntity
  8
Layer 1
 62
   250
420
  1842203
370
    35
100
AcDbVertex
100
AcDb2dVertex
 10
18.28565388540254
 20
11.52508463253539
 30
0.0
  0
SEQEND
  5
76D
330
769
100
AcDbEntity
  8
Layer 1
370
    35
  0
POLYLINE
  5
76E
330
4EA
100
AcDbEntity
  8
Layer 1
 62
   250
420
  1842203
370
    35
100
AcDb2dPolyline
 66
     1
 10
0.0
 20
0.0
 30
0.0
  0
VERTEX
  5
76F
330
76E
100
AcDbEntity
  8
Layer 1
 62
   250
420
  1842203
370
    35
100
AcDbVertex
100
AcDb2dVertex
 10
17.8141925682461
 20
11.42941433091001
 30
0.0
  0
VERTEX
  5
770
330
76E
100
AcDbEntity
  8
Layer 1
 62
   250
420
  1842203
370
    35
100
AcDbVertex
100
AcDb2dVertex
 10
17.86290621840753
 20
11.47809353011659
 30
0.0
  0
SEQEND
  5
771
330
76E
100
AcDbEntity
  8
Layer 1
370
    35
  0
POLYLINE
  5
772
330
4EA
100
AcDbEntity
  8
Layer 1
 62
   250
420
  1842203
370
    35
100
AcDb2dPolyline
 66
     1
 10
0.0
 20
0.0
 30
0.0
  0
VERTEX
  5
773
330
772
100
AcDbEntity
  8
Layer 1
 62
   250
420
  1842203
370
    35
100
AcDbVertex
100
AcDb2dVertex
 10
19.05036173026345
 20
11.47809353011659
 30
0.0
  0
VERTEX
  5
774
330
772
100
AcDbEntity
  8
Layer 1
 62
   250
420
  1842203
370
    35
100
AcDbVertex
100
AcDb2dVertex
 10
19.08843003537546
 20
11.47809353011659
 30
0.0
  0
SEQEND
  5
775
330
772
100
AcDbEntity
  8
Layer 1
370
    35
  0
POLYLINE
  5
776
330
4EA
100
AcDbEntity
  8
Layer 1
 62
   250
420
  1842203
370
    35
100
AcDb2dPolyline
 66
     1
 10
0.0
 20
0.0
 30
0.0
  0
VERTEX
  5
777
330
776
100
AcDbEntity
  8
Layer 1
 62
   250
420
  1842203
370
    35
100
AcDbVertex
100
AcDb2dVertex
 10
18.99954657185602
 20
11.52890868852402
 30
0.0
  0
VERTEX
  5
778
330
776
100
AcDbEntity
  8
Layer 1
 62
   250
420
  1842203
370
    35
100
AcDbVertex
100
AcDb2dVertex
 10
18.99954657185602
 20
11.69401488965462
 30
0.0
  0
SEQEND
  5
779
330
776
100
AcDbEntity
  8
Layer 1
370
    35
  0
POLYLINE
  5
77A
330
4EA
100
AcDbEntity
  8
Layer 1
 62
   250
420
  1842203
370
    35
100
AcDb2dPolyline
 66
     1
 10
0.0
 20
0.0
 30
0.0
  0
VERTEX
  5
77B
330
77A
100
AcDbEntity
  8
Layer 1
 62
   250
420
  1842203
370
    35
100
AcDbVertex
100
AcDb2dVertex
 10
18.99954657185602
 20
11.52890868852402
 30
0.0
  0
VERTEX
  5
77C
330
77A
100
AcDbEntity
  8
Layer 1
 62
   250
420
  1842203
370
    35
100
AcDbVertex
100
AcDb2dVertex
 10
19.00168253105687
 20
11.51829779442945
 30
0.0
  0
SEQEND
  5
77D
330
77A
100
AcDbEntity
  8
Layer 1
370
    35
  0
POLYLINE
  5
77E
330
4EA
100
AcDbEntity
  8
Layer 1
 62
   250
420
  1842203
370
    35
100
AcDb2dPolyline
 66
     1
 10
0.0
 20
0.0
 30
0.0
  0
VERTEX
  5
77F
330
77E
100
AcDbEntity
  8
Layer 1
 62
   250
420
  1842203
370
    35
100
AcDbVertex
100
AcDb2dVertex
 10
19.00378403930287
 20
11.50985731049059
 30
0.0
  0
VERTEX
  5
780
330
77E
100
AcDbEntity
  8
Layer 1
 62
   250
420
  1842203
370
    35
100
AcDbVertex
100
AcDb2dVertex
 10
19.00802150674973
 20
11.50138237559688
 30
0.0
  0
SEQEND
  5
781
330
77E
100
AcDbEntity
  8
Layer 1
370
    35
  0
POLYLINE
  5
782
330
4EA
100
AcDbEntity
  8
Layer 1
 62
   250
420
  1842203
370
    35
100
AcDb2dPolyline
 66
     1
 10
0.0
 20
0.0
 30
0.0
  0
VERTEX
  5
783
330
782
100
AcDbEntity
  8
Layer 1
 62
   250
420
  1842203
370
    35
100
AcDbVertex
100
AcDb2dVertex
 10
19.00802150674973
 20
11.50138237559688
 30
0.0
  0
VERTEX
  5
784
330
782
100
AcDbEntity
  8
Layer 1
 62
   250
420
  1842203
370
    35
100
AcDbVertex
100
AcDb2dVertex
 10
19.01439493339744
 20
11.49290744070316
 30
0.0
  0
SEQEND
  5
785
330
782
100
AcDbEntity
  8
Layer 1
370
    35
  0
POLYLINE
  5
786
330
4EA
100
AcDbEntity
  8
Layer 1
 62
   250
420
  1842203
370
    35
100
AcDb2dPolyline
 66
     1
 10
0.0
 20
0.0
 30
0.0
  0
VERTEX
  5
787
330
786
100
AcDbEntity
  8
Layer 1
 62
   250
420
  1842203
370
    35
100
AcDbVertex
100
AcDb2dVertex
 10
19.01436048244259
 20
11.49290744070316
 30
0.0
  0
VERTEX
  5
788
330
786
100
AcDbEntity
  8
Layer 1
 62
   250
420
  1842203
370
    35
100
AcDbVertex
100
AcDb2dVertex
 10
19.0228354173363
 20
11.48655123953288
 30
0.0
  0
SEQEND
  5
789
330
786
100
AcDbEntity
  8
Layer 1
370
    35
  0
POLYLINE
  5
78A
330
4EA
100
AcDbEntity
  8
Layer 1
 62
   250
420
  1842203
370
    35
100
AcDb2dPolyline
 66
     1
 10
0.0
 20
0.0
 30
0.0
  0
VERTEX
  5
78B
330
78A
100
AcDbEntity
  8
Layer 1
 62
   250
420
  1842203
370
    35
100
AcDbVertex
100
AcDb2dVertex
 10
19.02286986829116
 20
11.4865684650103
 30
0.0
  0
VERTEX
  5
78C
330
78A
100
AcDbEntity
  8
Layer 1
 62
   250
420
  1842203
370
    35
100
AcDbVertex
100
AcDb2dVertex
 10
19.03127590127517
 20
11.48233099756344
 30
0.0
  0
SEQEND
  5
78D
330
78A
100
AcDbEntity
  8
Layer 1
370
    35
  0
POLYLINE
  5
78E
330
4EA
100
AcDbEntity
  8
Layer 1
 62
   250
420
  1842203
370
    35
100
AcDb2dPolyline
 66
     1
 10
0.0
 20
0.0
 30
0.0
  0
VERTEX
  5
78F
330
78E
100
AcDbEntity
  8
Layer 1
 62
   250
420
  1842203
370
    35
100
AcDbVertex
100
AcDb2dVertex
 10
19.03131035223002
 20
11.48233099756344
 30
0.0
  0
VERTEX
  5
790
330
78E
100
AcDbEntity
  8
Layer 1
 62
   250
420
  1842203
370
    35
100
AcDbVertex
100
AcDb2dVertex
 10
19.03975083616888
 20
11.47809353011659
 30
0.0
  0
SEQEND
  5
791
330
78E
100
AcDbEntity
  8
Layer 1
370
    35
  0
POLYLINE
  5
792
330
4EA
100
AcDbEntity
  8
Layer 1
 62
   250
420
  1842203
370
    35
100
AcDb2dPolyline
 66
     1
 10
0.0
 20
0.0
 30
0.0
  0
VERTEX
  5
793
330
792
100
AcDbEntity
  8
Layer 1
 62
   250
420
  1842203
370
    35
100
AcDbVertex
100
AcDb2dVertex
 10
19.13714368553689
 20
11.42941433091001
 30
0.0
  0
VERTEX
  5
794
330
792
100
AcDbEntity
  8
Layer 1
 62
   250
420
  1842203
370
    35
100
AcDbVertex
100
AcDb2dVertex
 10
19.08843003537546
 20
11.47809353011659
 30
0.0
  0
SEQEND
  5
795
330
792
100
AcDbEntity
  8
Layer 1
370
    35
  0
POLYLINE
  5
796
330
4EA
100
AcDbEntity
  8
Layer 1
 62
   250
420
  1842203
370
    35
100
AcDb2dPolyline
 66
     1
 10
0.0
 20
0.0
 30
0.0
  0
VERTEX
  5
797
330
796
100
AcDbEntity
  8
Layer 1
 62
   250
420
  1842203
370
    35
100
AcDbVertex
100
AcDb2dVertex
 10
19.1131313700047
 20
11.45284098020971
 30
0.0
  0
VERTEX
  5
798
330
796
100
AcDbEntity
  8
Layer 1
 62
   250
420
  1842203
370
    35
100
AcDbVertex
100
AcDb2dVertex
 10
18.80720689091452
 20
11.41883788777029
 30
0.0
  0
SEQEND
  5
799
330
796
100
AcDbEntity
  8
Layer 1
370
    35
  0
POLYLINE
  5
79A
330
4EA
100
AcDbEntity
  8
Layer 1
 62
   250
420
  1842203
370
    35
100
AcDb2dPolyline
 66
     1
 10
0.0
 20
0.0
 30
0.0
  0
VERTEX
  5
79B
330
79A
100
AcDbEntity
  8
Layer 1
 62
   250
420
  1842203
370
    35
100
AcDbVertex
100
AcDb2dVertex
 10
19.1131313700047
 20
11.36543890774892
 30
0.0
  0
VERTEX
  5
79C
330
79A
100
AcDbEntity
  8
Layer 1
 62
   250
420
  1842203
370
    35
100
AcDbVertex
100
AcDb2dVertex
 10
18.79215182364397
 20
11.33040228666393
 30
0.0
  0
SEQEND
  5
79D
330
79A
100
AcDbEntity
  8
Layer 1
370
    35
  0
POLYLINE
  5
79E
330
4EA
100
AcDbEntity
  8
Layer 1
 62
   250
420
  1842203
370
    35
100
AcDb2dPolyline
 66
     1
 10
0.0
 20
0.0
 30
0.0
  0
VERTEX
  5
79F
330
79E
100
AcDbEntity
  8
Layer 1
 62
   250
420
  1842203
370
    35
100
AcDbVertex
100
AcDb2dVertex
 10
19.1131313700047
 20
11.27803683528813
 30
0.0
  0
VERTEX
  5
7A0
330
79E
100
AcDbEntity
  8
Layer 1
 62
   250
420
  1842203
370
    35
100
AcDbVertex
100
AcDb2dVertex
 10
18.78164428241396
 20
11.24229396962866
 30
0.0
  0
SEQEND
  5
7A1
330
79E
100
AcDbEntity
  8
Layer 1
370
    35
  0
POLYLINE
  5
7A2
330
4EA
100
AcDbEntity
  8
Layer 1
 62
   250
420
  1842203
370
    35
100
AcDb2dPolyline
 66
     1
 10
0.0
 20
0.0
 30
0.0
  0
VERTEX
  5
7A3
330
7A2
100
AcDbEntity
  8
Layer 1
 62
   250
420
  1842203
370
    35
100
AcDbVertex
100
AcDb2dVertex
 10
19.1131313700047
 20
11.19063476282734
 30
0.0
  0
VERTEX
  5
7A4
330
7A2
100
AcDbEntity
  8
Layer 1
 62
   250
420
  1842203
370
    35
100
AcDbVertex
100
AcDb2dVertex
 10
18.7621794929223
 20
11.1535999863609
 30
0.0
  0
SEQEND
  5
7A5
330
7A2
100
AcDbEntity
  8
Layer 1
370
    35
  0
POLYLINE
  5
7A6
330
4EA
100
AcDbEntity
  8
Layer 1
 62
   250
420
  1842203
370
    35
100
AcDb2dPolyline
 66
     1
 10
0.0
 20
0.0
 30
0.0
  0
VERTEX
  5
7A7
330
7A6
100
AcDbEntity
  8
Layer 1
 62
   250
420
  1842203
370
    35
100
AcDbVertex
100
AcDb2dVertex
 10
19.1131313700047
 20
11.10323269036655
 30
0.0
  0
VERTEX
  5
7A8
330
7A6
100
AcDbEntity
  8
Layer 1
 62
   250
420
  1842203
370
    35
100
AcDbVertex
100
AcDb2dVertex
 10
18.74712442565176
 20
11.06516438525454
 30
0.0
  0
SEQEND
  5
7A9
330
7A6
100
AcDbEntity
  8
Layer 1
370
    35
  0
POLYLINE
  5
7AA
330
4EA
100
AcDbEntity
  8
Layer 1
 62
   250
420
  1842203
370
    35
100
AcDb2dPolyline
 66
     1
 10
0.0
 20
0.0
 30
0.0
  0
VERTEX
  5
7AB
330
7AA
100
AcDbEntity
  8
Layer 1
 62
   250
420
  1842203
370
    35
100
AcDbVertex
100
AcDb2dVertex
 10
19.1131313700047
 20
11.01583061790576
 30
0.0
  0
VERTEX
  5
7AC
330
7AA
100
AcDbEntity
  8
Layer 1
 62
   250
420
  1842203
370
    35
100
AcDbVertex
100
AcDb2dVertex
 10
18.72993339918036
 20
10.97664265676105
 30
0.0
  0
SEQEND
  5
7AD
330
7AA
100
AcDbEntity
  8
Layer 1
370
    35
  0
POLYLINE
  5
7AE
330
4EA
100
AcDbEntity
  8
Layer 1
 62
   250
420
  1842203
370
    35
100
AcDb2dPolyline
 66
     1
 10
0.0
 20
0.0
 30
0.0
  0
VERTEX
  5
7AF
330
7AE
100
AcDbEntity
  8
Layer 1
 62
   250
420
  1842203
370
    35
100
AcDbVertex
100
AcDb2dVertex
 10
19.1131313700047
 20
10.92842854544497
 30
0.0
  0
VERTEX
  5
7B0
330
7AE
100
AcDbEntity
  8
Layer 1
 62
   250
420
  1842203
370
    35
100
AcDbVertex
100
AcDb2dVertex
 10
18.71487833190982
 20
10.88820705565468
 30
0.0
  0
SEQEND
  5
7B1
330
7AE
100
AcDbEntity
  8
Layer 1
370
    35
  0
POLYLINE
  5
7B2
330
4EA
100
AcDbEntity
  8
Layer 1
 62
   250
420
  1842203
370
    18
100
AcDb2dPolyline
 66
     1
 10
0.0
 20
0.0
 30
0.0
  0
VERTEX
  5
7B3
330
7B2
100
AcDbEntity
  8
Layer 1
 62
   250
420
  1842203
370
    18
100
AcDbVertex
100
AcDb2dVertex
 10
17.48463473412711
 20
12.46104817396807
 30
0.0
  0
VERTEX
  5
7B4
330
7B2
100
AcDbEntity
  8
Layer 1
 62
   250
420
  1842203
370
    18
100
AcDbVertex
100
AcDb2dVertex
 10
17.36743258571891
 20
12.46104817396807
 30
0.0
  0
SEQEND
  5
7B5
330
7B2
100
AcDbEntity
  8
Layer 1
370
    18
  0
POLYLINE
  5
7B6
330
4EA
100
AcDbEntity
  8
Layer 1
 62
   250
420
  1842203
370
    18
100
AcDb2dPolyline
 66
     1
 10
0.0
 20
0.0
 30
0.0
  0
VERTEX
  5
7B7
330
7B6
100
AcDbEntity
  8
Layer 1
 62
   250
420
  1842203
370
    18
100
AcDbVertex
100
AcDb2dVertex
 10
17.48463473412711
 20
12.46104817396807
 30
0.0
  0
VERTEX
  5
7B8
330
7B6
100
AcDbEntity
  8
Layer 1
 62
   250
420
  1842203
370
    18
100
AcDbVertex
100
AcDb2dVertex
 10
17.60173352967075
 20
12.46104817396807
 30
0.0
  0
SEQEND
  5
7B9
330
7B6
100
AcDbEntity
  8
Layer 1
370
    18
  0
POLYLINE
  5
7BA
330
4EA
100
AcDbEntity
  8
Layer 1
 62
   250
420
  1842203
370
    18
100
AcDb2dPolyline
 66
     1
 10
0.0
 20
0.0
 30
0.0
  0
VERTEX
  5
7BB
330
7BA
100
AcDbEntity
  8
Layer 1
 62
   250
420
  1842203
370
    18
100
AcDbVertex
100
AcDb2dVertex
 10
17.25019598635585
 20
12.46104817396807
 30
0.0
  0
VERTEX
  5
7BC
330
7BA
100
AcDbEntity
  8
Layer 1
 62
   250
420
  1842203
370
    18
100
AcDbVertex
100
AcDb2dVertex
 10
15.65077595637376
 20
12.46104817396807
 30
0.0
  0
SEQEND
  5
7BD
330
7BA
100
AcDbEntity
  8
Layer 1
370
    18
  0
POLYLINE
  5
7BE
330
4EA
100
AcDbEntity
  8
Layer 1
 62
   250
420
  1842203
370
    18
100
AcDb2dPolyline
 66
     1
 10
0.0
 20
0.0
 30
0.0
  0
VERTEX
  5
7BF
330
7BE
100
AcDbEntity
  8
Layer 1
 62
   250
420
  1842203
370
    18
100
AcDbVertex
100
AcDb2dVertex
 10
17.71893567807895
 20
12.46104817396807
 30
0.0
  0
VERTEX
  5
7C0
330
7BE
100
AcDbEntity
  8
Layer 1
 62
   250
420
  1842203
370
    18
100
AcDbVertex
100
AcDb2dVertex
 10
19.31966484434543
 20
12.46118597778748
 30
0.0
  0
SEQEND
  5
7C1
330
7BE
100
AcDbEntity
  8
Layer 1
370
    18
  0
POLYLINE
  5
7C2
330
4EA
100
AcDbEntity
  8
Layer 1
 62
   250
420
  1842203
370
    18
100
AcDb2dPolyline
 66
     1
 10
0.0
 20
0.0
 30
0.0
  0
VERTEX
  5
7C3
330
7C2
100
AcDbEntity
  8
Layer 1
 62
   250
420
  1842203
370
    18
100
AcDbVertex
100
AcDb2dVertex
 10
18.47034545436679
 20
12.70745862855057
 30
0.0
  0
VERTEX
  5
7C4
330
7C2
100
AcDbEntity
  8
Layer 1
 62
   250
420
  1842203
370
    18
100
AcDbVertex
100
AcDb2dVertex
 10
18.47034545436679
 20
14.46178737702691
 30
0.0
  0
SEQEND
  5
7C5
330
7C2
100
AcDbEntity
  8
Layer 1
370
    18
  0
POLYLINE
  5
7C6
330
4EA
100
AcDbEntity
  8
Layer 1
 62
   250
420
  1842203
370
    18
100
AcDb2dPolyline
 66
     1
 10
0.0
 20
0.0
 30
0.0
  0
VERTEX
  5
7C7
330
7C6
100
AcDbEntity
  8
Layer 1
 62
   250
420
  1842203
370
    18
100
AcDbVertex
100
AcDb2dVertex
 10
17.23517537004016
 20
12.46096204658094
 30
0.0
  0
VERTEX
  5
7C8
330
7C6
100
AcDbEntity
  8
Layer 1
 62
   250
420
  1842203
370
    18
100
AcDbVertex
100
AcDb2dVertex
 10
15.53788017732213
 20
12.46096204658094
 30
0.0
  0
SEQEND
  5
7C9
330
7C6
100
AcDbEntity
  8
Layer 1
370
    18
  0
POLYLINE
  5
7CA
330
4EA
100
AcDbEntity
  8
Layer 1
 62
   250
420
  1842203
370
    18
100
AcDb2dPolyline
 66
     1
 10
0.0
 20
0.0
 30
0.0
  0
VERTEX
  5
7CB
330
7CA
100
AcDbEntity
  8
Layer 1
 62
   250
420
  1842203
370
    18
100
AcDbVertex
100
AcDb2dVertex
 10
18.47034545436679
 20
12.21007296786762
 30
0.0
  0
VERTEX
  5
7CC
330
7CA
100
AcDbEntity
  8
Layer 1
 62
   250
420
  1842203
370
    18
100
AcDbVertex
100
AcDb2dVertex
 10
18.47034545436679
 20
10.54965752231918
 30
0.0
  0
SEQEND
  5
7CD
330
7CA
100
AcDbEntity
  8
Layer 1
370
    18
  0
POLYLINE
  5
7CE
330
4EA
100
AcDbEntity
  8
Layer 1
 62
   250
420
  1842203
370
    18
100
AcDb2dPolyline
 66
     1
 10
0.0
 20
0.0
 30
0.0
  0
VERTEX
  5
7CF
330
7CE
100
AcDbEntity
  8
Layer 1
 62
   250
420
  1842203
370
    18
100
AcDbVertex
100
AcDb2dVertex
 10
18.71897799553727
 20
12.45877441094781
 30
0.0
  0
VERTEX
  5
7D0
330
7CE
100
AcDbEntity
  8
Layer 1
 62
   250
420
  1842203
370
    18
100
AcDbVertex
100
AcDb2dVertex
 10
20.4175823245397
 20
12.45894666572207
 30
0.0
  0
SEQEND
  5
7D1
330
7CE
100
AcDbEntity
  8
Layer 1
370
    18
  0
SPLINE
  5
7D2
330
4EA
100
AcDbEntity
  8
Layer 1
 62
   250
420
  1842203
370
    35
100
AcDbSpline
210
0.0
220
0.0
230
1.0
 70
     8
 71
     3
 72
     8
 73
     4
 74
     0
 42
0.0000000001
 43
0.0000000001
 40
0.0
 40
0.0
 40
0.0
 40
0.0
 40
1.0
 40
1.0
 40
1.0
 40
1.0
 10
17.98041842540941
 20
12.63071912661663
 30
0.0
 10
18.03395520925019
 20
12.78330240565834
 30
0.0
 10
18.15670396138964
 20
12.90324340497731
 30
0.0
 10
18.31097533721913
 20
12.95290445639719
 30
0.0
  0
SPLINE
  5
7D3
330
4EA
100
AcDbEntity
  8
Layer 1
 62
   250
420
  1842203
370
    35
100
AcDbSpline
210
0.0
220
0.0
230
1.0
 70
     8
 71
     3
 72
     8
 73
     4
 74
     0
 42
0.0000000001
 43
0.0000000001
 40
0.0
 40
0.0
 40
0.0
 40
0.0
 40
1.0
 40
1.0
 40
1.0
 40
1.0
 10
18.30722018314021
 20
11.96579847248598
 30
0.0
 10
18.14640312588875
 20
12.01899074677824
 30
0.0
 10
18.02041598399316
 20
12.14861246441076
 30
0.0
 10
17.97239135292877
 20
12.31170328468249
 30
0.0
  0
SPLINE
  5
7D4
330
4EA
100
AcDbEntity
  8
Layer 1
 62
   250
420
  1842203
370
    35
100
AcDbSpline
210
0.0
220
0.0
230
1.0
 70
     8
 71
     3
 72
     8
 73
     4
 74
     0
 42
0.0000000001
 43
0.0000000001
 40
0.0
 40
0.0
 40
0.0
 40
0.0
 40
1.0
 40
1.0
 40
1.0
 40
1.0
 10
18.96289075589296
 20
12.29449503273367
 30
0.0
 10
18.90914726632306
 20
12.1332817895014
 30
0.0
 10
18.77847479456753
 20
12.00719129474126
 30
0.0
 10
18.61435044565023
 20
11.95992458468363
 30
0.0
  0
SPLINE
  5
7D5
330
4EA
100
AcDbEntity
  8
Layer 1
 62
    28
420
  1118219
370
    35
100
AcDbSpline
210
0.0
220
0.0
230
1.0
 70
     8
 71
     3
 72
    11
 73
     7
 74
     0
 42
0.0000000001
 43
0.0000000001
 40
0.0
 40
0.0
 40
0.0
 40
0.0
 40
1.0
 40
1.0
 40
1.0
 40
2.0
 40
2.0
 40
2.0
 40
2.0
 10
18.75697739873957
 20
10.84576347927641
 30
0.0
 10
18.66309854676652
 20
10.82903754069552
 30
0.0
 10
18.5664291674504
 20
10.82028699816298
 30
0.0
 10
18.467727181798
 20
10.82028699816298
 30
0.0
 10
18.3525576397261
 20
10.82028699816298
 30
0.0
 10
18.2402130759521
 20
10.83218980306452
 30
0.0
 10
18.13176147007643
 20
10.85475517849291
 30
0.0
  0
SPLINE
  5
7D6
330
4EA
100
AcDbEntity
  8
Layer 1
 62
    28
420
  1118219
370
    35
100
AcDbSpline
210
0.0
220
0.0
230
1.0
 70
     8
 71
     3
 72
    14
 73
    10
 74
     0
 42
0.0000000001
 43
0.0000000001
 40
0.0
 40
0.0
 40
0.0
 40
0.0
 40
1.0
 40
1.0
 40
1.0
 40
2.0
 40
2.0
 40
2.0
 40
3.0
 40
3.0
 40
3.0
 40
3.0
 10
16.8371979395841
 20
12.62982340179046
 30
0.0
 10
16.91609062619632
 20
13.46127997167808
 30
0.0
 10
17.61620293070879
 20
14.11173122477068
 30
0.0
 10
18.46831284803049
 20
14.11173122477068
 30
0.0
 10
19.37327053009592
 20
14.11173122477068
 30
0.0
 10
20.10683471177017
 20
13.37816704309643
 30
0.0
 10
20.10683471177017
 20
12.47326103746328
 30
0.0
 10
20.10683471177017
 20
11.80425794518261
 30
0.0
 10
19.70586004824194
 20
11.22887532271361
 30
0.0
 10
19.13114921939256
 20
10.97436889374078
 30
0.0
  0
SPLINE
  5
7D7
330
4EA
100
AcDbEntity
  8
Layer 1
 62
    28
420
  1118219
370
    35
100
AcDbSpline
210
0.0
220
0.0
230
1.0
 70
     8
 71
     3
 72
     8
 73
     4
 74
     0
 42
0.0000000001
 43
0.0000000001
 40
0.0
 40
0.0
 40
0.0
 40
0.0
 40
1.0
 40
1.0
 40
1.0
 40
1.0
 10
17.81946356433853
 20
10.95352606605502
 30
0.0
 10
17.28127074763281
 20
11.1856221488963
 30
0.0
 10
16.8922505654384
 20
11.69799397494008
 30
0.0
 10
16.83619886189338
 20
12.30670789622888
 30
0.0
  0
SPLINE
  5
7D8
330
4EA
100
AcDbEntity
  8
Layer 1
 62
   250
420
  1842203
370
    35
100
AcDbSpline
210
0.0
220
0.0
230
1.0
 70
     8
 71
     3
 72
    17
 73
    13
 74
     0
 42
0.0000000001
 43
0.0000000001
 40
0.0
 40
0.0
 40
0.0
 40
0.0
 40
1.0
 40
1.0
 40
1.0
 40
2.0
 40
2.0
 40
2.0
 40
3.0
 40
3.0
 40
3.0
 40
4.0
 40
4.0
 40
4.0
 40
4.0
 10
17.53104017031342
 20
12.33209824995517
 30
0.0
 10
17.593499751461
 20
11.8781380178638
 30
0.0
 10
17.9830366979782
 20
11.54389485388486
 30
0.0
 10
18.45411905463126
 20
11.54389485388486
 30
0.0
 10
18.96878186917273
 20
11.54389485388486
 30
0.0
 10
19.38601738339134
 20
11.96107869167119
 30
0.0
 10
19.38601738339134
 20
12.47570705525781
 30
0.0
 10
19.38601738339134
 20
12.99038709527671
 30
0.0
 10
18.96878186917273
 20
13.40757093306304
 30
0.0
 10
18.45411905463126
 20
13.40757093306304
 30
0.0
 10
17.98096964068705
 20
13.40757093306304
 30
0.0
 10
17.59108818462132
 20
13.06242404187328
 30
0.0
 10
17.53124687604253
 20
12.6055010276646
 30
0.0
  0
SPLINE
  5
7D9
330
4EA
100
AcDbEntity
  8
Layer 1
 62
    28
420
  1118219
370
    35
100
AcDbSpline
210
0.0
220
0.0
230
1.0
 70
    11
 71
     3
 72
    17
 73
    13
 74
     0
 42
0.0000000001
 43
0.0000000001
 40
0.0
 40
0.0
 40
0.0
 40
0.0
 40
1.0
 40
1.0
 40
1.0
 40
2.0
 40
2.0
 40
2.0
 40
3.0
 40
3.0
 40
3.0
 40
4.0
 40
4.0
 40
4.0
 40
4.0
 10
17.94941256604216
 20
12.45886053833494
 30
0.0
 10
17.94941256604216
 20
12.74693942281153
 30
0.0
 10
18.18292113803239
 20
12.98044799480176
 30
0.0
 10
18.47096557155413
 20
12.98044799480176
 30
0.0
 10
18.75904445603072
 20
12.98044799480176
 30
0.0
 10
18.99255302802096
 20
12.74693942281153
 30
0.0
 10
18.99255302802096
 20
12.45886053833494
 30
0.0
 10
18.99255302802096
 20
12.1708161048132
 30
0.0
 10
18.75904445603072
 20
11.93727308186811
 30
0.0
 10
18.47096557155413
 20
11.93727308186811
 30
0.0
 10
18.18292113803239
 20
11.93727308186811
 30
0.0
 10
17.94941256604216
 20
12.1708161048132
 30
0.0
 10
17.94941256604216
 20
12.45886053833494
 30
0.0
  0
SPLINE
  5
7DA
330
4EA
100
AcDbEntity
  8
Layer 1
 62
   250
420
  1842203
370
    35
100
AcDbSpline
210
0.0
220
0.0
230
1.0
 70
     8
 71
     3
 72
    17
 73
    13
 74
     0
 42
0.0000000001
 43
0.0000000001
 40
0.0
 40
0.0
 40
0.0
 40
0.0
 40
1.0
 40
1.0
 40
1.0
 40
2.0
 40
2.0
 40
2.0
 40
3.0
 40
3.0
 40
3.0
 40
4.0
 40
4.0
 40
4.0
 40
4.0
 10
24.98229939154088
 20
12.5869319629991
 30
0.0
 10
24.92779798096423
 20
13.04971163953271
 30
0.0
 10
24.53660738861411
 20
13.39067273970789
 30
0.0
 10
24.05922050722304
 20
13.39067273970789
 30
0.0
 10
23.54459214363642
 20
13.39067273970789
 30
0.0
 10
23.12739108037266
 20
12.97347167644413
 30
0.0
 10
23.12739108037266
 20
12.45880886190266
 30
0.0
 10
23.12739108037266
 20
11.94416327283861
 30
0.0
 10
23.54459214363642
 20
11.52697943505228
 30
0.0
 10
24.05922050722304
 20
11.52697943505228
 30
0.0
 10
24.53078517724404
 20
11.52697943505228
 30
0.0
 10
24.92066663330976
 20
11.87727674399249
 30
0.0
 10
24.9825749991797
 20
12.33194322065833
 30
0.0
  0
SPLINE
  5
7DB
330
4EA
100
AcDbEntity
  8
Layer 1
 62
    28
420
  1118219
370
    35
100
AcDbSpline
210
0.0
220
0.0
230
1.0
 70
    11
 71
     3
 72
    17
 73
    13
 74
     0
 42
0.0000000001
 43
0.0000000001
 40
0.0
 40
0.0
 40
0.0
 40
0.0
 40
1.0
 40
1.0
 40
1.0
 40
2.0
 40
2.0
 40
2.0
 40
3.0
 40
3.0
 40
3.0
 40
4.0
 40
4.0
 40
4.0
 40
4.0
 10
23.54100924433176
 20
12.45880886190266
 30
0.0
 10
23.54100924433176
 20
12.74688774637925
 30
0.0
 10
23.77448336536714
 20
12.98039631836948
 30
0.0
 10
24.06252779888888
 20
12.98039631836948
 30
0.0
 10
24.35060668336547
 20
12.98039631836948
 30
0.0
 10
24.58411525535571
 20
12.74688774637925
 30
0.0
 10
24.58411525535571
 20
12.45880886190266
 30
0.0
 10
24.58411525535571
 20
12.17076442838092
 30
0.0
 10
24.35060668336547
 20
11.93722140543583
 30
0.0
 10
24.06252779888888
 20
11.93722140543583
 30
0.0
 10
23.77448336536714
 20
11.93722140543583
 30
0.0
 10
23.54100924433176
 20
12.17076442838092
 30
0.0
 10
23.54100924433176
 20
12.45880886190266
 30
0.0
  0
ENDBLK
  5
4ED
330
4EA
100
AcDbEntity
  8
0
100
AcDbBlockEnd
  0
ENDSEC
  0
SECTION
  2
ENTITIES
  0
INSERT
  5
3D
330
1F
100
AcDbEntity
  8
Layer 1
100
AcDbBlockReference
  2
block 2
 10
0.0
 20
0.0
 30
0.0
  0
MTEXT
  5
133
330
1F
100
AcDbEntity
  8
Layer 1
 62
   250
420
  2827298
100
AcDbMText
 10
3.661240775994412
 20
12.38310288861429
 30
0.0
 40
0.2998795559242172
 41
0.0
 71
     7
 72
     1
  1
\fArial|b0|i0|c0|p34;\W0.750002;64
 11
-4.371139000186241E-8
 21
0.999999999999999
 31
0.0
 73
     1
 44
1.0
  0
INSERT
  5
135
330
1F
100
AcDbEntity
  8
Layer 1
100
AcDbBlockReference
  2
block 3
 10
0.0
 20
0.0
 30
0.0
  0
MTEXT
  5
164
330
1F
100
AcDbEntity
  8
Layer 1
 62
    28
420
  1249805
100
AcDbMText
 10
4.564251979110673
 20
12.26209390969489
 30
0.0
 40
0.2973614601027633
 41
0.0
 71
     7
 72
     1
  1
\fArial|b0|i0|c0|p34;\W1;35
 11
-4.371139000186241E-8
 21
0.999999999999999
 31
0.0
 73
     1
 44
1.0
  0
MTEXT
  5
165
330
1F
100
AcDbEntity
  8
Layer 1
 62
    28
420
  1249805
100
AcDbMText
 10
4.91715033514224
 20
11.56940578595313
 30
0.0
 40
0.2973614601027633
 41
0.0
 71
     7
 72
     1
  1
\fArial|b0|i0|c0|p34;\W1;Hole Size
 11
-4.371139000186241E-8
 21
0.999999999999999
 31
0.0
 73
     1
 44
1.0
  0
INSERT
  5
167
330
1F
100
AcDbEntity
  8
Layer 1
100
AcDbBlockReference
  2
block 4
 10
0.0
 20
0.0
 30
0.0
  0
MTEXT
  5
196
330
1F
100
AcDbEntity
  8
Layer 1
 62
    28
420
  1184012
100
AcDbMText
 10
4.198968504809632
 20
16.31297498507106
 30
0.0
 40
0.2973614601027633
 41
0.0
 71
     7
 72
     1
  1
\fArial|b0|i0|c0|p34;\W1;7mm
 73
     1
 44
1.0
  0
MTEXT
  5
197
330
1F
100
AcDbEntity
  8
Layer 1
 62
    28
420
  1184012
100
AcDbMText
 10
4.198968504809632
 20
15.7882180407578
 30
0.0
 40
0.2973614601027633
 41
0.0
 71
     7
 72
     1
  1
\fArial|b0|i0|c0|p34;\W1;Total Adjustment
 73
     1
 44
1.0
  0
INSERT
  5
199
330
1F
100
AcDbEntity
  8
Layer 1
100
AcDbBlockReference
  2
block 5
 10
0.0
 20
0.0
 30
0.0
  0
MTEXT
  5
4E9
330
1F
100
AcDbEntity
  8
Layer 1
 62
   250
420
  1842203
100
AcDbMText
 10
9.574109833760986
 20
8.749853513437536
 30
0.0
 40
0.2998795559242172
 41
0.0
 71
     7
 72
     1
  1
\fArial|b0|i0|c0|p34;\W0.750002;127
 73
     1
 44
1.0
  0
INSERT
  5
4EB
330
1F
100
AcDbEntity
  8
Layer 1
100
AcDbBlockReference
  2
block 6
 10
0.0
 20
0.0
 30
0.0
  0
ENDSEC
  0
SECTION
  2
OBJECTS
  0
DICTIONARY
  5
C
330
0
100
AcDbDictionary
281
     1
  3
ACAD_GROUP
350
D
  3
ACAD_LAYOUT
350
1A
  3
ACAD_MLINESTYLE
350
17
  3
ACAD_PLOTSETTINGS
350
19
  3
ACAD_PLOTSTYLENAME
350
E
  3
ACAD_TABLESTYLE
350
7DE
  3
ACAD_VISUALSTYLE
350
2A
  0
DICTIONARY
  5
D
102
{ACAD_REACTORS
330
C
102
}
330
C
100
AcDbDictionary
281
     1
  0
DICTIONARY
  5
1A
102
{ACAD_REACTORS
330
C
102
}
330
C
100
AcDbDictionary
281
     1
  3
Layout1
350
1E
  3
Layout2
350
26
  3
Model
350
22
  0
DICTIONARY
  5
17
102
{ACAD_REACTORS
330
C
102
}
330
C
100
AcDbDictionary
281
     1
  3
Standard
350
18
  0
DICTIONARY
  5
19
102
{ACAD_REACTORS
330
C
102
}
330
C
100
AcDbDictionary
281
     1
  0
ACDBDICTIONARYWDFLT
  5
E
102
{ACAD_REACTORS
330
C
102
}
330
C
100
AcDbDictionary
281
     1
  3
Normal
350
F
100
AcDbDictionaryWithDefault
340
F
  0
DICTIONARY
  5
7DE
102
{ACAD_REACTORS
330
C
102
}
330
C
100
AcDbDictionary
281
     1
  0
DICTIONARY
  5
2A
102
{ACAD_REACTORS
330
C
102
}
330
C
100
AcDbDictionary
281
     1
  3
2dWireframe
350
2F
  3
3D Hidden
350
31
  3
3dWireframe
350
30
  3
Basic
350
32
  3
Brighten
350
36
  3
ColorChange
350
3A
  3
Conceptual
350
34
  3
Dim
350
35
  3
Facepattern
350
39
  3
Flat
350
2B
  3
FlatWithEdges
350
2C
  3
Gouraud
350
2D
  3
GouraudWithEdges
350
2E
  3
Linepattern
350
38
  3
Realistic
350
33
  3
Thicken
350
37
  0
LAYOUT
  5
1E
102
{ACAD_REACTORS
330
1A
102
}
330
1A
100
AcDbPlotSettings
  1

  2
none_device
  4

  6

 40
0.0
 41
0.0
 42
0.0
 43
0.0
 44
0.0
 45
0.0
 46
0.0
 47
0.0
 48
0.0
 49
0.0
140
0.0
141
0.0
142
1.0
143
1.0
 70
   688
 72
     0
 73
     0
 74
     5
  7

 75
    16
 76
     0
 77
     2
 78
   300
147
1.0
148
0.0
149
0.0
100
AcDbLayout
  1
Layout1
 70
     1
 71
     1
 10
0.0
 20
0.0
 11
12.0
 21
9.0
 12
0.0
 22
0.0
 32
0.0
 14
1.000000000000000E+20
 24
1.000000000000000E+20
 34
1.000000000000000E+20
 15
-1.000000000000000E+20
 25
-1.000000000000000E+20
 35
-1.000000000000000E+20
146
0.0
 13
0.0
 23
0.0
 33
0.0
 16
1.0
 26
0.0
 36
0.0
 17
0.0
 27
1.0
 37
0.0
 76
     0
330
1B
  0
LAYOUT
  5
26
102
{ACAD_REACTORS
330
1A
102
}
330
1A
100
AcDbPlotSettings
  1

  2
none_device
  4

  6

 40
0.0
 41
0.0
 42
0.0
 43
0.0
 44
0.0
 45
0.0
 46
0.0
 47
0.0
 48
0.0
 49
0.0
140
0.0
141
0.0
142
1.0
143
1.0
 70
   688
 72
     0
 73
     0
 74
     5
  7

 75
    16
 76
     0
 77
     2
 78
   300
147
1.0
148
0.0
149
0.0
100
AcDbLayout
  1
Layout2
 70
     1
 71
     2
 10
0.0
 20
0.0
 11
0.0
 21
0.0
 12
0.0
 22
0.0
 32
0.0
 14
0.0
 24
0.0
 34
0.0
 15
0.0
 25
0.0
 35
0.0
146
0.0
 13
0.0
 23
0.0
 33
0.0
 16
1.0
 26
0.0
 36
0.0
 17
0.0
 27
1.0
 37
0.0
 76
     0
330
23
  0
LAYOUT
  5
22
102
{ACAD_REACTORS
330
1A
102
}
330
1A
100
AcDbPlotSettings
  1

  2
none_device
  4

  6

 40
0.0
 41
0.0
 42
0.0
 43
0.0
 44
0.0
 45
0.0
 46
0.0
 47
0.0
 48
0.0
 49
0.0
140
0.0
141
0.0
142
1.0
143
1.0
 70
  1712
 72
     0
 73
     0
 74
     0
  7

 75
     0
 76
     0
 77
     2
 78
   300
147
1.0
148
0.0
149
0.0
100
AcDbLayout
  1
Model
 70
     1
 71
     0
 10
0.0
 20
0.0
 11
12.0
 21
9.0
 12
0.0
 22
0.0
 32
0.0
 14
1.000000000000000E+20
 24
1.000000000000000E+20
 34
1.000000000000000E+20
 15
-1.000000000000000E+20
 25
-1.000000000000000E+20
 35
-1.000000000000000E+20
146
0.0
 13
0.0
 23
0.0
 33
0.0
 16
1.0
 26
0.0
 36
0.0
 17
0.0
 27
1.0
 37
0.0
 76
     0
330
1F
331
29
  0
MLINESTYLE
  5
18
102
{ACAD_REACTORS
330
17
102
}
330
17
100
AcDbMlineStyle
  2
Standard
 70
     0
  3

 62
   256
 51
90.0
 52
90.0
 71
     2
 49
0.5
 62
   256
  6
BYLAYER
 49
-0.5
 62
   256
  6
BYLAYER
  0
ACDBPLACEHOLDER
  5
F
102
{ACAD_REACTORS
330
E
102
}
330
E
  0
VISUALSTYLE
  5
2F
102
{ACAD_REACTORS
330
2A
102
}
330
2A
100
AcDbVisualStyle
  2
2dWireframe
 70
     4
 71
     0
 72
     2
 73
     0
 90
        0
 40
-0.6
 41
-30.0
 62
     5
 63
     7
421
 16777215
 74
     1
 91
        4
 64
     7
 65
   257
 75
     1
175
     1
 42
1.0
 92
        0
 66
   257
 43
1.0
 76
     1
 77
     6
 78
     2
 67
     7
 79
     5
170
     0
171
     0
290
     0
174
     0
 93
        1
 44
0.0
173
     0
291
     0
 45
0.0
1001
ACAD
1000
AcDbSavedByObjectVersion
1070
     0
  0
VISUALSTYLE
  5
31
102
{ACAD_REACTORS
330
2A
102
}
330
2A
100
AcDbVisualStyle
  2
3D Hidden
 70
     6
 71
     1
 72
     2
 73
     2
 90
        0
 40
-0.6
 41
-30.0
 62
     5
 63
     7
421
 16777215
 74
     2
 91
        2
 64
     7
 65
   257
 75
     2
175
     1
 42
40.0
 92
        0
 66
   257
 43
1.0
 76
     1
 77
     6
 78
     2
 67
     7
 79
     3
170
     0
171
     0
290
     0
174
     0
 93
        1
 44
0.0
173
     0
291
     0
 45
0.0
1001
ACAD
1000
AcDbSavedByObjectVersion
1070
     0
  0
VISUALSTYLE
  5
30
102
{ACAD_REACTORS
330
2A
102
}
330
2A
100
AcDbVisualStyle
  2
3dWireframe
 70
     5
 71
     0
 72
     2
 73
     0
 90
        0
 40
-0.6
 41
-30.0
 62
     5
 63
     7
421
 16777215
 74
     1
 91
        4
 64
     7
 65
   257
 75
     1
175
     1
 42
1.0
 92
        0
 66
   257
 43
1.0
 76
     1
 77
     6
 78
     2
 67
     7
 79
     5
170
     0
171
     0
290
     0
174
     0
 93
        1
 44
0.0
173
     0
291
     0
 45
0.0
1001
ACAD
1000
AcDbSavedByObjectVersion
1070
     0
  0
VISUALSTYLE
  5
32
102
{ACAD_REACTORS
330
2A
102
}
330
2A
100
AcDbVisualStyle
  2
Basic
 70
     7
 71
     1
 72
     0
 73
     1
 90
        0
 40
-0.6
 41
-30.0
 62
     5
 63
     7
421
 16777215
 74
     0
 91
        4
 64
     7
 65
   257
 75
     1
175
     1
 42
1.0
 92
        8
 66
     7
 43
1.0
 76
     1
 77
     6
 78
     2
 67
     7
 79
     5
170
     0
171
     0
290
     0
174
     0
 93
        1
 44
0.0
173
     0
291
     1
 45
0.0
1001
ACAD
1000
AcDbSavedByObjectVersion
1070
     0
  0
VISUALSTYLE
  5
36
102
{ACAD_REACTORS
330
2A
102
}
330
2A
100
AcDbVisualStyle
  2
Brighten
 70
    12
 71
     2
 72
     2
 73
     0
 90
        0
 40
-0.6
 41
-30.0
 62
     5
 63
     7
421
 16777215
 74
     1
 91
        4
 64
     7
 65
   257
 75
     1
175
     1
 42
1.0
 92
        8
 66
     7
 43
1.0
 76
     1
 77
     6
 78
     2
 67
     7
 79
     5
170
     0
171
     0
290
     0
174
     0
 93
        1
 44
50.0
173
     0
291
     1
 45
0.0
1001
ACAD
1000
AcDbSavedByObjectVersion
1070
     0
  0
VISUALSTYLE
  5
3A
102
{ACAD_REACTORS
330
2A
102
}
330
2A
100
AcDbVisualStyle
  2
ColorChange
 70
    16
 71
     2
 72
     2
 73
     3
 90
        0
 40
-0.6
 41
-30.0
 62
     5
 63
     8
421
  8421504
 74
     1
 91
        4
 64
     7
 65
   257
 75
     1
175
     1
 42
1.0
 92
        8
 66
     8
424
  8421504
 43
1.0
 76
     1
 77
     6
 78
     2
 67
     7
 79
     5
170
     0
171
     0
290
     0
174
     0
 93
        1
 44
0.0
173
     0
291
     1
 45
0.0
1001
ACAD
1000
AcDbSavedByObjectVersion
1070
     0
  0
VISUALSTYLE
  5
34
102
{ACAD_REACTORS
330
2A
102
}
330
2A
100
AcDbVisualStyle
  2
Conceptual
 70
     9
 71
     3
 72
     2
 73
     0
 90
        0
 40
-0.6
 41
-30.0
 62
     5
 63
     7
421
 16777215
 74
     2
 91
        2
 64
     7
 65
   257
 75
     1
175
     1
 42
40.0
 92
        8
 66
     7
 43
1.0
 76
     1
 77
     6
 78
     2
 67
     7
 79
     3
170
     0
171
     0
290
     0
174
     0
 93
        1
 44
0.0
173
     0
291
     0
 45
0.0
1001
ACAD
1000
AcDbSavedByObjectVersion
1070
     0
  0
VISUALSTYLE
  5
35
102
{ACAD_REACTORS
330
2A
102
}
330
2A
100
AcDbVisualStyle
  2
Dim
 70
    11
 71
     2
 72
     2
 73
     0
 90
        0
 40
-0.6
 41
-30.0
 62
     5
 63
     7
421
 16777215
 74
     1
 91
        4
 64
     7
 65
   257
 75
     1
175
     1
 42
1.0
 92
        8
 66
     7
 43
1.0
 76
     1
 77
     6
 78
     2
 67
     7
 79
     5
170
     0
171
     0
290
     0
174
     0
 93
        1
 44
-50.0
173
     0
291
     1
 45
0.0
1001
ACAD
1000
AcDbSavedByObjectVersion
1070
     0
  0
VISUALSTYLE
  5
39
102
{ACAD_REACTORS
330
2A
102
}
330
2A
100
AcDbVisualStyle
  2
Facepattern
 70
    15
 71
     2
 72
     2
 73
     0
 90
        0
 40
-0.6
 41
-30.0
 62
     5
 63
     7
421
 16777215
 74
     1
 91
        4
 64
     7
 65
   257
 75
     1
175
     1
 42
1.0
 92
        8
 66
     7
 43
1.0
 76
     1
 77
     6
 78
     2
 67
     7
 79
     5
170
     0
171
     0
290
     0
174
     0
 93
        1
 44
0.0
173
     0
291
     1
 45
0.0
1001
ACAD
1000
AcDbSavedByObjectVersion
1070
     0
  0
VISUALSTYLE
  5
2B
102
{ACAD_REACTORS
330
2A
102
}
330
2A
100
AcDbVisualStyle
  2
Flat
 70
     0
 71
     2
 72
     1
 73
     1
 90
        2
 40
-0.6
 41
30.0
 62
     5
 63
     7
421
 16777215
 74
     0
 91
        4
 64
     7
 65
   257
 75
     1
175
     1
 42
1.0
 92
        8
 66
     7
 43
1.0
 76
     1
 77
     6
 78
     2
 67
     7
 79
     5
170
     0
171
     0
290
     0
174
     0
 93
       13
 44
0.0
173
     0
291
     1
 45
0.0
1001
ACAD
1000
AcDbSavedByObjectVersion
1070
     0
  0
VISUALSTYLE
  5
2C
102
{ACAD_REACTORS
330
2A
102
}
330
2A
100
AcDbVisualStyle
  2
FlatWithEdges
 70
     1
 71
     2
 72
     1
 73
     1
 90
        2
 40
-0.6
 41
30.0
 62
     5
 63
     7
421
 16777215
 74
     1
 91
        4
 64
     7
 65
   257
 75
     1
175
     1
 42
1.0
 92
        0
 66
   257
 43
1.0
 76
     1
 77
     6
 78
     2
 67
     7
 79
     5
170
     0
171
     0
290
     0
174
     0
 93
       13
 44
0.0
173
     0
291
     1
 45
0.0
1001
ACAD
1000
AcDbSavedByObjectVersion
1070
     0
  0
VISUALSTYLE
  5
2D
102
{ACAD_REACTORS
330
2A
102
}
330
2A
100
AcDbVisualStyle
  2
Gouraud
 70
     2
 71
     2
 72
     2
 73
     1
 90
        2
 40
-0.6
 41
30.0
 62
     5
 63
     7
421
 16777215
 74
     0
 91
        4
 64
     7
 65
   257
 75
     1
175
     1
 42
1.0
 92
        0
 66
     7
 43
1.0
 76
     1
 77
     6
 78
     2
 67
     7
 79
     5
170
     0
171
     0
290
     0
174
     0
 93
       13
 44
0.0
173
     0
291
     1
 45
0.0
1001
ACAD
1000
AcDbSavedByObjectVersion
1070
     0
  0
VISUALSTYLE
  5
2E
102
{ACAD_REACTORS
330
2A
102
}
330
2A
100
AcDbVisualStyle
  2
GouraudWithEdges
 70
     3
 71
     2
 72
     2
 73
     1
 90
        2
 40
-0.6
 41
30.0
 62
     5
 63
     7
421
 16777215
 74
     1
 91
        4
 64
     7
 65
   257
 75
     1
175
     1
 42
1.0
 92
        0
 66
   257
 43
1.0
 76
     1
 77
     6
 78
     2
 67
     7
 79
     5
170
     0
171
     0
290
     0
174
     0
 93
       13
 44
0.0
173
     0
291
     1
 45
0.0
1001
ACAD
1000
AcDbSavedByObjectVersion
1070
     0
  0
VISUALSTYLE
  5
38
102
{ACAD_REACTORS
330
2A
102
}
330
2A
100
AcDbVisualStyle
  2
Linepattern
 70
    14
 71
     2
 72
     2
 73
     0
 90
        0
 40
-0.6
 41
-30.0
 62
     5
 63
     7
421
 16777215
 74
     1
 91
        4
 64
     7
 65
   257
 75
     7
175
     7
 42
1.0
 92
        8
 66
     7
 43
1.0
 76
     1
 77
     6
 78
     2
 67
     7
 79
     5
170
     0
171
     0
290
     0
174
     0
 93
        1
 44
0.0
173
     0
291
     1
 45
0.0
1001
ACAD
1000
AcDbSavedByObjectVersion
1070
     0
  0
VISUALSTYLE
  5
33
102
{ACAD_REACTORS
330
2A
102
}
330
2A
100
AcDbVisualStyle
  2
Realistic
 70
     8
 71
     2
 72
     2
 73
     0
 90
        0
 40
-0.6
 41
-30.0
 62
     5
 63
     7
421
 16777215
 74
     1
 91
        0
 64
     7
 65
   257
 75
     1
175
     1
 42
1.0
 92
        8
 66
     8
424
  7895160
 43
1.0
 76
     1
 77
     6
 78
     2
 67
     7
 79
     5
170
     0
171
     0
290
     0
174
     0
 93
       13
 44
0.0
173
     0
291
     0
 45
0.0
1001
ACAD
1000
AcDbSavedByObjectVersion
1070
     0
  0
VISUALSTYLE
  5
37
102
{ACAD_REACTORS
330
2A
102
}
330
2A
100
AcDbVisualStyle
  2
Thicken
 70
    13
 71
     2
 72
     2
 73
     0
 90
        0
 40
-0.6
 41
-30.0
 62
     5
 63
     7
421
 16777215
 74
     1
 91
        4
 64
     7
 65
   257
 75
     1
175
     1
 42
1.0
 92
       12
 66
     7
 43
1.0
 76
     1
 77
     6
 78
     2
 67
     7
 79
     5
170
     0
171
     0
290
     0
174
     0
 93
        1
 44
0.0
173
     0
291
     1
 45
0.0
1001
ACAD
1000
AcDbSavedByObjectVersion
1070
     0
  0
ENDSEC
  0
EOF
