  0
SECTION
  2
HEADER
  9
$ACADVER
  1
AC1032
  9
$ACADMAINTVER
 90
      174
  9
$DWGCODEPAGE
  3
ANSI_1252
  9
$LASTSAVEDBY
  1
pengb
  9
$REQUIREDVERSIONS
160
                 0
  9
$INSBASE
 10
0.0
 20
0.0
 30
0.0
  9
$EXTMIN
 10
-884.5731500228666
 20
-830.7943880839468
 30
0.0
  9
$EXTMAX
 10
281.3311040219545
 20
0.0
 30
0.0
  9
$LIMMIN
 10
0.0
 20
0.0
  9
$LIMMAX
 10
12.0
 20
9.0
  9
$ORTHOMODE
 70
     0
  9
$REGENMODE
 70
     1
  9
$FILLMODE
 70
     1
  9
$QTEXTMODE
 70
     0
  9
$MIRRTEXT
 70
     1
  9
$LTSCALE
 40
1.0
  9
$ATTMODE
 70
     1
  9
$TEXTSIZE
 40
0.2
  9
$TRACEWID
 40
0.05
  9
$TEXTSTYLE
  7
Standard
  9
$CLAYER
  8
0
  9
$CELTYPE
  6
ByLayer
  9
$CECOLOR
 62
   256
  9
$CELTSCALE
 40
1.0
  9
$DISPSILH
 70
     0
  9
$DIMSCALE
 40
1.0
  9
$DIMASZ
 40
0.18
  9
$DIMEXO
 40
0.0625
  9
$DIMDLI
 40
0.38
  9
$DIMRND
 40
0.0
  9
$DIMDLE
 40
0.0
  9
$DIMEXE
 40
0.18
  9
$DIMTP
 40
0.0
  9
$DIMTM
 40
0.0
  9
$DIMTXT
 40
0.18
  9
$DIMCEN
 40
0.09
  9
$DIMTSZ
 40
0.0
  9
$DIMTOL
 70
     0
  9
$DIMLIM
 70
     0
  9
$DIMTIH
 70
     1
  9
$DIMTOH
 70
     1
  9
$DIMSE1
 70
     0
  9
$DIMSE2
 70
     0
  9
$DIMTAD
 70
     0
  9
$DIMZIN
 70
     0
  9
$DIMBLK
  1

  9
$DIMASO
 70
     1
  9
$DIMSHO
 70
     1
  9
$DIMPOST
  1

  9
$DIMAPOST
  1

  9
$DIMALT
 70
     0
  9
$DIMALTD
 70
     2
  9
$DIMALTF
 40
25.4
  9
$DIMLFAC
 40
1.0
  9
$DIMTOFL
 70
     0
  9
$DIMTVP
 40
0.0
  9
$DIMTIX
 70
     0
  9
$DIMSOXD
 70
     0
  9
$DIMSAH
 70
     0
  9
$DIMBLK1
  1

  9
$DIMBLK2
  1

  9
$DIMSTYLE
  2
Standard
  9
$DIMCLRD
 70
     0
  9
$DIMCLRE
 70
     0
  9
$DIMCLRT
 70
     0
  9
$DIMTFAC
 40
1.0
  9
$DIMGAP
 40
0.09
  9
$DIMJUST
 70
     0
  9
$DIMSD1
 70
     0
  9
$DIMSD2
 70
     0
  9
$DIMTOLJ
 70
     1
  9
$DIMTZIN
 70
     0
  9
$DIMALTZ
 70
     0
  9
$DIMALTTZ
 70
     0
  9
$DIMUPT
 70
     0
  9
$DIMDEC
 70
     4
  9
$DIMTDEC
 70
     4
  9
$DIMALTU
 70
     2
  9
$DIMALTTD
 70
     2
  9
$DIMTXSTY
  7
Standard
  9
$DIMAUNIT
 70
     0
  9
$DIMADEC
 70
     0
  9
$DIMALTRND
 40
0.0
  9
$DIMAZIN
 70
     0
  9
$DIMDSEP
 70
    46
  9
$DIMATFIT
 70
     3
  9
$DIMFRAC
 70
     0
  9
$DIMLDRBLK
  1

  9
$DIMLUNIT
 70
     2
  9
$DIMLWD
 70
    -2
  9
$DIMLWE
 70
    -2
  9
$DIMTMOVE
 70
     0
  9
$DIMFXL
 40
1.0
  9
$DIMFXLON
 70
     0
  9
$DIMJOGANG
 40
0.7853981633974483
  9
$DIMTFILL
 70
     0
  9
$DIMTFILLCLR
 70
     0
  9
$DIMARCSYM
 70
     0
  9
$DIMLTYPE
  6

  9
$DIMLTEX1
  6

  9
$DIMLTEX2
  6

  9
$DIMTXTDIRECTION
 70
     0
  9
$LUNITS
 70
     2
  9
$LUPREC
 70
     4
  9
$SKETCHINC
 40
0.1
  9
$FILLETRAD
 40
0.5
  9
$AUNITS
 70
     0
  9
$AUPREC
 70
     0
  9
$MENU
  1
.
  9
$ELEVATION
 40
0.0
  9
$PELEVATION
 40
0.0
  9
$THICKNESS
 40
0.0
  9
$LIMCHECK
 70
     0
  9
$CHAMFERA
 40
0.5
  9
$CHAMFERB
 40
0.5
  9
$CHAMFERC
 40
1.0
  9
$CHAMFERD
 40
0.0
  9
$SKPOLY
 70
     0
  9
$TDCREATE
 40
2456554.823229167
  9
$TDUCREATE
 40
2456554.406562500
  9
$TDUPDATE
 40
2459979.443182870
  9
$TDUUPDATE
 40
2459978.984849537
  9
$TDINDWG
 40
0.0893686806
  9
$TDUSRTIMER
 40
0.0893686806
  9
$USRTIMER
 70
     1
  9
$ANGBASE
 50
0.0
  9
$ANGDIR
 70
     0
  9
$PDMODE
 70
     0
  9
$PDSIZE
 40
0.0
  9
$PLINEWID
 40
0.0
  9
$SPLFRAME
 70
     0
  9
$SPLINETYPE
 70
     6
  9
$SPLINESEGS
 70
     8
  9
$HANDSEED
  5
1EA
  9
$SURFTAB1
 70
     6
  9
$SURFTAB2
 70
     6
  9
$SURFTYPE
 70
     6
  9
$SURFU
 70
     6
  9
$SURFV
 70
     6
  9
$UCSBASE
  2

  9
$UCSNAME
  2

  9
$UCSORG
 10
0.0
 20
0.0
 30
0.0
  9
$UCSXDIR
 10
1.0
 20
0.0
 30
0.0
  9
$UCSYDIR
 10
0.0
 20
1.0
 30
0.0
  9
$UCSORTHOREF
  2

  9
$UCSORTHOVIEW
 70
     0
  9
$UCSORGTOP
 10
0.0
 20
0.0
 30
0.0
  9
$UCSORGBOTTOM
 10
0.0
 20
0.0
 30
0.0
  9
$UCSORGLEFT
 10
0.0
 20
0.0
 30
0.0
  9
$UCSORGRIGHT
 10
0.0
 20
0.0
 30
0.0
  9
$UCSORGFRONT
 10
0.0
 20
0.0
 30
0.0
  9
$UCSORGBACK
 10
0.0
 20
0.0
 30
0.0
  9
$PUCSBASE
  2

  9
$PUCSNAME
  2

  9
$PUCSORG
 10
0.0
 20
0.0
 30
0.0
  9
$PUCSXDIR
 10
1.0
 20
0.0
 30
0.0
  9
$PUCSYDIR
 10
0.0
 20
1.0
 30
0.0
  9
$PUCSORTHOREF
  2

  9
$PUCSORTHOVIEW
 70
     0
  9
$PUCSORGTOP
 10
0.0
 20
0.0
 30
0.0
  9
$PUCSORGBOTTOM
 10
0.0
 20
0.0
 30
0.0
  9
$PUCSORGLEFT
 10
0.0
 20
0.0
 30
0.0
  9
$PUCSORGRIGHT
 10
0.0
 20
0.0
 30
0.0
  9
$PUCSORGFRONT
 10
0.0
 20
0.0
 30
0.0
  9
$PUCSORGBACK
 10
0.0
 20
0.0
 30
0.0
  9
$USERI1
 70
     0
  9
$USERI2
 70
     0
  9
$USERI3
 70
     0
  9
$USERI4
 70
     0
  9
$USERI5
 70
     0
  9
$USERR1
 40
0.0
  9
$USERR2
 40
0.0
  9
$USERR3
 40
0.0
  9
$USERR4
 40
0.0
  9
$USERR5
 40
0.0
  9
$WORLDVIEW
 70
     1
  9
$SHADEDGE
 70
     3
  9
$SHADEDIF
 70
    70
  9
$TILEMODE
 70
     1
  9
$MAXACTVP
 70
    64
  9
$PINSBASE
 10
0.0
 20
0.0
 30
0.0
  9
$PLIMCHECK
 70
     0
  9
$PEXTMIN
 10
1.000000000000000E+20
 20
1.000000000000000E+20
 30
1.000000000000000E+20
  9
$PEXTMAX
 10
-1.000000000000000E+20
 20
-1.000000000000000E+20
 30
-1.000000000000000E+20
  9
$PLIMMIN
 10
0.0
 20
0.0
  9
$PLIMMAX
 10
12.0
 20
9.0
  9
$UNITMODE
 70
     0
  9
$VISRETAIN
 70
     1
  9
$PLINEGEN
 70
     0
  9
$PSLTSCALE
 70
     1
  9
$TREEDEPTH
 70
  3020
  9
$CMLSTYLE
  2
Standard
  9
$CMLJUST
 70
     0
  9
$CMLSCALE
 40
1.0
  9
$PROXYGRAPHICS
 70
     1
  9
$MEASUREMENT
 70
     0
  9
$CELWEIGHT
370
    -1
  9
$ENDCAPS
280
     0
  9
$JOINSTYLE
280
     0
  9
$LWDISPLAY
290
     0
  9
$INSUNITS
 70
     1
  9
$HYPERLINKBASE
  1

  9
$STYLESHEET
  1

  9
$XEDIT
290
     1
  9
$CEPSNTYPE
380
     0
  9
$PSTYLEMODE
290
     1
  9
$FINGERPRINTGUID
  2
{5C21E2E8-9F07-1F5F-61D9-760558741D4B}
  9
$VERSIONGUID
  2
{A4FDB5AA-91BB-0B44-BC7D-CC24838F4B56}
  9
$EXTNAMES
290
     1
  9
$PSVPSCALE
 40
0.0
  9
$OLESTARTUP
290
     0
  9
$SORTENTS
280
   127
  9
$INDEXCTL
280
     0
  9
$HIDETEXT
280
     0
  9
$XCLIPFRAME
280
     2
  9
$HALOGAP
280
     0
  9
$OBSCOLOR
 70
   257
  9
$OBSLTYPE
280
     0
  9
$INTERSECTIONDISPLAY
280
     0
  9
$INTERSECTIONCOLOR
 70
   257
  9
$DIMASSOC
280
     1
  9
$PROJECTNAME
  1

  9
$CAMERADISPLAY
290
     0
  9
$LENSLENGTH
 40
50.0
  9
$CAMERAHEIGHT
 40
0.0
  9
$STEPSPERSEC
 40
2.0
  9
$STEPSIZE
 40
6.0
  9
$3DDWFPREC
 40
2.0
  9
$PSOLWIDTH
 40
0.25
  9
$PSOLHEIGHT
 40
4.0
  9
$LOFTANG1
 40
1.570796326794896
  9
$LOFTANG2
 40
1.570796326794896
  9
$LOFTMAG1
 40
0.0
  9
$LOFTMAG2
 40
0.0
  9
$LOFTPARAM
 70
     7
  9
$LOFTNORMALS
280
     1
  9
$LATITUDE
 40
37.795
  9
$LONGITUDE
 40
-122.394
  9
$NORTHDIRECTION
 40
0.0
  9
$TIMEZONE
 70
 -8000
  9
$LIGHTGLYPHDISPLAY
280
     1
  9
$TILEMODELIGHTSYNCH
280
     1
  9
$CMATERIAL
347
63
  9
$SOLIDHIST
280
     0
  9
$SHOWHIST
280
     1
  9
$DWFFRAME
280
     2
  9
$DGNFRAME
280
     0
  9
$REALWORLDSCALE
290
     1
  9
$INTERFERECOLOR
 62
     1
  9
$INTERFEREOBJVS
345
85
  9
$INTERFEREVPVS
346
82
  9
$CSHADOW
280
     0
  9
$SHADOWPLANELOCATION
 40
0.0
  0
ENDSEC
  0
SECTION
  2
CLASSES
  0
CLASS
  1
ACDBDICTIONARYWDFLT
  2
AcDbDictionaryWithDefault
  3
ObjectDBX Classes
 90
        0
 91
        1
280
     0
281
     0
  0
CLASS
  1
VISUALSTYLE
  2
AcDbVisualStyle
  3
ObjectDBX Classes
 90
     4095
 91
       24
280
     1
281
     0
  0
CLASS
  1
MATERIAL
  2
AcDbMaterial
  3
ObjectDBX Classes
 90
     1153
 91
        3
280
     0
281
     0
  0
CLASS
  1
TABLESTYLE
  2
AcDbTableStyle
  3
ObjectDBX Classes
 90
     4095
 91
        1
280
     0
281
     0
  0
CLASS
  1
SCALE
  2
AcDbScale
  3
ObjectDBX Classes
 90
     1153
 91
       17
280
     0
281
     0
  0
CLASS
  1
MLEADERSTYLE
  2
AcDbMLeaderStyle
  3
ACDB_MLEADERSTYLE_CLASS
 90
     4095
 91
        1
280
     0
281
     0
  0
CLASS
  1
ACDBSECTIONVIEWSTYLE
  2
AcDbSectionViewStyle
  3
ObjectDBX Classes
 90
     1025
 91
        1
280
     0
281
     0
  0
CLASS
  1
ACDBDETAILVIEWSTYLE
  2
AcDbDetailViewStyle
  3
ObjectDBX Classes
 90
     1025
 91
        1
280
     0
281
     0
  0
CLASS
  1
DICTIONARYVAR
  2
AcDbDictionaryVar
  3
ObjectDBX Classes
 90
        0
 91
       36
280
     0
281
     0
  0
CLASS
  1
RAPIDRTRENDERSETTINGS
  2
AcDbRapidRTRenderSettings
  3
ObjectDBX Classes
 90
     1024
 91
        7
280
     0
281
     0
  0
CLASS
  1
CELLSTYLEMAP
  2
AcDbCellStyleMap
  3
ObjectDBX Classes
 90
     1152
 91
        1
280
     0
281
     0
  0
ENDSEC
  0
SECTION
  2
TABLES
  0
TABLE
  2
VPORT
  5
19
330
0
100
AcDbSymbolTable
 70
     1
  0
VPORT
  5
1A
330
19
100
AcDbSymbolTableRecord
100
AcDbViewportTableRecord
  2
*Active
 70
     0
 10
0.0
 20
0.0
 11
1.0
 21
1.0
 12
-406.2682099317595
 22
-563.9361032387796
 13
0.0
 23
0.0
 14
0.5
 24
0.5
 15
0.5
 25
0.5
 16
0.0
 26
0.0
 36
1.0
 17
104.6471869313035
 27
148.5389091968062
 37
0.0
 40
811.9172827392294
 41
1.950094756790903
 42
50.0
 43
0.0
 44
0.0
 50
0.0
 51
0.0
 71
     0
 72
   100
 73
     1
 74
     3
 75
     0
 76
     0
 77
     0
 78
     0
281
     0
 65
     1
110
0.0
120
0.0
130
0.0
111
1.0
121
0.0
131
0.0
112
0.0
122
1.0
132
0.0
 79
     0
146
0.0
348
81
 60
     3
 61
     5
292
     1
282
     1
141
0.0
142
0.0
 63
   250
421
  3355443
1001
ACAD_NAV_VCDISPLAY
1070
     3
  0
ENDTAB
  0
TABLE
  2
LTYPE
  5
14
330
0
100
AcDbSymbolTable
 70
     2
  0
LTYPE
  5
15
330
14
100
AcDbSymbolTableRecord
100
AcDbLinetypeTableRecord
  2
ByBlock
 70
     0
  3

 72
    65
 73
     0
 40
0.0
  0
LTYPE
  5
16
330
14
100
AcDbSymbolTableRecord
100
AcDbLinetypeTableRecord
  2
ByLayer
 70
     0
  3

 72
    65
 73
     0
 40
0.0
  0
LTYPE
  5
8
330
14
100
AcDbSymbolTableRecord
100
AcDbLinetypeTableRecord
  2
Continuous
 70
     0
  3
Solid line
 72
    65
 73
     0
 40
0.0
  0
ENDTAB
  0
TABLE
  2
LAYER
  5
10
330
0
100
AcDbSymbolTable
 70
     2
  0
LAYER
  5
4
102
{ACAD_XDICTIONARY
360
1CD
102
}
330
10
100
AcDbSymbolTableRecord
100
AcDbLayerTableRecord
  2
0
 70
     0
 62
     7
  6
Continuous
370
    -3
390
5
347
73
348
0
  0
LAYER
  5
1AB
330
10
100
AcDbSymbolTableRecord
100
AcDbLayerTableRecord
  2
Defpoints
 70
     0
 62
     7
  6
Continuous
290
     0
370
    -3
390
5
347
73
348
0
  0
ENDTAB
  0
TABLE
  2
STYLE
  5
11
330
0
100
AcDbSymbolTable
 70
     1
  0
STYLE
  5
12
330
11
100
AcDbSymbolTableRecord
100
AcDbTextStyleTableRecord
  2
Standard
 70
     0
 40
0.0
 41
1.0
 50
0.0
 71
     0
 42
0.2
  3
txt
  4

  0
ENDTAB
  0
TABLE
  2
VIEW
  5
17
330
0
100
AcDbSymbolTable
 70
     0
  0
ENDTAB
  0
TABLE
  2
UCS
  5
18
330
0
100
AcDbSymbolTable
 70
     0
  0
ENDTAB
  0
TABLE
  2
APPID
  5
1B
330
0
100
AcDbSymbolTable
 70
     4
  0
APPID
  5
1C
330
1B
100
AcDbSymbolTableRecord
100
AcDbRegAppTableRecord
  2
ACAD
 70
     0
  0
APPID
  5
B2
330
1B
100
AcDbSymbolTableRecord
100
AcDbRegAppTableRecord
  2
ACAD_NAV_VCDISPLAY
 70
     0
  0
APPID
  5
140
330
1B
100
AcDbSymbolTableRecord
100
AcDbRegAppTableRecord
  2
ACAD_EXEMPT_FROM_CAD_STANDARDS
 70
     0
  0
APPID
  5
1DB
330
1B
100
AcDbSymbolTableRecord
100
AcDbRegAppTableRecord
  2
DCO15
 70
     0
  0
ENDTAB
  0
TABLE
  2
DIMSTYLE
  5
1D
330
0
100
AcDbSymbolTable
 70
     2
100
AcDbDimStyleTable
 71
     1
340
23
  0
DIMSTYLE
105
23
330
1D
100
AcDbSymbolTableRecord
100
AcDbDimStyleTableRecord
  2
Standard
 70
     0
340
12
  0
ENDTAB
  0
TABLE
  2
BLOCK_RECORD
  5
1
330
0
100
AcDbSymbolTable
 70
     6
  0
BLOCK_RECORD
  5
2
330
1
100
AcDbSymbolTableRecord
100
AcDbBlockTableRecord
  2
*Model_Space
340
A
 70
     0
280
     1
281
     0
  0
BLOCK_RECORD
  5
C
330
1
100
AcDbSymbolTableRecord
100
AcDbBlockTableRecord
  2
*Paper_Space
340
F
 70
     0
280
     1
281
     0
  0
BLOCK_RECORD
  5
B3
330
1
100
AcDbSymbolTableRecord
100
AcDbBlockTableRecord
  2
A$Ca9f78c16
340
0
 70
     1
280
     1
281
     0
  0
BLOCK_RECORD
  5
15B
330
1
100
AcDbSymbolTableRecord
100
AcDbBlockTableRecord
  2
A$Cfafbd171
340
0
 70
     1
280
     1
281
     0
  0
BLOCK_RECORD
  5
1AC
330
1
100
AcDbSymbolTableRecord
100
AcDbBlockTableRecord
  2
*D5
340
0
 70
     0
280
     1
281
     0
  0
ENDTAB
  0
ENDSEC
  0
SECTION
  2
BLOCKS
  0
BLOCK
  5
3
330
2
100
AcDbEntity
  8
0
100
AcDbBlockBegin
  2
*Model_Space
 70
     0
 10
0.0
 20
0.0
 30
0.0
  3
*Model_Space
  1

  0
ENDBLK
  5
9
330
2
100
AcDbEntity
  8
0
100
AcDbBlockEnd
  0
BLOCK
  5
D
330
C
100
AcDbEntity
 67
     1
  8
0
100
AcDbBlockBegin
  2
*Paper_Space
 70
     0
 10
0.0
 20
0.0
 30
0.0
  3
*Paper_Space
  1

  0
ENDBLK
  5
E
330
C
100
AcDbEntity
 67
     1
  8
0
100
AcDbBlockEnd
  0
BLOCK
  5
BB
330
B3
100
AcDbEntity
  8
0
100
AcDbBlockBegin
  2
A$Ca9f78c16
 70
     0
 10
0.0
 20
0.0
 30
0.0
  3
A$Ca9f78c16
  1

  0
SPLINE
  5
B4
330
B3
100
AcDbEntity
  8
0
 62
     7
100
AcDbSpline
210
0.0
220
0.0
230
1.0
 70
     8
 71
     3
 72
    29
 73
    25
 74
     0
 42
0.000000001
 43
0.0000000001
 40
0.0
 40
0.0
 40
0.0
 40
0.0
 40
1.0
 40
1.0
 40
1.0
 40
2.0
 40
2.0
 40
2.0
 40
3.0
 40
3.0
 40
3.0
 40
4.0
 40
4.0
 40
4.0
 40
5.0
 40
5.0
 40
5.0
 40
6.0
 40
6.0
 40
6.0
 40
7.0
 40
7.0
 40
7.0
 40
8.0
 40
8.0
 40
8.0
 40
8.0
 10
135.7645505578948
 20
51.20169812088011
 30
0.0
 10
143.7571720836745
 20
43.95907388223941
 30
0.0
 10
153.9765310763453
 20
40.27144367482796
 30
0.0
 10
164.3889876709644
 20
38.11619193925566
 30
0.0
 10
164.3889876709644
 20
38.11619193925566
 30
0.0
 10
164.493718573716
 20
38.09414332815007
 30
0.0
 10
164.493718573716
 20
38.09414332815007
 30
0.0
 10
167.5474512118415
 20
37.4712700644169
 30
0.0
 10
169.002659544811
 20
36.01054957867098
 30
0.0
 10
169.7798730862833
 20
33.00642631553313
 30
0.0
 10
169.7798730862833
 20
33.00642631553313
 30
0.0
 10
169.7853852390598
 20
32.98988985720394
 30
0.0
 10
169.7853852390598
 20
32.98988985720394
 30
0.0
 10
170.2373817667246
 20
31.22600096875601
 30
0.0
 10
171.8303939191041
 20
29.99127874684246
 30
0.0
 10
173.6545719785438
 20
29.99127874684246
 30
0.0
 10
173.6545719785438
 20
29.99127874684246
 30
0.0
 10
235.6656016939439
 20
29.99127874684246
 30
0.0
 10
235.6656016939439
 20
29.99127874684246
 30
0.0
 10
237.6610009990006
 20
29.99127874684246
 30
0.0
 10
239.3477197485789
 20
31.4575113853648
 30
0.0
 10
239.6233273873989
 20
33.43086207931589
 30
0.0
 10
239.6233273873989
 20
33.43086207931589
 30
0.0
 10
242.1534055117664
 20
51.37257485694852
 30
0.0
 10
242.1534055117664
 20
51.37257485694852
 30
0.0
  0
SPLINE
  5
B5
330
B3
100
AcDbEntity
  8
0
 62
     7
100
AcDbSpline
210
0.0
220
0.0
230
1.0
 70
     8
 71
     3
 72
    32
 73
    28
 74
     0
 42
0.000000001
 43
0.0000000001
 40
0.0
 40
0.0
 40
0.0
 40
0.0
 40
1.0
 40
1.0
 40
1.0
 40
2.0
 40
2.0
 40
2.0
 40
3.0
 40
3.0
 40
3.0
 40
4.0
 40
4.0
 40
4.0
 40
5.0
 40
5.0
 40
5.0
 40
6.0
 40
6.0
 40
6.0
 40
7.0
 40
7.0
 40
7.0
 40
8.0
 40
8.0
 40
8.0
 40
9.0
 40
9.0
 40
9.0
 40
9.0
 10
411.9976464632289
 20
110.9915025221653
 30
0.0
 10
409.3518131305571
 20
101.8027438439069
 30
0.0
 10
405.0854068816236
 20
93.44098033688281
 30
0.0
 10
398.360580494416
 20
86.52874075527753
 30
0.0
 10
386.8791107707238
 20
74.71654186500143
 30
0.0
 10
371.0757687607858
 20
68.11849499165091
 30
0.0
 10
355.6806705658499
 20
63.07487520124516
 30
0.0
 10
339.2930403616134
 20
57.71155054980823
 30
0.0
 10
322.2277598754284
 20
54.55859916170758
 30
0.0
 10
305.3605723796451
 20
51.13004013478695
 30
0.0
 10
305.3605723796451
 20
51.13004013478695
 30
0.0
 10
305.3605723796451
 20
51.40013562083052
 30
0.0
 10
305.3605723796451
 20
51.40013562083052
 30
0.0
 10
305.3605723796451
 20
51.40013562083052
 30
0.0
 10
160.6793088524474
 20
51.2513074958677
 30
0.0
 10
160.6793088524474
 20
51.2513074958677
 30
0.0
 10
160.6793088524474
 20
51.2513074958677
 30
0.0
 10
114.5045218088696
 20
51.16311305144535
 30
0.0
 10
114.5045218088696
 20
51.16311305144535
 30
0.0
 10
90.2126367780502
 20
51.12452798201053
 30
0.0
 10
28.94023553468774
 20
51.09696721812856
 30
0.0
 10
4.643010605866209
 20
51.08043075979935
 30
0.0
 10
4.643010605866209
 20
51.08043075979935
 30
0.0
 10
4.643010605866209
 20
51.41667207915972
 30
0.0
 10
4.643010605866209
 20
51.41667207915972
 30
0.0
 10
4.643010605866209
 20
51.41667207915972
 30
0.0
 10
4.643010605866209
 20
113.64836016039
 30
0.0
 10
4.643010605866209
 20
113.64836016039
 30
0.0
  0
POLYLINE
  5
B6
330
B3
100
AcDbEntity
  8
0
 62
     7
100
AcDb2dPolyline
 66
     1
 10
0.0
 20
0.0
 30
0.0
  0
VERTEX
  5
B7
330
B6
100
AcDbEntity
  8
0
 62
     7
100
AcDbVertex
100
AcDb2dVertex
 10
204.6659434985688
 20
0.0
 30
0.0
  0
VERTEX
  5
B8
330
B6
100
AcDbEntity
  8
0
 62
     7
100
AcDbVertex
100
AcDb2dVertex
 10
204.6659434985688
 20
81.28668346492139
 30
0.0
  0
SEQEND
  5
B9
330
B6
100
AcDbEntity
  8
0
  0
SPLINE
  5
BA
330
B3
100
AcDbEntity
  8
0
 62
     7
100
AcDbSpline
210
0.0
220
0.0
230
1.0
 70
    11
 71
     3
 72
    32
 73
    28
 74
     0
 42
0.000000001
 43
0.0000000001
 40
0.0
 40
0.0
 40
0.0
 40
0.0
 40
1.0
 40
1.0
 40
1.0
 40
2.0
 40
2.0
 40
2.0
 40
3.0
 40
3.0
 40
3.0
 40
4.0
 40
4.0
 40
4.0
 40
5.0
 40
5.0
 40
5.0
 40
6.0
 40
6.0
 40
6.0
 40
7.0
 40
7.0
 40
7.0
 40
8.0
 40
8.0
 40
8.0
 40
9.0
 40
9.0
 40
9.0
 40
9.0
 10
4.643010605866209
 20
206.0034464003221
 30
0.0
 10
4.643010605866209
 20
206.0034464003221
 30
0.0
 10
462.5874956259287
 20
206.0034464003221
 30
0.0
 10
462.5874956259287
 20
206.0034464003221
 30
0.0
 10
466.2861501388929
 20
206.0034464003221
 30
0.0
 10
469.361931388124
 20
203.2142970954638
 30
0.0
 10
469.6430511797204
 20
199.6038370269219
 30
0.0
 10
469.4335893742172
 20
182.1470214388382
 30
0.0
 10
468.7721310410492
 20
164.1059176564561
 30
0.0
 10
467.4161414580549
 20
146.69871144336
 30
0.0
 10
466.5782942360421
 20
135.966722242484
 30
0.0
 10
465.4042056946689
 20
124.3362521390548
 30
0.0
 10
464.1805077783082
 20
113.64836016039
 30
0.0
 10
464.1308984033206
 20
113.1632907160668
 30
0.0
 10
463.9655338200286
 20
112.7002698828492
 30
0.0
 10
463.7119747923143
 20
112.2923705773956
 30
0.0
 10
463.2985633340843
 20
111.6584730081097
 30
0.0
 10
462.6646657647983
 20
111.2230129387741
 30
0.0
 10
461.8929643761023
 20
111.0686726610349
 30
0.0
 10
461.8929643761023
 20
111.0686726610349
 30
0.0
 10
458.0675303492809
 20
110.9915025221653
 30
0.0
 10
458.0675303492809
 20
110.9915025221653
 30
0.0
 10
458.0675303492809
 20
110.9915025221653
 30
0.0
 10
4.643010605866209
 20
110.9915025221653
 30
0.0
 10
4.643010605866209
 20
110.9915025221653
 30
0.0
 10
4.643010605866209
 20
110.9915025221653
 30
0.0
 10
4.643010605866209
 20
206.0034464003221
 30
0.0
 10
4.643010605866209
 20
206.0034464003221
 30
0.0
  0
ENDBLK
  5
BC
330
B3
100
AcDbEntity
  8
0
100
AcDbBlockEnd
  0
BLOCK
  5
196
330
15B
100
AcDbEntity
  8
0
100
AcDbBlockBegin
  2
A$Cfafbd171
 70
     0
 10
0.0
 20
0.0
 30
0.0
  3
A$Cfafbd171
  1

  0
POLYLINE
  5
15C
330
15B
100
AcDbEntity
  8
0
 62
     7
100
AcDb2dPolyline
 66
     1
 10
0.0
 20
0.0
 30
0.0
  0
VERTEX
  5
15D
330
15C
100
AcDbEntity
  8
0
 62
     7
100
AcDbVertex
100
AcDb2dVertex
 10
107.0756569035989
 20
305.5000433264027
 30
0.0
  0
VERTEX
  5
15E
330
15C
100
AcDbEntity
  8
0
 62
     7
100
AcDbVertex
100
AcDb2dVertex
 10
163.0515683479382
 20
305.5000433264027
 30
0.0
  0
SEQEND
  5
15F
330
15C
100
AcDbEntity
  8
0
  0
POLYLINE
  5
160
330
15B
100
AcDbEntity
  8
0
 62
     7
100
AcDb2dPolyline
 66
     1
 10
0.0
 20
0.0
 30
0.0
  0
VERTEX
  5
161
330
160
100
AcDbEntity
  8
0
 62
     7
100
AcDbVertex
100
AcDb2dVertex
 10
135.0718808549332
 20
322.256987766658
 30
0.0
  0
VERTEX
  5
162
330
160
100
AcDbEntity
  8
0
 62
     7
100
AcDbVertex
100
AcDb2dVertex
 10
135.0718808549332
 20
288.7375867333711
 30
0.0
  0
SEQEND
  5
163
330
160
100
AcDbEntity
  8
0
  0
SPLINE
  5
164
330
15B
100
AcDbEntity
  8
0
 62
     7
100
AcDbSpline
210
0.0
220
0.0
230
1.0
 70
    11
 71
     3
 72
    26
 73
    22
 74
     0
 42
0.000000001
 43
0.0000000001
 40
0.0
 40
0.0
 40
0.0
 40
0.0
 40
1.0
 40
1.0
 40
1.0
 40
2.0
 40
2.0
 40
2.0
 40
3.0
 40
3.0
 40
3.0
 40
4.0
 40
4.0
 40
4.0
 40
5.0
 40
5.0
 40
5.0
 40
6.0
 40
6.0
 40
6.0
 40
7.0
 40
7.0
 40
7.0
 40
7.0
 10
140.0493548120221
 20
315.4880641572391
 30
0.0
 10
140.0493548120221
 20
315.4880641572391
 30
0.0
 10
130.0668461339622
 20
315.4880641572391
 30
0.0
 10
130.0668461339622
 20
315.4880641572391
 30
0.0
 10
124.549181204786
 20
315.4880641572391
 30
0.0
 10
120.0678009975731
 20
311.0232204083553
 30
0.0
 10
120.0678009975731
 20
305.5000433264027
 30
0.0
 10
120.0678009975731
 20
299.9768662444502
 30
0.0
 10
124.549181204786
 20
295.5009981900136
 30
0.0
 10
130.0668461339622
 20
295.5009981900136
 30
0.0
 10
130.0668461339622
 20
295.5009981900136
 30
0.0
 10
140.0493548120221
 20
295.5009981900136
 30
0.0
 10
140.0493548120221
 20
295.5009981900136
 30
0.0
 10
145.5780440467511
 20
295.5009981900136
 30
0.0
 10
150.0483999484112
 20
299.9768662444502
 30
0.0
 10
150.0483999484112
 20
305.5000433264027
 30
0.0
 10
150.0483999484112
 20
311.0232204083553
 30
0.0
 10
145.5780440467511
 20
315.4880641572391
 30
0.0
 10
140.0493548120221
 20
315.4880641572391
 30
0.0
 10
140.0493548120221
 20
315.4880641572391
 30
0.0
 10
140.0493548120221
 20
315.4880641572391
 30
0.0
 10
140.0493548120221
 20
315.4880641572391
 30
0.0
  0
POLYLINE
  5
165
330
15B
100
AcDbEntity
  8
0
 62
     7
100
AcDb2dPolyline
 66
     1
 10
0.0
 20
0.0
 30
0.0
  0
VERTEX
  5
166
330
165
100
AcDbEntity
  8
0
 62
     7
100
AcDbVertex
100
AcDb2dVertex
 10
443.041368625163
 20
305.5000433264027
 30
0.0
  0
VERTEX
  5
167
330
165
100
AcDbEntity
  8
0
 62
     7
100
AcDbVertex
100
AcDb2dVertex
 10
387.0764814863765
 20
305.5000433264027
 30
0.0
  0
SEQEND
  5
168
330
165
100
AcDbEntity
  8
0
  0
POLYLINE
  5
169
330
15B
100
AcDbEntity
  8
0
 62
     7
100
AcDb2dPolyline
 66
     1
 10
0.0
 20
0.0
 30
0.0
  0
VERTEX
  5
16A
330
169
100
AcDbEntity
  8
0
 62
     7
100
AcDbVertex
100
AcDb2dVertex
 10
415.0561689793815
 20
322.256987766658
 30
0.0
  0
VERTEX
  5
16B
330
169
100
AcDbEntity
  8
0
 62
     7
100
AcDbVertex
100
AcDb2dVertex
 10
415.0561689793815
 20
288.7375867333711
 30
0.0
  0
SEQEND
  5
16C
330
169
100
AcDbEntity
  8
0
  0
SPLINE
  5
16D
330
15B
100
AcDbEntity
  8
0
 62
     7
100
AcDbSpline
210
0.0
220
0.0
230
1.0
 70
    11
 71
     3
 72
    26
 73
    22
 74
     0
 42
0.000000001
 43
0.0000000001
 40
0.0
 40
0.0
 40
0.0
 40
0.0
 40
1.0
 40
1.0
 40
1.0
 40
2.0
 40
2.0
 40
2.0
 40
3.0
 40
3.0
 40
3.0
 40
4.0
 40
4.0
 40
4.0
 40
5.0
 40
5.0
 40
5.0
 40
6.0
 40
6.0
 40
6.0
 40
7.0
 40
7.0
 40
7.0
 40
7.0
 10
410.0786950222925
 20
315.4880641572391
 30
0.0
 10
410.0786950222925
 20
315.4880641572391
 30
0.0
 10
420.0612037003525
 20
315.4880641572391
 30
0.0
 10
420.0612037003525
 20
315.4880641572391
 30
0.0
 10
425.5788686295286
 20
315.4880641572391
 30
0.0
 10
430.0602488367416
 20
311.0232204083553
 30
0.0
 10
430.0602488367416
 20
305.5000433264027
 30
0.0
 10
430.0602488367416
 20
299.9768662444502
 30
0.0
 10
425.5788686295286
 20
295.5009981900136
 30
0.0
 10
420.0612037003525
 20
295.5009981900136
 30
0.0
 10
420.0612037003525
 20
295.5009981900136
 30
0.0
 10
410.0786950222925
 20
295.5009981900136
 30
0.0
 10
410.0786950222925
 20
295.5009981900136
 30
0.0
 10
404.5610300931164
 20
295.5009981900136
 30
0.0
 10
400.0796498859034
 20
299.9768662444502
 30
0.0
 10
400.0796498859034
 20
305.5000433264027
 30
0.0
 10
400.0796498859034
 20
311.0232204083553
 30
0.0
 10
404.5610300931164
 20
315.4880641572391
 30
0.0
 10
410.0786950222925
 20
315.4880641572391
 30
0.0
 10
410.0786950222925
 20
315.4880641572391
 30
0.0
 10
410.0786950222925
 20
315.4880641572391
 30
0.0
 10
410.0786950222925
 20
315.4880641572391
 30
0.0
  0
POLYLINE
  5
16E
330
15B
100
AcDbEntity
  8
0
 62
     7
100
AcDb2dPolyline
 66
     1
 10
0.0
 20
0.0
 30
0.0
  0
VERTEX
  5
16F
330
16E
100
AcDbEntity
  8
0
 62
     7
100
AcDbVertex
100
AcDb2dVertex
 10
275.0695370699337
 20
225.4635850130785
 30
0.0
  0
VERTEX
  5
170
330
16E
100
AcDbEntity
  8
0
 62
     7
100
AcDbVertex
100
AcDb2dVertex
 10
275.0695370699337
 20
144.4680121166607
 30
0.0
  0
SEQEND
  5
171
330
16E
100
AcDbEntity
  8
0
  0
SPLINE
  5
172
330
15B
100
AcDbEntity
  8
0
 62
     7
100
AcDbSpline
210
0.0
220
0.0
230
1.0
 70
     9
 71
     3
 72
    44
 73
    40
 74
     0
 42
0.000000001
 43
0.0000000001
 40
0.0
 40
0.0
 40
0.0
 40
0.0
 40
1.0
 40
1.0
 40
1.0
 40
2.0
 40
2.0
 40
2.0
 40
3.0
 40
3.0
 40
3.0
 40
4.0
 40
4.0
 40
4.0
 40
5.0
 40
5.0
 40
5.0
 40
6.0
 40
6.0
 40
6.0
 40
7.0
 40
7.0
 40
7.0
 40
8.0
 40
8.0
 40
8.0
 40
9.0
 40
9.0
 40
9.0
 40
10.0
 40
10.0
 40
10.0
 40
11.0
 40
11.0
 40
11.0
 40
12.0
 40
12.0
 40
12.0
 40
13.0
 40
13.0
 40
13.0
 40
13.0
 10
541.6868547116128
 20
255.4772568805751
 30
0.0
 10
543.2853790167687
 20
255.4772568805751
 30
0.0
 10
544.4815161692474
 20
256.5411023664203
 30
0.0
 10
544.6634172108685
 20
258.1341145187998
 30
0.0
 10
544.6634172108685
 20
258.1341145187998
 30
0.0
 10
544.7736602663966
 20
259.060156185235
 30
0.0
 10
544.7736602663966
 20
259.060156185235
 30
0.0
 10
546.0028703355337
 20
269.748220418674
 30
0.0
 10
547.028130751944
 20
280.4528211104424
 30
0.0
 10
547.8770022795097
 20
291.1849825660926
 30
0.0
 10
549.2219675569511
 20
308.5978731867395
 30
0.0
 10
549.8448408206843
 20
326.049348876821
 30
0.0
 10
550.0487904734111
 20
343.5118488724553
 30
0.0
 10
550.0487904734111
 20
343.5118488724553
 30
0.0
 10
550.0708390845168
 20
344.0961370667537
 30
0.0
 10
550.0708390845168
 20
344.0961370667537
 30
0.0
 10
549.7897192929204
 20
347.7065971352956
 30
0.0
 10
546.752523113124
 20
350.4957464401538
 30
0.0
 10
543.0924536695946
 20
350.4957464401538
 30
0.0
 10
543.0924536695946
 20
350.4957464401538
 30
0.0
 10
7.041108317496423
 20
350.4957464401538
 30
0.0
 10
7.041108317496423
 20
350.4957464401538
 30
0.0
 10
3.386551026743404
 20
350.4957464401538
 30
0.0
 10
0.3438426941706894
 20
347.7065971352956
 30
0.0
 10
0.0627229025743645
 20
344.0961370667537
 30
0.0
 10
0.3217940830651287
 20
326.5840276961318
 30
0.0
 10
0.8730093607050548
 20
309.0774304782862
 30
0.0
 10
2.234511096475841
 20
291.6094183298755
 30
0.0
 10
3.077870471264986
 20
280.7394530548151
 30
0.0
 10
4.119667346004575
 20
269.8915363908604
 30
0.0
 10
5.359901720694438
 20
259.060156185235
 30
0.0
 10
5.359901720694438
 20
259.060156185235
 30
0.0
 10
5.470144776222468
 20
258.1341145187998
 30
0.0
 10
5.470144776222468
 20
258.1341145187998
 30
0.0
 10
5.652045817843657
 20
256.5411023664203
 30
0.0
 10
6.848182970322397
 20
255.4772568805751
 30
0.0
 10
8.452219428254693
 20
255.4772568805751
 30
0.0
 10
8.452219428254693
 20
255.4772568805751
 30
0.0
 10
541.6868547116128
 20
255.4772568805751
 30
0.0
 10
541.6868547116128
 20
255.4772568805751
 30
0.0
  0
SPLINE
  5
173
330
15B
100
AcDbEntity
  8
0
 62
     7
100
AcDbSpline
210
0.0
220
0.0
230
1.0
 70
     8
 71
     3
 72
    20
 73
    16
 74
     0
 42
0.000000001
 43
0.0000000001
 40
0.0
 40
0.0
 40
0.0
 40
0.0
 40
1.0
 40
1.0
 40
1.0
 40
2.0
 40
2.0
 40
2.0
 40
3.0
 40
3.0
 40
3.0
 40
4.0
 40
4.0
 40
4.0
 40
5.0
 40
5.0
 40
5.0
 40
5.0
 10
312.4970544216879
 20
195.4664496039111
 30
0.0
 10
312.4970544216879
 20
195.4664496039111
 30
0.0
 10
310.0331221306373
 20
177.9102430110779
 30
0.0
 10
310.0331221306373
 20
177.9102430110779
 30
0.0
 10
309.7575144918173
 20
175.9368923171269
 30
0.0
 10
308.0597714366862
 20
174.4651475258281
 30
0.0
 10
306.0698842844059
 20
174.4651475258281
 30
0.0
 10
306.0698842844059
 20
174.4651475258281
 30
0.0
 10
244.0636777026852
 20
174.4651475258281
 30
0.0
 10
244.0636777026852
 20
174.4651475258281
 30
0.0
 10
242.0682783976285
 20
174.4651475258281
 30
0.0
 10
240.3760474952738
 20
175.9368923171269
 30
0.0
 10
240.1004398564538
 20
177.9102430110779
 30
0.0
 10
240.1004398564538
 20
177.9102430110779
 30
0.0
 10
237.6309954126267
 20
195.4664496039111
 30
0.0
 10
237.6309954126267
 20
195.4664496039111
 30
0.0
  0
SPLINE
  5
174
330
15B
100
AcDbEntity
  8
0
 62
     7
100
AcDbSpline
210
0.0
220
0.0
230
1.0
 70
     8
 71
     3
 72
    35
 73
    31
 74
     0
 42
0.000000001
 43
0.0000000001
 40
0.0
 40
0.0
 40
0.0
 40
0.0
 40
1.0
 40
1.0
 40
1.0
 40
2.0
 40
2.0
 40
2.0
 40
3.0
 40
3.0
 40
3.0
 40
4.0
 40
4.0
 40
4.0
 40
5.0
 40
5.0
 40
5.0
 40
6.0
 40
6.0
 40
6.0
 40
7.0
 40
7.0
 40
7.0
 40
8.0
 40
8.0
 40
8.0
 40
9.0
 40
9.0
 40
9.0
 40
10.0
 40
10.0
 40
10.0
 40
10.0
 10
496.8565161811536
 20
255.4772568805751
 30
0.0
 10
496.117887709116
 20
246.2884982023167
 30
0.0
 10
494.8170196538857
 20
237.1052516768348
 30
0.0
 10
491.9837731268163
 20
228.296831540148
 30
0.0
 10
489.5253529885421
 20
220.6459634865052
 30
0.0
 10
485.9038686144474
 20
213.1935329328127
 30
0.0
 10
480.3090335464016
 20
207.3175780731706
 30
0.0
 10
475.0283911866107
 20
201.7613280745596
 30
0.0
 10
468.3752227854962
 20
198.525694394813
 30
0.0
 10
461.2810821622697
 20
195.8963975204703
 30
0.0
 10
461.2810821622697
 20
195.8963975204703
 30
0.0
 10
390.350700235558
 20
195.4664496039111
 30
0.0
 10
390.350700235558
 20
195.4664496039111
 30
0.0
 10
390.350700235558
 20
195.4664496039111
 30
0.0
 10
275.0695370699337
 20
195.4664496039111
 30
0.0
 10
275.0695370699337
 20
195.4664496039111
 30
0.0
 10
275.0695370699337
 20
195.4664496039111
 30
0.0
 10
159.7773495987568
 20
195.4664496039111
 30
0.0
 10
159.7773495987568
 20
195.4664496039111
 30
0.0
 10
159.7773495987568
 20
195.4664496039111
 30
0.0
 10
88.85799197759775
 20
195.8963975204703
 30
0.0
 10
88.85799197759775
 20
195.8963975204703
 30
0.0
 10
81.75833920159488
 20
198.525694394813
 30
0.0
 10
75.10517080048038
 20
201.7613280745596
 30
0.0
 10
69.81901628791303
 20
207.3175780731706
 30
0.0
 10
64.2352055254201
 20
213.1935329328127
 30
0.0
 10
60.60820899854906
 20
220.6459634865052
 30
0.0
 10
58.14427670749839
 20
228.296831540148
 30
0.0
 10
55.31654233320532
 20
237.1052516768348
 30
0.0
 10
54.02118643075138
 20
246.2884982023167
 30
0.0
 10
53.2770458059374
 20
255.4772568805751
 30
0.0
  0
POLYLINE
  5
175
330
15B
100
AcDbEntity
  8
0
 62
     7
100
AcDb2dPolyline
 66
     1
 10
0.0
 20
0.0
 30
0.0
  0
VERTEX
  5
176
330
175
100
AcDbEntity
  8
0
 62
     7
100
AcDbVertex
100
AcDb2dVertex
 10
275.0695370699337
 20
0.0
 30
0.0
  0
VERTEX
  5
177
330
175
100
AcDbEntity
  8
0
 62
     7
100
AcDbVertex
100
AcDb2dVertex
 10
275.0695370699337
 20
30.46015624238493
 30
0.0
  0
VERTEX
  5
178
330
175
100
AcDbEntity
  8
0
 62
     7
100
AcDbVertex
100
AcDb2dVertex
 10
275.0695370699337
 20
60.92582463754633
 30
0.0
  0
SEQEND
  5
179
330
175
100
AcDbEntity
  8
0
  0
SPLINE
  5
17A
330
15B
100
AcDbEntity
  8
0
 62
     7
100
AcDbSpline
210
0.0
220
0.0
230
1.0
 70
     9
 71
     3
 72
    17
 73
    13
 74
     0
 42
0.000000001
 43
0.0000000001
 40
0.0
 40
0.0
 40
0.0
 40
0.0
 40
1.0
 40
1.0
 40
1.0
 40
2.0
 40
2.0
 40
2.0
 40
3.0
 40
3.0
 40
3.0
 40
4.0
 40
4.0
 40
4.0
 40
4.0
 10
295.0235301205008
 20
30.46015624238493
 30
0.0
 10
295.0235301205008
 20
41.478949642408
 30
0.0
 10
286.0828183171804
 20
50.43068575128121
 30
0.0
 10
275.0695370699337
 20
50.43068575128121
 30
0.0
 10
264.0672801282399
 20
50.43068575128121
 30
0.0
 10
255.1155440193667
 20
41.478949642408
 30
0.0
 10
255.1155440193667
 20
30.46015624238493
 30
0.0
 10
255.1155440193667
 20
19.43033853680907
 30
0.0
 10
264.0672801282399
 20
10.47860242793587
 30
0.0
 10
275.0695370699337
 20
10.47860242793587
 30
0.0
 10
286.0828183171804
 20
10.47860242793587
 30
0.0
 10
295.0235301205008
 20
19.43033853680907
 30
0.0
 10
295.0235301205008
 20
30.46015624238493
 30
0.0
  0
POLYLINE
  5
17B
330
15B
100
AcDbEntity
  8
0
 62
     7
100
AcDb2dPolyline
 66
     1
 10
0.0
 20
0.0
 30
0.0
  0
VERTEX
  5
17C
330
17B
100
AcDbEntity
  8
0
 62
     7
100
AcDbVertex
100
AcDb2dVertex
 10
200.7657176440653
 20
100.4644965026616
 30
0.0
  0
VERTEX
  5
17D
330
17B
100
AcDbEntity
  8
0
 62
     7
100
AcDbVertex
100
AcDb2dVertex
 10
215.1469242376922
 20
100.4644965026616
 30
0.0
  0
VERTEX
  5
17E
330
17B
100
AcDbEntity
  8
0
 62
     7
100
AcDbVertex
100
AcDb2dVertex
 10
229.5171065257663
 20
100.4644965026616
 30
0.0
  0
SEQEND
  5
17F
330
17B
100
AcDbEntity
  8
0
  0
SPLINE
  5
180
330
15B
100
AcDbEntity
  8
0
 62
     7
100
AcDbSpline
210
0.0
220
0.0
230
1.0
 70
     9
 71
     3
 72
    17
 73
    13
 74
     0
 42
0.000000001
 43
0.0000000001
 40
0.0
 40
0.0
 40
0.0
 40
0.0
 40
1.0
 40
1.0
 40
1.0
 40
2.0
 40
2.0
 40
2.0
 40
3.0
 40
3.0
 40
3.0
 40
4.0
 40
4.0
 40
4.0
 40
4.0
 10
225.1239207629757
 20
100.4644965026616
 30
0.0
 10
225.1239207629757
 20
105.971137126285
 30
0.0
 10
220.6535648613155
 20
110.4470051807215
 30
0.0
 10
215.1469242376922
 20
110.4470051807215
 30
0.0
 10
209.6457957668452
 20
110.4470051807215
 30
0.0
 10
205.1699277124086
 20
105.971137126285
 30
0.0
 10
205.1699277124086
 20
100.4644965026616
 30
0.0
 10
205.1699277124086
 20
94.95234372626191
 30
0.0
 10
209.6457957668452
 20
90.48198782460174
 30
0.0
 10
215.1469242376922
 20
90.48198782460174
 30
0.0
 10
220.6535648613155
 20
90.48198782460174
 30
0.0
 10
225.1239207629757
 20
94.95234372626191
 30
0.0
 10
225.1239207629757
 20
100.4644965026616
 30
0.0
  0
POLYLINE
  5
181
330
15B
100
AcDbEntity
  8
0
 62
     7
100
AcDb2dPolyline
 66
     1
 10
0.0
 20
0.0
 30
0.0
  0
VERTEX
  5
182
330
181
100
AcDbEntity
  8
0
 62
     7
100
AcDbVertex
100
AcDb2dVertex
 10
215.1469242376922
 20
85.23441838146913
 30
0.0
  0
VERTEX
  5
183
330
181
100
AcDbEntity
  8
0
 62
     7
100
AcDbVertex
100
AcDb2dVertex
 10
215.1469242376922
 20
100.4644965026616
 30
0.0
  0
VERTEX
  5
184
330
181
100
AcDbEntity
  8
0
 62
     7
100
AcDbVertex
100
AcDb2dVertex
 10
215.1469242376922
 20
115.6945746238541
 30
0.0
  0
SEQEND
  5
185
330
181
100
AcDbEntity
  8
0
  0
POLYLINE
  5
186
330
15B
100
AcDbEntity
  8
0
 62
     7
100
AcDb2dPolyline
 66
     1
 10
0.0
 20
0.0
 30
0.0
  0
VERTEX
  5
187
330
186
100
AcDbEntity
  8
0
 62
     7
100
AcDbVertex
100
AcDb2dVertex
 10
334.9866377493989
 20
85.23441838146913
 30
0.0
  0
VERTEX
  5
188
330
186
100
AcDbEntity
  8
0
 62
     7
100
AcDbVertex
100
AcDb2dVertex
 10
334.9866377493989
 20
100.4644965026616
 30
0.0
  0
VERTEX
  5
189
330
186
100
AcDbEntity
  8
0
 62
     7
100
AcDbVertex
100
AcDb2dVertex
 10
334.9866377493989
 20
115.6945746238541
 30
0.0
  0
SEQEND
  5
18A
330
186
100
AcDbEntity
  8
0
  0
POLYLINE
  5
18B
330
15B
100
AcDbEntity
  8
0
 62
     7
100
AcDb2dPolyline
 66
     1
 10
0.0
 20
0.0
 30
0.0
  0
VERTEX
  5
18C
330
18B
100
AcDbEntity
  8
0
 62
     7
100
AcDbVertex
100
AcDb2dVertex
 10
319.7730960865357
 20
100.4644965026616
 30
0.0
  0
VERTEX
  5
18D
330
18B
100
AcDbEntity
  8
0
 62
     7
100
AcDbVertex
100
AcDb2dVertex
 10
334.9866377493989
 20
100.4644965026616
 30
0.0
  0
VERTEX
  5
18E
330
18B
100
AcDbEntity
  8
0
 62
     7
100
AcDbVertex
100
AcDb2dVertex
 10
350.2167158705914
 20
100.4644965026616
 30
0.0
  0
SEQEND
  5
18F
330
18B
100
AcDbEntity
  8
0
  0
SPLINE
  5
190
330
15B
100
AcDbEntity
  8
0
 62
     7
100
AcDbSpline
210
0.0
220
0.0
230
1.0
 70
     9
 71
     3
 72
    17
 73
    13
 74
     0
 42
0.000000001
 43
0.0000000001
 40
0.0
 40
0.0
 40
0.0
 40
0.0
 40
1.0
 40
1.0
 40
1.0
 40
2.0
 40
2.0
 40
2.0
 40
3.0
 40
3.0
 40
3.0
 40
4.0
 40
4.0
 40
4.0
 40
4.0
 10
344.9636342746825
 20
100.4644965026616
 30
0.0
 10
344.9636342746825
 20
105.971137126285
 30
0.0
 10
340.5153269841278
 20
110.4470051807215
 30
0.0
 10
334.9866377493989
 20
110.4470051807215
 30
0.0
 10
329.4910214313284
 20
110.4470051807215
 30
0.0
 10
325.0096412241154
 20
105.971137126285
 30
0.0
 10
325.0096412241154
 20
100.4644965026616
 30
0.0
 10
325.0096412241154
 20
94.95234372626191
 30
0.0
 10
329.4910214313284
 20
90.48198782460174
 30
0.0
 10
334.9866377493989
 20
90.48198782460174
 30
0.0
 10
340.5153269841278
 20
90.48198782460174
 30
0.0
 10
344.9636342746825
 20
94.95234372626191
 30
0.0
 10
344.9636342746825
 20
100.4644965026616
 30
0.0
  0
POLYLINE
  5
191
330
15B
100
AcDbEntity
  8
0
 62
     7
100
AcDb2dPolyline
 66
     1
 10
0.0
 20
0.0
 30
0.0
  0
VERTEX
  5
192
330
191
100
AcDbEntity
  8
0
 62
     7
100
AcDbVertex
100
AcDb2dVertex
 10
305.5131568539895
 20
30.46015624238493
 30
0.0
  0
VERTEX
  5
193
330
191
100
AcDbEntity
  8
0
 62
     7
100
AcDbVertex
100
AcDb2dVertex
 10
275.0860735282629
 20
30.46015624238493
 30
0.0
  0
VERTEX
  5
194
330
191
100
AcDbEntity
  8
0
 62
     7
100
AcDbVertex
100
AcDb2dVertex
 10
244.6424537442072
 20
30.46015624238493
 30
0.0
  0
SEQEND
  5
195
330
191
100
AcDbEntity
  8
0
  0
ENDBLK
  5
197
330
15B
100
AcDbEntity
  8
0
100
AcDbBlockEnd
  0
BLOCK
  5
1AD
330
1AC
100
AcDbEntity
  8
0
100
AcDbBlockBegin
  2
*D5
 70
     1
 10
0.0
 20
0.0
 30
0.0
  3
*D5
  1

  0
LINE
  5
1C3
330
1AC
100
AcDbEntity
  8
0
 62
     0
440
 16777216
370
    -2
100
AcDbLine
 10
-477.2810141655041
 20
-719.8028855617817
 30
0.0
 11
-1094.817135550311
 21
-719.8028855617819
 31
0.0
  0
LINE
  5
1C4
330
1AC
100
AcDbEntity
  8
0
 62
     0
440
 16777216
370
    -2
100
AcDbLine
 10
-884.6356500228671
 20
-624.790941683625
 30
0.0
 11
-1094.817135550311
 21
-624.790941683625
 31
0.0
  0
LINE
  5
1C5
330
1AC
100
AcDbEntity
  8
0
 62
     0
440
 16777216
370
    -2
100
AcDbLine
 10
-1094.637135550311
 20
-719.6228855617818
 30
0.0
 11
-1094.637135550311
 21
-677.3869136227035
 31
0.0
  0
LINE
  5
1C6
330
1AC
100
AcDbEntity
  8
0
 62
     0
440
 16777216
370
    -2
100
AcDbLine
 10
-1094.637135550311
 20
-624.970941683625
 30
0.0
 11
-1094.637135550311
 21
-667.2069136227035
 31
0.0
  0
SOLID
  5
1C7
330
1AC
100
AcDbEntity
  8
0
 62
     0
440
 16777216
100
AcDbTrace
 10
-1094.667135550311
 20
-719.6228855617818
 30
0.0
 11
-1094.607135550311
 21
-719.6228855617818
 31
0.0
 12
-1094.637135550311
 22
-719.8028855617819
 32
0.0
 13
-1094.637135550311
 23
-719.8028855617819
 33
0.0
  0
SOLID
  5
1C8
330
1AC
100
AcDbEntity
  8
0
 62
     0
440
 16777216
100
AcDbTrace
 10
-1094.667135550311
 20
-624.970941683625
 30
0.0
 11
-1094.607135550311
 21
-624.970941683625
 31
0.0
 12
-1094.637135550311
 22
-624.790941683625
 32
0.0
 13
-1094.637135550311
 23
-624.790941683625
 33
0.0
  0
MTEXT
  5
1C9
330
1AC
100
AcDbEntity
  8
0
 62
     0
440
 16777216
100
AcDbMText
 10
-1094.637135550311
 20
-672.296913622703
 30
0.0
 40
10.0
 41
0.0
 46
0.0
 71
     5
 72
     1
  1
\A1;95.0119
 73
     1
 44
1.0
  0
POINT
  5
1CA
330
1AC
100
AcDbEntity
  8
Defpoints
 62
     0
440
 16777216
100
AcDbPoint
 10
-477.2185141655041
 20
-719.8028855617817
 30
0.0
  0
POINT
  5
1CB
330
1AC
100
AcDbEntity
  8
Defpoints
 62
     0
440
 16777216
100
AcDbPoint
 10
-884.5731500228671
 20
-624.790941683625
 30
0.0
  0
POINT
  5
1CC
330
1AC
100
AcDbEntity
  8
Defpoints
 62
     0
440
 16777216
100
AcDbPoint
 10
-1094.637135550311
 20
-624.790941683625
 30
0.0
  0
ENDBLK
  5
1AE
330
1AC
100
AcDbEntity
  8
0
100
AcDbBlockEnd
  0
ENDSEC
  0
SECTION
  2
ENTITIES
  0
SPLINE
  5
24
330
2
100
AcDbEntity
  8
0
 62
     7
100
AcDbSpline
210
0.0
220
0.0
230
1.0
 70
    11
 71
     3
 72
    62
 73
    58
 74
     0
 42
0.000000001
 43
0.0000000001
 40
0.0
 40
0.0
 40
0.0
 40
0.0
 40
1.0
 40
1.0
 40
1.0
 40
2.0
 40
2.0
 40
2.0
 40
3.0
 40
3.0
 40
3.0
 40
4.0
 40
4.0
 40
4.0
 40
5.0
 40
5.0
 40
5.0
 40
6.0
 40
6.0
 40
6.0
 40
7.0
 40
7.0
 40
7.0
 40
8.0
 40
8.0
 40
8.0
 40
9.0
 40
9.0
 40
9.0
 40
10.0
 40
10.0
 40
10.0
 40
11.0
 40
11.0
 40
11.0
 40
12.0
 40
12.0
 40
12.0
 40
13.0
 40
13.0
 40
13.0
 40
14.0
 40
14.0
 40
14.0
 40
15.0
 40
15.0
 40
15.0
 40
16.0
 40
16.0
 40
16.0
 40
17.0
 40
17.0
 40
17.0
 40
18.0
 40
18.0
 40
18.0
 40
19.0
 40
19.0
 40
19.0
 40
19.0
 10
0.0
 20
-453.2863714144562
 30
0.0
 10
0.0
 20
-453.2863714144562
 30
0.0
 10
230.9867620950311
 20
-453.2863714144562
 30
0.0
 10
230.9867620950311
 20
-453.2863714144562
 30
0.0
 10
248.8681857016719
 20
-453.2863714144562
 30
0.0
 10
263.2824652119572
 20
-438.4035589181769
 30
0.0
 10
263.2824652119572
 20
-420.6544269781697
 30
0.0
 10
263.2824652119572
 20
-420.6544269781697
 30
0.0
 10
263.2824652119572
 20
-170.8161023878515
 30
0.0
 10
263.2824652119572
 20
-170.8161023878515
 30
0.0
 10
263.2824652119572
 20
-170.8161023878515
 30
0.0
 10
263.2824652119572
 20
-164.7802950976938
 30
0.0
 10
263.2824652119572
 20
-164.7802950976938
 30
0.0
 10
263.2879773647336
 20
-158.3917100298465
 30
0.0
 10
262.3068141705344
 20
-152.5102430174279
 30
0.0
 10
258.9995225046946
 20
-147.0256510049102
 30
0.0
 10
256.3040797970351
 20
-142.5663194088028
 30
0.0
 10
252.5282551452013
 20
-138.7023003125466
 30
0.0
 10
248.1185329240815
 20
-135.9241753132411
 30
0.0
 10
243.1796440364273
 20
-132.8042968417989
 30
0.0
 10
237.700564176686
 20
-131.4758680226866
 30
0.0
 10
231.8962673031371
 20
-131.426258647699
 30
0.0
 10
231.8962673031371
 20
-131.426258647699
 30
0.0
 10
231.8962673031371
 20
-131.4152343421461
 30
0.0
 10
231.8962673031371
 20
-131.4152343421461
 30
0.0
 10
231.8962673031371
 20
-131.4152343421461
 30
0.0
 10
0.0
 20
-131.4152343421461
 30
0.0
 10
0.0
 20
-131.4152343421461
 30
0.0
 10
0.0
 20
-131.4152343421461
 30
0.0
 10
0.0
 20
-131.4152343421461
 30
0.0
 10
0.0
 20
-131.4152343421461
 30
0.0
 10
0.0
 20
-131.4152343421461
 30
0.0
 10
-231.9017794559135
 20
-131.4152343421461
 30
0.0
 10
-231.9017794559135
 20
-131.4152343421461
 30
0.0
 10
-231.9017794559135
 20
-131.4152343421461
 30
0.0
 10
-231.9017794559135
 20
-131.426258647699
 30
0.0
 10
-231.9017794559135
 20
-131.426258647699
 30
0.0
 10
-237.7115884822388
 20
-131.4758680226866
 30
0.0
 10
-243.1906683419801
 20
-132.8042968417989
 30
0.0
 10
-248.1295572296343
 20
-135.9241753132411
 30
0.0
 10
-252.5392794507541
 20
-138.7023003125466
 30
0.0
 10
-256.3151041025879
 20
-142.5663194088028
 30
0.0
 10
-259.005034657471
 20
-147.0256510049102
 30
0.0
 10
-262.3178384760872
 20
-152.5102430174279
 30
0.0
 10
-263.2990016702864
 20
-158.3917100298465
 30
0.0
 10
-263.29348951751
 20
-164.7802950976938
 30
0.0
 10
-263.29348951751
 20
-164.7802950976938
 30
0.0
 10
-263.29348951751
 20
-170.8161023878515
 30
0.0
 10
-263.29348951751
 20
-170.8161023878515
 30
0.0
 10
-263.29348951751
 20
-170.8161023878515
 30
0.0
 10
-263.29348951751
 20
-420.6544269781697
 30
0.0
 10
-263.29348951751
 20
-420.6544269781697
 30
0.0
 10
-263.29348951751
 20
-438.4035589181769
 30
0.0
 10
-248.8792100072247
 20
-453.2863714144562
 30
0.0
 10
-230.9977864005839
 20
-453.2863714144562
 30
0.0
 10
-230.9977864005839
 20
-453.2863714144562
 30
0.0
 10
0.0
 20
-453.2863714144562
 30
0.0
 10
0.0
 20
-453.2863714144562
 30
0.0
  0
POLYLINE
  5
25
330
2
100
AcDbEntity
  8
0
 62
     7
100
AcDb2dPolyline
 66
     1
 10
0.0
 20
0.0
 30
0.0
  0
VERTEX
  5
26
330
25
100
AcDbEntity
  8
0
 62
     7
100
AcDbVertex
100
AcDb2dVertex
 10
-56.18537324984255
 20
-200.0029513388881
 30
0.0
  0
VERTEX
  5
27
330
25
100
AcDbEntity
  8
0
 62
     7
100
AcDbVertex
100
AcDb2dVertex
 10
56.18537324984254
 20
-200.0029513388881
 30
0.0
  0
SEQEND
  5
28
330
25
100
AcDbEntity
  8
0
  0
POLYLINE
  5
29
330
2
100
AcDbEntity
  8
0
 62
     7
100
AcDb2dPolyline
 66
     1
 10
0.0
 20
0.0
 30
0.0
  0
VERTEX
  5
2A
330
29
100
AcDbEntity
  8
0
 62
     7
100
AcDbVertex
100
AcDb2dVertex
 10
0.0
 20
-143.8120659362692
 30
0.0
  0
VERTEX
  5
2B
330
29
100
AcDbEntity
  8
0
 62
     7
100
AcDbVertex
100
AcDb2dVertex
 10
0.0
 20
-256.1883245887307
 30
0.0
  0
SEQEND
  5
2C
330
29
100
AcDbEntity
  8
0
  0
SPLINE
  5
2D
330
2
100
AcDbEntity
  8
0
 62
     7
100
AcDbSpline
210
0.0
220
0.0
230
1.0
 70
     9
 71
     3
 72
    17
 73
    13
 74
     0
 42
0.000000001
 43
0.0000000001
 40
0.0
 40
0.0
 40
0.0
 40
0.0
 40
1.0
 40
1.0
 40
1.0
 40
2.0
 40
2.0
 40
2.0
 40
3.0
 40
3.0
 40
3.0
 40
4.0
 40
4.0
 40
4.0
 40
4.0
 10
-37.45507811563623
 20
-200.0029513388881
 30
0.0
 10
-37.45507811563623
 20
-179.3103298162835
 30
0.0
 10
-20.68710936982823
 20
-162.5423610704755
 30
0.0
 10
0.0
 20
-162.5423610704755
 30
0.0
 10
20.68710936982822
 20
-162.5423610704755
 30
0.0
 10
37.46059026841263
 20
-179.3103298162835
 30
0.0
 10
37.46059026841263
 20
-200.0029513388881
 30
0.0
 10
37.46059026841263
 20
-220.6900607087164
 30
0.0
 10
20.68710936982822
 20
-237.4580294545244
 30
0.0
 10
0.0
 20
-237.4580294545244
 30
0.0
 10
-20.68710936982823
 20
-237.4580294545244
 30
0.0
 10
-37.45507811563623
 20
-220.6900607087164
 30
0.0
 10
-37.45507811563623
 20
-200.0029513388881
 30
0.0
  0
SPLINE
  5
2E
330
2
100
AcDbEntity
  8
0
 62
     7
100
AcDbSpline
210
0.0
220
0.0
230
1.0
 70
     9
 71
     3
 72
    17
 73
    13
 74
     0
 42
0.000000001
 43
0.0000000001
 40
0.0
 40
0.0
 40
0.0
 40
0.0
 40
1.0
 40
1.0
 40
1.0
 40
2.0
 40
2.0
 40
2.0
 40
3.0
 40
3.0
 40
3.0
 40
4.0
 40
4.0
 40
4.0
 40
4.0
 10
-22.99670138313972
 20
-200.0029513388881
 30
0.0
 10
-22.99670138313972
 20
-187.2974391892867
 30
0.0
 10
-12.699999996825
 20
-176.9952256501956
 30
0.0
 10
0.0
 20
-176.9952256501956
 30
0.0
 10
12.70551214960139
 20
-176.9952256501956
 30
0.0
 10
23.00221353591611
 20
-187.2974391892867
 30
0.0
 10
23.00221353591611
 20
-200.0029513388881
 30
0.0
 10
23.00221353591611
 20
-212.7029513357132
 30
0.0
 10
12.70551214960139
 20
-223.0051648748042
 30
0.0
 10
0.0
 20
-223.0051648748042
 30
0.0
 10
-12.699999996825
 20
-223.0051648748042
 30
0.0
 10
-22.99670138313972
 20
-212.7029513357132
 30
0.0
 10
-22.99670138313972
 20
-200.0029513388881
 30
0.0
  0
POLYLINE
  5
2F
330
2
100
AcDbEntity
  8
0
 62
     7
100
AcDb2dPolyline
 66
     1
 10
0.0
 20
0.0
 30
0.0
  0
VERTEX
  5
30
330
2F
100
AcDbEntity
  8
0
 62
     7
100
AcDbVertex
100
AcDb2dVertex
 10
119.5034721923463
 20
-64.99930553930574
 30
0.0
  0
VERTEX
  5
31
330
2F
100
AcDbEntity
  8
0
 62
     7
100
AcDbVertex
100
AcDb2dVertex
 10
100.0014756694441
 20
-64.99930553930574
 30
0.0
  0
VERTEX
  5
32
330
2F
100
AcDbEntity
  8
0
 62
     7
100
AcDbVertex
100
AcDb2dVertex
 10
80.5049912993182
 20
-64.99930553930574
 30
0.0
  0
SEQEND
  5
33
330
2F
100
AcDbEntity
  8
0
  0
POLYLINE
  5
34
330
2
100
AcDbEntity
  8
0
 62
     7
100
AcDb2dPolyline
 66
     1
 10
0.0
 20
0.0
 30
0.0
  0
VERTEX
  5
35
330
34
100
AcDbEntity
  8
0
 62
     7
100
AcDbVertex
100
AcDb2dVertex
 10
100.0014756694441
 20
-84.50130206220796
 30
0.0
  0
VERTEX
  5
36
330
34
100
AcDbEntity
  8
0
 62
     7
100
AcDbVertex
100
AcDb2dVertex
 10
100.0014756694441
 20
-64.9882812337529
 30
0.0
  0
VERTEX
  5
37
330
34
100
AcDbEntity
  8
0
 62
     7
100
AcDbVertex
100
AcDb2dVertex
 10
100.0014756694441
 20
-45.48628471085061
 30
0.0
  0
SEQEND
  5
38
330
34
100
AcDbEntity
  8
0
  0
POLYLINE
  5
39
330
2
100
AcDbEntity
  8
0
 62
     7
100
AcDb2dPolyline
 66
     1
 10
0.0
 20
0.0
 30
0.0
  0
VERTEX
  5
3A
330
39
100
AcDbEntity
  8
0
 62
     7
100
AcDbVertex
100
AcDb2dVertex
 10
-80.5049912993182
 20
-64.99930553930574
 30
0.0
  0
VERTEX
  5
3B
330
39
100
AcDbEntity
  8
0
 62
     7
100
AcDbVertex
100
AcDb2dVertex
 10
-100.0014756694441
 20
-64.99930553930574
 30
0.0
  0
VERTEX
  5
3C
330
39
100
AcDbEntity
  8
0
 62
     7
100
AcDbVertex
100
AcDb2dVertex
 10
-119.5034721923463
 20
-64.99930553930574
 30
0.0
  0
SEQEND
  5
3D
330
39
100
AcDbEntity
  8
0
  0
POLYLINE
  5
3E
330
2
100
AcDbEntity
  8
0
 62
     7
100
AcDb2dPolyline
 66
     1
 10
0.0
 20
0.0
 30
0.0
  0
VERTEX
  5
3F
330
3E
100
AcDbEntity
  8
0
 62
     7
100
AcDbVertex
100
AcDb2dVertex
 10
-100.0014756694441
 20
-84.50130206220796
 30
0.0
  0
VERTEX
  5
40
330
3E
100
AcDbEntity
  8
0
 62
     7
100
AcDbVertex
100
AcDb2dVertex
 10
-100.0014756694441
 20
-64.9882812337529
 30
0.0
  0
VERTEX
  5
41
330
3E
100
AcDbEntity
  8
0
 62
     7
100
AcDbVertex
100
AcDb2dVertex
 10
-100.0014756694441
 20
-45.48628471085061
 30
0.0
  0
SEQEND
  5
42
330
3E
100
AcDbEntity
  8
0
  0
POLYLINE
  5
43
330
2
100
AcDbEntity
  8
0
 62
     7
100
AcDb2dPolyline
 66
     1
 10
0.0
 20
0.0
 30
0.0
  0
VERTEX
  5
44
330
43
100
AcDbEntity
  8
0
 62
     7
100
AcDbVertex
100
AcDb2dVertex
 10
0.0
 20
-38.75043401809018
 30
0.0
  0
VERTEX
  5
45
330
43
100
AcDbEntity
  8
0
 62
     7
100
AcDbVertex
100
AcDb2dVertex
 10
0.0
 20
-91.24817706052125
 30
0.0
  0
SEQEND
  5
46
330
43
100
AcDbEntity
  8
0
  0
POLYLINE
  5
47
330
2
100
AcDbEntity
  8
0
 62
     7
100
AcDb2dPolyline
 66
     1
 10
0.0
 20
0.0
 30
0.0
  0
VERTEX
  5
48
330
47
100
AcDbEntity
  8
0
 62
     7
100
AcDbVertex
100
AcDb2dVertex
 10
26.25438367399196
 20
-64.99379338652932
 30
0.0
  0
VERTEX
  5
49
330
47
100
AcDbEntity
  8
0
 62
     7
100
AcDbVertex
100
AcDb2dVertex
 10
-26.24887152121556
 20
-64.99379338652932
 30
0.0
  0
SEQEND
  5
4A
330
47
100
AcDbEntity
  8
0
  0
SPLINE
  5
4B
330
2
100
AcDbEntity
  8
0
 62
     7
100
AcDbSpline
210
0.0
220
0.0
230
1.0
 70
     9
 71
     3
 72
    17
 73
    13
 74
     0
 42
0.000000001
 43
0.0000000001
 40
0.0
 40
0.0
 40
0.0
 40
0.0
 40
1.0
 40
1.0
 40
1.0
 40
2.0
 40
2.0
 40
2.0
 40
3.0
 40
3.0
 40
3.0
 40
4.0
 40
4.0
 40
4.0
 40
4.0
 10
17.50108506506917
 20
-64.99379338652932
 30
0.0
 10
17.50108506506917
 20
-55.33650172227698
 30
0.0
 10
9.668315969805142
 20
-47.50373262701294
 30
0.0
 10
0.0
 20
-47.50373262701294
 30
0.0
 10
-9.657291664252344
 20
-47.50373262701294
 30
0.0
 10
-17.50108506506918
 20
-55.33650172227698
 30
0.0
 10
-17.50108506506918
 20
-64.99379338652932
 30
0.0
 10
-17.50108506506918
 20
-74.66210935633444
 30
0.0
 10
-9.657291664252344
 20
-82.5003906043749
 30
0.0
 10
0.0
 20
-82.5003906043749
 30
0.0
 10
9.668315969805142
 20
-82.5003906043749
 30
0.0
 10
17.50108506506917
 20
-74.66210935633444
 30
0.0
 10
17.50108506506917
 20
-64.99379338652932
 30
0.0
  0
POLYLINE
  5
4D
330
2
100
AcDbEntity
  8
0
 62
     7
100
AcDb2dPolyline
 66
     1
 10
0.0
 20
0.0
 30
0.0
  0
VERTEX
  5
4E
330
4D
100
AcDbEntity
  8
0
 62
     7
100
AcDbVertex
100
AcDb2dVertex
 10
-230.0000867480555
 20
-411.4656682999114
 30
0.0
  0
VERTEX
  5
4F
330
4D
100
AcDbEntity
  8
0
 62
     7
100
AcDbVertex
100
AcDb2dVertex
 10
-230.0000867480555
 20
-424.9980033659727
 30
0.0
  0
VERTEX
  5
50
330
4D
100
AcDbEntity
  8
0
 62
     7
100
AcDbVertex
100
AcDb2dVertex
 10
-230.0000867480555
 20
-438.530338432034
 30
0.0
  0
SEQEND
  5
51
330
4D
100
AcDbEntity
  8
0
  0
POLYLINE
  5
52
330
2
100
AcDbEntity
  8
0
 62
     7
100
AcDb2dPolyline
 66
     1
 10
0.0
 20
0.0
 30
0.0
  0
VERTEX
  5
53
330
52
100
AcDbEntity
  8
0
 62
     7
100
AcDbVertex
100
AcDb2dVertex
 10
-216.478775987547
 20
-424.9980033659727
 30
0.0
  0
VERTEX
  5
54
330
52
100
AcDbEntity
  8
0
 62
     7
100
AcDbVertex
100
AcDb2dVertex
 10
-230.0000867480555
 20
-424.9980033659727
 30
0.0
  0
VERTEX
  5
55
330
52
100
AcDbEntity
  8
0
 62
     7
100
AcDbVertex
100
AcDb2dVertex
 10
-243.5324218141169
 20
-424.9980033659727
 30
0.0
  0
SEQEND
  5
56
330
52
100
AcDbEntity
  8
0
  0
POLYLINE
  5
57
330
2
100
AcDbEntity
  8
0
 62
     7
100
AcDb2dPolyline
 66
     1
 10
0.0
 20
0.0
 30
0.0
  0
VERTEX
  5
58
330
57
100
AcDbEntity
  8
0
 62
     7
100
AcDbVertex
100
AcDb2dVertex
 10
230.005598900832
 20
-411.4656682999114
 30
0.0
  0
VERTEX
  5
59
330
57
100
AcDbEntity
  8
0
 62
     7
100
AcDbVertex
100
AcDb2dVertex
 10
230.005598900832
 20
-424.9980033659727
 30
0.0
  0
VERTEX
  5
5A
330
57
100
AcDbEntity
  8
0
 62
     7
100
AcDbVertex
100
AcDb2dVertex
 10
230.005598900832
 20
-438.530338432034
 30
0.0
  0
SEQEND
  5
5B
330
57
100
AcDbEntity
  8
0
  0
POLYLINE
  5
5C
330
2
100
AcDbEntity
  8
0
 62
     7
100
AcDb2dPolyline
 66
     1
 10
0.0
 20
0.0
 30
0.0
  0
VERTEX
  5
5D
330
5C
100
AcDbEntity
  8
0
 62
     7
100
AcDbVertex
100
AcDb2dVertex
 10
243.5213975085641
 20
-424.9980033659727
 30
0.0
  0
VERTEX
  5
5E
330
5C
100
AcDbEntity
  8
0
 62
     7
100
AcDbVertex
100
AcDb2dVertex
 10
230.005598900832
 20
-424.9980033659727
 30
0.0
  0
VERTEX
  5
5F
330
5C
100
AcDbEntity
  8
0
 62
     7
100
AcDbVertex
100
AcDb2dVertex
 10
216.4732638347706
 20
-424.9980033659727
 30
0.0
  0
SEQEND
  5
60
330
5C
100
AcDbEntity
  8
0
  0
POLYLINE
  5
FB
330
2
100
AcDbEntity
  8
0
 62
     7
100
AcDb2dPolyline
 66
     1
 10
0.0
 20
0.0
 30
0.0
  0
VERTEX
  5
FC
330
FB
100
AcDbEntity
  8
0
 62
     7
100
AcDbVertex
100
AcDb2dVertex
 10
-161.6640423917061
 20
-669.7623568742048
 30
0.0
  0
VERTEX
  5
FD
330
FB
100
AcDbEntity
  8
0
 62
     7
100
AcDbVertex
100
AcDb2dVertex
 10
-105.6881309473668
 20
-669.7623568742048
 30
0.0
  0
SEQEND
  5
FE
330
FB
100
AcDbEntity
  8
0
  0
POLYLINE
  5
FF
330
2
100
AcDbEntity
  8
0
 62
     7
100
AcDb2dPolyline
 66
     1
 10
0.0
 20
0.0
 30
0.0
  0
VERTEX
  5
100
330
FF
100
AcDbEntity
  8
0
 62
     7
100
AcDbVertex
100
AcDb2dVertex
 10
-133.6678184403719
 20
-653.0054124339495
 30
0.0
  0
VERTEX
  5
101
330
FF
100
AcDbEntity
  8
0
 62
     7
100
AcDbVertex
100
AcDb2dVertex
 10
-133.6678184403719
 20
-686.5248134672364
 30
0.0
  0
SEQEND
  5
102
330
FF
100
AcDbEntity
  8
0
  0
SPLINE
  5
103
330
2
100
AcDbEntity
  8
0
 62
     7
100
AcDbSpline
210
0.0
220
0.0
230
1.0
 70
    11
 71
     3
 72
    26
 73
    22
 74
     0
 42
0.000000001
 43
0.0000000001
 40
0.0
 40
0.0
 40
0.0
 40
0.0
 40
1.0
 40
1.0
 40
1.0
 40
2.0
 40
2.0
 40
2.0
 40
3.0
 40
3.0
 40
3.0
 40
4.0
 40
4.0
 40
4.0
 40
5.0
 40
5.0
 40
5.0
 40
6.0
 40
6.0
 40
6.0
 40
7.0
 40
7.0
 40
7.0
 40
7.0
 10
-128.6903444832829
 20
-659.7743360433684
 30
0.0
 10
-128.6903444832829
 20
-659.7743360433684
 30
0.0
 10
-138.6728531613428
 20
-659.7743360433684
 30
0.0
 10
-138.6728531613428
 20
-659.7743360433684
 30
0.0
 10
-144.190518090519
 20
-659.7743360433684
 30
0.0
 10
-148.671898297732
 20
-664.2391797922522
 30
0.0
 10
-148.671898297732
 20
-669.7623568742048
 30
0.0
 10
-148.671898297732
 20
-675.2855339561573
 30
0.0
 10
-144.190518090519
 20
-679.761402010594
 30
0.0
 10
-138.6728531613428
 20
-679.761402010594
 30
0.0
 10
-138.6728531613428
 20
-679.761402010594
 30
0.0
 10
-128.6903444832829
 20
-679.761402010594
 30
0.0
 10
-128.6903444832829
 20
-679.761402010594
 30
0.0
 10
-123.161655248554
 20
-679.761402010594
 30
0.0
 10
-118.6912993468938
 20
-675.2855339561573
 30
0.0
 10
-118.6912993468938
 20
-669.7623568742048
 30
0.0
 10
-118.6912993468938
 20
-664.2391797922522
 30
0.0
 10
-123.161655248554
 20
-659.7743360433684
 30
0.0
 10
-128.6903444832829
 20
-659.7743360433684
 30
0.0
 10
-128.6903444832829
 20
-659.7743360433684
 30
0.0
 10
-128.6903444832829
 20
-659.7743360433684
 30
0.0
 10
-128.6903444832829
 20
-659.7743360433684
 30
0.0
  0
POLYLINE
  5
104
330
2
100
AcDbEntity
  8
0
 62
     7
100
AcDb2dPolyline
 66
     1
 10
0.0
 20
0.0
 30
0.0
  0
VERTEX
  5
105
330
104
100
AcDbEntity
  8
0
 62
     7
100
AcDbVertex
100
AcDb2dVertex
 10
174.301669329858
 20
-669.7623568742048
 30
0.0
  0
VERTEX
  5
106
330
104
100
AcDbEntity
  8
0
 62
     7
100
AcDbVertex
100
AcDb2dVertex
 10
118.3367821910714
 20
-669.7623568742048
 30
0.0
  0
SEQEND
  5
107
330
104
100
AcDbEntity
  8
0
  0
POLYLINE
  5
108
330
2
100
AcDbEntity
  8
0
 62
     7
100
AcDb2dPolyline
 66
     1
 10
0.0
 20
0.0
 30
0.0
  0
VERTEX
  5
109
330
108
100
AcDbEntity
  8
0
 62
     7
100
AcDbVertex
100
AcDb2dVertex
 10
146.3164696840765
 20
-653.0054124339495
 30
0.0
  0
VERTEX
  5
10A
330
108
100
AcDbEntity
  8
0
 62
     7
100
AcDbVertex
100
AcDb2dVertex
 10
146.3164696840765
 20
-686.5248134672364
 30
0.0
  0
SEQEND
  5
10B
330
108
100
AcDbEntity
  8
0
  0
SPLINE
  5
10C
330
2
100
AcDbEntity
  8
0
 62
     7
100
AcDbSpline
210
0.0
220
0.0
230
1.0
 70
    11
 71
     3
 72
    26
 73
    22
 74
     0
 42
0.000000001
 43
0.0000000001
 40
0.0
 40
0.0
 40
0.0
 40
0.0
 40
1.0
 40
1.0
 40
1.0
 40
2.0
 40
2.0
 40
2.0
 40
3.0
 40
3.0
 40
3.0
 40
4.0
 40
4.0
 40
4.0
 40
5.0
 40
5.0
 40
5.0
 40
6.0
 40
6.0
 40
6.0
 40
7.0
 40
7.0
 40
7.0
 40
7.0
 10
141.3389957269875
 20
-659.7743360433684
 30
0.0
 10
141.3389957269875
 20
-659.7743360433684
 30
0.0
 10
151.3215044050474
 20
-659.7743360433684
 30
0.0
 10
151.3215044050474
 20
-659.7743360433684
 30
0.0
 10
156.8391693342236
 20
-659.7743360433684
 30
0.0
 10
161.3205495414365
 20
-664.2391797922522
 30
0.0
 10
161.3205495414365
 20
-669.7623568742048
 30
0.0
 10
161.3205495414365
 20
-675.2855339561573
 30
0.0
 10
156.8391693342236
 20
-679.761402010594
 30
0.0
 10
151.3215044050474
 20
-679.761402010594
 30
0.0
 10
151.3215044050474
 20
-679.761402010594
 30
0.0
 10
141.3389957269875
 20
-679.761402010594
 30
0.0
 10
141.3389957269875
 20
-679.761402010594
 30
0.0
 10
135.8213307978113
 20
-679.761402010594
 30
0.0
 10
131.3399505905984
 20
-675.2855339561573
 30
0.0
 10
131.3399505905984
 20
-669.7623568742048
 30
0.0
 10
131.3399505905984
 20
-664.2391797922522
 30
0.0
 10
135.8213307978113
 20
-659.7743360433684
 30
0.0
 10
141.3389957269875
 20
-659.7743360433684
 30
0.0
 10
141.3389957269875
 20
-659.7743360433684
 30
0.0
 10
141.3389957269875
 20
-659.7743360433684
 30
0.0
 10
141.3389957269875
 20
-659.7743360433684
 30
0.0
  0
POLYLINE
  5
10D
330
2
100
AcDbEntity
  8
0
 62
     7
100
AcDb2dPolyline
 66
     1
 10
0.0
 20
0.0
 30
0.0
  0
VERTEX
  5
10E
330
10D
100
AcDbEntity
  8
0
 62
     7
100
AcDbVertex
100
AcDb2dVertex
 10
6.329837774628686
 20
-749.798815187529
 30
0.0
  0
VERTEX
  5
10F
330
10D
100
AcDbEntity
  8
0
 62
     7
100
AcDbVertex
100
AcDb2dVertex
 10
6.329837774628686
 20
-830.7943880839468
 30
0.0
  0
SEQEND
  5
110
330
10D
100
AcDbEntity
  8
0
  0
SPLINE
  5
111
330
2
100
AcDbEntity
  8
0
 62
     7
100
AcDbSpline
210
0.0
220
0.0
230
1.0
 70
     9
 71
     3
 72
    44
 73
    40
 74
     0
 42
0.000000001
 43
0.0000000001
 40
0.0
 40
0.0
 40
0.0
 40
0.0
 40
1.0
 40
1.0
 40
1.0
 40
2.0
 40
2.0
 40
2.0
 40
3.0
 40
3.0
 40
3.0
 40
4.0
 40
4.0
 40
4.0
 40
5.0
 40
5.0
 40
5.0
 40
6.0
 40
6.0
 40
6.0
 40
7.0
 40
7.0
 40
7.0
 40
8.0
 40
8.0
 40
8.0
 40
9.0
 40
9.0
 40
9.0
 40
10.0
 40
10.0
 40
10.0
 40
11.0
 40
11.0
 40
11.0
 40
12.0
 40
12.0
 40
12.0
 40
13.0
 40
13.0
 40
13.0
 40
13.0
 10
272.9471554163077
 20
-719.7851433200322
 30
0.0
 10
274.5456797214637
 20
-719.7851433200322
 30
0.0
 10
275.7418168739424
 20
-718.7212978341873
 30
0.0
 10
275.9237179155635
 20
-717.1282856818075
 30
0.0
 10
275.9237179155635
 20
-717.1282856818075
 30
0.0
 10
276.0339609710916
 20
-716.2022440153724
 30
0.0
 10
276.0339609710916
 20
-716.2022440153724
 30
0.0
 10
277.2631710402287
 20
-705.5141797819334
 30
0.0
 10
278.288431456639
 20
-694.8095790901653
 30
0.0
 10
279.1373029842047
 20
-684.0774176345149
 30
0.0
 10
280.4822682616461
 20
-666.664527013868
 30
0.0
 10
281.1051415253793
 20
-649.2130513237865
 30
0.0
 10
281.3090911781061
 20
-631.7505513281521
 30
0.0
 10
281.3090911781061
 20
-631.7505513281521
 30
0.0
 10
281.3311397892118
 20
-631.1662631338537
 30
0.0
 10
281.3311397892118
 20
-631.1662631338537
 30
0.0
 10
281.0500199976153
 20
-627.5558030653119
 30
0.0
 10
278.012823817819
 20
-624.7666537604536
 30
0.0
 10
274.3527543742896
 20
-624.7666537604536
 30
0.0
 10
274.3527543742896
 20
-624.7666537604536
 30
0.0
 10
-261.6985909778086
 20
-624.7666537604536
 30
0.0
 10
-261.6985909778086
 20
-624.7666537604536
 30
0.0
 10
-265.3531482685616
 20
-624.7666537604536
 30
0.0
 10
-268.3958566011344
 20
-627.5558030653119
 30
0.0
 10
-268.6769763927307
 20
-631.1662631338537
 30
0.0
 10
-268.4179052122399
 20
-648.6783725044757
 30
0.0
 10
-267.8666899346
 20
-666.1849697223211
 30
0.0
 10
-266.5051881988292
 20
-683.6529818707321
 30
0.0
 10
-265.6618288240401
 20
-694.5229471457925
 30
0.0
 10
-264.6200319493005
 20
-705.370863809747
 30
0.0
 10
-263.3797975746106
 20
-716.2022440153724
 30
0.0
 10
-263.3797975746106
 20
-716.2022440153724
 30
0.0
 10
-263.2695545190826
 20
-717.1282856818075
 30
0.0
 10
-263.2695545190826
 20
-717.1282856818075
 30
0.0
 10
-263.0876534774614
 20
-718.7212978341873
 30
0.0
 10
-261.8915163249827
 20
-719.7851433200322
 30
0.0
 10
-260.2874798670504
 20
-719.7851433200322
 30
0.0
 10
-260.2874798670504
 20
-719.7851433200322
 30
0.0
 10
272.9471554163077
 20
-719.7851433200322
 30
0.0
 10
272.9471554163077
 20
-719.7851433200322
 30
0.0
  0
SPLINE
  5
112
330
2
100
AcDbEntity
  8
0
 62
     7
100
AcDbSpline
210
0.0
220
0.0
230
1.0
 70
     8
 71
     3
 72
    20
 73
    16
 74
     0
 42
0.000000001
 43
0.0000000001
 40
0.0
 40
0.0
 40
0.0
 40
0.0
 40
1.0
 40
1.0
 40
1.0
 40
2.0
 40
2.0
 40
2.0
 40
3.0
 40
3.0
 40
3.0
 40
4.0
 40
4.0
 40
4.0
 40
5.0
 40
5.0
 40
5.0
 40
5.0
 10
43.75735512638288
 20
-779.7959505966965
 30
0.0
 10
43.75735512638288
 20
-779.7959505966965
 30
0.0
 10
41.29342283533225
 20
-797.3521571895295
 30
0.0
 10
41.29342283533225
 20
-797.3521571895295
 30
0.0
 10
41.01781519651228
 20
-799.3255078834805
 30
0.0
 10
39.32007214138116
 20
-800.7972526747796
 30
0.0
 10
37.33018498910087
 20
-800.7972526747796
 30
0.0
 10
37.33018498910087
 20
-800.7972526747796
 30
0.0
 10
-24.67602159261986
 20
-800.7972526747796
 30
0.0
 10
-24.67602159261986
 20
-800.7972526747796
 30
0.0
 10
-26.67142089767657
 20
-800.7972526747796
 30
0.0
 10
-28.36365180003128
 20
-799.3255078834805
 30
0.0
 10
-28.63925943885124
 20
-797.3521571895295
 30
0.0
 10
-28.63925943885124
 20
-797.3521571895295
 30
0.0
 10
-31.10870388267836
 20
-779.7959505966965
 30
0.0
 10
-31.10870388267836
 20
-779.7959505966965
 30
0.0
  0
SPLINE
  5
113
330
2
100
AcDbEntity
  8
0
 62
     7
100
AcDbSpline
210
0.0
220
0.0
230
1.0
 70
     8
 71
     3
 72
    35
 73
    31
 74
     0
 42
0.000000001
 43
0.0000000001
 40
0.0
 40
0.0
 40
0.0
 40
0.0
 40
1.0
 40
1.0
 40
1.0
 40
2.0
 40
2.0
 40
2.0
 40
3.0
 40
3.0
 40
3.0
 40
4.0
 40
4.0
 40
4.0
 40
5.0
 40
5.0
 40
5.0
 40
6.0
 40
6.0
 40
6.0
 40
7.0
 40
7.0
 40
7.0
 40
8.0
 40
8.0
 40
8.0
 40
9.0
 40
9.0
 40
9.0
 40
10.0
 40
10.0
 40
10.0
 40
10.0
 10
228.1168168858486
 20
-719.7851433200322
 30
0.0
 10
227.378188413811
 20
-728.9739019982909
 30
0.0
 10
226.0773203585807
 20
-738.1571485237729
 30
0.0
 10
223.2440738315113
 20
-746.9655686604595
 30
0.0
 10
220.785653693237
 20
-754.6164367141024
 30
0.0
 10
217.1641693191424
 20
-762.0688672677949
 30
0.0
 10
211.5693342510966
 20
-767.9448221274371
 30
0.0
 10
206.2886918913057
 20
-773.5010721260479
 30
0.0
 10
199.6355234901912
 20
-776.7367058057945
 30
0.0
 10
192.5413828669647
 20
-779.3660026801372
 30
0.0
 10
192.5413828669647
 20
-779.3660026801372
 30
0.0
 10
121.6110009402529
 20
-779.7959505966965
 30
0.0
 10
121.6110009402529
 20
-779.7959505966965
 30
0.0
 10
121.6110009402529
 20
-779.7959505966965
 30
0.0
 10
6.329837774628686
 20
-779.7959505966965
 30
0.0
 10
6.329837774628686
 20
-779.7959505966965
 30
0.0
 10
6.329837774628686
 20
-779.7959505966965
 30
0.0
 10
-108.9623496965482
 20
-779.7959505966965
 30
0.0
 10
-108.9623496965482
 20
-779.7959505966965
 30
0.0
 10
-108.9623496965482
 20
-779.7959505966965
 30
0.0
 10
-179.8817073177073
 20
-779.3660026801372
 30
0.0
 10
-179.8817073177073
 20
-779.3660026801372
 30
0.0
 10
-186.9813600937101
 20
-776.7367058057945
 30
0.0
 10
-193.6345284948247
 20
-773.5010721260479
 30
0.0
 10
-198.920683007392
 20
-767.9448221274371
 30
0.0
 10
-204.5044937698849
 20
-762.0688672677949
 30
0.0
 10
-208.131490296756
 20
-754.6164367141024
 30
0.0
 10
-210.5954225878067
 20
-746.9655686604595
 30
0.0
 10
-213.4231569620997
 20
-738.1571485237729
 30
0.0
 10
-214.7185128645537
 20
-728.9739019982909
 30
0.0
 10
-215.4626534893676
 20
-719.7851433200322
 30
0.0
  0
LWPOLYLINE
  5
15A
330
2
100
AcDbEntity
  8
0
 62
     7
100
AcDbPolyline
 90
     2325
 70
     1
 43
0.0
 10
274.9957898618066
 20
0.0
 10
274.9928174940837
 20
0.0
 10
274.9839110436951
 20
0.0
 10
274.9690864898107
 20
0.0
 10
274.9483598116004
 20
0.0
 10
274.9217469882344
 20
0.0
 10
274.8892639988824
 20
0.0
 10
274.8509268227145
 20
0.0
 10
274.8067514389007
 20
0.0
 10
274.756753826611
 20
0.0
 10
274.7009499650152
 20
0.0
 10
274.6393558332834
 20
0.0
 10
274.5719874105855
 20
0.0
 10
274.4988606760916
 20
0.0
 10
274.4199916089715
 20
0.0
 10
274.3353961883952
 20
0.0
 10
274.2450903935328
 20
0.0
 10
274.1490902035541
 20
0.0
 10
274.0474115976291
 20
0.0
 10
273.940070554928
 20
0.0
 10
273.8270830546205
 20
0.0
 10
273.7084650758767
 20
0.0
 10
273.5842325978664
 20
0.0
 10
273.4544015997597
 20
0.0
 10
273.3189880607266
 20
0.0
 10
273.1780079599372
 20
0.0
 10
273.0314772765611
 20
0.0
 10
272.8794119897685
 20
0.0
 10
272.7218280787294
 20
0.0
 10
272.5587415226137
 20
0.0
 10
272.3901683005913
 20
0.0
 10
272.2161243918323
 20
0.0
 10
272.0366257755066
 20
0.0
 10
271.8516884307842
 20
0.0
 10
271.661328336835
 20
0.0
 10
271.4655614728292
 20
0.0
 10
271.2644038179365
 20
0.0
 10
271.0578713513269
 20
0.0
 10
270.8459800521704
 20
0.0
 10
270.628745899637
 20
0.0
 10
270.4061848728967
 20
0.0
 10
270.1783129511195
 20
0.0
 10
269.9451461134753
 20
0.0
 10
269.7067003391341
 20
0.0
 10
269.4629916072656
 20
0.0
 10
269.2140358970403
 20
0.0
 10
268.9598491876278
 20
0.0
 10
268.700447458198
 20
0.0
 10
268.4358466879212
 20
0.0
 10
268.1660628559671
 20
0.0
 10
267.8911119415058
 20
0.0
 10
267.6110099237072
 20
0.0
 10
267.3257727817412
 20
0.0
 10
267.035416494778
 20
0.0
 10
266.7399570419874
 20
0.0
 10
266.4394104025394
 20
0.0
 10
266.1337925556039
 20
0.0
 10
265.823119480351
 20
0.0
 10
265.5074071559507
 20
0.0
 10
265.1866715615728
 20
0.0
 10
264.8609286763873
 20
0.0
 10
264.5301944795642
 20
0.0
 10
264.1944849502736
 20
0.0
 10
263.8538160676853
 20
0.0
 10
263.5082038109693
 20
0.0
 10
263.1576641592956
 20
0.0
 10
262.8022130918341
 20
0.0
 10
262.4418665877549
 20
0.0
 10
262.0766406262279
 20
0.0
 10
261.7065511864231
 20
0.0
 10
261.3316142475104
 20
0.0
 10
260.9518457886597
 20
0.0
 10
260.5672617890412
 20
0.0
 10
260.1778782278247
 20
0.0
 10
259.7837110841804
 20
0.0
 10
259.3847763372778
 20
0.0
 10
258.9810899662873
 20
0.0
 10
258.5726679503787
 20
0.0
 10
258.159526268722
 20
0.0
 10
257.7416809004871
 20
0.0
 10
257.319147824844
 20
0.0
 10
256.8919430209628
 20
0.0
 10
256.4600824680133
 20
0.0
 10
256.0235821451655
 20
0.0
 10
255.5824580315894
 20
0.0
 10
255.136726106455
 20
0.0
 10
254.6864023489323
 20
0.0
 10
254.2315027381912
 20
0.0
 10
253.7720432534016
 20
0.0
 10
253.3080398737336
 20
0.0
 10
252.8395085783571
 20
0.0
 10
252.3664653464421
 20
0.0
 10
251.8889261571585
 20
0.0
 10
251.4069069896764
 20
0.0
 10
250.9204238231657
 20
0.0
 10
250.4294926367963
 20
0.0
 10
249.9341294097382
 20
0.0
 10
249.4343501211615
 20
0.0
 10
248.930170750236
 20
0.0
 10
248.4216072761317
 20
0.0
 10
247.9086756780187
 20
0.0
 10
247.3913919350669
 20
0.0
 10
246.8697720264461
 20
0.0
 10
246.3438319313265
 20
0.0
 10
245.8135876288779
 20
0.0
 10
245.2790550982705
 20
0.0
 10
244.740250318674
 20
0.0
 10
244.1971892692585
 20
0.0
 10
243.649887929194
 20
0.0
 10
243.0983622776504
 20
0.0
 10
242.5426282937977
 20
0.0
 10
241.9827019568059
 20
0.0
 10
241.4185992458449
 20
0.0
 10
240.8503361400847
 20
0.0
 10
240.2779286186953
 20
0.0
 10
239.7013926608467
 20
0.0
 10
239.1207442457087
 20
0.0
 10
238.5359993524514
 20
0.0
 10
237.9471739602447
 20
0.0
 10
237.3542840482588
 20
0.0
 10
236.7573455956633
 20
0.0
 10
236.1563745816284
 20
0.0
 10
235.5513869853241
 20
0.0
 10
234.9423987859201
 20
0.0
 10
234.3294259625868
 20
0.0
 10
233.7124844944938
 20
0.0
 10
233.0915903608112
 20
0.0
 10
232.466759540709
 20
0.0
 10
231.8380080133571
 20
0.0
 10
231.2053517579256
 20
0.0
 10
230.5688067535843
 20
0.0
 10
229.9283889795032
 20
0.0
 10
229.2841144148524
 20
0.0
 10
228.6359990388017
 20
0.0
 10
227.9840588305212
 20
0.0
 10
227.3283097691809
 20
0.0
 10
226.6687678339506
 20
0.0
 10
226.0054490040003
 20
0.0
 10
225.3383692585001
 20
0.0
 10
224.6675445766199
 20
0.0
 10
223.9929909375296
 20
0.0
 10
223.3147243203994
 20
0.0
 10
222.6327607043989
 20
0.0
 10
221.9471160686984
 20
0.0
 10
221.2578063924677
 20
0.0
 10
220.5648476548768
 20
0.0
 10
219.8682558350957
 20
0.0
 10
219.1680469122943
 20
0.0
 10
218.4642368656427
 20
0.0
 10
217.7568416743107
 20
0.0
 10
217.0458773174684
 20
0.0
 10
216.3313597742858
 20
0.0
 10
215.6133050239326
 20
0.0
 10
214.8917290455791
 20
0.0
 10
214.1666478183951
 20
0.0
 10
213.4380773215506
 20
0.0
 10
212.7060335342157
 20
0.0
 10
211.97053243556
 20
0.0
 10
211.2315900047539
 20
0.0
 10
210.4892222209671
 20
0.0
 10
209.7434450633696
 20
0.0
 10
208.9942745111315
 20
0.0
 10
208.2417265434226
 20
0.0
 10
207.4858171394131
 20
0.0
 10
206.7265622782726
 20
0.0
 10
205.9639779391715
 20
0.0
 10
205.1980801012794
 20
0.0
 10
203.6564078458027
 20
0.0
 10
202.1016733452022
 20
0.0
 10
200.5340044328378
 20
0.0
 10
198.9535289420691
 20
0.0
 10
197.3603747062559
 20
0.0
 10
195.754669558758
 20
0.0
 10
194.1365413329351
 20
0.0
 10
192.5061178621471
 20
0.0
 10
190.8635269797535
 20
0.0
 10
189.2088965191142
 20
0.0
 10
187.5423543135889
 20
0.0
 10
185.8640281965375
 20
0.0
 10
184.1740460013195
 20
0.0
 10
182.4725355612948
 20
0.0
 10
180.7596247098232
 20
0.0
 10
179.0354412802644
 20
0.0
 10
177.300113105978
 20
0.0
 10
175.5537680203241
 20
0.0
 10
173.7965338566621
 20
0.0
 10
172.0285384483519
 20
0.0
 10
170.2499096287534
 20
0.0
 10
168.460775231226
 20
0.0
 10
166.6612630891297
 20
0.0
 10
164.8515010358242
 20
0.0
 10
163.0316169046694
 20
0.0
 10
161.2017385290248
 20
0.0
 10
159.3619937422503
 20
0.0
 10
157.5125103777056
 20
0.0
 10
155.6534162687504
 20
0.0
 10
153.7848392487445
 20
0.0
 10
151.9069071510477
 20
0.0
 10
150.0197478090198
 20
0.0
 10
148.1234890560205
 20
0.0
 10
146.2182587254094
 20
0.0
 10
144.3041846505463
 20
0.0
 10
142.3813946647912
 20
0.0
 10
140.4500166015036
 20
0.0
 10
138.5101782940434
 20
0.0
 10
136.5620075757702
 20
0.0
 10
134.6056322800439
 20
0.0
 10
132.6411802402241
 20
0.0
 10
130.6687792896707
 20
0.0
 10
128.6885572617434
 20
0.0
 10
126.7006419898019
 20
0.0
 10
124.705161307206
 20
0.0
 10
122.7022430473154
 20
0.0
 10
120.69201504349
 20
0.0
 10
118.6746051290895
 20
0.0
 10
116.6501411374734
 20
0.0
 10
114.6187509020017
 20
0.0
 10
112.5805622560342
 20
0.0
 10
110.5357030329305
 20
0.0
 10
108.4843010660505
 20
0.0
 10
106.4264841887538
 20
0.0
 10
104.3623802344002
 20
0.0
 10
102.2921170363494
 20
0.0
 10
100.2158224279613
 20
0.0
 10
98.13362424259558
 20
0.0
 10
96.04565031361193
 20
0.0
 10
93.95202847437019
 20
0.0
 10
91.85288655823004
 20
0.0
 10
89.74835239855124
 20
0.0
 10
87.63855382869364
 20
0.0
 10
85.52361868201689
 20
0.0
 10
83.40367479188078
 20
0.0
 10
81.27884999164505
 20
0.0
 10
79.14927211466943
 20
0.0
 10
77.01506899431368
 20
0.0
 10
74.87636846393761
 20
0.0
 10
72.73329835690095
 20
0.0
 10
70.58598650656335
 20
0.0
 10
68.43456074628472
 20
0.0
 10
66.27914890942469
 20
0.0
 10
64.11987882934306
 20
0.0
 10
61.95687833939962
 20
0.0
 10
59.79027527295406
 20
0.0
 10
57.62019746336616
 20
0.0
 10
53.27012894820231
 20
0.0
 10
48.90769546078613
 20
0.0
 10
44.53391966799554
 20
0.0
 10
40.14982423670867
 20
0.0
 10
35.75643183380345
 20
0.0
 10
31.35476512615793
 20
0.0
 10
26.94584678065013
 20
0.0
 10
22.53069946415803
 20
0.0
 10
18.11034584355971
 20
0.0
 10
13.68580858573315
 20
0.0
 10
4.828273825907331
 20
0.0
 10
-4.033723480295293
 20
0.0
 10
-12.89200199785057
 20
0.0
 10
-17.31719004369043
 20
0.0
 10
-21.73838039173441
 20
0.0
 10
-26.15455037510451
 20
0.0
 10
-30.56467732692269
 20
0.0
 10
-34.96773858031094
 20
0.0
 10
-39.36271146839127
 20
0.0
 10
-43.74857332428564
 20
0.0
 10
-48.12430148111605
 20
0.0
 10
-52.48887327200447
 20
0.0
 10
-56.8412660300729
 20
0.0
 10
-59.01257568840023
 20
0.0
 10
-61.18045708844332
 20
0.0
 10
-63.34478239684237
 20
0.0
 10
-65.50542378023769
 20
0.0
 10
-67.66225340526951
 20
0.0
 10
-69.81514343857805
 20
0.0
 10
-71.96396604680356
 20
0.0
 10
-74.10859339658633
 20
0.0
 10
-76.24889765456657
 20
0.0
 10
-78.38475098738455
 20
0.0
 10
-80.51602556168049
 20
0.0
 10
-82.64259354409466
 20
0.0
 10
-84.76432710126733
 20
0.0
 10
-86.88109839983869
 20
0.0
 10
-88.99277960644905
 20
0.0
 10
-91.09924288773861
 20
0.0
 10
-93.20036041034764
 20
0.0
 10
-95.29600434091639
 20
0.0
 10
-97.3860468460851
 20
0.0
 10
-99.47036009249401
 20
0.0
 10
-101.5488162467834
 20
0.0
 10
-103.6212874755934
 20
0.0
 10
-105.6876459455645
 20
0.0
 10
-107.7477638233367
 20
0.0
 10
-109.8015132755504
 20
0.0
 10
-111.8487664688458
 20
0.0
 10
-113.8893955698632
 20
0.0
 10
-115.9232727452427
 20
0.0
 10
-117.9502701616247
 20
0.0
 10
-119.9702599856494
 20
0.0
 10
-121.983114383957
 20
0.0
 10
-123.9887055231878
 20
0.0
 10
-125.9869055699821
 20
0.0
 10
-127.97758669098
 20
0.0
 10
-129.9606210528219
 20
0.0
 10
-131.9358808221479
 20
0.0
 10
-133.9032381655984
 20
0.0
 10
-135.8625652498135
 20
0.0
 10
-137.8137342414336
 20
0.0
 10
-139.7566173070989
 20
0.0
 10
-141.6910866134496
 20
0.0
 10
-143.6170143271259
 20
0.0
 10
-145.5342726147682
 20
0.0
 10
-147.4427336430166
 20
0.0
 10
-149.3422695785115
 20
0.0
 10
-151.232752587893
 20
0.0
 10
-153.1140548378014
 20
0.0
 10
-154.986048494877
 20
0.0
 10
-156.8486057257599
 20
0.0
 10
-158.7015986970906
 20
0.0
 10
-160.5448995755091
 20
0.0
 10
-162.3783805276558
 20
0.0
 10
-164.2019137201709
 20
0.0
 10
-166.0153713196947
 20
0.0
 10
-167.8186254928673
 20
0.0
 10
-169.6115484063291
 20
0.0
 10
-171.3940122267202
 20
0.0
 10
-173.165889120681
 20
0.0
 10
-174.9270512548517
 20
0.0
 10
-176.6773707958726
 20
0.0
 10
-178.4167199103838
 20
0.0
 10
-180.1449707650256
 20
0.0
 10
-181.8619955264384
 20
0.0
 10
-183.5676663612622
 20
0.0
 10
-185.2618554361375
 20
0.0
 10
-186.9444349177044
 20
0.0
 10
-188.6152769726031
 20
0.0
 10
-190.274253767474
 20
0.0
 10
-191.9212374689572
 20
0.0
 10
-193.556100243693
 20
0.0
 10
-195.1787142583217
 20
0.0
 10
-196.7889516794835
 20
0.0
 10
-198.3866846738187
 20
0.0
 10
-199.9717854079675
 20
0.0
 10
-201.5441260485702
 20
0.0
 10
-203.1035787622669
 20
0.0
 10
-204.6500157156981
 20
0.0
 10
-205.4183133343891
 20
0.0
 10
-206.1833090755038
 20
0.0
 10
-206.9449869598722
 20
0.0
 10
-207.7033310083244
 20
0.0
 10
-208.4583252416903
 20
0.0
 10
-209.2099536808
 20
0.0
 10
-209.9582003464836
 20
0.0
 10
-210.703049259571
 20
0.0
 10
-211.4444844408923
 20
0.0
 10
-212.1824899112776
 20
0.0
 10
-212.9170496915568
 20
0.0
 10
-213.6481478025601
 20
0.0
 10
-214.3757682651173
 20
0.0
 10
-215.0998951000586
 20
0.0
 10
-215.820512328214
 20
0.0
 10
-216.5376039704135
 20
0.0
 10
-217.2511540474872
 20
0.0
 10
-217.961146580265
 20
0.0
 10
-218.667565589577
 20
0.0
 10
-219.3703950962533
 20
0.0
 10
-220.0696191211238
 20
0.0
 10
-220.7652216850187
 20
0.0
 10
-221.4571868087678
 20
0.0
 10
-222.1454985132014
 20
0.0
 10
-222.8301408191493
 20
0.0
 10
-223.5110977474417
 20
0.0
 10
-224.1883533189085
 20
0.0
 10
-224.8618915543798
 20
0.0
 10
-225.5316964746857
 20
0.0
 10
-226.197752100656
 20
0.0
 10
-226.860042453121
 20
0.0
 10
-227.5185515529106
 20
0.0
 10
-228.1732634208547
 20
0.0
 10
-228.8241620777836
 20
0.0
 10
-229.4712315445272
 20
0.0
 10
-230.1144558419156
 20
0.0
 10
-230.7538189907786
 20
0.0
 10
-231.3893050119465
 20
0.0
 10
-232.0208979262492
 20
0.0
 10
-232.6485817545168
 20
0.0
 10
-233.2723405175793
 20
0.0
 10
-233.8921582362667
 20
0.0
 10
-234.5080189314091
 20
0.0
 10
-235.1199066238364
 20
0.0
 10
-235.7278053343788
 20
0.0
 10
-236.3316990838661
 20
0.0
 10
-236.9315718931286
 20
0.0
 10
-237.5274077829962
 20
0.0
 10
-238.1191907742989
 20
0.0
 10
-238.7069048878668
 20
0.0
 10
-239.2905341445299
 20
0.0
 10
-239.8700625651183
 20
0.0
 10
-240.4454741704618
 20
0.0
 10
-241.0167529813907
 20
0.0
 10
-241.5838830187349
 20
0.0
 10
-242.1468483033245
 20
0.0
 10
-242.7056328559894
 20
0.0
 10
-243.2602206975598
 20
0.0
 10
-243.8105958488656
 20
0.0
 10
-244.3567423307369
 20
0.0
 10
-244.8986441640037
 20
0.0
 10
-245.4362853694961
 20
0.0
 10
-245.969649968044
 20
0.0
 10
-246.4987219804775
 20
0.0
 10
-247.0234854276267
 20
0.0
 10
-247.5439243303215
 20
0.0
 10
-248.0600227093921
 20
0.0
 10
-248.5717645856683
 20
0.0
 10
-249.0791339799804
 20
0.0
 10
-249.5821149131582
 20
0.0
 10
-250.0806914060318
 20
0.0
 10
-250.5748474794313
 20
0.0
 10
-251.0645671541867
 20
0.0
 10
-251.5498344511279
 20
0.0
 10
-252.0306333910852
 20
0.0
 10
-252.5069479948884
 20
0.0
 10
-252.9787622833676
 20
0.0
 10
-253.4460602773529
 20
0.0
 10
-253.9088259976742
 20
0.0
 10
-254.3670434651616
 20
0.0
 10
-254.8206967006452
 20
0.0
 10
-255.2697697249548
 20
0.0
 10
-255.7142465589208
 20
0.0
 10
-256.1541112233729
 20
0.0
 10
-256.5893477391413
 20
0.0
 10
-257.019940127056
 20
0.0
 10
-257.445872407947
 20
0.0
 10
-257.8671286026444
 20
0.0
 10
-258.2836927319781
 20
0.0
 10
-258.6955488167782
 20
0.0
 10
-259.1026808778748
 20
0.0
 10
-259.5050729360979
 20
0.0
 10
-259.9027090122774
 20
0.0
 10
-260.2955731272435
 20
0.0
 10
-260.6836493018262
 20
0.0
 10
-261.0669215568554
 20
0.0
 10
-261.4453739131613
 20
0.0
 10
-261.8189903915738
 20
0.0
 10
-262.1877550129231
 20
0.0
 10
-262.551651798039
 20
0.0
 10
-262.9106647677517
 20
0.0
 10
-263.2647779428912
 20
0.0
 10
-263.6139753442876
 20
0.0
 10
-263.9582409927707
 20
0.0
 10
-264.2975589091707
 20
0.0
 10
-264.6319131143176
 20
0.0
 10
-264.9612876290415
 20
0.0
 10
-265.2856664741723
 20
0.0
 10
-265.6050336705402
 20
0.0
 10
-265.919373238975
 20
0.0
 10
-266.228669200307
 20
0.0
 10
-266.5329055753661
 20
0.0
 10
-266.8320663849822
 20
0.0
 10
-267.1261356499855
 20
0.0
 10
-267.4150973912059
 20
0.0
 10
-267.6989356294737
 20
0.0
 10
-267.9776343856186
 20
0.0
 10
-268.2511776804708
 20
0.0
 10
-268.5195495348604
 20
0.0
 10
-268.7827339696173
 20
0.0
 10
-269.0407150055716
 20
0.0
 10
-269.2934766635532
 20
0.0
 10
-269.5410029643924
 20
0.0
 10
-269.7832779289189
 20
0.0
 10
-270.020285577963
 20
0.0
 10
-270.2520099323546
 20
0.0
 10
-270.4784350129237
 20
0.0
 10
-270.6995448405004
 20
0.0
 10
-270.9153234359148
 20
0.0
 10
-271.1257548199968
 20
0.0
 10
-271.3308230135765
 20
0.0
 10
-271.5305120374839
 20
0.0
 10
-271.7248059125491
 20
0.0
 10
-271.913688659602
 20
0.0
 10
-272.0971442994728
 20
0.0
 10
-272.2751568529913
 20
0.0
 10
-272.4477103409877
 20
0.0
 10
-272.6147887842921
 20
0.0
 10
-272.7763762037343
 20
0.0
 10
-272.9324566201446
 20
0.0
 10
-273.0830140543528
 20
0.0
 10
-273.2280325271891
 20
0.0
 10
-273.3674960594834
 20
0.0
 10
-273.5013886720657
 20
0.0
 10
-273.6296943857662
 20
0.0
 10
-273.7523972214149
 20
0.0
 10
-273.8694811998418
 20
0.0
 10
-273.9809303418768
 20
0.0
 10
-274.0867286683501
 20
0.0
 10
-274.1868602000916
 20
0.0
 10
-274.2813089579315
 20
0.0
 10
-274.3700589626997
 20
0.0
 10
-274.4530942352262
 20
0.0
 10
-274.5303987963412
 20
0.0
 10
-274.6019566668746
 20
0.0
 10
-274.6677518676564
 20
0.0
 10
-274.7277684195168
 20
0.0
 10
-274.7819903432855
 20
0.0
 10
-274.830401659793
 20
0.0
 10
-274.872986389869
 20
0.0
 10
-274.9097285543435
 20
0.0
 10
-274.9406121740468
 20
0.0
 10
-274.9656212698087
 20
0.0
 10
-274.9847398624593
 20
0.0
 10
-274.9979519728287
 20
0.0
 10
-275.0052416217468
 20
0.0
 10
-275.0068141673594
 20
-0.0001684716963913
 10
-275.0068141673594
 20
-0.0036656539944406
 10
-275.0068141673594
 20
-0.0116784720122014
 10
-275.0068141673594
 20
-0.0241947572065777
 10
-275.0068141673594
 20
-0.0412023410344741
 10
-275.0068141673594
 20
-0.0626890549527945
 10
-275.0068141673594
 20
-0.0886427304184434
 10
-275.0068141673594
 20
-0.119051198888325
 10
-275.0068141673594
 20
-0.1539022918193436
 10
-275.0068141673594
 20
-0.1931838406684033
 10
-275.0068141673594
 20
-0.2368836768924085
 10
-275.0068141673594
 20
-0.2849896319482634
 10
-275.0068141673594
 20
-0.3374895372928723
 10
-275.0068141673594
 20
-0.3943712243831394
 10
-275.0068141673594
 20
-0.455622524675969
 10
-275.0068141673594
 20
-0.5212312696282653
 10
-275.0068141673594
 20
-0.5911852906969326
 10
-275.0068141673594
 20
-0.6654724193388752
 10
-275.0068141673594
 20
-0.7440804870109973
 10
-275.0068141673594
 20
-0.8269973251702028
 10
-275.0068141673594
 20
-0.9142107652733967
 10
-275.0068141673594
 20
-1.005708638777482
 10
-275.0068141673594
 20
-1.101478777139365
 10
-275.0068141673594
 20
-1.201509011815949
 10
-275.0068141673594
 20
-1.305787174264137
 10
-275.0068141673594
 20
-1.414301095940835
 10
-275.0068141673594
 20
-1.527038608302946
 10
-275.0068141673594
 20
-1.643987542807375
 10
-275.0068141673594
 20
-1.765135730911026
 10
-275.0068141673594
 20
-1.890471004070804
 10
-275.0068141673594
 20
-2.019981193743612
 10
-275.0068141673594
 20
-2.153654131386355
 10
-275.0068141673594
 20
-2.291477648455937
 10
-275.0068141673594
 20
-2.433439576409262
 10
-275.0068141673594
 20
-2.579527746703235
 10
-275.0068141673594
 20
-2.72972999079476
 10
-275.0068141673594
 20
-2.884034140140742
 10
-275.0068141673594
 20
-3.042428026198083
 10
-275.0068141673594
 20
-3.204899480423689
 10
-275.0068141673594
 20
-3.371436334274465
 10
-275.0068141673594
 20
-3.542026419207311
 10
-275.0068141673594
 20
-3.716657566679137
 10
-275.0068141673594
 20
-3.895317608146844
 10
-275.0068141673594
 20
-4.077994375067337
 10
-275.0068141673594
 20
-4.26467569889752
 10
-275.0068141673594
 20
-4.455349411094299
 10
-275.0068141673594
 20
-4.650003343114575
 10
-275.0068141673594
 20
-4.848625326415255
 10
-275.0068141673594
 20
-5.05120319245324
 10
-275.0068141673594
 20
-5.257724772685437
 10
-275.0068141673594
 20
-5.468177898568751
 10
-275.0068141673594
 20
-5.682550401560085
 10
-275.0068141673594
 20
-5.900830113116343
 10
-275.0068141673594
 20
-6.123004864694429
 10
-275.0068141673594
 20
-6.34906248775125
 10
-275.0068141673594
 20
-6.578990813743704
 10
-275.0068141673594
 20
-6.812777674128701
 10
-275.0068141673594
 20
-7.050410900363144
 10
-275.0068141673594
 20
-7.291878323903937
 10
-275.0068141673594
 20
-7.537167776207984
 10
-275.0068141673594
 20
-7.786267088732189
 10
-275.0068141673594
 20
-8.039164092933457
 10
-275.0068141673594
 20
-8.29584662026869
 10
-275.0068141673594
 20
-8.556302502194796
 10
-275.0068141673594
 20
-8.820519570168675
 10
-275.0068141673594
 20
-9.088485655647238
 10
-275.0068141673594
 20
-9.36018859008738
 10
-275.0068141673594
 20
-9.635616204946014
 10
-275.0068141673594
 20
-9.914756331680038
 10
-275.0068141673594
 20
-10.19759680174636
 10
-275.0068141673594
 20
-10.48412544660188
 10
-275.0068141673594
 20
-10.7743300977035
 10
-275.0068141673594
 20
-11.06819858650814
 10
-275.0068141673594
 20
-11.36571874447269
 10
-275.0068141673594
 20
-11.66687840305406
 10
-275.0068141673594
 20
-11.97166539370915
 10
-275.0068141673594
 20
-12.28006754789486
 10
-275.0068141673594
 20
-12.59207269706811
 10
-275.0068141673594
 20
-12.90766867268579
 10
-275.0068141673594
 20
-13.22684330620481
 10
-275.0068141673594
 20
-13.54958442908208
 10
-275.0068141673594
 20
-13.87587987277449
 10
-275.0068141673594
 20
-14.20571746873895
 10
-275.0068141673594
 20
-14.53908504843237
 10
-275.0068141673594
 20
-14.87597044331165
 10
-275.0068141673594
 20
-15.2163614848337
 10
-275.0068141673594
 20
-15.56024600445541
 10
-275.0068141673594
 20
-15.9076118336337
 10
-275.0068141673594
 20
-16.25844680382546
 10
-275.0068141673594
 20
-16.61273874648761
 10
-275.0068141673594
 20
-16.97047549307704
 10
-275.0068141673594
 20
-17.33164487505066
 10
-275.0068141673594
 20
-17.69623472386538
 10
-275.0068141673594
 20
-18.06423287097809
 10
-275.0068141673594
 20
-18.43562714784571
 10
-275.0068141673594
 20
-18.81040538592514
 10
-275.0068141673594
 20
-19.18855541667328
 10
-275.0068141673594
 20
-19.57006507154703
 10
-275.0068141673594
 20
-19.9549221820033
 10
-275.0068141673594
 20
-20.343114579499
 10
-275.0068141673594
 20
-20.73463009549103
 10
-275.0068141673594
 20
-21.12945656143629
 10
-275.0068141673594
 20
-21.92899366901412
 10
-275.0068141673594
 20
-22.74162855388773
 10
-275.0068141673594
 20
-23.56726386771237
 10
-275.0068141673594
 20
-24.40580226214325
 10
-275.0068141673594
 20
-25.25714638883562
 10
-275.0068141673594
 20
-26.1211988994447
 10
-275.0068141673594
 20
-26.99786244562574
 10
-275.0068141673594
 20
-27.88703967903396
 10
-275.0068141673594
 20
-28.78863325132461
 10
-275.0068141673594
 20
-29.7025458141529
 10
-275.0068141673594
 20
-30.6286800191741
 10
-275.0068141673594
 20
-31.56693851804341
 10
-275.0068141673594
 20
-32.51722396241607
 10
-275.0068141673594
 20
-33.47943900394733
 10
-275.0068141673594
 20
-34.45348629429241
 10
-275.0068141673594
 20
-35.43926848510656
 10
-275.0068141673594
 20
-36.43668822804499
 10
-275.0068141673594
 20
-37.44564817476295
 10
-275.0068141673594
 20
-38.46605097691567
 10
-275.0068141673594
 20
-39.49779928615839
 10
-275.0068141673594
 20
-40.54079575414633
 10
-275.0068141673594
 20
-41.59494303253474
 10
-275.0068141673594
 20
-42.66014377297886
 10
-275.0068141673594
 20
-43.73630062713389
 10
-275.0068141673594
 20
-44.8233162466551
 10
-275.0068141673594
 20
-45.92109328319771
 10
-275.0068141673594
 20
-47.02953438841693
 10
-275.0068141673594
 20
-48.14854221396804
 10
-275.0068141673594
 20
-49.27801941150625
 10
-275.0068141673594
 20
-50.41786863268679
 10
-275.0068141673594
 20
-51.56799252916489
 10
-275.0068141673594
 20
-52.72829375259582
 10
-275.0068141673594
 20
-53.89867495463477
 10
-275.0068141673594
 20
-55.07903878693699
 10
-275.0068141673594
 20
-56.26928790115773
 10
-275.0068141673594
 20
-57.4693249489522
 10
-275.0068141673594
 20
-58.67905258197565
 10
-275.0068141673594
 20
-59.8983734518833
 10
-275.0068141673594
 20
-61.1271902103304
 10
-275.0068141673594
 20
-62.36540550897217
 10
-275.0068141673594
 20
-63.61292199946385
 10
-275.0068141673594
 20
-64.86964233346068
 10
-275.0068141673594
 20
-66.13546916261789
 10
-275.0068141673594
 20
-67.4103051385907
 10
-275.0068141673594
 20
-68.69405291303436
 10
-275.0068141673594
 20
-69.9866151376041
 10
-275.0068141673594
 20
-71.28789446395519
 10
-275.0068141673594
 20
-72.59779354374277
 10
-275.0068141673594
 20
-73.91621502862216
 10
-275.0068141673594
 20
-75.24306157024857
 10
-275.0068141673594
 20
-76.57823582027724
 10
-275.0068141673594
 20
-77.92164043036336
 10
-275.0068141673594
 20
-79.27317805216222
 10
-275.0068141673594
 20
-80.63275133732904
 10
-275.0068141673594
 20
-82.00026293751903
 10
-275.0068141673594
 20
-83.37561550438747
 10
-275.0068141673594
 20
-84.75871168958953
 10
-275.0068141673594
 20
-86.1494541447805
 10
-275.0068141673594
 20
-87.5477455216156
 10
-275.0068141673594
 20
-88.95348847175004
 10
-275.0068141673594
 20
-90.36658564683907
 10
-275.0068141673594
 20
-91.78693969853794
 10
-275.0068141673594
 20
-93.21445327850184
 10
-275.0068141673594
 20
-94.64902903838606
 10
-275.0068141673594
 20
-96.09056962984581
 10
-275.0068141673594
 20
-97.53897770453633
 10
-275.0068141673594
 20
-98.99415591411283
 10
-275.0068141673594
 20
-100.4560069102305
 10
-275.0068141673594
 20
-101.9244333445447
 10
-275.0068141673594
 20
-103.3993378687106
 10
-275.0068141673594
 20
-104.8806231343834
 10
-275.0068141673594
 20
-106.3681917932184
 10
-275.0068141673594
 20
-107.8619464968708
 10
-275.0068141673594
 20
-109.3617898969958
 10
-275.0068141673594
 20
-110.8676246452487
 10
-275.0068141673594
 20
-112.3793533932847
 10
-275.0068141673594
 20
-113.896878792759
 10
-275.0068141673594
 20
-115.4201034953269
 10
-275.0068141673594
 20
-116.9489301526436
 10
-275.0068141673594
 20
-118.4832614163644
 10
-275.0068141673594
 20
-120.0229999381444
 10
-275.0068141673594
 20
-121.5680483696389
 10
-275.0068141673594
 20
-123.1183093625032
 10
-275.0068141673594
 20
-124.6736855683924
 10
-275.0068141673594
 20
-126.2340796389618
 10
-275.0068141673594
 20
-127.7993942258667
 10
-275.0068141673594
 20
-129.3695319807623
 10
-275.0068141673594
 20
-130.9443955553037
 10
-275.0068141673594
 20
-132.5238876011464
 10
-275.0068141673594
 20
-134.1079107699453
 10
-275.0068141673594
 20
-135.696367713356
 10
-275.0068141673594
 20
-137.2891610830334
 10
-275.0068141673594
 20
-138.8861935306329
 10
-275.0068141673594
 20
-140.4873677078098
 10
-275.0068141673594
 20
-142.0925862662192
 10
-275.0068141673594
 20
-143.7017518575164
 10
-275.0068141673594
 20
-145.3147671333566
 10
-275.0068141673594
 20
-146.931534745395
 10
-275.0068141673594
 20
-148.551957345287
 10
-275.0068141673594
 20
-150.1759375846876
 10
-275.0068141673594
 20
-151.8033781152522
 10
-275.0068141673594
 20
-155.0682506564942
 10
-275.0068141673594
 20
-158.3457961822549
 10
-275.0068141673594
 20
-161.635235905776
 10
-275.0068141673594
 20
-164.9357910402995
 10
-275.0068141673594
 20
-168.2466827990672
 10
-275.0068141673594
 20
-171.567132395321
 10
-275.0068141673594
 20
-174.8963610423029
 10
-275.0068141673594
 20
-178.2335899532546
 10
-275.0068141673594
 20
-181.578040341418
 10
-275.0068141673594
 20
-184.928933420035
 10
-275.0068141673594
 20
-188.2854904023475
 10
-275.0068141673594
 20
-191.6469325015973
 10
-275.0068141673594
 20
-195.0124809310264
 10
-275.0068141673594
 20
-198.3813569038765
 10
-275.0068141673594
 20
-205.1259763328076
 10
-275.0068141673594
 20
-211.8745604943255
 10
-275.0068141673594
 20
-218.6208790943652
 10
-275.0068141673594
 20
-225.3587018388616
 10
-275.0068141673594
 20
-228.7224802983859
 10
-275.0068141673594
 20
-232.0817984337498
 10
-275.0068141673594
 20
-235.4358774581956
 10
-275.0068141673594
 20
-238.7839385849649
 10
-275.0068141673594
 20
-242.1252030272996
 10
-275.0068141673594
 20
-245.4588919984416
 10
-275.0068141673594
 20
-248.7842267116327
 10
-275.0068141673594
 20
-252.1004283801151
 10
-275.0068141673594
 20
-255.4067182171301
 10
-275.0068141673594
 20
-258.7023174359201
 10
-275.0068141673594
 20
-261.9864472497268
 10
-275.0068141673594
 20
-265.258328871792
 10
-275.0068141673594
 20
-266.8894332400595
 10
-275.0068141673594
 20
-268.5171835153575
 10
-275.0068141673594
 20
-270.141482349341
 10
-275.0068141673594
 20
-271.7622323936653
 10
-275.0068141673594
 20
-273.3793362999857
 10
-275.0068141673594
 20
-274.9926967199574
 10
-275.0068141673594
 20
-276.6022163052355
 10
-275.0068141673594
 20
-278.2077977074754
 10
-275.0068141673594
 20
-279.8093435783322
 10
-275.0068141673594
 20
-281.4067565694614
 10
-275.0068141673594
 20
-282.9999393325179
 10
-275.0068141673594
 20
-284.588794519157
 10
-275.0068141673594
 20
-286.1732247810341
 10
-275.0068141673594
 20
-287.7531327698044
 10
-275.0068141673594
 20
-289.328421137123
 10
-275.0068141673594
 20
-290.8989925346453
 10
-275.0068141673594
 20
-292.4647496140264
 10
-275.0068141673594
 20
-294.0255950269216
 10
-275.0068141673594
 20
-295.581431424986
 10
-275.0068141673594
 20
-297.1321614598751
 10
-275.0068141673594
 20
-298.6776877832438
 10
-275.0068141673594
 20
-300.2179130467478
 10
-275.0068141673594
 20
-301.7527399020419
 10
-275.0068141673594
 20
-303.2820710007814
 10
-275.0068141673594
 20
-304.8058089946217
 10
-275.0068141673594
 20
-306.3238565352179
 10
-275.0068141673594
 20
-307.8361162742254
 10
-275.0068141673594
 20
-309.3424908632993
 10
-275.0068141673594
 20
-310.8428829540948
 10
-275.0068141673594
 20
-312.3371951982672
 10
-275.0068141673594
 20
-313.8253302474717
 10
-275.0068141673594
 20
-315.3071907533636
 10
-275.0068141673594
 20
-316.7826793675981
 10
-275.0068141673594
 20
-318.2516987418304
 10
-275.0068141673594
 20
-319.7141515277158
 10
-275.0068141673594
 20
-321.1699403769095
 10
-275.0068141673594
 20
-322.6189679410667
 10
-275.0068141673594
 20
-324.0611368718426
 10
-275.0068141673594
 20
-325.4963498208926
 10
-275.0068141673594
 20
-326.9245094398718
 10
-275.0068141673594
 20
-328.3455183804354
 10
-275.0068141673594
 20
-329.7592792942388
 10
-275.0068141673594
 20
-331.1656948329371
 10
-275.0068141673594
 20
-332.5646676481855
 10
-275.0068141673594
 20
-333.9561003916394
 10
-275.0068141673594
 20
-335.3398957149539
 10
-275.0068141673594
 20
-336.7159562697842
 10
-275.0068141673594
 20
-338.0841847077856
 10
-275.0068141673594
 20
-339.4444836806135
 10
-275.0068141673594
 20
-340.7967558399228
 10
-275.0068141673594
 20
-342.140903837369
 10
-275.0068141673594
 20
-343.4768303246072
 10
-275.0068141673594
 20
-344.8044379532927
 10
-275.0068141673594
 20
-346.1236293750807
 10
-275.0068141673594
 20
-347.4343072416264
 10
-275.0068141673594
 20
-348.7363742045851
 10
-275.0068141673594
 20
-350.029732915612
 10
-275.0068141673594
 20
-351.3142860263624
 10
-275.0068141673594
 20
-352.5899361884914
 10
-275.0068141673594
 20
-353.8565860536544
 10
-275.0068141673594
 20
-355.1141382735065
 10
-275.0068141673594
 20
-356.362495499703
 10
-275.0068141673594
 20
-357.6015603838991
 10
-275.0068141673594
 20
-358.83123557775
 10
-275.0068141673594
 20
-360.051423732911
 10
-275.0068141673594
 20
-361.2620275010374
 10
-275.0068141673594
 20
-362.4629495337842
 10
-275.0068141673594
 20
-363.654092482807
 10
-275.0068141673594
 20
-364.8353589997606
 10
-275.0068141673594
 20
-366.0066517363006
 10
-275.0068141673594
 20
-367.167873344082
 10
-275.0068141673594
 20
-368.3189264747601
 10
-275.0068141673594
 20
-369.4597137799902
 10
-275.0068141673594
 20
-370.5901379114275
 10
-275.0068141673594
 20
-371.7101015207273
 10
-275.0068141673594
 20
-372.8195072595446
 10
-275.0068141673594
 20
-373.9182577795349
 10
-275.0068141673594
 20
-375.0062557323533
 10
-275.0068141673594
 20
-376.083403769655
 10
-275.0068141673594
 20
-377.1496045430954
 10
-275.0068141673594
 20
-378.2047607043296
 10
-275.0068141673594
 20
-379.2487749050128
 10
-275.0068141673594
 20
-380.2815497968003
 10
-275.0068141673594
 20
-381.3029880313473
 10
-275.0068141673594
 20
-382.3129922603092
 10
-275.0068141673594
 20
-383.311465135341
 10
-275.0068141673594
 20
-384.298309308098
 10
-275.0068141673594
 20
-385.2734274302355
 10
-275.0068141673594
 20
-386.2367221534087
 10
-275.0068141673594
 20
-387.1880961292729
 10
-275.0068141673594
 20
-388.1274520094832
 10
-275.0068141673594
 20
-389.0546924456949
 10
-275.0068141673594
 20
-389.9697200895632
 10
-275.0068141673594
 20
-390.8724375927434
 10
-275.0068141673594
 20
-391.7627476068907
 10
-275.0068141673594
 20
-392.6405527836604
 10
-275.0068141673594
 20
-393.5057557747076
 10
-275.0068141673594
 20
-394.3582592316877
 10
-275.0068141673594
 20
-395.1979658062557
 10
-275.0068141673594
 20
-396.0247781500671
 10
-275.0068141673594
 20
-396.8385989147769
 10
-275.0068141673594
 20
-397.6393307520406
 10
-275.0068141673594
 20
-398.0347579015223
 10
-275.0068141673594
 20
-398.4268763135131
 10
-275.0068141673594
 20
-398.81567381947
 10
-275.0068141673594
 20
-399.2011382508499
 10
-275.0068141673594
 20
-399.5832574391096
 10
-275.0068141673594
 20
-399.9620192157061
 10
-275.0068141673594
 20
-400.3374114120963
 10
-275.0068141673594
 20
-400.709421859737
 10
-275.0068141673594
 20
-401.0780383900852
 10
-275.0068141673594
 20
-401.4432488345978
 10
-275.0068141673594
 20
-401.8050410247317
 10
-275.0068141673594
 20
-402.1634027919438
 10
-275.0068141673594
 20
-402.5183219676909
 10
-275.0068141673594
 20
-402.8697863834301
 10
-275.0068141673594
 20
-403.2177838706182
 10
-275.0068141673594
 20
-403.562302260712
 10
-275.0068141673594
 20
-403.9033293851686
 10
-275.0068141673594
 20
-404.2408530754449
 10
-275.0068141673594
 20
-404.5748611629976
 10
-275.0068141673594
 20
-404.9053414792838
 10
-275.0068141673594
 20
-405.2322818557603
 10
-275.0068141673594
 20
-405.555670123884
 10
-275.0068141673594
 20
-405.8754941151118
 10
-275.0068141673594
 20
-406.1917416609007
 10
-275.0068141673594
 20
-406.5044005927076
 10
-275.0068141673594
 20
-406.8134587419892
 10
-275.0068141673594
 20
-407.1189039402027
 10
-275.0068141673594
 20
-407.4207240188049
 10
-275.0068141673594
 20
-407.7189068092525
 10
-275.0068141673594
 20
-408.0134401430027
 10
-275.0068141673594
 20
-408.3043118515122
 10
-275.0068141673594
 20
-408.591509766238
 10
-275.0068141673594
 20
-408.8750217186369
 10
-275.0068141673594
 20
-409.154835540166
 10
-275.0068141673594
 20
-409.430939062282
 10
-275.0068141673594
 20
-409.7033201164419
 10
-275.0068141673594
 20
-409.9719665341027
 10
-275.0068141673594
 20
-410.2368661467211
 10
-275.0068141673594
 20
-410.4980067857542
 10
-275.0068141673594
 20
-410.7553762826587
 10
-275.0068141673594
 20
-411.0089624688916
 10
-275.0068141673594
 20
-411.25875317591
 10
-275.0068141673594
 20
-411.5047362351704
 10
-275.0068141673594
 20
-411.7468994781301
 10
-275.0068141673594
 20
-411.9852307362457
 10
-275.0068141673594
 20
-412.2197178409743
 10
-275.0068141673594
 20
-412.4503486237728
 10
-275.0068141673594
 20
-412.6771109160979
 10
-275.0068141673594
 20
-412.8999925494068
 10
-275.0068141673594
 20
-413.1189813551562
 10
-275.0068141673594
 20
-413.3340651648031
 10
-275.0068141673594
 20
-413.5452318098042
 10
-275.0068141673594
 20
-413.7524691216166
 10
-275.0068141673594
 20
-413.9557649316973
 10
-275.0068141673594
 20
-414.155107071503
 10
-275.0068141673594
 20
-414.3504833724906
 10
-275.0068141673594
 20
-414.5418816661173
 10
-275.0068141673594
 20
-414.7292897838396
 10
-275.0068141673594
 20
-414.9126955571147
 10
-275.0068141673594
 20
-415.0920868173994
 10
-275.0068141673594
 20
-415.2674513961504
 10
-275.0068141673594
 20
-415.438777124825
 10
-275.0068141673594
 20
-415.6060518348798
 10
-275.0068141673594
 20
-415.7692633577719
 10
-275.0068141673594
 20
-415.9283995249581
 10
-275.0068141673594
 20
-416.0834481678953
 10
-275.0068141673594
 20
-416.2343971180404
 10
-275.0068141673594
 20
-416.3812342068504
 10
-275.0068141673594
 20
-416.5239472657821
 10
-275.0068141673594
 20
-416.6625241262924
 10
-275.0068141673594
 20
-416.7969526198382
 10
-275.0068141673594
 20
-416.9272205778765
 10
-275.0068141673594
 20
-417.0533158318642
 10
-275.0068141673594
 20
-417.1752262132581
 10
-275.0068141673594
 20
-417.2929395535152
 10
-275.0068141673594
 20
-417.4064436840924
 10
-275.0068141673594
 20
-417.5157264364464
 10
-275.0068141673594
 20
-417.6207756420344
 10
-275.0068141673594
 20
-417.7215791323133
 10
-275.0068141673594
 20
-417.8181247387397
 10
-275.0068141673594
 20
-417.9104002927707
 10
-275.0068141673594
 20
-417.9983936258632
 10
-275.0068141673594
 20
-418.0820925694741
 10
-275.0068141673594
 20
-418.1614849550603
 10
-275.0068141673594
 20
-418.2365586140788
 10
-275.0068141673594
 20
-418.3073013779862
 10
-275.0068141673594
 20
-418.3737010782397
 10
-275.0068141673594
 20
-418.4357455462962
 10
-275.0068141673594
 20
-418.4934226136125
 10
-275.0068141673594
 20
-418.5467201116455
 10
-275.0068141673594
 20
-418.595625871852
 10
-275.0068141673594
 20
-418.6401277256892
 10
-275.0068141673594
 20
-418.6802135046137
 10
-275.0068141673594
 20
-418.7158710400827
 10
-275.0068141673594
 20
-418.7470881635528
 10
-275.0068141673594
 20
-418.7738527064811
 10
-275.0068141673594
 20
-418.7961525003244
 10
-275.0068141673594
 20
-418.8139753765398
 10
-275.0068141673594
 20
-418.8273091665839
 10
-275.0068141673594
 20
-418.8361417019138
 10
-275.0067643591933
 20
-418.8502988759782
 10
-275.0066953715156
 20
-418.8632771828376
 10
-275.0065977009382
 20
-418.8816514602238
 10
-275.0064720034108
 20
-418.9052983075631
 10
-275.0063189348834
 20
-418.9340943242825
 10
-275.0061391513058
 20
-418.9679161098084
 10
-275.0059333086281
 20
-419.0066402635673
 10
-275.0057020627999
 20
-419.0501433849861
 10
-275.0054460697713
 20
-419.0983020734913
 10
-275.0051659854922
 20
-419.1509929285095
 10
-275.0048624659123
 20
-419.2080925494673
 10
-275.0045361669817
 20
-419.2694775357915
 10
-275.0041877446502
 20
-419.3350244869084
 10
-275.0038178548676
 20
-419.404610002245
 10
-275.003427153584
 20
-419.4781106812277
 10
-275.0030162967492
 20
-419.5554031232831
 10
-275.002585940313
 20
-419.6363639278381
 10
-275.0021367402254
 20
-419.720869694319
 10
-275.0016693524362
 20
-419.8087970221526
 10
-275.0006826375529
 20
-419.9944227595841
 10
-274.9996310432621
 20
-420.1922539355458
 10
-274.9985198171629
 20
-420.4013033454507
 10
-274.9973542068545
 20
-420.6205837847116
 10
-274.9961394599361
 20
-420.8491080487418
 10
-274.9948808240068
 20
-421.0858889329541
 10
-274.9935835466656
 20
-421.3299392327615
 10
-274.9922528755118
 20
-421.5802717435771
 10
-274.9908940581444
 20
-421.8358992608138
 10
-274.9895123421627
 20
-422.0958345798846
 10
-274.9881129751656
 20
-422.3590904962027
 10
-274.9852822785222
 20
-422.8916153022323
 10
-274.9824439490074
 20
-423.4255760422067
 10
-274.9796399674143
 20
-423.9530750794298
 10
-274.978263976086
 20
-424.2119334480421
 10
-274.9769123145357
 20
-424.4662147772057
 10
-274.9755902303622
 20
-424.7149318623335
 10
-274.9743029711649
 20
-424.9570974988384
 10
-274.9730557845428
 20
-425.1917244821336
 10
-274.9718539180949
 20
-425.417825607632
 10
-274.9707026194205
 20
-425.6344136707467
 10
-274.9696071361187
 20
-425.8405014668905
 10
-274.9685727157887
 20
-426.0351017914766
 10
-274.9676046060296
 20
-426.217227439918
 10
-274.9671470574888
 20
-426.3033037591509
 10
-274.9667080544404
 20
-426.3858912076275
 10
-274.9662882528343
 20
-426.4648663847745
 10
-274.9658883086204
 20
-426.5401058900184
 10
-274.9655088777485
 20
-426.6114863227858
 10
-274.9651506161687
 20
-426.6788842825034
 10
-274.9648141798306
 20
-426.7421763685979
 10
-274.9645002246843
 20
-426.8012391804957
 10
-274.9642094066796
 20
-426.8559493176238
 10
-274.9639423817665
 20
-426.9061833794084
 10
-274.9636998058948
 20
-426.9518179652764
 10
-274.9634823350143
 20
-426.9927296746542
 10
-274.9632906250752
 20
-427.0287951069688
 10
-274.963125332027
 20
-427.0598908616464
 10
-274.9629871118199
 20
-427.0858935381139
 10
-274.9628766204036
 20
-427.1066797357979
 10
-274.9627945137281
 20
-427.1221260541248
 10
-274.9627414477433
 20
-427.1321090925215
 10
-274.962718078399
 20
-427.1365054504145
 10
-274.9627169530322
 20
-427.1367171600544
 10
-274.9627169459182
 20
-427.1367184983596
 10
-274.962597254869
 20
-427.1393620067729
 10
-274.9621568916374
 20
-427.1490542187004
 10
-274.9612690995765
 20
-427.1684380700116
 10
-274.9594652575482
 20
-427.2072034690059
 10
-274.9518733052474
 20
-427.3622337862359
 10
-274.9154916281736
 20
-427.9818201578357
 10
-274.8695192481017
 20
-428.6004562369377
 10
-274.8139981458245
 20
-429.2180160811629
 10
-274.7489703021353
 20
-429.8343737481322
 10
-274.674477697827
 20
-430.4494032954661
 10
-274.5905623136928
 20
-431.0629787807855
 10
-274.4972661305257
 20
-431.6749742617114
 10
-274.3946311291188
 20
-432.2852637958644
 10
-274.2826992902652
 20
-432.8937214408653
 10
-274.1615125947578
 20
-433.5002212543349
 10
-274.0311130233899
 20
-434.104637293894
 10
-273.8915425569544
 20
-434.7068436171634
 10
-273.7428431762444
 20
-435.306714281764
 10
-273.585056862053
 20
-435.9041233453165
 10
-273.4182255951733
 20
-436.4989448654417
 10
-273.2423913563983
 20
-437.0910528997604
 10
-273.0575961265211
 20
-437.6803215058933
 10
-272.8638818863348
 20
-438.2666247414614
 10
-272.6612906166324
 20
-438.8498366640853
 10
-272.449864298207
 20
-439.429831331386
 10
-272.2296449118517
 20
-440.006482800984
 10
-272.0006744383594
 20
-440.5796651305005
 10
-271.7629948585235
 20
-441.1492523775558
 10
-271.5166481531368
 20
-441.7151185997711
 10
-271.2616763029924
 20
-442.2771378547671
 10
-270.9981212888834
 20
-442.8351842001645
 10
-270.726025091603
 20
-443.3891316935841
 10
-270.4454296919441
 20
-443.9388543926468
 10
-270.1563770706997
 20
-444.4842263549733
 10
-269.8589092086631
 20
-445.0251216381844
 10
-269.5530680866272
 20
-445.561414299901
 10
-269.2388956853851
 20
-446.0929783977438
 10
-268.91643398573
 20
-446.6196879893336
 10
-268.5857249684548
 20
-447.1414171322913
 10
-268.2468106143526
 20
-447.6580398842375
 10
-267.8997329042165
 20
-448.1694303027932
 10
-267.5445338188396
 20
-448.675462445579
 10
-267.1812553390148
 20
-449.1760103702159
 10
-266.8099394455354
 20
-449.6709481343244
 10
-266.4306281191944
 20
-450.1601497955256
 10
-266.0433633407848
 20
-450.6434894114402
 10
-265.6481870910996
 20
-451.120841039689
 10
-265.2451413509321
 20
-451.5920787378927
 10
-264.8342681010752
 20
-452.0570765636723
 10
-264.415609322322
 20
-452.5157085746483
 10
-263.9892069954656
 20
-452.9678488284417
 10
-263.9353643272229
 20
-453.0239036359683
 10
-263.9081637246526
 20
-453.0521404362239
 10
-263.8785902269187
 20
-453.0828284848769
 10
-263.759975051289
 20
-453.2052237681938
 10
-263.5212112410574
 20
-453.4482980461288
 10
-263.0376206682914
 20
-453.9275546147536
 10
-262.5460811754744
 20
-454.3975707576225
 10
-262.0467547822295
 20
-454.8582851434203
 10
-261.5398035081799
 20
-455.3096364408323
 10
-261.025389372949
 20
-455.7515633185436
 10
-260.5036743961599
 20
-456.1840044452394
 10
-259.9748205974358
 20
-456.6068984896047
 10
-259.4389899964002
 20
-457.0201841203248
 10
-258.8963446126761
 20
-457.4238000060846
 10
-258.347046465887
 20
-457.8176848155695
 10
-257.7912575756559
 20
-458.2017772174643
 10
-257.2291399616062
 20
-458.5760158804545
 10
-256.660855643361
 20
-458.9403394732249
 10
-256.0865666405437
 20
-459.2946866644608
 10
-255.5064349727775
 20
-459.6389961228472
 10
-254.9206226596856
 20
-459.9732065170694
 10
-254.3292917208913
 20
-460.2972565158125
 10
-253.7326041760178
 20
-460.6110847877614
 10
-253.1307220446884
 20
-460.9146300016014
 10
-252.5238073465263
 20
-461.2078308260178
 10
-251.9120221011549
 20
-461.4906259296954
 10
-251.2955283281972
 20
-461.7629539813195
 10
-250.6744880472766
 20
-462.0247536495752
 10
-250.0490632780163
 20
-462.2759636031477
 10
-249.4194160400396
 20
-462.516522510722
 10
-248.7857083529697
 20
-462.7463690409832
 10
-248.1481022364299
 20
-462.9654418626167
 10
-247.5067597100434
 20
-463.1736796443073
 10
-246.8618427934334
 20
-463.3710210547402
 10
-246.2135135062232
 20
-463.5574047626007
 10
-245.5619338680361
 20
-463.7327694365738
 10
-244.9072658984953
 20
-463.8970537453446
 10
-244.249671617224
 20
-464.0501963575983
 10
-243.5893130438456
 20
-464.1921359420201
 10
-242.9263521979831
 20
-464.3228111672948
 10
-242.26095109926
 20
-464.4421607021079
 10
-241.5932717672994
 20
-464.5501232151443
 10
-240.9234762217247
 20
-464.6466373750892
 10
-240.2517264821589
 20
-464.7316418506277
 10
-239.5781845682254
 20
-464.8050753104451
 10
-238.9030124995475
 20
-464.8668764232263
 10
-238.2263722957483
 20
-464.9169838576566
 10
-237.5484259764511
 20
-464.9553362824209
 10
-236.8693355612792
 20
-464.9818723662045
 10
-236.1892630698559
 20
-464.9965307776925
 10
-235.8489091766821
 20
-464.9993866902898
 10
-235.763791043261
 20
-464.9996334027027
 10
-235.7212277450869
 20
-464.9996865866945
 10
-235.6999450554396
 20
-464.9996956290859
 10
-235.694624275473
 20
-464.9996960612831
 10
-235.6941241047056
 20
-464.9996960643056
 10
-235.693972039367
 20
-464.9996960643056
 10
-235.687033064602
 20
-464.9996960643056
 10
-235.6699596447931
 20
-464.9996960643056
 10
-235.6428065607243
 20
-464.9996960643056
 10
-235.6056285931797
 20
-464.9996960643056
 10
-235.5584805229432
 20
-464.9996960643056
 10
-235.5014171307989
 20
-464.9996960643056
 10
-235.4344931975307
 20
-464.9996960643056
 10
-235.3577635039228
 20
-464.9996960643056
 10
-235.2712828307591
 20
-464.9996960643056
 10
-235.1751059588238
 20
-464.9996960643056
 10
-235.0692876689006
 20
-464.9996960643056
 10
-234.9538827417737
 20
-464.9996960643056
 10
-234.8289459582272
 20
-464.9996960643056
 10
-234.694532099045
 20
-464.9996960643056
 10
-234.5506959450112
 20
-464.9996960643056
 10
-234.3974922769097
 20
-464.9996960643056
 10
-234.2349758755247
 20
-464.9996960643056
 10
-234.06320152164
 20
-464.9996960643056
 10
-233.8822239960399
 20
-464.9996960643056
 10
-233.6920980795082
 20
-464.9996960643056
 10
-233.492878552829
 20
-464.9996960643056
 10
-233.2846201967863
 20
-464.9996960643056
 10
-233.0673777921641
 20
-464.9996960643056
 10
-232.8412061197465
 20
-464.9996960643056
 10
-232.6061599603174
 20
-464.9996960643056
 10
-232.362294094661
 20
-464.9996960643056
 10
-232.1096633035612
 20
-464.9996960643056
 10
-231.848322367802
 20
-464.9996960643056
 10
-231.5783260681674
 20
-464.9996960643056
 10
-231.2997291854415
 20
-464.9996960643056
 10
-231.0125865004084
 20
-464.9996960643056
 10
-230.7169527938519
 20
-464.9996960643056
 10
-230.4128828465562
 20
-464.9996960643056
 10
-230.1004314393053
 20
-464.9996960643056
 10
-229.7796533528831
 20
-464.9996960643056
 10
-229.4506033680738
 20
-464.9996960643056
 10
-229.1133362656613
 20
-464.9996960643056
 10
-228.7679068264296
 20
-464.9996960643056
 10
-228.4143698311628
 20
-464.9996960643056
 10
-228.0527800606449
 20
-464.9996960643056
 10
-227.6831922956599
 20
-464.9996960643056
 10
-227.3056613169919
 20
-464.9996960643056
 10
-226.9202419054248
 20
-464.9996960643056
 10
-226.5269888417426
 20
-464.9996960643056
 10
-226.1259569067295
 20
-464.9996960643056
 10
-225.7172008811694
 20
-464.9996960643056
 10
-225.3007755458463
 20
-464.9996960643056
 10
-224.8767356815442
 20
-464.9996960643056
 10
-224.4451360690473
 20
-464.9996960643056
 10
-224.0060314891395
 20
-464.9996960643056
 10
-223.5594767226048
 20
-464.9996960643056
 10
-223.1055265502272
 20
-464.9996960643056
 10
-222.6442357527908
 20
-464.9996960643056
 10
-222.1756591110796
 20
-464.9996960643056
 10
-221.6998514058776
 20
-464.9996960643056
 10
-221.2168674179688
 20
-464.9996960643056
 10
-220.7267619281373
 20
-464.9996960643056
 10
-220.2295897171671
 20
-464.9996960643056
 10
-219.7254055658421
 20
-464.9996960643056
 10
-219.2142642549464
 20
-464.9996960643056
 10
-218.696220565264
 20
-464.9996960643056
 10
-218.1713292775791
 20
-464.9996960643056
 10
-217.6396451726755
 20
-464.9996960643056
 10
-217.1012230313373
 20
-464.9996960643056
 10
-216.5561176343486
 20
-464.9996960643056
 10
-216.0043837624932
 20
-464.9996960643056
 10
-215.4460761965554
 20
-464.9996960643056
 10
-214.881249717319
 20
-464.9996960643056
 10
-214.3099591055682
 20
-464.9996960643056
 10
-213.7322591420868
 20
-464.9996960643056
 10
-213.148204607659
 20
-464.9996960643056
 10
-212.5578502830687
 20
-464.9996960643056
 10
-211.9612509491001
 20
-464.9996960643056
 10
-211.3584613865371
 20
-464.9996960643056
 10
-210.7495363761636
 20
-464.9996960643056
 10
-210.1345306987639
 20
-464.9996960643056
 10
-209.5134991351218
 20
-464.9996960643056
 10
-208.8864964660214
 20
-464.9996960643056
 10
-208.2535774722468
 20
-464.9996960643056
 10
-207.6147969345818
 20
-464.9996960643056
 10
-206.9702096338107
 20
-464.9996960643056
 10
-206.3198703507172
 20
-464.9996960643056
 10
-205.6638338660857
 20
-464.9996960643056
 10
-205.0021549606999
 20
-464.9996960643056
 10
-204.334888415344
 20
-464.9996960643056
 10
-203.6620890108019
 20
-464.9996960643056
 10
-202.9838115278577
 20
-464.9996960643056
 10
-202.3001107472954
 20
-464.9996960643056
 10
-201.611041449899
 20
-464.9996960643056
 10
-200.9166584164526
 20
-464.9996960643056
 10
-200.2170164277402
 20
-464.9996960643056
 10
-199.5121702645457
 20
-464.9996960643056
 10
-198.8021747076533
 20
-464.9996960643056
 10
-198.0870845378469
 20
-464.9996960643056
 10
-197.3669545359106
 20
-464.9996960643056
 10
-196.6418394826283
 20
-464.9996960643056
 10
-195.9117941587841
 20
-464.9996960643056
 10
-195.1768733451621
 20
-464.9996960643056
 10
-194.4371318225462
 20
-464.9996960643056
 10
-193.6926243717204
 20
-464.9996960643056
 10
-192.9434057734688
 20
-464.9996960643056
 10
-192.1895308085755
 20
-464.9996960643056
 10
-191.4310542578243
 20
-464.9996960643056
 10
-190.6680309019994
 20
-464.9996960643056
 10
-189.9005155218848
 20
-464.9996960643056
 10
-189.1285628982644
 20
-464.9996960643056
 10
-188.3522278119223
 20
-464.9996960643056
 10
-187.5715650436426
 20
-464.9996960643056
 10
-186.7866293742093
 20
-464.9996960643056
 10
-185.9974755844063
 20
-464.9996960643056
 10
-185.2041584550177
 20
-464.9996960643056
 10
-184.4067327668275
 20
-464.9996960643056
 10
-183.6052533006198
 20
-464.9996960643056
 10
-182.7997748371784
 20
-464.9996960643056
 10
-181.9903521572876
 20
-464.9996960643056
 10
-181.1770400417313
 20
-464.9996960643056
 10
-180.3598932712935
 20
-464.9996960643056
 10
-179.5389666267582
 20
-464.9996960643056
 10
-178.7143148889095
 20
-464.9996960643056
 10
-177.8859928385314
 20
-464.9996960643056
 10
-177.0540552564079
 20
-464.9996960643056
 10
-176.218556923323
 20
-464.9996960643056
 10
-175.3795526200608
 20
-464.9996960643056
 10
-174.5370971274052
 20
-464.9996960643056
 10
-173.6912452261403
 20
-464.9996960643056
 10
-172.8420516970501
 20
-464.9996960643056
 10
-171.13385887853
 20
-464.9996960643056
 10
-169.4129569181169
 20
-464.9996960643056
 10
-167.6797840620831
 20
-464.9996960643056
 10
-165.9347785567008
 20
-464.9996960643056
 10
-164.178378648242
 20
-464.9996960643056
 10
-162.411022582979
 20
-464.9996960643056
 10
-160.633148607184
 20
-464.9996960643056
 10
-158.845194967129
 20
-464.9996960643056
 10
-157.0475999090864
 20
-464.9996960643056
 10
-155.2408016793281
 20
-464.9996960643056
 10
-153.4252385241266
 20
-464.9996960643056
 10
-151.6013486897537
 20
-464.9996960643056
 10
-149.7695704224819
 20
-464.9996960643056
 10
-147.9303419685832
 20
-464.9996960643056
 10
-146.0841015743297
 20
-464.9996960643056
 10
-144.2312874859937
 20
-464.9996960643056
 10
-142.3723379498474
 20
-464.9996960643056
 10
-140.5076912121628
 20
-464.9996960643056
 10
-138.6377855192122
 20
-464.9996960643056
 10
-136.7630591172678
 20
-464.9996960643056
 10
-134.8839502526017
 20
-464.9996960643056
 10
-133.000897171486
 20
-464.9996960643056
 10
-129.2247113449948
 20
-464.9996960643056
 10
-125.4380076079715
 20
-464.9996960643056
 10
-121.6442919305935
 20
-464.9996960643056
 10
-117.8470702830382
 20
-464.9996960643056
 10
-114.0498486354829
 20
-464.9996960643056
 10
-110.2561329581049
 20
-464.9996960643056
 10
-106.4694292210816
 20
-464.9996960643056
 10
-102.6932433945904
 20
-464.9996960643056
 10
-100.8101903134748
 20
-464.9996960643056
 10
-98.93108144880862
 20
-464.9996960643056
 10
-97.05635504686419
 20
-464.9996960643056
 10
-95.18644935391359
 20
-464.9996960643056
 10
-93.32180261622907
 20
-464.9996960643056
 10
-91.46285308008271
 20
-464.9996960643056
 10
-89.6100389917467
 20
-464.9996960643056
 10
-87.76379859749326
 20
-464.9996960643056
 10
-85.92457014359453
 20
-464.9996960643056
 10
-84.09279187632268
 20
-464.9996960643056
 10
-82.26890204194987
 20
-464.9996960643056
 10
-80.45333888674823
 20
-464.9996960643056
 10
-78.64654065699004
 20
-464.9996960643056
 10
-76.84894559894738
 20
-464.9996960643056
 10
-75.06099195889246
 20
-464.9996960643056
 10
-73.28311798309738
 20
-464.9996960643056
 10
-71.5157619178344
 20
-464.9996960643056
 10
-69.75936200937565
 20
-464.9996960643056
 10
-68.0143565039933
 20
-464.9996960643056
 10
-66.28118364795952
 20
-464.9996960643056
 10
-64.56028168754646
 20
-464.9996960643056
 10
-62.85208886902631
 20
-464.9996960643056
 10
-62.00289533993614
 20
-464.9996960643056
 10
-61.15704343867125
 20
-464.9996960643056
 10
-60.31458794601567
 20
-464.9996960643056
 10
-59.47558364275343
 20
-464.9996960643056
 10
-58.64008530966854
 20
-464.9996960643056
 10
-57.80814772754503
 20
-464.9996960643056
 10
-56.97982567716691
 20
-464.9996960643056
 10
-56.15517393931821
 20
-464.9996960643056
 10
-55.33424729478293
 20
-464.9996960643056
 10
-54.51710052434513
 20
-464.9996960643056
 10
-53.70378840878881
 20
-464.9996960643056
 10
-52.89436572889798
 20
-464.9996960643056
 10
-52.08888726545669
 20
-464.9996960643056
 10
-51.28740779924893
 20
-464.9996960643056
 10
-50.48998211105875
 20
-464.9996960643056
 10
-49.69666498167014
 20
-464.9996960643056
 10
-48.90751119186714
 20
-464.9996960643056
 10
-48.12257552243377
 20
-464.9996960643056
 10
-47.34191275415406
 20
-464.9996960643056
 10
-46.56557766781201
 20
-464.9996960643056
 10
-45.79362504419165
 20
-464.9996960643056
 10
-45.02610966407701
 20
-464.9996960643056
 10
-44.26308630825211
 20
-464.9996960643056
 10
-43.50460975750095
 20
-464.9996960643056
 10
-42.75073479260758
 20
-464.9996960643056
 10
-42.00151619435601
 20
-464.9996960643056
 10
-41.25700874353024
 20
-464.9996960643056
 10
-40.51726722091433
 20
-464.9996960643056
 10
-39.78234640729228
 20
-464.9996960643056
 10
-39.0523010834481
 20
-464.9996960643056
 10
-38.32718603016584
 20
-464.9996960643056
 10
-37.60705602822949
 20
-464.9996960643056
 10
-36.89196585842309
 20
-464.9996960643056
 10
-36.18197030153066
 20
-464.9996960643056
 10
-35.47712413833622
 20
-464.9996960643056
 10
-34.77748214962378
 20
-464.9996960643056
 10
-34.08309911617738
 20
-464.9996960643056
 10
-33.39402981878103
 20
-464.9996960643056
 10
-32.71032903821875
 20
-464.9996960643056
 10
-32.03205155527456
 20
-464.9996960643056
 10
-31.3592521507325
 20
-464.9996960643056
 10
-30.69198560537656
 20
-464.9996960643056
 10
-30.03030669999079
 20
-464.9996960643056
 10
-29.37427021535919
 20
-464.9996960643056
 10
-28.72393093226579
 20
-464.9996960643056
 10
-28.07934363149461
 20
-464.9996960643056
 10
-27.44056309382968
 20
-464.9996960643056
 10
-26.80764410005501
 20
-464.9996960643056
 10
-26.18064143095462
 20
-464.9996960643056
 10
-25.55960986731254
 20
-464.9996960643056
 10
-24.94460418991279
 20
-464.9996960643056
 10
-24.33567917953938
 20
-464.9996960643056
 10
-23.73288961697634
 20
-464.9996960643056
 10
-23.13629028300769
 20
-464.9996960643056
 10
-22.54593595841746
 20
-464.9996960643056
 10
-21.96188142398965
 20
-464.9996960643056
 10
-21.3841814605083
 20
-464.9996960643056
 10
-20.81289084875743
 20
-464.9996960643056
 10
-20.24806436952105
 20
-464.9996960643056
 10
-19.68975680358318
 20
-464.9996960643056
 10
-19.13802293172786
 20
-464.9996960643056
 10
-18.59291753473909
 20
-464.9996960643056
 10
-18.05449539340091
 20
-464.9996960643056
 10
-17.52281128849732
 20
-464.9996960643056
 10
-16.99792000081236
 20
-464.9996960643056
 10
-16.47987631113005
 20
-464.9996960643056
 10
-15.9687350002344
 20
-464.9996960643056
 10
-15.46455084890943
 20
-464.9996960643056
 10
-14.96737863793917
 20
-464.9996960643056
 10
-14.47727314810764
 20
-464.9996960643056
 10
-13.99428916019886
 20
-464.9996960643056
 10
-13.51848145499686
 20
-464.9996960643056
 10
-13.04990481328564
 20
-464.9996960643056
 10
-12.58861401584923
 20
-464.9996960643056
 10
-12.13466384347167
 20
-464.9996960643056
 10
-11.68810907693695
 20
-464.9996960643056
 10
-11.24900449702912
 20
-464.9996960643056
 10
-10.81740488453218
 20
-464.9996960643056
 10
-10.39336502023016
 20
-464.9996960643056
 10
-9.97693968490708
 20
-464.9996960643056
 10
-9.56818365934696
 20
-464.9996960643056
 10
-9.167151724333823
 20
-464.9996960643056
 10
-8.773898660651692
 20
-464.9996960643056
 10
-8.388479249084582
 20
-464.9996960643056
 10
-8.01094827041652
 20
-464.9996960643056
 10
-7.641360505431525
 20
-464.9996960643056
 10
-7.279770734913618
 20
-464.9996960643056
 10
-6.92623373964682
 20
-464.9996960643056
 10
-6.580804300415153
 20
-464.9996960643056
 10
-6.243537198002637
 20
-464.9996960643056
 10
-5.914487213193295
 20
-464.9996960643056
 10
-5.593709126771145
 20
-464.9996960643056
 10
-5.281257719520211
 20
-464.9996960643056
 10
-4.977187772224513
 20
-464.9996960643056
 10
-4.681554065668072
 20
-464.9996960643056
 10
-4.39441138063491
 20
-464.9996960643056
 10
-4.115814497909048
 20
-464.9996960643056
 10
-3.845818198274507
 20
-464.9996960643056
 10
-3.584477262515307
 20
-464.9996960643056
 10
-3.33184647141547
 20
-464.9996960643056
 10
-3.087980605759018
 20
-464.9996960643056
 10
-2.852934446329971
 20
-464.9996960643056
 10
-2.626762773912351
 20
-464.9996960643056
 10
-2.409520369290178
 20
-464.9996960643056
 10
-2.201262013247475
 20
-464.9996960643056
 10
-2.002042486568262
 20
-464.9996960643056
 10
-1.811916570036559
 20
-464.9996960643056
 10
-1.630939044436389
 20
-464.9996960643056
 10
-1.459164690551772
 20
-464.9996960643056
 10
-1.29664828916673
 20
-464.9996960643056
 10
-1.143444621065284
 20
-464.9996960643056
 10
-0.9996084670314555
 20
-464.9996960643056
 10
-0.8651946078492645
 20
-464.9996960643056
 10
-0.7402578243027325
 20
-464.9996960643056
 10
-0.6248528971758809
 20
-464.9996960643056
 10
-0.5190346072527308
 20
-464.9996960643056
 10
-0.4228577353173036
 20
-464.9996960643056
 10
-0.3363770621536202
 20
-464.9996960643056
 10
-0.2596473685457017
 20
-464.9996960643056
 10
-0.1927234352775695
 20
-464.9996960643056
 10
-0.1356600431332446
 20
-464.9996960643056
 10
-0.0885119728967476
 20
-464.9996960643056
 10
-0.0513340053521012
 20
-464.9996960643056
 10
-0.0241809212833246
 20
-464.9996960643056
 10
-0.0071075014744388
 20
-464.9996960643056
 10
-0.0001685267094675
 20
-464.9996960643056
 10
0.0034086170309143
 20
-464.9996960643056
 10
0.0168024958574614
 20
-464.9996960643056
 10
0.0402954868332675
 20
-464.9996960643056
 10
0.0738328117366154
 20
-464.9996960643056
 10
0.1173596923457885
 20
-464.9996960643056
 10
0.1708213504390697
 20
-464.9996960643056
 10
0.2341630077947423
 20
-464.9996960643056
 10
0.3073298861910893
 20
-464.9996960643056
 10
0.3902672074063937
 20
-464.9996960643056
 10
0.4829201932189389
 20
-464.9996960643056
 10
0.5852340654070077
 20
-464.9996960643056
 10
0.6971540457488836
 20
-464.9996960643056
 10
0.8186253560228491
 20
-464.9996960643056
 10
0.949593218007188
 20
-464.9996960643056
 10
1.090002853480183
 20
-464.9996960643056
 10
1.239799484220117
 20
-464.9996960643056
 10
1.398928332005274
 20
-464.9996960643056
 10
1.567334618613936
 20
-464.9996960643056
 10
1.744963565824387
 20
-464.9996960643056
 10
1.93176039541491
 20
-464.9996960643056
 10
2.127670329163787
 20
-464.9996960643056
 10
2.332638588849303
 20
-464.9996960643056
 10
2.54661039624974
 20
-464.9996960643056
 10
2.76953097314338
 20
-464.9996960643056
 10
3.001345541308509
 20
-464.9996960643056
 10
3.241999322523407
 20
-464.9996960643056
 10
3.49143753856636
 20
-464.9996960643056
 10
3.749605411215648
 20
-464.9996960643056
 10
4.016448162249558
 20
-464.9996960643056
 10
4.29191101344637
 20
-464.9996960643056
 10
4.575939186584367
 20
-464.9996960643056
 10
4.868477903441834
 20
-464.9996960643056
 10
5.169472385797052
 20
-464.9996960643056
 10
5.478867855428307
 20
-464.9996960643056
 10
5.79660953411388
 20
-464.9996960643056
 10
6.122642643632056
 20
-464.9996960643056
 10
6.456912405761113
 20
-464.9996960643056
 10
6.799364042279341
 20
-464.9996960643056
 10
7.149942774965018
 20
-464.9996960643056
 10
7.50859382559643
 20
-464.9996960643056
 10
7.875262415951859
 20
-464.9996960643056
 10
8.249893767809588
 20
-464.9996960643056
 10
8.632433102947901
 20
-464.9996960643056
 10
9.022825643145079
 20
-464.9996960643056
 10
9.421016610179409
 20
-464.9996960643056
 10
9.826951225829169
 20
-464.9996960643056
 10
10.24057471187265
 20
-464.9996960643056
 10
10.66183229008812
 20
-464.9996960643056
 10
11.09066918225388
 20
-464.9996960643056
 10
11.5270306101482
 20
-464.9996960643056
 10
11.97086179554937
 20
-464.9996960643056
 10
12.42210796023568
 20
-464.9996960643056
 10
12.88071432598539
 20
-464.9996960643056
 10
13.34662611457681
 20
-464.9996960643056
 10
13.8197885477882
 20
-464.9996960643056
 10
14.30014684739786
 20
-464.9996960643056
 10
14.78764623518407
 20
-464.9996960643056
 10
15.28223193292511
 20
-464.9996960643056
 10
15.78384916239926
 20
-464.9996960643056
 10
16.2924431453848
 20
-464.9996960643056
 10
16.80795910366003
 20
-464.9996960643056
 10
17.33034225900321
 20
-464.9996960643056
 10
17.85953783319265
 20
-464.9996960643056
 10
18.39549104800661
 20
-464.9996960643056
 10
18.93814712522338
 20
-464.9996960643056
 10
19.48745128662125
 20
-464.9996960643056
 10
20.0433487539785
 20
-464.9996960643056
 10
20.60578474907341
 20
-464.9996960643056
 10
21.17470449368426
 20
-464.9996960643056
 10
21.75005320958934
 20
-464.9996960643056
 10
22.33177611856693
 20
-464.9996960643056
 10
22.91981844239532
 20
-464.9996960643056
 10
23.51412540285278
 20
-464.9996960643056
 10
24.1146422217176
 20
-464.9996960643056
 10
24.72131412076807
 20
-464.9996960643056
 10
25.33408632178245
 20
-464.9996960643056
 10
25.95290404653905
 20
-464.9996960643056
 10
26.57771251681614
 20
-464.9996960643056
 10
27.20845695439201
 20
-464.9996960643056
 10
27.84508258104494
 20
-464.9996960643056
 10
28.4875346185532
 20
-464.9996960643056
 10
29.13575828869509
 20
-464.9996960643056
 10
29.78969881324889
 20
-464.9996960643056
 10
30.44930141399289
 20
-464.9996960643056
 10
31.11451131270535
 20
-464.9996960643056
 10
31.78527373116457
 20
-464.9996960643056
 10
32.46153389114883
 20
-464.9996960643056
 10
33.14323701443643
 20
-464.9996960643056
 10
33.83032832280561
 20
-464.9996960643056
 10
34.5227530380347
 20
-464.9996960643056
 10
35.22045638190195
 20
-464.9996960643056
 10
35.92338357618566
 20
-464.9996960643056
 10
36.63147984266411
 20
-464.9996960643056
 10
37.34469040311558
 20
-464.9996960643056
 10
38.06296047931835
 20
-464.9996960643056
 10
38.78623529305072
 20
-464.9996960643056
 10
39.51446006609096
 20
-464.9996960643056
 10
40.24758002021734
 20
-464.9996960643056
 10
40.98554037720817
 20
-464.9996960643056
 10
41.72828635884172
 20
-464.9996960643056
 10
42.47576318689628
 20
-464.9996960643056
 10
43.22791608315012
 20
-464.9996960643056
 10
43.98469026938153
 20
-464.9996960643056
 10
44.74603096736879
 20
-464.9996960643056
 10
45.51188339889018
 20
-464.9996960643056
 10
46.28219278572401
 20
-464.9996960643056
 10
47.05690434964854
 20
-464.9996960643056
 10
47.83596331244203
 20
-464.9996960643056
 10
48.61931489588282
 20
-464.9996960643056
 10
49.40690432174915
 20
-464.9996960643056
 10
50.19867681181931
 20
-464.9996960643056
 10
50.99457758787158
 20
-464.9996960643056
 10
51.79455187168427
 20
-464.9996960643056
 10
52.59854488503564
 20
-464.9996960643056
 10
53.40650184970397
 20
-464.9996960643056
 10
54.21836798746756
 20
-464.9996960643056
 10
55.03408852010468
 20
-464.9996960643056
 10
55.85360866939362
 20
-464.9996960643056
 10
56.67687365711265
 20
-464.9996960643056
 10
57.50382870504008
 20
-464.9996960643056
 10
58.33441903495415
 20
-464.9996960643056
 10
59.1685898686332
 20
-464.9996960643056
 10
60.00628642785546
 20
-464.9996960643056
 10
60.84745393439924
 20
-464.9996960643056
 10
61.69203761004283
 20
-464.9996960643056
 10
62.53998267656449
 20
-464.9996960643056
 10
64.24573786935519
 20
-464.9996960643056
 10
65.9642812869976
 20
-464.9996960643056
 10
67.69517470371804
 20
-464.9996960643056
 10
69.43797989374269
 20
-464.9996960643056
 10
71.19225863129789
 20
-464.9996960643056
 10
72.95757269060986
 20
-464.9996960643056
 10
74.7334838459049
 20
-464.9996960643056
 10
76.51955387140922
 20
-464.9996960643056
 10
78.31534454134914
 20
-464.9996960643056
 10
80.12041762995089
 20
-464.9996960643056
 10
81.93433491144077
 20
-464.9996960643056
 10
83.756658160045
 20
-464.9996960643056
 10
85.58694914998987
 20
-464.9996960643056
 10
87.42476965550165
 20
-464.9996960643056
 10
89.2696814508066
 20
-464.9996960643056
 10
91.12124631013099
 20
-464.9996960643056
 10
92.97902600770106
 20
-464.9996960643056
 10
94.8425823177431
 20
-464.9996960643056
 10
96.71147701448337
 20
-464.9996960643056
 10
98.58527187214814
 20
-464.9996960643056
 10
100.4635286649636
 20
-464.9996960643056
 10
102.3458091671562
 20
-464.9996960643056
 10
106.1206883965774
 20
-464.9996960643056
 10
109.9064037542219
 20
-464.9996960643056
 10
113.6994494338997
 20
-464.9996960643056
 10
121.2935085345961
 20
-464.9996960643056
 10
125.0875103432348
 20
-464.9996960643056
 10
128.8748192491474
 20
-464.9996960643056
 10
132.651929446144
 20
-464.9996960643056
 10
134.5355644643644
 20
-464.9996960643056
 10
136.4153351280347
 20
-464.9996960643056
 10
138.290803211381
 20
-464.9996960643056
 10
140.1615304886296
 20
-464.9996960643056
 10
142.0270787340068
 20
-464.9996960643056
 10
143.8870097217389
 20
-464.9996960643056
 10
145.740885226052
 20
-464.9996960643056
 10
147.5882670211726
 20
-464.9996960643056
 10
149.4287168813268
 20
-464.9996960643056
 10
151.2617965807409
 20
-464.9996960643056
 10
153.0870678936411
 20
-464.9996960643056
 10
154.9040925942539
 20
-464.9996960643056
 10
156.7124324568053
 20
-464.9996960643056
 10
158.5116492555216
 20
-464.9996960643056
 10
160.3013047646292
 20
-464.9996960643056
 10
162.0809607583544
 20
-464.9996960643056
 10
163.8501790109233
 20
-464.9996960643056
 10
165.6085212965622
 20
-464.9996960643056
 10
167.3555493894974
 20
-464.9996960643056
 10
169.0908250639552
 20
-464.9996960643056
 10
170.8139100941617
 20
-464.9996960643056
 10
172.5243662543434
 20
-464.9996960643056
 10
173.3747215626206
 20
-464.9996960643056
 10
174.2217553187265
 20
-464.9996960643056
 10
175.0654127444392
 20
-464.9996960643056
 10
175.9056390615371
 20
-464.9996960643056
 10
176.7423794917985
 20
-464.9996960643056
 10
177.5755792570016
 20
-464.9996960643056
 10
178.4051835789249
 20
-464.9996960643056
 10
179.2311376793463
 20
-464.9996960643056
 10
180.0533867800444
 20
-464.9996960643056
 10
180.8718761027974
 20
-464.9996960643056
 10
181.6865508693836
 20
-464.9996960643056
 10
182.4973563015812
 20
-464.9996960643056
 10
183.3042376211685
 20
-464.9996960643056
 10
184.1071400499239
 20
-464.9996960643056
 10
184.9060088096256
 20
-464.9996960643056
 10
185.7007891220519
 20
-464.9996960643056
 10
186.491426208981
 20
-464.9996960643056
 10
187.2778652921912
 20
-464.9996960643056
 10
188.060051593461
 20
-464.9996960643056
 10
188.8379303345684
 20
-464.9996960643056
 10
189.6114467372918
 20
-464.9996960643056
 10
190.3805460234095
 20
-464.9996960643056
 10
191.1451734146998
 20
-464.9996960643056
 10
191.9052741329409
 20
-464.9996960643056
 10
192.6607933999111
 20
-464.9996960643056
 10
193.4116764373888
 20
-464.9996960643056
 10
194.1578684671522
 20
-464.9996960643056
 10
194.8993147109796
 20
-464.9996960643056
 10
195.6359603906492
 20
-464.9996960643056
 10
196.3677507279394
 20
-464.9996960643056
 10
197.0946309446284
 20
-464.9996960643056
 10
197.8165462624945
 20
-464.9996960643056
 10
198.533441903316
 20
-464.9996960643056
 10
199.2452630888712
 20
-464.9996960643056
 10
199.9519550409384
 20
-464.9996960643056
 10
200.6534629812958
 20
-464.9996960643056
 10
201.3497321317217
 20
-464.9996960643056
 10
202.0407077139945
 20
-464.9996960643056
 10
202.7263349498924
 20
-464.9996960643056
 10
203.4065590611936
 20
-464.9996960643056
 10
204.0813252696764
 20
-464.9996960643056
 10
204.7505787971193
 20
-464.9996960643056
 10
205.4142648653004
 20
-464.9996960643056
 10
206.072328695998
 20
-464.9996960643056
 10
206.7247155109903
 20
-464.9996960643056
 10
207.3713705320558
 20
-464.9996960643056
 10
208.0122389809726
 20
-464.9996960643056
 10
208.6472660795191
 20
-464.9996960643056
 10
209.2763970494734
 20
-464.9996960643056
 10
209.899577112614
 20
-464.9996960643056
 10
210.5167514907191
 20
-464.9996960643056
 10
211.127865405567
 20
-464.9996960643056
 10
211.7328640789359
 20
-464.9996960643056
 10
212.3316927326042
 20
-464.9996960643056
 10
212.9242965883501
 20
-464.9996960643056
 10
213.5106208679519
 20
-464.9996960643056
 10
214.0906107931879
 20
-464.9996960643056
 10
214.6642115858364
 20
-464.9996960643056
 10
215.2313684676756
 20
-464.9996960643056
 10
215.7920266604839
 20
-464.9996960643056
 10
216.3461313860395
 20
-464.9996960643056
 10
216.8936278661207
 20
-464.9996960643056
 10
217.4344613225058
 20
-464.9996960643056
 10
217.9685769769731
 20
-464.9996960643056
 10
218.4959200513008
 20
-464.9996960643056
 10
219.0164357672673
 20
-464.9996960643056
 10
219.5300693466508
 20
-464.9996960643056
 10
220.0367660112296
 20
-464.9996960643056
 10
220.536470982782
 20
-464.9996960643056
 10
221.0291294830863
 20
-464.9996960643056
 10
221.5146867339207
 20
-464.9996960643056
 10
221.9930879570636
 20
-464.9996960643056
 10
222.4642783742933
 20
-464.9996960643056
 10
222.9282032073878
 20
-464.9996960643056
 10
223.3848076781256
 20
-464.9996960643056
 10
223.8340370082851
 20
-464.9996960643056
 10
224.2758364196444
 20
-464.9996960643056
 10
224.7101511339819
 20
-464.9996960643056
 10
225.1369263730758
 20
-464.9996960643056
 10
225.5561073587043
 20
-464.9996960643056
 10
225.9676393126458
 20
-464.9996960643056
 10
226.3714674566787
 20
-464.9996960643056
 10
226.767537012581
 20
-464.9996960643056
 10
227.1557932021313
 20
-464.9996960643056
 10
227.5361812471076
 20
-464.9996960643056
 10
227.9086463692884
 20
-464.9996960643056
 10
228.2731337904518
 20
-464.9996960643056
 10
228.6295887323762
 20
-464.9996960643056
 10
228.9779564168398
 20
-464.9996960643056
 10
229.318182065621
 20
-464.9996960643056
 10
229.650210900498
 20
-464.9996960643056
 10
229.9739881432491
 20
-464.9996960643056
 10
230.2894590156526
 20
-464.9996960643056
 10
230.5965687394868
 20
-464.9996960643056
 10
230.8952625365299
 20
-464.9996960643056
 10
231.1854856285602
 20
-464.9996960643056
 10
231.4671832373561
 20
-464.9996960643056
 10
231.7403005846958
 20
-464.9996960643056
 10
232.0047828923575
 20
-464.9996960643056
 10
232.2605753821196
 20
-464.9996960643056
 10
232.5076232757604
 20
-464.9996960643056
 10
232.7458717950581
 20
-464.9996960643056
 10
232.975266161791
 20
-464.9996960643056
 10
233.1957515977374
 20
-464.9996960643056
 10
233.4072733246756
 20
-464.9996960643056
 10
233.6097765643838
 20
-464.9996960643056
 10
233.8032065386404
 20
-464.9996960643056
 10
233.9875084692237
 20
-464.9996960643056
 10
234.1626275779118
 20
-464.9996960643056
 10
234.3285090864831
 20
-464.9996960643056
 10
234.485098216716
 20
-464.9996960643056
 10
234.6323401903886
 20
-464.9996960643056
 10
234.7701802292792
 20
-464.9996960643056
 10
234.8985635551662
 20
-464.9996960643056
 10
235.0174353898278
 20
-464.9996960643056
 10
235.1267409550423
 20
-464.9996960643056
 10
235.2264254725879
 20
-464.9996960643056
 10
235.316434164243
 20
-464.9996960643056
 10
235.3967122517859
 20
-464.9996960643056
 10
235.4672049569948
 20
-464.9996960643056
 10
235.527857501648
 20
-464.9996960643056
 10
235.5786151075238
 20
-464.9996960643056
 10
235.6194229964005
 20
-464.9996960643056
 10
235.6502263900563
 20
-464.9996960643056
 10
235.6709705102696
 20
-464.9996960643056
 10
235.6816005788186
 20
-464.9996960643056
 10
235.6831057255247
 20
-464.9996960643056
 10
235.6845673876503
 20
-464.9996960371041
 10
235.6898881598146
 20
-464.9996954719248
 10
235.7005295751906
 20
-464.9996921474429
 10
235.7218118879734
 20
-464.9996767228047
 10
235.8069341423854
 20
-464.9994980495757
 10
236.4874741124009
 20
-464.9913442188197
 10
237.1671207681115
 20
-464.9712792623236
 10
237.8457124178692
 20
-464.9393645114023
 10
238.5230873700255
 20
-464.8956612973706
 10
239.199083932932
 20
-464.8402309515435
 10
239.8735404149407
 20
-464.7731348052357
 10
240.546295124403
 20
-464.6944341897623
 10
241.2171863696708
 20
-464.604190436438
 10
241.8860524590956
 20
-464.5024648765777
 10
242.5527317010293
 20
-464.3893188414963
 10
243.2170624038235
 20
-464.2648136625088
 10
243.8788828758299
 20
-464.1290106709297
 10
244.5380314254002
 20
-463.9819711980743
 10
245.1943463608861
 20
-463.8237565752573
 10
245.8476659906394
 20
-463.6544281337935
 10
246.4978286230115
 20
-463.4740472049979
 10
247.1446725663545
 20
-463.2826751201853
 10
247.7880361290198
 20
-463.0803732106706
 10
248.4277576193592
 20
-462.8672028077685
 10
249.0636753457244
 20
-462.6432252427942
 10
249.6956276164671
 20
-462.4085018470624
 10
250.323452739939
 20
-462.1630939518879
 10
250.9469890244918
 20
-461.9070628885856
 10
251.5660747784771
 20
-461.6404699884705
 10
252.1805483102468
 20
-461.3633765828574
 10
252.7902479281524
 20
-461.0758440030612
 10
253.3950119405457
 20
-460.7779335803967
 10
253.9946786557784
 20
-460.4697066461788
 10
254.5890863822022
 20
-460.1512245317224
 10
255.1780734281687
 20
-459.8225485683425
 10
255.7614781020298
 20
-459.4837400873537
 10
256.339138712137
 20
-459.134860420071
 10
256.910893566842
 20
-458.7759708978094
 10
257.4765809744966
 20
-458.4071328518835
 10
258.0360392434525
 20
-458.0284076136083
 10
258.5891066820614
 20
-457.6398565142989
 10
259.1356215986749
 20
-457.2415408852698
 10
259.6754223016448
 20
-456.8335220578362
 10
260.2083470993227
 20
-456.4158613633127
 10
260.7342343000604
 20
-455.9886201330143
 10
261.2529222122096
 20
-455.5518596982559
 10
261.7642491441219
 20
-455.1056413903523
 10
262.268053404149
 20
-454.6500265406185
 10
262.7641733006427
 20
-454.1850764803692
 10
263.2524471419547
 20
-453.7108525409194
 10
263.7327132364366
 20
-453.2274160535839
 10
263.8515096013748
 20
-453.1051246584063
 10
263.9102432017724
 20
-453.0442615175417
 10
263.964129468059
 20
-452.988244371568
 10
264.1784682964441
 20
-452.7631433374518
 10
264.6013393617825
 20
-452.3080366722473
 10
265.0164341411548
 20
-451.8464954963962
 10
265.4237116376929
 20
-451.3786457522777
 10
265.8231308545286
 20
-450.9046133822709
 10
266.2146507947936
 20
-450.4245243287552
 10
266.5982304616196
 20
-449.9385045341096
 10
266.9738288581385
 20
-449.4466799407134
 10
267.341404987482
 20
-448.9491764909458
 10
267.7009178527819
 20
-448.446120127186
 10
268.0523264571699
 20
-447.9376367918131
 10
268.3955898037778
 20
-447.4238524272065
 10
268.7306668957375
 20
-446.9048929757453
 10
269.0575167361806
 20
-446.3808843798086
 10
269.376098328239
 20
-445.8519525817758
 10
269.6863706750443
 20
-445.3182235240261
 10
269.9882927797284
 20
-444.7798231489384
 10
270.2818236454231
 20
-444.2368773988923
 10
270.56692227526
 20
-443.6895122162668
 10
270.8435476723711
 20
-443.1378535434411
 10
271.111658839888
 20
-442.5820273227945
 10
271.3712147809425
 20
-442.0221594967062
 10
271.6221744986664
 20
-441.4583760075553
 10
271.8644969961914
 20
-440.890802797721
 10
272.0981412766493
 20
-440.3195658095826
 10
272.323066343172
 20
-439.7447909855192
 10
272.5392311988911
 20
-439.1666042679101
 10
272.7465948469385
 20
-438.5851315991346
 10
272.9451162904458
 20
-438.0004989215716
 10
273.134754532545
 20
-437.4128321776007
 10
273.3154685763676
 20
-436.8222573096008
 10
273.4872174250456
 20
-436.2289002599511
 10
273.6499600817106
 20
-435.6328869710309
 10
273.8036555494945
 20
-435.0343433852195
 10
273.948262831529
 20
-434.433395444896
 10
274.0837409309459
 20
-433.8301690924396
 10
274.210048850877
 20
-433.2247902702295
 10
274.3271455944539
 20
-432.6173849206449
 10
274.4349901648087
 20
-432.0080789860652
 10
274.5335415650728
 20
-431.3969984088693
 10
274.6227587983781
 20
-430.7842691314365
 10
274.7026008678565
 20
-430.1700170961461
 10
274.7730267766396
 20
-429.5543682453772
 10
274.8339955278593
 20
-428.937448521509
 10
274.8854661246473
 20
-428.3193838669209
 10
274.9273975701353
 20
-427.7003002239919
 10
274.9447732996206
 20
-427.3904156388931
 10
274.9525614240324
 20
-427.2353945429091
 10
274.9562302709034
 20
-427.1578651549925
 10
274.9571240091366
 20
-427.1384808871586
 10
274.9572048354765
 20
-427.1367093757206
 10
274.957205233368
 20
-427.1366238290512
 10
274.9572232908508
 20
-427.1327414702407
 10
274.957267385072
 20
-427.1232612126925
 10
274.9573369420752
 20
-427.1083064569801
 10
274.9574313879046
 20
-427.0880006036769
 10
274.9575501486037
 20
-427.0624670533561
 10
274.9576926502166
 20
-427.0318292065913
 10
274.957858318787
 20
-426.9962104639556
 10
274.9580465803588
 20
-426.9557342260226
 10
274.9582568609758
 20
-426.9105238933655
 10
274.9584885866819
 20
-426.8607028665579
 10
274.9587411835209
 20
-426.8063945461729
 10
274.9590140775366
 20
-426.7477223327842
 10
274.959306694773
 20
-426.6848096269649
 10
274.9596184612738
 20
-426.6177798292885
 10
274.959948803083
 20
-426.5467563403284
 10
274.9602971462442
 20
-426.4718625606578
 10
274.9606629168014
 20
-426.3932218908502
 10
274.9610455407985
 20
-426.3109577314791
 10
274.9614444442793
 20
-426.2251934831176
 10
274.9618590532875
 20
-426.1360525463393
 10
274.962733092062
 20
-425.9481342098255
 10
274.9636630654727
 20
-425.7481899265247
 10
274.9646443818704
 20
-425.5372069010238
 10
274.9656724496058
 20
-425.3161723379099
 10
274.9667426770297
 20
-425.08607344177
 10
274.9678504724929
 20
-424.8478974171909
 10
274.9689912443461
 20
-424.6026314687599
 10
274.97016040094
 20
-424.3512628010638
 10
274.9713533506254
 20
-424.0947786186896
 10
274.9737922626739
 20
-423.5704125282549
 10
274.9787535713027
 20
-422.5037311730766
 10
274.981202501495
 20
-421.977211181725
 10
274.9824029647883
 20
-421.7191115736629
 10
274.9835813046807
 20
-421.4657684967928
 10
274.9847329295231
 20
-421.2181691557015
 10
274.9858532476659
 20
-420.9773007549761
 10
274.9869376674602
 20
-420.7441504992037
 10
274.9879815972567
 20
-420.519705592971
 10
274.988980445406
 20
-420.3049532408654
 10
274.989929620259
 20
-420.1008806474734
 10
274.9908245301664
 20
-419.9084750173824
 10
274.991660583479
 20
-419.7287235551792
 10
274.9920551040218
 20
-419.6439016384689
 10
274.9924331885475
 20
-419.5626134654508
 10
274.9927942630998
 20
-419.4849824366982
 10
274.9931377537226
 20
-419.4111319527843
 10
274.9934630864599
 20
-419.3411854142827
 10
274.9937696873553
 20
-419.2752662217667
 10
274.9940569824528
 20
-419.2134977758096
 10
274.9943243977962
 20
-419.1560034769849
 10
274.9945713594292
 20
-419.1029067258658
 10
274.9947972933959
 20
-419.0543309230259
 10
274.9950016257401
 20
-419.0103994690383
 10
274.9951837825055
 20
-418.9712357644767
 10
274.995343189736
 20
-418.9369632099142
 10
274.9954792734755
 20
-418.9077052059243
 10
274.9955914597678
 20
-418.8835851530804
 10
274.9956791746567
 20
-418.8647264519557
 10
274.9957418441862
 20
-418.8512525031239
 10
274.9957788944
 20
-418.8432867071581
 10
274.9957898618066
 20
-418.8397311813771
 10
274.9957898618066
 20
-418.8341799288911
 10
274.9957898618066
 20
-418.8241185718415
 10
274.9957898618066
 20
-418.8095592787711
 10
274.9957898618066
 20
-418.7905142182232
 10
274.9957898618066
 20
-418.7669955587408
 10
274.9957898618066
 20
-418.7390154688672
 10
274.9957898618066
 20
-418.7065861171451
 10
274.9957898618066
 20
-418.669719672118
 10
274.9957898618066
 20
-418.6284283023286
 10
274.9957898618066
 20
-418.5827241763203
 10
274.9957898618066
 20
-418.5326194626361
 10
274.9957898618066
 20
-418.4781263298192
 10
274.9957898618066
 20
-418.4192569464125
 10
274.9957898618066
 20
-418.3560234809592
 10
274.9957898618066
 20
-418.2884381020024
 10
274.9957898618066
 20
-418.2165129780851
 10
274.9957898618066
 20
-418.1402602777506
 10
274.9957898618066
 20
-418.0596921695418
 10
274.9957898618066
 20
-417.9748208220019
 10
274.9957898618066
 20
-417.8856584036739
 10
274.9957898618066
 20
-417.792217083101
 10
274.9957898618066
 20
-417.6945090288262
 10
274.9957898618066
 20
-417.5925464093928
 10
274.9957898618066
 20
-417.4863413933437
 10
274.9957898618066
 20
-417.375906149222
 10
274.9957898618066
 20
-417.2612528455708
 10
274.9957898618066
 20
-417.1423936509333
 10
274.9957898618066
 20
-417.0193407338525
 10
274.9957898618066
 20
-416.8921062628716
 10
274.9957898618066
 20
-416.7607024065335
 10
274.9957898618066
 20
-416.6251413333815
 10
274.9957898618066
 20
-416.4854352119586
 10
274.9957898618066
 20
-416.3415962108079
 10
274.9957898618066
 20
-416.1936364984724
 10
274.9957898618066
 20
-416.0415682434955
 10
274.9957898618066
 20
-415.88540361442
 10
274.9957898618066
 20
-415.7251547797891
 10
274.9957898618066
 20
-415.5608339081458
 10
274.9957898618066
 20
-415.3924531680335
 10
274.9957898618066
 20
-415.2200247279949
 10
274.9957898618066
 20
-415.0435607565733
 10
274.9957898618066
 20
-414.8630734223118
 10
274.9957898618066
 20
-414.6785748937535
 10
274.9957898618066
 20
-414.4900773394414
 10
274.9957898618066
 20
-414.2975929279187
 10
274.9957898618066
 20
-414.1011338277285
 10
274.9957898618066
 20
-413.9007122074137
 10
274.9957898618066
 20
-413.6963402355177
 10
274.9957898618066
 20
-413.4880300805833
 10
274.9957898618066
 20
-413.2757939111538
 10
274.9957898618066
 20
-413.0596438957723
 10
274.9957898618066
 20
-412.8395922029817
 10
274.9957898618066
 20
-412.6156510013253
 10
274.9957898618066
 20
-412.3878324593461
 10
274.9957898618066
 20
-412.1561487455872
 10
274.9957898618066
 20
-411.9206120285918
 10
274.9957898618066
 20
-411.6812344769028
 10
274.9957898618066
 20
-411.4380282590635
 10
274.9957898618066
 20
-411.1910055436168
 10
274.9957898618066
 20
-410.940178499106
 10
274.9957898618066
 20
-410.6855592940741
 10
274.9957898618066
 20
-410.4271600970641
 10
274.9957898618066
 20
-410.1649930766191
 10
274.9957898618066
 20
-409.8990704012824
 10
274.9957898618066
 20
-409.629404239597
 10
274.9957898618066
 20
-409.3560067601059
 10
274.9957898618066
 20
-409.0788901313523
 10
274.9957898618066
 20
-408.7980665218792
 10
274.9957898618066
 20
-408.5135481002298
 10
274.9957898618066
 20
-408.2253470349471
 10
274.9957898618066
 20
-407.9334754945744
 10
274.9957898618066
 20
-407.6379456476545
 10
274.9957898618066
 20
-407.3387696627307
 10
274.9957898618066
 20
-407.035959708346
 10
274.9957898618066
 20
-406.7295279530435
 10
274.9957898618066
 20
-406.4194865653664
 10
274.9957898618066
 20
-406.1058477138577
 10
274.9957898618066
 20
-405.7886235670606
 10
274.9957898618066
 20
-405.467826293518
 10
274.9957898618066
 20
-405.1434680617731
 10
274.9957898618066
 20
-404.8155610403691
 10
274.9957898618066
 20
-404.4841173978489
 10
274.9957898618066
 20
-404.1491493027558
 10
274.9957898618066
 20
-403.8106689236327
 10
274.9957898618066
 20
-403.4686884290228
 10
274.9957898618066
 20
-403.1232199874692
 10
274.9957898618066
 20
-402.774275767515
 10
274.9957898618066
 20
-402.4218679377033
 10
274.9957898618066
 20
-402.066008666577
 10
274.9957898618066
 20
-401.7067101226796
 10
274.9957898618066
 20
-401.3439844745538
 10
274.9957898618066
 20
-400.977843890743
 10
274.9957898618066
 20
-400.60830053979
 10
274.9957898618066
 20
-400.2353665902381
 10
274.9957898618066
 20
-399.8590542106304
 10
274.9957898618066
 20
-399.4793755695099
 10
274.9957898618066
 20
-399.0963428354198
 10
274.9957898618066
 20
-398.709968176903
 10
274.9957898618066
 20
-398.3202637625029
 10
274.9957898618066
 20
-397.9272417607623
 10
274.9957898618066
 20
-397.1312936694324
 10
274.9957898618066
 20
-396.3222212512582
 10
274.9957898618066
 20
-395.5001218545843
 10
274.9957898618066
 20
-394.6650928277557
 10
274.9957898618066
 20
-393.8172315191169
 10
274.9957898618066
 20
-392.9566352770129
 10
274.9957898618066
 20
-392.0834014497884
 10
274.9957898618066
 20
-391.1976273857881
 10
274.9957898618066
 20
-390.2994104333568
 10
274.9957898618066
 20
-389.3888479408393
 10
274.9957898618066
 20
-388.4660372565803
 10
274.9957898618066
 20
-387.5310757289246
 10
274.9957898618066
 20
-386.5840607062171
 10
274.9957898618066
 20
-385.6250895368023
 10
274.9957898618066
 20
-384.6542595690252
 10
274.9957898618066
 20
-383.6716681512304
 10
274.9957898618066
 20
-382.6774126317627
 10
274.9957898618066
 20
-381.671590358967
 10
274.9957898618066
 20
-380.6542986811879
 10
274.9957898618066
 20
-379.6256349467702
 10
274.9957898618066
 20
-378.5856965040588
 10
274.9957898618066
 20
-377.5345807013983
 10
274.9957898618066
 20
-376.4723848871335
 10
274.9957898618066
 20
-375.3992064096092
 10
274.9957898618066
 20
-374.3151426171702
 10
274.9957898618066
 20
-373.2202908581613
 10
274.9957898618066
 20
-372.1147484809271
 10
274.9957898618066
 20
-370.9986128338124
 10
274.9957898618066
 20
-369.8719812651622
 10
274.9957898618066
 20
-368.734951123321
 10
274.9957898618066
 20
-367.5876197566336
 10
274.9957898618066
 20
-366.4300845134448
 10
274.9957898618066
 20
-365.2624427420996
 10
274.9957898618066
 20
-364.0847917909424
 10
274.9957898618066
 20
-362.8972290083181
 10
274.9957898618066
 20
-361.6998517425716
 10
274.9957898618066
 20
-360.4927573420474
 10
274.9957898618066
 20
-359.2760431550905
 10
274.9957898618066
 20
-358.0498065300456
 10
274.9957898618066
 20
-356.8141448152575
 10
274.9957898618066
 20
-355.5691553590708
 10
274.9957898618066
 20
-354.3149355098304
 10
274.9957898618066
 20
-353.0515826158812
 10
274.9957898618066
 20
-351.7791940255677
 10
274.9957898618066
 20
-350.4978670872347
 10
274.9957898618066
 20
-349.2076991492272
 10
274.9957898618066
 20
-347.9087875598897
 10
274.9957898618066
 20
-346.6012296675672
 10
274.9957898618066
 20
-345.2851228206042
 10
274.9957898618066
 20
-343.9605643673457
 10
274.9957898618066
 20
-342.6276516561364
 10
274.9957898618066
 20
-341.286482035321
 10
274.9957898618066
 20
-339.9371528532443
 10
274.9957898618066
 20
-338.579761458251
 10
274.9957898618066
 20
-337.2144051986861
 10
274.9957898618066
 20
-335.8411814228941
 10
274.9957898618066
 20
-334.4601874792199
 10
274.9957898618066
 20
-333.0715207160082
 10
274.9957898618066
 20
-331.6752784816039
 10
274.9957898618066
 20
-330.2715581243516
 10
274.9957898618066
 20
-328.8604569925961
 10
274.9957898618066
 20
-327.4420724346823
 10
274.9957898618066
 20
-326.0165017989548
 10
274.9957898618066
 20
-324.5838424337585
 10
274.9957898618066
 20
-323.1441916874381
 10
274.9957898618066
 20
-321.6976469083383
 10
274.9957898618066
 20
-320.244305444804
 10
274.9957898618066
 20
-318.7842646451798
 10
274.9957898618066
 20
-317.3176218578106
 10
274.9957898618066
 20
-315.8444744310411
 10
274.9957898618066
 20
-314.3649197132162
 10
274.9957898618066
 20
-312.8790550526805
 10
274.9957898618066
 20
-311.3869777977789
 10
274.9957898618066
 20
-309.888785296856
 10
274.9957898618066
 20
-308.3845748982566
 10
274.9957898618066
 20
-306.8744439503257
 10
274.9957898618066
 20
-305.3584898014078
 10
274.9957898618066
 20
-303.8368097998477
 10
274.9957898618066
 20
-302.3095012939903
 10
274.9957898618066
 20
-300.7766616321803
 10
274.9957898618066
 20
-299.2383881627624
 10
274.9957898618066
 20
-297.6947782340815
 10
274.9957898618066
 20
-296.1459291944822
 10
274.9957898618066
 20
-294.5919383923094
 10
274.9957898618066
 20
-293.0329031759078
 10
274.9957898618066
 20
-291.4689208936222
 10
274.9957898618066
 20
-289.9000888937973
 10
274.9957898618066
 20
-288.326504524778
 10
274.9957898618066
 20
-286.7482651349089
 10
274.9957898618066
 20
-285.1654680725349
 10
274.9957898618066
 20
-283.5782106860007
 10
274.9957898618066
 20
-281.9865903236511
 10
274.9957898618066
 20
-280.3907043338309
 10
274.9957898618066
 20
-278.7906500648847
 10
274.9957898618066
 20
-277.1865248651574
 10
274.9957898618066
 20
-275.5784260829937
 10
274.9957898618066
 20
-273.9664510667386
 10
274.9957898618066
 20
-272.3506971647365
 10
274.9957898618066
 20
-270.7312617253324
 10
274.9957898618066
 20
-269.108242096871
 10
274.9957898618066
 20
-267.4817356276971
 10
274.9957898618066
 20
-265.8518396661555
 10
274.9957898618066
 20
-262.5822686593478
 10
274.9957898618066
 20
-259.3003078632064
 10
274.9957898618066
 20
-256.0067360644893
 10
274.9957898618066
 20
-252.7023320499545
 10
274.9957898618066
 20
-249.3878746063604
 10
274.9957898618066
 20
-246.0641425204648
 10
274.9957898618066
 20
-242.731914579026
 10
274.9957898618066
 20
-239.3919695688022
 10
274.9957898618066
 20
-236.0450862765514
 10
274.9957898618066
 20
-232.6920434890318
 10
274.9957898618066
 20
-229.3336199930015
 10
274.9957898618066
 20
-225.9705945752186
 10
274.9957898618066
 20
-219.2338531214276
 10
274.9957898618066
 20
-205.7394137701724
 10
274.9957898618066
 20
-198.9941764608382
 10
274.9957898618066
 20
-192.2585677877863
 10
274.9957898618066
 20
-188.8963211567616
 10
274.9957898618066
 20
-185.5388180450817
 10
274.9957898618066
 20
-182.1868372395051
 10
274.9957898618066
 20
-178.8411575267896
 10
274.9957898618066
 20
-175.5025576936934
 10
274.9957898618066
 20
-172.1718165269747
 10
274.9957898618066
 20
-168.8497128133916
 10
274.9957898618066
 20
-165.5370253397023
 10
274.9957898618066
 20
-162.2345328926648
 10
274.9957898618066
 20
-158.9430142590373
 10
274.9957898618066
 20
-155.6632482255777
 10
274.9957898618066
 20
-152.3960135790446
 10
274.9957898618066
 20
-150.7673388967373
 10
274.9957898618066
 20
-149.1420891061958
 10
274.9957898618066
 20
-147.5203615557649
 10
274.9957898618066
 20
-145.9022535937894
 10
274.9957898618066
 20
-144.2878625686141
 10
274.9957898618066
 20
-142.6772858285837
 10
274.9957898618066
 20
-141.070620722043
 10
274.9957898618066
 20
-139.4679645973367
 10
274.9957898618066
 20
-137.8694148028097
 10
274.9957898618066
 20
-136.2750686868066
 10
274.9957898618066
 20
-134.6850235976723
 10
274.9957898618066
 20
-133.0993768837515
 10
274.9957898618066
 20
-131.518225893389
 10
274.9957898618066
 20
-129.9416679749296
 10
274.9957898618066
 20
-128.3698004767179
 10
274.9957898618066
 20
-126.8027207470989
 10
274.9957898618066
 20
-125.2405261344171
 10
274.9957898618066
 20
-123.6833139870175
 10
274.9957898618066
 20
-122.1311816532447
 10
274.9957898618066
 20
-120.5842264814437
 10
274.9957898618066
 20
-119.042545819959
 10
274.9957898618066
 20
-117.5062370171355
 10
274.9957898618066
 20
-115.9753974213179
 10
274.9957898618066
 20
-114.4501243808511
 10
274.9957898618066
 20
-112.9305152440797
 10
274.9957898618066
 20
-111.4166673593485
 10
274.9957898618066
 20
-109.9086780750024
 10
274.9957898618066
 20
-108.406644739386
 10
274.9957898618066
 20
-106.9106647008442
 10
274.9957898618066
 20
-105.4208353077217
 10
274.9957898618066
 20
-103.9372539083632
 10
274.9957898618066
 20
-102.4600178511136
 10
274.9957898618066
 20
-100.9892244843176
 10
274.9957898618066
 20
-99.52497115631992
 10
274.9957898618066
 20
-98.0673552154654
 10
274.9957898618066
 20
-96.61647401009879
 10
274.9957898618066
 20
-95.17242488856481
 10
274.9957898618066
 20
-93.73530519920832
 10
274.9957898618066
 20
-92.30521229037401
 10
274.9957898618066
 20
-90.88224351040663
 10
274.9957898618066
 20
-89.466496207651
 10
274.9957898618066
 20
-88.0580677304518
 10
274.9957898618066
 20
-86.65705542715391
 10
274.9957898618066
 20
-85.26355664610207
 10
274.9957898618066
 20
-83.87766873564101
 10
274.9957898618066
 20
-82.49948904411548
 10
274.9957898618066
 20
-81.12911491987029
 10
274.9957898618066
 20
-79.76664371125025
 10
274.9957898618066
 20
-78.41217276659995
 10
274.9957898618066
 20
-77.06579943426437
 10
274.9957898618066
 20
-75.72762106258813
 10
274.9957898618066
 20
-74.39773499991611
 10
274.9957898618066
 20
-73.07623859459289
 10
274.9957898618066
 20
-71.76322919496346
 10
274.9957898618066
 20
-70.45880414937238
 10
274.9957898618066
 20
-69.16306080616459
 10
274.9957898618066
 20
-67.87609651368484
 10
274.9957898618066
 20
-66.59800862027776
 10
274.9957898618066
 20
-65.32889447428823
 10
274.9957898618066
 20
-64.06885142406093
 10
274.9957898618066
 20
-62.81797681794074
 10
274.9957898618066
 20
-61.5763680042723
 10
274.9957898618066
 20
-60.34412233140045
 10
274.9957898618066
 20
-59.12133714767003
 10
274.9957898618066
 20
-57.90810980142561
 10
274.9957898618066
 20
-56.70453764101217
 10
274.9957898618066
 20
-55.51071801477428
 10
274.9957898618066
 20
-54.32674827105683
 10
274.9957898618066
 20
-53.15272575820455
 10
274.9957898618066
 20
-51.98874782456226
 10
274.9957898618066
 20
-50.83491181847461
 10
274.9957898618066
 20
-49.6913150882865
 10
274.9957898618066
 20
-48.55805498234264
 10
274.9957898618066
 20
-47.43522884898766
 10
274.9957898618066
 20
-46.3229340365666
 10
274.9957898618066
 20
-45.22126789342394
 10
274.9957898618066
 20
-44.1303277679047
 10
274.9957898618066
 20
-43.05021100835347
 10
274.9957898618066
 20
-41.98101496311505
 10
274.9957898618066
 20
-40.92283698053421
 10
274.9957898618066
 20
-39.87577440895586
 10
274.9957898618066
 20
-38.83992459672459
 10
274.9957898618066
 20
-37.81538489218519
 10
274.9957898618066
 20
-36.8022526436825
 10
274.9957898618066
 20
-35.80062519956113
 10
274.9957898618066
 20
-34.81059990816613
 10
274.9957898618066
 20
-33.8322741178419
 10
274.9957898618066
 20
-32.86574517693356
 10
274.9957898618066
 20
-31.91111043378561
 10
274.9957898618066
 20
-30.96846723674298
 10
274.9957898618066
 20
-30.03791293415037
 10
274.9957898618066
 20
-29.11954487435253
 10
274.9957898618066
 20
-28.21346040569427
 10
274.9957898618066
 20
-27.31975687652028
 10
274.9957898618066
 20
-26.43853163517548
 10
274.9957898618066
 20
-25.56988203000441
 10
274.9957898618066
 20
-24.71390540935204
 10
274.9957898618066
 20
-23.87069912156306
 10
274.9957898618066
 20
-23.04036051498218
 10
274.9957898618066
 20
-22.22298693795426
 10
274.9957898618066
 20
-21.41867573882405
 10
274.9957898618066
 20
-21.02144895232823
 10
274.9957898618066
 20
-20.62752426593625
 10
274.9957898618066
 20
-20.23691384819096
 10
274.9957898618066
 20
-19.8496298676356
 10
274.9957898618066
 20
-19.46568449281335
 10
274.9957898618066
 20
-19.08508989226709
 10
274.9957898618066
 20
-18.70785823453997
 10
274.9957898618066
 20
-18.33400168817519
 10
274.9957898618066
 20
-17.96353242171585
 10
274.9957898618066
 20
-17.59646260370488
 10
274.9957898618066
 20
-17.23280440268553
 10
274.9957898618066
 20
-16.8725699872009
 10
274.9957898618066
 20
-16.51577152579398
 10
274.9957898618066
 20
-16.16242118700785
 10
274.9957898618066
 20
-15.81253113938572
 10
274.9957898618066
 20
-15.46611355147075
 10
274.9957898618066
 20
-15.1231805918058
 10
274.9957898618066
 20
-14.78374442893408
 10
274.9957898618066
 20
-14.44781723139874
 10
274.9957898618066
 20
-14.11541116774287
 10
274.9957898618066
 20
-13.78653840650946
 10
274.9957898618066
 20
-13.46121111624166
 10
274.9957898618066
 20
-13.13944146548272
 10
274.9957898618066
 20
-12.8212416227754
 10
274.9957898618066
 20
-12.50662375666309
 10
274.9957898618066
 20
-12.19560003568875
 10
274.9957898618066
 20
-11.88818262839561
 10
274.9957898618066
 20
-11.58438370332658
 10
274.9957898618066
 20
-11.28421542902481
 10
274.9957898618066
 20
-10.98768997403357
 10
274.9957898618066
 20
-10.69481950689572
 10
274.9957898618066
 20
-10.40561619615442
 10
274.9957898618066
 20
-10.12009221035282
 10
274.9957898618066
 20
-9.838259718034066
 10
274.9957898618066
 20
-9.560130887741138
 10
274.9957898618066
 20
-9.285717888017074
 10
274.9957898618066
 20
-9.015032887405254
 10
274.9957898618066
 20
-8.74808805444843
 10
274.9957898618066
 20
-8.484895557689924
 10
274.9957898618066
 20
-8.225467565672715
 10
274.9957898618066
 20
-7.969816246940069
 10
274.9957898618066
 20
-7.717953770034853
 10
274.9957898618066
 20
-7.469892303500273
 10
274.9957898618066
 20
-7.225644015879424
 10
274.9957898618066
 20
-6.985221075715458
 10
274.9957898618066
 20
-6.74863565155141
 10
274.9957898618066
 20
-6.515899911930318
 10
274.9957898618066
 20
-6.287026025395448
 10
274.9957898618066
 20
-6.062026160489665
 10
274.9957898618066
 20
-5.840912485756234
 10
274.9957898618066
 20
-5.623697169738193
 10
274.9957898618066
 20
-5.410392380978692
 10
274.9957898618066
 20
-5.201010288020711
 10
274.9957898618066
 20
-4.995563059407459
 10
274.9957898618066
 20
-4.794062863682029
 10
274.9957898618066
 20
-4.596521869387458
 10
274.9957898618066
 20
-4.402952245066728
 10
274.9957898618066
 20
-4.213366159263216
 10
274.9957898618066
 20
-4.027775780519846
 10
274.9957898618066
 20
-3.846193277379711
 10
274.9957898618066
 20
-3.668630818385906
 10
274.9957898618066
 20
-3.495100572081696
 10
274.9957898618066
 20
-3.32561470700989
 10
274.9957898618066
 20
-3.160185391713753
 10
274.9957898618066
 20
-2.998824794736378
 10
274.9957898618066
 20
-2.841545084620918
 10
274.9957898618066
 20
-2.688358429910238
 10
274.9957898618066
 20
-2.539276999147602
 10
274.9957898618066
 20
-2.394312960876163
 10
274.9957898618066
 20
-2.253478483638957
 10
274.9957898618066
 20
-2.116785735979021
 10
274.9957898618066
 20
-1.984246886439507
 10
274.9957898618066
 20
-1.855874103563564
 10
274.9957898618066
 20
-1.731679555894061
 10
274.9957898618066
 20
-1.611675411974374
 10
274.9957898618066
 20
-1.495873840347428
 10
274.9957898618066
 20
-1.384287009556487
 10
274.9957898618066
 20
-1.276927088144418
 10
274.9957898618066
 20
-1.173806244654372
 10
274.9957898618066
 20
-1.074936647629726
 10
274.9957898618066
 20
-0.9803304656131786
 10
274.9957898618066
 20
-0.889999867147992
 10
274.9957898618066
 20
-0.8039570207773181
 10
274.9957898618066
 20
-0.7222140950442509
 10
274.9957898618066
 20
-0.6447832584917706
 10
274.9957898618066
 20
-0.5716766796630282
 10
274.9957898618066
 20
-0.5029065271011178
 10
274.9957898618066
 20
-0.438484969349247
 10
274.9957898618066
 20
-0.3784241749503394
 10
274.9957898618066
 20
-0.322736312447546
 10
274.9957898618066
 20
-0.2714335503841312
 10
274.9957898618066
 20
-0.2245280573029618
 10
274.9957898618066
 20
-0.1820320017471317
 10
274.9957898618066
 20
-0.143957552259792
 10
274.9957898618066
 20
-0.110316877384264
 10
274.9957898618066
 20
-0.0811221456633007
 10
274.9957898618066
 20
-0.0563855256401098
 10
274.9957898618066
 20
-0.0361191858580128
 10
274.9957898618066
 20
-0.0203352948597058
 10
274.9957898618066
 20
-0.0090460211885102
 10
274.9957898618066
 20
-0.0022635333875201
 10
274.9957898618066
 20
-0.000000000000015
  0
SPLINE
  5
1A3
330
2
100
AcDbEntity
  8
0
 62
     7
100
AcDbSpline
210
0.0
220
0.0
230
1.0
 70
     8
 71
     3
 72
    29
 73
    25
 74
     0
 42
0.000000001
 43
0.0000000001
 40
0.0
 40
0.0
 40
0.0
 40
0.0
 40
1.0
 40
1.0
 40
1.0
 40
2.0
 40
2.0
 40
2.0
 40
3.0
 40
3.0
 40
3.0
 40
4.0
 40
4.0
 40
4.0
 40
5.0
 40
5.0
 40
5.0
 40
6.0
 40
6.0
 40
6.0
 40
7.0
 40
7.0
 40
7.0
 40
8.0
 40
8.0
 40
8.0
 40
8.0
 10
-753.451610070838
 20
-779.5926899630667
 30
0.0
 10
-745.4589885450583
 20
-786.8353142017074
 30
0.0
 10
-735.2396295523874
 20
-790.5229444091188
 30
0.0
 10
-724.8271729577684
 20
-792.6781961446911
 30
0.0
 10
-724.8271729577684
 20
-792.6781961446911
 30
0.0
 10
-724.7224420550168
 20
-792.7002447557968
 30
0.0
 10
-724.7224420550168
 20
-792.7002447557968
 30
0.0
 10
-721.6687094168913
 20
-793.3231180195299
 30
0.0
 10
-720.2135010839217
 20
-794.7838385052758
 30
0.0
 10
-719.4362875424494
 20
-797.7879617684136
 30
0.0
 10
-719.4362875424494
 20
-797.7879617684136
 30
0.0
 10
-719.430775389673
 20
-797.8044982267428
 30
0.0
 10
-719.430775389673
 20
-797.8044982267428
 30
0.0
 10
-718.9787788620082
 20
-799.5683871151908
 30
0.0
 10
-717.3857667096288
 20
-800.8031093371043
 30
0.0
 10
-715.5615886501889
 20
-800.8031093371043
 30
0.0
 10
-715.5615886501889
 20
-800.8031093371043
 30
0.0
 10
-653.5505589347889
 20
-800.8031093371043
 30
0.0
 10
-653.5505589347889
 20
-800.8031093371043
 30
0.0
 10
-651.5551596297322
 20
-800.8031093371043
 30
0.0
 10
-649.8684408801539
 20
-799.336876698582
 30
0.0
 10
-649.5928332413338
 20
-797.363526004631
 30
0.0
 10
-649.5928332413338
 20
-797.363526004631
 30
0.0
 10
-647.0627551169664
 20
-779.4218132269983
 30
0.0
 10
-647.0627551169664
 20
-779.4218132269983
 30
0.0
  0
SPLINE
  5
1A4
330
2
100
AcDbEntity
  8
0
 62
     7
100
AcDbSpline
210
0.0
220
0.0
230
1.0
 70
     8
 71
     3
 72
    32
 73
    28
 74
     0
 42
0.000000001
 43
0.0000000001
 40
0.0
 40
0.0
 40
0.0
 40
0.0
 40
1.0
 40
1.0
 40
1.0
 40
2.0
 40
2.0
 40
2.0
 40
3.0
 40
3.0
 40
3.0
 40
4.0
 40
4.0
 40
4.0
 40
5.0
 40
5.0
 40
5.0
 40
6.0
 40
6.0
 40
6.0
 40
7.0
 40
7.0
 40
7.0
 40
8.0
 40
8.0
 40
8.0
 40
9.0
 40
9.0
 40
9.0
 40
9.0
 10
-477.2185141655039
 20
-719.8028855617815
 30
0.0
 10
-479.8643474981757
 20
-728.9916442400399
 30
0.0
 10
-484.1307537471092
 20
-737.3534077470639
 30
0.0
 10
-490.8555801343168
 20
-744.2656473286692
 30
0.0
 10
-502.3370498580089
 20
-756.0778462189453
 30
0.0
 10
-518.140391867947
 20
-762.6758930922959
 30
0.0
 10
-533.5354900628829
 20
-767.7195128827016
 30
0.0
 10
-549.9231202671194
 20
-773.0828375341387
 30
0.0
 10
-566.9884007533044
 20
-776.2357889222393
 30
0.0
 10
-583.8555882490878
 20
-779.6643479491599
 30
0.0
 10
-583.8555882490878
 20
-779.6643479491599
 30
0.0
 10
-583.8555882490878
 20
-779.3942524631163
 30
0.0
 10
-583.8555882490878
 20
-779.3942524631163
 30
0.0
 10
-583.8555882490878
 20
-779.3942524631163
 30
0.0
 10
-728.5368517762853
 20
-779.5430805880791
 30
0.0
 10
-728.5368517762853
 20
-779.5430805880791
 30
0.0
 10
-728.5368517762853
 20
-779.5430805880791
 30
0.0
 10
-774.7116388198633
 20
-779.6312750325014
 30
0.0
 10
-774.7116388198633
 20
-779.6312750325014
 30
0.0
 10
-799.0035238506826
 20
-779.6698601019364
 30
0.0
 10
-860.2759250940451
 20
-779.6974208658182
 30
0.0
 10
-884.5731500228666
 20
-779.7139573241475
 30
0.0
 10
-884.5731500228666
 20
-779.7139573241475
 30
0.0
 10
-884.5731500228666
 20
-779.3777160047871
 30
0.0
 10
-884.5731500228666
 20
-779.3777160047871
 30
0.0
 10
-884.5731500228666
 20
-779.3777160047871
 30
0.0
 10
-884.5731500228666
 20
-717.1460279235568
 30
0.0
 10
-884.5731500228666
 20
-717.1460279235568
 30
0.0
  0
POLYLINE
  5
1A5
330
2
100
AcDbEntity
  8
0
 62
     7
100
AcDb2dPolyline
 66
     1
 10
0.0
 20
0.0
 30
0.0
  0
VERTEX
  5
1A6
330
1A5
100
AcDbEntity
  8
0
 62
     7
100
AcDbVertex
100
AcDb2dVertex
 10
-684.550217130164
 20
-830.7943880839468
 30
0.0
  0
VERTEX
  5
1A7
330
1A5
100
AcDbEntity
  8
0
 62
     7
100
AcDbVertex
100
AcDb2dVertex
 10
-684.550217130164
 20
-749.5077046190253
 30
0.0
  0
SEQEND
  5
1A8
330
1A5
100
AcDbEntity
  8
0
  0
SPLINE
  5
1A9
330
2
100
AcDbEntity
  8
0
 62
     7
100
AcDbSpline
210
0.0
220
0.0
230
1.0
 70
    11
 71
     3
 72
    32
 73
    28
 74
     0
 42
0.000000001
 43
0.0000000001
 40
0.0
 40
0.0
 40
0.0
 40
0.0
 40
1.0
 40
1.0
 40
1.0
 40
2.0
 40
2.0
 40
2.0
 40
3.0
 40
3.0
 40
3.0
 40
4.0
 40
4.0
 40
4.0
 40
5.0
 40
5.0
 40
5.0
 40
6.0
 40
6.0
 40
6.0
 40
7.0
 40
7.0
 40
7.0
 40
8.0
 40
8.0
 40
8.0
 40
9.0
 40
9.0
 40
9.0
 40
9.0
 10
-884.5731500228666
 20
-624.7909416836249
 30
0.0
 10
-884.5731500228666
 20
-624.7909416836249
 30
0.0
 10
-426.6286650028041
 20
-624.7909416836249
 30
0.0
 10
-426.6286650028041
 20
-624.7909416836249
 30
0.0
 10
-422.9300104898398
 20
-624.7909416836249
 30
0.0
 10
-419.8542292406088
 20
-627.580090988483
 30
0.0
 10
-419.5731094490124
 20
-631.1905510570248
 30
0.0
 10
-419.7825712545156
 20
-648.6473666451086
 30
0.0
 10
-420.4440295876835
 20
-666.6884704274906
 30
0.0
 10
-421.8000191706779
 20
-684.0956766405867
 30
0.0
 10
-422.6378663926906
 20
-694.8276658414628
 30
0.0
 10
-423.8119549340638
 20
-706.4581359448919
 30
0.0
 10
-425.0356528504245
 20
-717.1460279235568
 30
0.0
 10
-425.0852622254122
 20
-717.6310973678799
 30
0.0
 10
-425.2506268087041
 20
-718.0941182010976
 30
0.0
 10
-425.5041858364185
 20
-718.5020175065512
 30
0.0
 10
-425.9175972946485
 20
-719.1359150758371
 30
0.0
 10
-426.5514948639345
 20
-719.5713751451727
 30
0.0
 10
-427.3231962526304
 20
-719.7257154229118
 30
0.0
 10
-427.3231962526304
 20
-719.7257154229118
 30
0.0
 10
-431.1486302794518
 20
-719.8028855617815
 30
0.0
 10
-431.1486302794518
 20
-719.8028855617815
 30
0.0
 10
-431.1486302794518
 20
-719.8028855617815
 30
0.0
 10
-884.5731500228666
 20
-719.8028855617815
 30
0.0
 10
-884.5731500228666
 20
-719.8028855617815
 30
0.0
 10
-884.5731500228666
 20
-719.8028855617815
 30
0.0
 10
-884.5731500228666
 20
-624.7909416836249
 30
0.0
 10
-884.5731500228666
 20
-624.7909416836249
 30
0.0
  0
ENDSEC
  0
SECTION
  2
OBJECTS
  0
DICTIONARY
  5
7
330
0
100
AcDbDictionary
281
     1
  3
ACAD_CIP_PREVIOUS_PRODUCT_INFO
350
B1
  3
ACAD_COLOR
350
94
  3
ACAD_DETAILVIEWSTYLE
350
AD
  3
ACAD_GROUP
350
1F
  3
ACAD_LAYOUT
350
B
  3
ACAD_MATERIAL
350
62
  3
ACAD_MLEADERSTYLE
350
A9
  3
ACAD_MLINESTYLE
350
20
  3
ACAD_PLOTSETTINGS
350
21
  3
ACAD_PLOTSTYLENAME
350
6
  3
ACAD_RENDER_ACTIVE_RAPIDRT_SETTINGS
350
159
  3
ACAD_RENDER_RAPIDRT_SETTINGS
350
152
  3
ACAD_SCALELIST
350
97
  3
ACAD_SECTIONVIEWSTYLE
350
AB
  3
ACAD_TABLESTYLE
350
95
  3
ACAD_VISUALSTYLE
350
7B
  3
ACDB_RECOMPOSE_DATA
350
1E9
  3
AcDbVariableDictionary
350
1DD
  3
ASE_INDEX_DICTIONARY
350
1DA
  0
DICTIONARY
  5
1CD
330
4
100
AcDbDictionary
280
     1
281
     1
  3
ADSK_XREC_LAYER_RECONCILED
360
1CE
  0
XRECORD
  5
B1
102
{ACAD_REACTORS
330
7
102
}
330
7
100
AcDbXrecord
280
     1
300
ACD
300
2021
300

  0
DICTIONARY
  5
94
102
{ACAD_REACTORS
330
7
102
}
330
7
100
AcDbDictionary
281
     1
  0
DICTIONARY
  5
AD
102
{ACAD_REACTORS
330
7
102
}
330
7
100
AcDbDictionary
281
     1
  3
Imperial24
350
AE
  0
DICTIONARY
  5
1F
102
{ACAD_REACTORS
330
7
102
}
330
7
100
AcDbDictionary
281
     1
  0
DICTIONARY
  5
B
102
{ACAD_REACTORS
330
7
102
}
330
7
100
AcDbDictionary
281
     1
  3
Layout1
350
F
  3
Model
350
A
  0
DICTIONARY
  5
62
102
{ACAD_REACTORS
330
7
102
}
330
7
100
AcDbDictionary
281
     1
  3
ByBlock
350
6B
  3
ByLayer
350
63
  3
Global
350
73
  0
DICTIONARY
  5
A9
102
{ACAD_REACTORS
330
7
102
}
330
7
100
AcDbDictionary
281
     1
  3
Standard
350
AA
  0
DICTIONARY
  5
20
102
{ACAD_REACTORS
330
7
102
}
330
7
100
AcDbDictionary
281
     1
  3
Standard
350
22
  0
DICTIONARY
  5
21
102
{ACAD_REACTORS
330
7
102
}
330
7
100
AcDbDictionary
281
     1
  0
ACDBDICTIONARYWDFLT
  5
6
102
{ACAD_REACTORS
330
7
102
}
330
7
100
AcDbDictionary
281
     1
  3
Normal
350
5
100
AcDbDictionaryWithDefault
340
5
  0
RAPIDRTRENDERSETTINGS
  5
159
102
{ACAD_REACTORS
330
7
102
}
330
7
100
AcDbRenderSettings
 90
        2
  1
Medium
290
     1
290
     0
290
     1
290
     1
  1

  1
Applies 5 rendering levels
 90
        0
100
AcDbRapidRTRenderSettings
 90
        3
 70
     0
 90
        5
 90
        1
 70
     1
 70
     2
 40
3.0
 40
3.0
290
     1
  0
DICTIONARY
  5
152
102
{ACAD_REACTORS
330
7
102
}
330
7
100
AcDbDictionary
281
     1
  3
Coffee-Break Quality
350
156
  3
High
350
155
  3
Low
350
153
  3
Lunch Quality
350
157
  3
Medium
350
154
  3
Overnight Quality
350
158
  0
DICTIONARY
  5
97
102
{ACAD_REACTORS
330
7
102
}
330
7
100
AcDbDictionary
281
     1
  3
A0
350
98
  3
A1
350
99
  3
A2
350
9A
  3
A3
350
9B
  3
A4
350
9C
  3
A5
350
9D
  3
A6
350
9E
  3
A7
350
9F
  3
A8
350
A0
  3
A9
350
A1
  3
B0
350
A2
  3
B1
350
A3
  3
B2
350
A4
  3
B3
350
A5
  3
B4
350
A6
  3
B5
350
A7
  3
B6
350
A8
  0
DICTIONARY
  5
AB
102
{ACAD_REACTORS
330
7
102
}
330
7
100
AcDbDictionary
281
     1
  3
Imperial24
350
AC
  0
DICTIONARY
  5
95
102
{ACAD_REACTORS
330
7
102
}
330
7
100
AcDbDictionary
281
     1
  3
Standard
350
96
  0
DICTIONARY
  5
7B
102
{ACAD_REACTORS
330
7
102
}
330
7
100
AcDbDictionary
281
     1
  3
2dWireframe
350
81
  3
Basic
350
80
  3
Brighten
350
87
  3
ColorChange
350
8B
  3
Conceptual
350
84
  3
Dim
350
86
  3
EdgeColorOff
350
93
  3
Facepattern
350
8A
  3
Flat
350
7C
  3
FlatWithEdges
350
7D
  3
Gouraud
350
7E
  3
GouraudWithEdges
350
7F
  3
Hidden
350
83
  3
JitterOff
350
91
  3
Linepattern
350
89
  3
OverhangOff
350
92
  3
Realistic
350
85
  3
Shaded
350
90
  3
Shaded with edges
350
8F
  3
Shades of Gray
350
8C
  3
Sketchy
350
8D
  3
Thicken
350
88
  3
Wireframe
350
82
  3
X-Ray
350
8E
  0
XRECORD
  5
1E9
102
{ACAD_REACTORS
330
7
102
}
330
7
100
AcDbXrecord
280
     1
 90
        1
330
96
  0
DICTIONARY
  5
1DD
102
{ACAD_REACTORS
330
7
102
}
330
7
100
AcDbDictionary
281
     1
  3
CANNOSCALE
350
1E3
  3
CMLEADERSTYLE
350
1DF
  3
CTABLESTYLE
350
1DE
  3
CVIEWDETAILSTYLE
350
1E0
  3
CVIEWSECTIONSTYLE
350
1E1
  3
LAYEREVAL
350
1E5
  3
LAYERNOTIFY
350
1E6
  3
LIGHTINGUNITS
350
1E4
  3
MSLTSCALE
350
1E2
  0
DICTIONARY
  5
1DA
102
{ACAD_REACTORS
330
7
102
}
330
7
100
AcDbDictionary
281
     1
  3
ASEBlockHierarchyIndexRecord
350
1DC
1001
DCO15
1040
2088826387.0
  0
XRECORD
  5
1CE
102
{ACAD_REACTORS
330
1CD
102
}
330
1CD
100
AcDbXrecord
280
     1
290
     1
  0
ACDBDETAILVIEWSTYLE
  5
AE
102
{ACAD_REACTORS
330
AD
102
}
330
AD
100
AcDbModelDocViewStyle
 70
     0
  3
Imperial24
290
     1
300
Imperial24
 90
        0
100
AcDbDetailViewStyle
 70
     0
 71
     0
 90
        3
 71
     1
340
12
 62
   256
 40
0.24
340
0
 62
   256
 40
0.24
300

 40
0.36
280
     3
 71
     2
340
8
 90
       25
 62
   256
 71
     3
340
12
 62
   256
 40
0.24
 90
        1
 40
0.75
 90
        1
300
%<\AcVar ViewType \f "%tc1">% %<\AcVar ViewDetailId>%\PSCALE %<\AcVar ViewScale \f "%sn">%
 71
     4
340
8
 90
       25
 62
   256
340
8
 90
       25
 62
   256
280
     0
  0
LAYOUT
  5
F
102
{ACAD_REACTORS
330
B
102
}
330
B
100
AcDbPlotSettings
  1

  2
none_device
  4

  6

 40
0.0
 41
0.0
 42
0.0
 43
0.0
 44
0.0
 45
0.0
 46
0.0
 47
0.0
 48
0.0
 49
0.0
140
0.0
141
0.0
142
1.0
143
1.0
 70
   688
 72
     0
 73
     0
 74
     5
  7

 75
    16
147
1.0
 76
     0
 77
     2
 78
   300
148
0.0
149
0.0
100
AcDbLayout
  1
Layout1
 70
     1
 71
     1
 10
0.0
 20
0.0
 11
12.0
 21
9.0
 12
0.0
 22
0.0
 32
0.0
 14
1.000000000000000E+20
 24
1.000000000000000E+20
 34
1.000000000000000E+20
 15
-1.000000000000000E+20
 25
-1.000000000000000E+20
 35
-1.000000000000000E+20
146
0.0
 13
0.0
 23
0.0
 33
0.0
 16
1.0
 26
0.0
 36
0.0
 17
0.0
 27
1.0
 37
0.0
 76
     0
330
C
  0
LAYOUT
  5
A
102
{ACAD_REACTORS
330
B
102
}
330
B
100
AcDbPlotSettings
  1

  2
none_device
  4

  6

 40
0.0
 41
0.0
 42
0.0
 43
0.0
 44
0.0
 45
0.0
 46
0.0
 47
0.0
 48
0.0
 49
0.0
140
0.0
141
0.0
142
1.0
143
1.0
 70
  1712
 72
     0
 73
     0
 74
     0
  7

 75
     0
147
1.0
 76
     0
 77
     2
 78
   300
148
0.0
149
0.0
100
AcDbLayout
  1
Model
 70
     1
 71
     0
 10
0.0
 20
0.0
 11
12.0
 21
9.0
 12
0.0
 22
0.0
 32
0.0
 14
1.000000000000000E+20
 24
1.000000000000000E+20
 34
1.000000000000000E+20
 15
-1.000000000000000E+20
 25
-1.000000000000000E+20
 35
-1.000000000000000E+20
146
0.0
 13
0.0
 23
0.0
 33
0.0
 16
1.0
 26
0.0
 36
0.0
 17
0.0
 27
1.0
 37
0.0
 76
     0
330
2
331
1A
  0
MATERIAL
  5
6B
102
{ACAD_XDICTIONARY
360
6C
102
}
102
{ACAD_REACTORS
330
62
102
}
330
62
100
AcDbMaterial
  1
ByBlock
 72
     0
 43
0.0208333333333333
 43
0.0
 43
0.0
 43
0.0
 43
0.0
 43
0.0208333333333333
 43
0.0
 43
0.0
 43
0.0
 43
0.0
 43
1.0
 43
0.0
 43
0.0
 43
0.0
 43
0.0
 43
1.0
 77
     0
 47
0.0208333333333333
 47
0.0
 47
0.0
 47
0.0
 47
0.0
 47
0.0208333333333333
 47
0.0
 47
0.0
 47
0.0
 47
0.0
 47
1.0
 47
0.0
 47
0.0
 47
0.0
 47
0.0
 47
1.0
171
     0
 49
0.0208333333333333
 49
0.0
 49
0.0
 49
0.0
 49
0.0
 49
0.0208333333333333
 49
0.0
 49
0.0
 49
0.0
 49
0.0
 49
1.0
 49
0.0
 49
0.0
 49
0.0
 49
0.0
 49
1.0
175
     0
142
0.0208333333333333
142
0.0
142
0.0
142
0.0
142
0.0
142
0.0208333333333333
142
0.0
142
0.0
142
0.0
142
0.0
142
1.0
142
0.0
142
0.0
142
0.0
142
0.0
142
1.0
179
     0
144
0.0208333333333333
144
0.0
144
0.0
144
0.0
144
0.0
144
0.0208333333333333
144
0.0
144
0.0
144
0.0
144
0.0
144
1.0
144
0.0
144
0.0
144
0.0
144
0.0
144
1.0
147
0.0208333333333333
147
0.0
147
0.0
147
0.0
147
0.0
147
0.0208333333333333
147
0.0
147
0.0
147
0.0
147
0.0
147
1.0
147
0.0
147
0.0
147
0.0
147
0.0
147
1.0
  0
MATERIAL
  5
63
102
{ACAD_XDICTIONARY
360
64
102
}
102
{ACAD_REACTORS
330
62
102
}
330
62
100
AcDbMaterial
  1
ByLayer
 72
     0
 43
0.0208333333333333
 43
0.0
 43
0.0
 43
0.0
 43
0.0
 43
0.0208333333333333
 43
0.0
 43
0.0
 43
0.0
 43
0.0
 43
1.0
 43
0.0
 43
0.0
 43
0.0
 43
0.0
 43
1.0
 77
     0
 47
0.0208333333333333
 47
0.0
 47
0.0
 47
0.0
 47
0.0
 47
0.0208333333333333
 47
0.0
 47
0.0
 47
0.0
 47
0.0
 47
1.0
 47
0.0
 47
0.0
 47
0.0
 47
0.0
 47
1.0
171
     0
 49
0.0208333333333333
 49
0.0
 49
0.0
 49
0.0
 49
0.0
 49
0.0208333333333333
 49
0.0
 49
0.0
 49
0.0
 49
0.0
 49
1.0
 49
0.0
 49
0.0
 49
0.0
 49
0.0
 49
1.0
175
     0
142
0.0208333333333333
142
0.0
142
0.0
142
0.0
142
0.0
142
0.0208333333333333
142
0.0
142
0.0
142
0.0
142
0.0
142
1.0
142
0.0
142
0.0
142
0.0
142
0.0
142
1.0
179
     0
144
0.0208333333333333
144
0.0
144
0.0
144
0.0
144
0.0
144
0.0208333333333333
144
0.0
144
0.0
144
0.0
144
0.0
144
1.0
144
0.0
144
0.0
144
0.0
144
0.0
144
1.0
147
0.0208333333333333
147
0.0
147
0.0
147
0.0
147
0.0
147
0.0208333333333333
147
0.0
147
0.0
147
0.0
147
0.0
147
1.0
147
0.0
147
0.0
147
0.0
147
0.0
147
1.0
  0
MATERIAL
  5
73
102
{ACAD_XDICTIONARY
360
74
102
}
102
{ACAD_REACTORS
330
62
102
}
330
62
100
AcDbMaterial
  1
Global
 72
     0
 43
0.0208333333333333
 43
0.0
 43
0.0
 43
0.0
 43
0.0
 43
0.0208333333333333
 43
0.0
 43
0.0
 43
0.0
 43
0.0
 43
1.0
 43
0.0
 43
0.0
 43
0.0
 43
0.0
 43
1.0
 77
     0
 47
0.0208333333333333
 47
0.0
 47
0.0
 47
0.0
 47
0.0
 47
0.0208333333333333
 47
0.0
 47
0.0
 47
0.0
 47
0.0
 47
1.0
 47
0.0
 47
0.0
 47
0.0
 47
0.0
 47
1.0
171
     0
 49
0.0208333333333333
 49
0.0
 49
0.0
 49
0.0
 49
0.0
 49
0.0208333333333333
 49
0.0
 49
0.0
 49
0.0
 49
0.0
 49
1.0
 49
0.0
 49
0.0
 49
0.0
 49
0.0
 49
1.0
175
     0
142
0.0208333333333333
142
0.0
142
0.0
142
0.0
142
0.0
142
0.0208333333333333
142
0.0
142
0.0
142
0.0
142
0.0
142
1.0
142
0.0
142
0.0
142
0.0
142
0.0
142
1.0
179
     0
144
0.0208333333333333
144
0.0
144
0.0
144
0.0
144
0.0
144
0.0208333333333333
144
0.0
144
0.0
144
0.0
144
0.0
144
1.0
144
0.0
144
0.0
144
0.0
144
0.0
144
1.0
147
0.0208333333333333
147
0.0
147
0.0
147
0.0
147
0.0
147
0.0208333333333333
147
0.0
147
0.0
147
0.0
147
0.0
147
1.0
147
0.0
147
0.0
147
0.0
147
0.0
147
1.0
  0
MLEADERSTYLE
  5
AA
102
{ACAD_REACTORS
330
A9
102
}
330
A9
100
AcDbMLeaderStyle
179
     2
170
     2
171
     1
172
     0
 90
        2
 40
0.0
 41
0.0
173
     1
 91
-1056964608
340
15
 92
       -2
290
     1
 42
0.09
291
     1
 43
0.36
  3
Standard
 44
0.18
300

342
12
174
     1
178
     6
175
     1
176
     0
 93
-1056964608
 45
0.18
292
     0
297
     0
 46
0.18
 94
-1056964608
 47
1.0
 49
1.0
140
1.0
293
     1
141
0.0
294
     1
177
     0
142
1.0
295
     1
296
     0
143
0.125
271
     0
272
     9
273
     9
298
     1
  0
MLINESTYLE
  5
22
102
{ACAD_REACTORS
330
20
102
}
330
20
100
AcDbMlineStyle
  2
STANDARD
 70
     0
  3

 62
   256
 51
90.0
 52
90.0
 71
     2
 49
0.5
 62
   256
  6
BYLAYER
 49
-0.5
 62
   256
  6
BYLAYER
  0
ACDBPLACEHOLDER
  5
5
102
{ACAD_REACTORS
330
6
102
}
330
6
  0
RAPIDRTRENDERSETTINGS
  5
156
102
{ACAD_REACTORS
330
152
102
}
330
152
100
AcDbRenderSettings
 90
        2
  1
Coffee-Break Quality
290
     1
290
     0
290
     1
290
     1
  1

  1
Renders for 10 minutes
 90
        3
100
AcDbRapidRTRenderSettings
 90
        3
 70
     1
 90
        1
 90
       10
 70
     1
 70
     2
 40
3.0
 40
3.0
290
     1
  0
RAPIDRTRENDERSETTINGS
  5
155
102
{ACAD_REACTORS
330
152
102
}
330
152
100
AcDbRenderSettings
 90
        2
  1
High
290
     1
290
     0
290
     1
290
     1
  1

  1
Applies 10 rendering levels
 90
        2
100
AcDbRapidRTRenderSettings
 90
        3
 70
     0
 90
       10
 90
        1
 70
     2
 70
     2
 40
3.0
 40
3.0
290
     1
  0
RAPIDRTRENDERSETTINGS
  5
153
102
{ACAD_REACTORS
330
152
102
}
330
152
100
AcDbRenderSettings
 90
        2
  1
Low
290
     1
290
     0
290
     1
290
     1
  1

  1
Applies 1 rendering level
 90
        0
100
AcDbRapidRTRenderSettings
 90
        3
 70
     0
 90
        1
 90
        1
 70
     0
 70
     2
 40
3.0
 40
3.0
290
     1
  0
RAPIDRTRENDERSETTINGS
  5
157
102
{ACAD_REACTORS
330
152
102
}
330
152
100
AcDbRenderSettings
 90
        2
  1
Lunch Quality
290
     1
290
     0
290
     1
290
     1
  1

  1
Renders for 60 minutes
 90
        4
100
AcDbRapidRTRenderSettings
 90
        3
 70
     1
 90
        1
 90
       60
 70
     2
 70
     2
 40
3.0
 40
3.0
290
     1
  0
RAPIDRTRENDERSETTINGS
  5
154
102
{ACAD_REACTORS
330
152
102
}
330
152
100
AcDbRenderSettings
 90
        2
  1
Medium
290
     1
290
     0
290
     1
290
     1
  1

  1
Applies 5 rendering levels
 90
        1
100
AcDbRapidRTRenderSettings
 90
        3
 70
     0
 90
        5
 90
        1
 70
     1
 70
     2
 40
3.0
 40
3.0
290
     1
  0
RAPIDRTRENDERSETTINGS
  5
158
102
{ACAD_REACTORS
330
152
102
}
330
152
100
AcDbRenderSettings
 90
        2
  1
Overnight Quality
290
     1
290
     0
290
     1
290
     1
  1

  1
Renders for 12 hours
 90
        5
100
AcDbRapidRTRenderSettings
 90
        3
 70
     1
 90
        1
 90
      720
 70
     2
 70
     2
 40
3.0
 40
3.0
290
     1
  0
SCALE
  5
98
102
{ACAD_REACTORS
330
97
102
}
330
97
100
AcDbScale
 70
     0
300
1:1
140
1.0
141
1.0
290
     1
  0
SCALE
  5
99
102
{ACAD_REACTORS
330
97
102
}
330
97
100
AcDbScale
 70
     0
300
1/128" = 1'-0"
140
0.0078125
141
12.0
290
     0
  0
SCALE
  5
9A
102
{ACAD_REACTORS
330
97
102
}
330
97
100
AcDbScale
 70
     0
300
1/64" = 1'-0"
140
0.015625
141
12.0
290
     0
  0
SCALE
  5
9B
102
{ACAD_REACTORS
330
97
102
}
330
97
100
AcDbScale
 70
     0
300
1/32" = 1'-0"
140
0.03125
141
12.0
290
     0
  0
SCALE
  5
9C
102
{ACAD_REACTORS
330
97
102
}
330
97
100
AcDbScale
 70
     0
300
1/16" = 1'-0"
140
0.0625
141
12.0
290
     0
  0
SCALE
  5
9D
102
{ACAD_REACTORS
330
97
102
}
330
97
100
AcDbScale
 70
     0
300
3/32" = 1'-0"
140
0.09375
141
12.0
290
     0
  0
SCALE
  5
9E
102
{ACAD_REACTORS
330
97
102
}
330
97
100
AcDbScale
 70
     0
300
1/8" = 1'-0"
140
0.125
141
12.0
290
     0
  0
SCALE
  5
9F
102
{ACAD_REACTORS
330
97
102
}
330
97
100
AcDbScale
 70
     0
300
3/16" = 1'-0"
140
0.1875
141
12.0
290
     0
  0
SCALE
  5
A0
102
{ACAD_REACTORS
330
97
102
}
330
97
100
AcDbScale
 70
     0
300
1/4" = 1'-0"
140
0.25
141
12.0
290
     0
  0
SCALE
  5
A1
102
{ACAD_REACTORS
330
97
102
}
330
97
100
AcDbScale
 70
     0
300
3/8" = 1'-0"
140
0.375
141
12.0
290
     0
  0
SCALE
  5
A2
102
{ACAD_REACTORS
330
97
102
}
330
97
100
AcDbScale
 70
     0
300
1/2" = 1'-0"
140
0.5
141
12.0
290
     0
  0
SCALE
  5
A3
102
{ACAD_REACTORS
330
97
102
}
330
97
100
AcDbScale
 70
     0
300
3/4" = 1'-0"
140
0.75
141
12.0
290
     0
  0
SCALE
  5
A4
102
{ACAD_REACTORS
330
97
102
}
330
97
100
AcDbScale
 70
     0
300
1" = 1'-0"
140
1.0
141
12.0
290
     0
  0
SCALE
  5
A5
102
{ACAD_REACTORS
330
97
102
}
330
97
100
AcDbScale
 70
     0
300
1-1/2" = 1'-0"
140
1.5
141
12.0
290
     0
  0
SCALE
  5
A6
102
{ACAD_REACTORS
330
97
102
}
330
97
100
AcDbScale
 70
     0
300
3" = 1'-0"
140
3.0
141
12.0
290
     0
  0
SCALE
  5
A7
102
{ACAD_REACTORS
330
97
102
}
330
97
100
AcDbScale
 70
     0
300
6" = 1'-0"
140
6.0
141
12.0
290
     0
  0
SCALE
  5
A8
102
{ACAD_REACTORS
330
97
102
}
330
97
100
AcDbScale
 70
     0
300
1'-0" = 1'-0"
140
12.0
141
12.0
290
     0
  0
ACDBSECTIONVIEWSTYLE
  5
AC
102
{ACAD_REACTORS
330
AB
102
}
330
AB
100
AcDbModelDocViewStyle
 70
     0
  3
Imperial24
290
     1
300
Imperial24
 90
        0
100
AcDbSectionViewStyle
 70
     0
 71
     0
 90
       78
 71
     1
340
12
 62
   256
 40
0.24
340
0
340
0
 62
   256
 40
0.24
300
I, O, Q, S, X, Z
 40
0.48
 90
        3
 40
0.18
 90
        1
 71
     2
340
8
 90
       25
 62
   256
340
8
 90
       50
 62
   256
 40
0.24
 40
0.0
 40
0.24
 71
     3
340
12
 62
   256
 40
0.24
 90
        1
 40
0.75
 90
        1
300
%<\AcVar ViewType \f "%tc1">% %<\AcVar ViewSectionStartId>%-%<\AcVar ViewSectionEndId>%\PSCALE %<\AcVar ViewScale \f "%sn">%
 71
     4
 62
   256
 62
   257
300
ANSI31
 40
1.0
 90
        0
290
     0
290
     0
 90
        6
 40
0.0
 40
1.570796326794896
 40
0.2617993877991494
 40
1.308996938995747
 40
-0.2617993877991494
 40
1.832595714594046
  0
TABLESTYLE
  5
96
102
{ACAD_XDICTIONARY
360
1E7
102
}
102
{ACAD_REACTORS
330
95
102
}
330
95
100
AcDbTableStyle
280
     0
  3
Standard
 70
     0
 71
     0
 40
0.06
 41
0.06
280
     0
281
     0
  7
Standard
140
0.18
170
     2
 62
     0
 63
     7
283
     0
 90
      512
 91
        0
  1

274
    -2
284
     1
 64
     0
275
    -2
285
     1
 65
     0
276
    -2
286
     1
 66
     0
277
    -2
287
     1
 67
     0
278
    -2
288
     1
 68
     0
279
    -2
289
     1
 69
     0
  7
Standard
140
0.25
170
     5
 62
     0
 63
     7
283
     0
 90
      512
 91
        0
  1

274
    -2
284
     1
 64
     0
275
    -2
285
     1
 65
     0
276
    -2
286
     1
 66
     0
277
    -2
287
     1
 67
     0
278
    -2
288
     1
 68
     0
279
    -2
289
     1
 69
     0
  7
Standard
140
0.18
170
     5
 62
     0
 63
     7
283
     0
 90
      512
 91
        0
  1

274
    -2
284
     1
 64
     0
275
    -2
285
     1
 65
     0
276
    -2
286
     1
 66
     0
277
    -2
287
     1
 67
     0
278
    -2
288
     1
 68
     0
279
    -2
289
     1
 69
     0
  0
VISUALSTYLE
  5
81
102
{ACAD_REACTORS
330
7B
102
}
330
7B
100
AcDbVisualStyle
  2
2dWireframe
 70
     4
177
     3
291
     0
 70
    58
 90
        0
176
     1
 90
        2
176
     1
 90
        0
176
     1
 90
        0
176
     1
 40
0.6
176
     1
 40
30.0
176
     1
 62
     7
420
 16777215
176
     1
 90
        1
176
     1
 90
        4
176
     1
 62
     7
176
     1
 62
   257
176
     1
 90
        1
176
     1
 90
        1
176
     1
 40
1.0
176
     1
 90
        0
176
     1
 62
   257
176
     1
 40
1.0
176
     1
 90
        1
176
     1
 90
        6
176
     1
 90
        2
176
     1
 62
     7
176
     1
 90
        5
176
     1
 90
        0
176
     1
 90
        0
176
     1
290
     0
176
     1
 90
        1
176
     1
 40
0.0
176
     1
 90
        0
176
     1
290
     1
176
     1
290
     1
176
     1
290
     0
176
     1
290
     0
176
     1
290
     0
176
     1
290
     0
176
     1
290
     0
176
     1
290
     0
176
     1
290
     0
176
     1
 90
       50
176
     1
 40
0.0
176
     1
 40
1.0
176
     1
 90
        0
176
     1
 62
    18
420
        0
176
     1
 90
       50
176
     1
 90
        3
176
     1
 62
     5
420
      255
176
     1
290
     0
176
     1
 90
       50
176
     1
 90
       50
176
     1
 90
       50
176
     1
290
     0
176
     1
 90
       50
176
     1
 62
   256
176
     0
 40
1.0
176
     0
 90
        2
176
     1
  1
strokes_ogs.tif
176
     1
290
     0
176
     1
 40
1.0
176
     1
 40
1.0
176
     1
  0
VISUALSTYLE
  5
80
102
{ACAD_REACTORS
330
7B
102
}
330
7B
100
AcDbVisualStyle
  2
Basic
 70
     7
177
     3
291
     1
 70
    58
 90
        1
176
     1
 90
        0
176
     1
 90
        1
176
     1
 90
        0
176
     1
 40
0.6
176
     1
 40
30.0
176
     1
 62
     7
420
 16777215
176
     1
 90
        0
176
     1
 90
        4
176
     1
 62
     7
176
     1
 62
   257
176
     1
 90
        1
176
     1
 90
        1
176
     1
 40
1.0
176
     1
 90
        8
176
     1
 62
     7
176
     1
 40
1.0
176
     1
 90
        1
176
     1
 90
        6
176
     1
 90
        2
176
     1
 62
     7
176
     1
 90
        5
176
     1
 90
        0
176
     1
 90
        0
176
     1
290
     0
176
     1
 90
        1
176
     1
 40
0.0
176
     1
 90
        0
176
     1
290
     0
176
     1
290
     1
176
     1
290
     1
176
     1
290
     0
176
     1
290
     0
176
     1
290
     0
176
     1
290
     0
176
     1
290
     0
176
     1
290
     0
176
     1
 90
       50
176
     1
 40
0.0
176
     1
 40
1.0
176
     1
 90
        0
176
     1
 62
    18
420
        0
176
     1
 90
       50
176
     1
 90
        3
176
     1
 62
     5
420
      255
176
     1
290
     0
176
     1
 90
       50
176
     1
 90
       50
176
     1
 90
       50
176
     1
290
     0
176
     1
 90
       50
176
     1
 62
   256
176
     0
 40
1.0
176
     0
 90
        2
176
     1
  1
strokes_ogs.tif
176
     1
290
     0
176
     1
 40
1.0
176
     1
 40
1.0
176
     1
  0
VISUALSTYLE
  5
87
102
{ACAD_REACTORS
330
7B
102
}
330
7B
100
AcDbVisualStyle
  2
Brighten
 70
    12
177
     3
291
     1
 70
    58
 90
        2
176
     1
 90
        2
176
     1
 90
        0
176
     1
 90
        0
176
     1
 40
0.6
176
     1
 40
30.0
176
     1
 62
     7
420
 16777215
176
     1
 90
        1
176
     1
 90
        4
176
     1
 62
     7
176
     1
 62
   257
176
     1
 90
        1
176
     1
 90
        1
176
     1
 40
1.0
176
     1
 90
        8
176
     1
 62
     7
176
     1
 40
1.0
176
     1
 90
        1
176
     1
 90
        6
176
     1
 90
        2
176
     1
 62
     7
176
     1
 90
        5
176
     1
 90
        0
176
     1
 90
        0
176
     1
290
     0
176
     1
 90
        1
176
     1
 40
50.0
176
     1
 90
        0
176
     1
290
     0
176
     1
290
     1
176
     1
290
     1
176
     1
290
     0
176
     1
290
     0
176
     1
290
     0
176
     1
290
     0
176
     1
290
     0
176
     1
290
     0
176
     1
 90
       50
176
     1
 40
0.0
176
     1
 40
1.0
176
     1
 90
        0
176
     1
 62
    18
420
        0
176
     1
 90
       50
176
     1
 90
        3
176
     1
 62
     5
420
      255
176
     1
290
     0
176
     1
 90
       50
176
     1
 90
       50
176
     1
 90
       50
176
     1
290
     0
176
     1
 90
       50
176
     1
 62
   256
176
     0
 40
1.0
176
     0
 90
        2
176
     1
  1
strokes_ogs.tif
176
     1
290
     0
176
     1
 40
1.0
176
     1
 40
1.0
176
     1
  0
VISUALSTYLE
  5
8B
102
{ACAD_REACTORS
330
7B
102
}
330
7B
100
AcDbVisualStyle
  2
ColorChange
 70
    16
177
     3
291
     1
 70
    58
 90
        2
176
     1
 90
        2
176
     1
 90
        3
176
     1
 90
        0
176
     1
 40
0.6
176
     1
 40
30.0
176
     1
 62
     8
420
  8421504
176
     1
 90
        1
176
     1
 90
        4
176
     1
 62
     7
176
     1
 62
   257
176
     1
 90
        1
176
     1
 90
        1
176
     1
 40
1.0
176
     1
 90
        8
176
     1
 62
     8
420
  8421504
176
     1
 40
1.0
176
     1
 90
        1
176
     1
 90
        6
176
     1
 90
        2
176
     1
 62
     7
176
     1
 90
        5
176
     1
 90
        0
176
     1
 90
        0
176
     1
290
     0
176
     1
 90
        1
176
     1
 40
0.0
176
     1
 90
        0
176
     1
290
     0
176
     1
290
     1
176
     1
290
     1
176
     1
290
     0
176
     1
290
     0
176
     1
290
     0
176
     1
290
     0
176
     1
290
     0
176
     1
290
     0
176
     1
 90
       50
176
     1
 40
0.0
176
     1
 40
1.0
176
     1
 90
        0
176
     1
 62
    18
420
        0
176
     1
 90
       50
176
     1
 90
        3
176
     1
 62
     5
420
      255
176
     1
290
     0
176
     1
 90
       50
176
     1
 90
       50
176
     1
 90
       50
176
     1
290
     0
176
     1
 90
       50
176
     1
 62
   256
176
     0
 40
1.0
176
     0
 90
        2
176
     1
  1
strokes_ogs.tif
176
     1
290
     0
176
     1
 40
1.0
176
     1
 40
1.0
176
     1
  0
VISUALSTYLE
  5
84
102
{ACAD_REACTORS
330
7B
102
}
330
7B
100
AcDbVisualStyle
  2
Conceptual
 70
     9
177
     3
291
     0
 70
    58
 90
        3
176
     1
 90
        2
176
     1
 90
        0
176
     1
 90
        0
176
     1
 40
0.6
176
     1
 40
30.0
176
     1
 62
     7
420
 16777215
176
     1
 90
        2
176
     1
 90
        2
176
     1
 62
     7
176
     1
 62
   257
176
     1
 90
        1
176
     1
 90
        1
176
     1
 40
179.0
176
     1
 90
        8
176
     1
 62
     7
176
     1
 40
1.0
176
     1
 90
        1
176
     1
 90
        6
176
     1
 90
        2
176
     1
 62
     7
176
     1
 90
        3
176
     1
 90
        0
176
     1
 90
        0
176
     1
290
     0
176
     1
 90
        1
176
     1
 40
0.0
176
     1
 90
        0
176
     1
290
     0
176
     1
290
     1
176
     1
290
     1
176
     1
290
     0
176
     1
290
     0
176
     1
290
     0
176
     1
290
     0
176
     1
290
     0
176
     1
290
     0
176
     1
 90
       50
176
     1
 40
0.0
176
     1
 40
1.0
176
     1
 90
        0
176
     1
 62
    18
420
        0
176
     1
 90
       50
176
     1
 90
        3
176
     1
 62
     5
420
      255
176
     1
290
     0
176
     1
 90
       50
176
     1
 90
       50
176
     1
 90
       50
176
     1
290
     0
176
     1
 90
       50
176
     1
 62
   256
176
     0
 40
1.0
176
     0
 90
        2
176
     1
  1
strokes_ogs.tif
176
     1
290
     0
176
     1
 40
1.0
176
     1
 40
1.0
176
     1
  0
VISUALSTYLE
  5
86
102
{ACAD_REACTORS
330
7B
102
}
330
7B
100
AcDbVisualStyle
  2
Dim
 70
    11
177
     3
291
     1
 70
    58
 90
        2
176
     1
 90
        2
176
     1
 90
        0
176
     1
 90
        0
176
     1
 40
0.6
176
     1
 40
30.0
176
     1
 62
     7
420
 16777215
176
     1
 90
        1
176
     1
 90
        4
176
     1
 62
     7
176
     1
 62
   257
176
     1
 90
        1
176
     1
 90
        1
176
     1
 40
1.0
176
     1
 90
        8
176
     1
 62
     7
176
     1
 40
1.0
176
     1
 90
        1
176
     1
 90
        6
176
     1
 90
        2
176
     1
 62
     7
176
     1
 90
        5
176
     1
 90
        0
176
     1
 90
        0
176
     1
290
     0
176
     1
 90
        1
176
     1
 40
-50.0
176
     1
 90
        0
176
     1
290
     0
176
     1
290
     1
176
     1
290
     1
176
     1
290
     0
176
     1
290
     0
176
     1
290
     0
176
     1
290
     0
176
     1
290
     0
176
     1
290
     0
176
     1
 90
       50
176
     1
 40
0.0
176
     1
 40
1.0
176
     1
 90
        0
176
     1
 62
    18
420
        0
176
     1
 90
       50
176
     1
 90
        3
176
     1
 62
     5
420
      255
176
     1
290
     0
176
     1
 90
       50
176
     1
 90
       50
176
     1
 90
       50
176
     1
290
     0
176
     1
 90
       50
176
     1
 62
   256
176
     0
 40
1.0
176
     0
 90
        2
176
     1
  1
strokes_ogs.tif
176
     1
290
     0
176
     1
 40
1.0
176
     1
 40
1.0
176
     1
  0
VISUALSTYLE
  5
93
102
{ACAD_REACTORS
330
7B
102
}
330
7B
100
AcDbVisualStyle
  2
EdgeColorOff
 70
    22
177
     3
291
     1
 70
    58
 90
        2
176
     0
 90
        2
176
     0
 90
        0
176
     0
 90
        0
176
     0
 40
0.6
176
     0
 40
30.0
176
     0
 62
     7
420
 16777215
176
     0
 90
        1
176
     0
 90
        4
176
     0
 62
     7
176
     0
 62
   257
176
     0
 90
        1
176
     0
 90
        1
176
     0
 40
1.0
176
     0
 90
        8
176
     2
 62
     7
176
     0
 40
1.0
176
     0
 90
        1
176
     0
 90
        6
176
     0
 90
        2
176
     0
 62
     7
176
     0
 90
        5
176
     0
 90
        0
176
     0
 90
        0
176
     0
290
     0
176
     0
 90
        1
176
     0
 40
0.0
176
     0
 90
        0
176
     0
290
     0
176
     0
290
     1
176
     0
290
     1
176
     0
290
     0
176
     0
290
     0
176
     0
290
     0
176
     0
290
     0
176
     0
290
     0
176
     0
290
     0
176
     0
 90
       50
176
     0
 40
0.0
176
     0
 40
1.0
176
     0
 90
        0
176
     0
 62
    18
420
        0
176
     0
 90
       50
176
     0
 90
        3
176
     0
 62
     5
420
      255
176
     0
290
     0
176
     0
 90
       50
176
     0
 90
       50
176
     0
 90
       50
176
     0
290
     0
176
     0
 90
       50
176
     0
 62
   256
176
     0
 40
1.0
176
     0
 90
        2
176
     0
  1
strokes_ogs.tif
176
     0
290
     0
176
     0
 40
1.0
176
     0
 40
1.0
176
     0
  0
VISUALSTYLE
  5
8A
102
{ACAD_REACTORS
330
7B
102
}
330
7B
100
AcDbVisualStyle
  2
Facepattern
 70
    15
177
     3
291
     1
 70
    58
 90
        2
176
     1
 90
        2
176
     1
 90
        0
176
     1
 90
        0
176
     1
 40
0.6
176
     1
 40
30.0
176
     1
 62
     7
420
 16777215
176
     1
 90
        1
176
     1
 90
        4
176
     1
 62
     7
176
     1
 62
   257
176
     1
 90
        1
176
     1
 90
        1
176
     1
 40
1.0
176
     1
 90
        8
176
     1
 62
     7
176
     1
 40
1.0
176
     1
 90
        1
176
     1
 90
        6
176
     1
 90
        2
176
     1
 62
     7
176
     1
 90
        5
176
     1
 90
        0
176
     1
 90
        0
176
     1
290
     0
176
     1
 90
        1
176
     1
 40
0.0
176
     1
 90
        0
176
     1
290
     0
176
     1
290
     1
176
     1
290
     1
176
     1
290
     0
176
     1
290
     0
176
     1
290
     0
176
     1
290
     0
176
     1
290
     0
176
     1
290
     0
176
     1
 90
       50
176
     1
 40
0.0
176
     1
 40
1.0
176
     1
 90
        0
176
     1
 62
    18
420
        0
176
     1
 90
       50
176
     1
 90
        3
176
     1
 62
     5
420
      255
176
     1
290
     0
176
     1
 90
       50
176
     1
 90
       50
176
     1
 90
       50
176
     1
290
     0
176
     1
 90
       50
176
     1
 62
   256
176
     0
 40
1.0
176
     0
 90
        2
176
     1
  1
strokes_ogs.tif
176
     1
290
     0
176
     1
 40
1.0
176
     1
 40
1.0
176
     1
  0
VISUALSTYLE
  5
7C
102
{ACAD_REACTORS
330
7B
102
}
330
7B
100
AcDbVisualStyle
  2
Flat
 70
     0
177
     3
291
     1
 70
    58
 90
        2
176
     1
 90
        1
176
     1
 90
        1
176
     1
 90
        2
176
     1
 40
0.6
176
     1
 40
30.0
176
     1
 62
     7
420
 16777215
176
     1
 90
        0
176
     1
 90
        0
176
     1
 62
     7
176
     1
 62
   257
176
     1
 90
        1
176
     1
 90
        1
176
     1
 40
1.0
176
     1
 90
        8
176
     1
 62
     7
176
     1
 40
1.0
176
     1
 90
        1
176
     1
 90
        6
176
     1
 90
        2
176
     1
 62
     7
176
     1
 90
        5
176
     1
 90
        0
176
     1
 90
        0
176
     1
290
     0
176
     1
 90
       13
176
     1
 40
0.0
176
     1
 90
        0
176
     1
290
     0
176
     1
290
     1
176
     1
290
     1
176
     1
290
     0
176
     1
290
     0
176
     1
290
     0
176
     1
290
     0
176
     1
290
     0
176
     1
290
     0
176
     1
 90
       50
176
     1
 40
0.0
176
     1
 40
1.0
176
     1
 90
        0
176
     1
 62
    18
420
        0
176
     1
 90
       50
176
     1
 90
        3
176
     1
 62
     5
420
      255
176
     1
290
     0
176
     1
 90
       50
176
     1
 90
       50
176
     1
 90
       50
176
     1
290
     0
176
     1
 90
       50
176
     1
 62
   256
176
     0
 40
1.0
176
     0
 90
        2
176
     1
  1
strokes_ogs.tif
176
     1
290
     0
176
     1
 40
1.0
176
     1
 40
1.0
176
     1
  0
VISUALSTYLE
  5
7D
102
{ACAD_REACTORS
330
7B
102
}
330
7B
100
AcDbVisualStyle
  2
FlatWithEdges
 70
     1
177
     3
291
     1
 70
    58
 90
        2
176
     1
 90
        1
176
     1
 90
        1
176
     1
 90
        2
176
     1
 40
0.6
176
     1
 40
30.0
176
     1
 62
     7
420
 16777215
176
     1
 90
        1
176
     1
 90
        0
176
     1
 62
     7
176
     1
 62
   257
176
     1
 90
        1
176
     1
 90
        1
176
     1
 40
1.0
176
     1
 90
        0
176
     1
 62
   257
176
     1
 40
1.0
176
     1
 90
        1
176
     1
 90
        6
176
     1
 90
        2
176
     1
 62
     7
176
     1
 90
        5
176
     1
 90
        0
176
     1
 90
        0
176
     1
290
     0
176
     1
 90
       13
176
     1
 40
0.0
176
     1
 90
        0
176
     1
290
     0
176
     1
290
     1
176
     1
290
     1
176
     1
290
     0
176
     1
290
     0
176
     1
290
     0
176
     1
290
     0
176
     1
290
     0
176
     1
290
     0
176
     1
 90
       50
176
     1
 40
0.0
176
     1
 40
1.0
176
     1
 90
        0
176
     1
 62
    18
420
        0
176
     1
 90
       50
176
     1
 90
        3
176
     1
 62
     5
420
      255
176
     1
290
     0
176
     1
 90
       50
176
     1
 90
       50
176
     1
 90
       50
176
     1
290
     0
176
     1
 90
       50
176
     1
 62
   256
176
     0
 40
1.0
176
     0
 90
        2
176
     1
  1
strokes_ogs.tif
176
     1
290
     0
176
     1
 40
1.0
176
     1
 40
1.0
176
     1
  0
VISUALSTYLE
  5
7E
102
{ACAD_REACTORS
330
7B
102
}
330
7B
100
AcDbVisualStyle
  2
Gouraud
 70
     2
177
     3
291
     1
 70
    58
 90
        2
176
     1
 90
        2
176
     1
 90
        1
176
     1
 90
        2
176
     1
 40
0.6
176
     1
 40
30.0
176
     1
 62
     7
420
 16777215
176
     1
 90
        0
176
     1
 90
        0
176
     1
 62
     7
176
     1
 62
   257
176
     1
 90
        1
176
     1
 90
        1
176
     1
 40
1.0
176
     1
 90
        0
176
     1
 62
     7
176
     1
 40
1.0
176
     1
 90
        1
176
     1
 90
        6
176
     1
 90
        2
176
     1
 62
     7
176
     1
 90
        5
176
     1
 90
        0
176
     1
 90
        0
176
     1
290
     0
176
     1
 90
       13
176
     1
 40
0.0
176
     1
 90
        0
176
     1
290
     0
176
     1
290
     1
176
     1
290
     1
176
     1
290
     0
176
     1
290
     0
176
     1
290
     0
176
     1
290
     0
176
     1
290
     0
176
     1
290
     0
176
     1
 90
       50
176
     1
 40
0.0
176
     1
 40
1.0
176
     1
 90
        0
176
     1
 62
    18
420
        0
176
     1
 90
       50
176
     1
 90
        3
176
     1
 62
     5
420
      255
176
     1
290
     0
176
     1
 90
       50
176
     1
 90
       50
176
     1
 90
       50
176
     1
290
     0
176
     1
 90
       50
176
     1
 62
   256
176
     0
 40
1.0
176
     0
 90
        2
176
     1
  1
strokes_ogs.tif
176
     1
290
     0
176
     1
 40
1.0
176
     1
 40
1.0
176
     1
  0
VISUALSTYLE
  5
7F
102
{ACAD_REACTORS
330
7B
102
}
330
7B
100
AcDbVisualStyle
  2
GouraudWithEdges
 70
     3
177
     3
291
     1
 70
    58
 90
        2
176
     1
 90
        2
176
     1
 90
        1
176
     1
 90
        2
176
     1
 40
0.6
176
     1
 40
30.0
176
     1
 62
     7
420
 16777215
176
     1
 90
        1
176
     1
 90
        0
176
     1
 62
     7
176
     1
 62
   257
176
     1
 90
        1
176
     1
 90
        1
176
     1
 40
1.0
176
     1
 90
        0
176
     1
 62
   257
176
     1
 40
1.0
176
     1
 90
        1
176
     1
 90
        6
176
     1
 90
        2
176
     1
 62
     7
176
     1
 90
        5
176
     1
 90
        0
176
     1
 90
        0
176
     1
290
     0
176
     1
 90
       13
176
     1
 40
0.0
176
     1
 90
        0
176
     1
290
     0
176
     1
290
     1
176
     1
290
     1
176
     1
290
     0
176
     1
290
     0
176
     1
290
     0
176
     1
290
     0
176
     1
290
     0
176
     1
290
     0
176
     1
 90
       50
176
     1
 40
0.0
176
     1
 40
1.0
176
     1
 90
        0
176
     1
 62
    18
420
        0
176
     1
 90
       50
176
     1
 90
        3
176
     1
 62
     5
420
      255
176
     1
290
     0
176
     1
 90
       50
176
     1
 90
       50
176
     1
 90
       50
176
     1
290
     0
176
     1
 90
       50
176
     1
 62
   256
176
     0
 40
1.0
176
     0
 90
        2
176
     1
  1
strokes_ogs.tif
176
     1
290
     0
176
     1
 40
1.0
176
     1
 40
1.0
176
     1
  0
VISUALSTYLE
  5
83
102
{ACAD_REACTORS
330
7B
102
}
330
7B
100
AcDbVisualStyle
  2
Hidden
 70
     6
177
     3
291
     0
 70
    58
 90
        1
176
     1
 90
        2
176
     1
 90
        2
176
     1
 90
        0
176
     1
 40
0.6
176
     1
 40
30.0
176
     1
 62
     7
420
 16777215
176
     1
 90
        2
176
     1
 90
        2
176
     1
 62
     7
176
     1
 62
   257
176
     1
 90
        2
176
     1
 90
        1
176
     1
 40
40.0
176
     1
 90
        0
176
     1
 62
   257
176
     1
 40
1.0
176
     1
 90
        1
176
     1
 90
        6
176
     1
 90
        2
176
     1
 62
     7
176
     1
 90
        3
176
     1
 90
        0
176
     1
 90
        0
176
     1
290
     0
176
     1
 90
        1
176
     1
 40
0.0
176
     1
 90
        0
176
     1
290
     0
176
     1
290
     1
176
     1
290
     1
176
     1
290
     0
176
     1
290
     0
176
     1
290
     0
176
     1
290
     0
176
     1
290
     0
176
     1
290
     0
176
     1
 90
       50
176
     1
 40
0.0
176
     1
 40
1.0
176
     1
 90
        0
176
     1
 62
    18
420
        0
176
     1
 90
       50
176
     1
 90
        3
176
     1
 62
     5
420
      255
176
     1
290
     0
176
     1
 90
       50
176
     1
 90
       50
176
     1
 90
       50
176
     1
290
     0
176
     1
 90
       50
176
     1
 62
   256
176
     0
 40
1.0
176
     0
 90
        2
176
     1
  1
strokes_ogs.tif
176
     1
290
     0
176
     1
 40
1.0
176
     1
 40
1.0
176
     1
  0
VISUALSTYLE
  5
91
102
{ACAD_REACTORS
330
7B
102
}
330
7B
100
AcDbVisualStyle
  2
JitterOff
 70
    20
177
     3
291
     1
 70
    58
 90
        2
176
     0
 90
        2
176
     0
 90
        0
176
     0
 90
        0
176
     0
 40
0.6
176
     0
 40
30.0
176
     0
 62
     7
420
 16777215
176
     0
 90
        1
176
     0
 90
        4
176
     0
 62
     7
176
     0
 62
   257
176
     0
 90
        1
176
     0
 90
        1
176
     0
 40
1.0
176
     0
 90
       10
176
     2
 62
     7
176
     0
 40
1.0
176
     0
 90
        1
176
     0
 90
        6
176
     0
 90
        2
176
     0
 62
     7
176
     0
 90
        5
176
     0
 90
        0
176
     0
 90
        0
176
     0
290
     0
176
     0
 90
        1
176
     0
 40
0.0
176
     0
 90
        0
176
     0
290
     0
176
     0
290
     1
176
     0
290
     1
176
     0
290
     0
176
     0
290
     0
176
     0
290
     0
176
     0
290
     0
176
     0
290
     0
176
     0
290
     0
176
     0
 90
       50
176
     0
 40
0.0
176
     0
 40
1.0
176
     0
 90
        0
176
     0
 62
    18
420
        0
176
     0
 90
       50
176
     0
 90
        3
176
     0
 62
     5
420
      255
176
     0
290
     0
176
     0
 90
       50
176
     0
 90
       50
176
     0
 90
       50
176
     0
290
     0
176
     0
 90
       50
176
     0
 62
   256
176
     0
 40
1.0
176
     0
 90
        2
176
     0
  1
strokes_ogs.tif
176
     0
290
     0
176
     0
 40
1.0
176
     0
 40
1.0
176
     0
  0
VISUALSTYLE
  5
89
102
{ACAD_REACTORS
330
7B
102
}
330
7B
100
AcDbVisualStyle
  2
Linepattern
 70
    14
177
     3
291
     1
 70
    58
 90
        2
176
     1
 90
        2
176
     1
 90
        0
176
     1
 90
        0
176
     1
 40
0.6
176
     1
 40
30.0
176
     1
 62
     7
420
 16777215
176
     1
 90
        1
176
     1
 90
        4
176
     1
 62
     7
176
     1
 62
   257
176
     1
 90
        7
176
     1
 90
        7
176
     1
 40
1.0
176
     1
 90
        8
176
     1
 62
     7
176
     1
 40
1.0
176
     1
 90
        1
176
     1
 90
        6
176
     1
 90
        2
176
     1
 62
     7
176
     1
 90
        5
176
     1
 90
        0
176
     1
 90
        0
176
     1
290
     0
176
     1
 90
        1
176
     1
 40
0.0
176
     1
 90
        0
176
     1
290
     0
176
     1
290
     1
176
     1
290
     1
176
     1
290
     0
176
     1
290
     0
176
     1
290
     0
176
     1
290
     0
176
     1
290
     0
176
     1
290
     0
176
     1
 90
       50
176
     1
 40
0.0
176
     1
 40
1.0
176
     1
 90
        0
176
     1
 62
    18
420
        0
176
     1
 90
       50
176
     1
 90
        3
176
     1
 62
     5
420
      255
176
     1
290
     0
176
     1
 90
       50
176
     1
 90
       50
176
     1
 90
       50
176
     1
290
     0
176
     1
 90
       50
176
     1
 62
   256
176
     0
 40
1.0
176
     0
 90
        2
176
     1
  1
strokes_ogs.tif
176
     1
290
     0
176
     1
 40
1.0
176
     1
 40
1.0
176
     1
  0
VISUALSTYLE
  5
92
102
{ACAD_REACTORS
330
7B
102
}
330
7B
100
AcDbVisualStyle
  2
OverhangOff
 70
    21
177
     3
291
     1
 70
    58
 90
        2
176
     0
 90
        2
176
     0
 90
        0
176
     0
 90
        0
176
     0
 40
0.6
176
     0
 40
30.0
176
     0
 62
     7
420
 16777215
176
     0
 90
        1
176
     0
 90
        4
176
     0
 62
     7
176
     0
 62
   257
176
     0
 90
        1
176
     0
 90
        1
176
     0
 40
1.0
176
     0
 90
        9
176
     2
 62
     7
176
     0
 40
1.0
176
     0
 90
        1
176
     0
 90
        6
176
     0
 90
        2
176
     0
 62
     7
176
     0
 90
        5
176
     0
 90
        0
176
     0
 90
        0
176
     0
290
     0
176
     0
 90
        1
176
     0
 40
0.0
176
     0
 90
        0
176
     0
290
     0
176
     0
290
     1
176
     0
290
     1
176
     0
290
     0
176
     0
290
     0
176
     0
290
     0
176
     0
290
     0
176
     0
290
     0
176
     0
290
     0
176
     0
 90
       50
176
     0
 40
0.0
176
     0
 40
1.0
176
     0
 90
        0
176
     0
 62
    18
420
        0
176
     0
 90
       50
176
     0
 90
        3
176
     0
 62
     5
420
      255
176
     0
290
     0
176
     0
 90
       50
176
     0
 90
       50
176
     0
 90
       50
176
     0
290
     0
176
     0
 90
       50
176
     0
 62
   256
176
     0
 40
1.0
176
     0
 90
        2
176
     0
  1
strokes_ogs.tif
176
     0
290
     0
176
     0
 40
1.0
176
     0
 40
1.0
176
     0
  0
VISUALSTYLE
  5
85
102
{ACAD_REACTORS
330
7B
102
}
330
7B
100
AcDbVisualStyle
  2
Realistic
 70
     8
177
     3
291
     0
 70
    58
 90
        2
176
     1
 90
        3
176
     1
 90
        0
176
     1
 90
        2
176
     1
 40
0.6
176
     1
 40
30.0
176
     1
 62
     7
420
 16777215
176
     1
 90
        0
176
     1
 90
        0
176
     1
 62
     7
176
     1
 62
   257
176
     1
 90
        1
176
     1
 90
        1
176
     1
 40
1.0
176
     1
 90
        8
176
     1
 62
   257
176
     1
 40
1.0
176
     1
 90
        1
176
     1
 90
        6
176
     1
 90
        2
176
     1
 62
     7
176
     1
 90
        3
176
     1
 90
        0
176
     1
 90
        0
176
     1
290
     0
176
     1
 90
       13
176
     1
 40
0.0
176
     1
 90
        0
176
     1
290
     0
176
     1
290
     1
176
     1
290
     1
176
     1
290
     0
176
     1
290
     0
176
     1
290
     0
176
     1
290
     0
176
     1
290
     0
176
     1
290
     0
176
     1
 90
       50
176
     1
 40
0.0
176
     1
 40
1.0
176
     1
 90
        0
176
     1
 62
    18
420
        0
176
     1
 90
       50
176
     1
 90
        3
176
     1
 62
     5
420
      255
176
     1
290
     0
176
     1
 90
       50
176
     1
 90
       50
176
     1
 90
       50
176
     1
290
     0
176
     1
 90
       50
176
     1
 62
   256
176
     0
 40
1.0
176
     0
 90
        2
176
     1
  1
strokes_ogs.tif
176
     1
290
     0
176
     1
 40
1.0
176
     1
 40
1.0
176
     1
  0
VISUALSTYLE
  5
90
102
{ACAD_REACTORS
330
7B
102
}
330
7B
100
AcDbVisualStyle
  2
Shaded
 70
    27
177
     3
291
     0
 70
    58
 90
        2
176
     1
 90
        2
176
     1
 90
        1
176
     1
 90
        2
176
     1
 40
0.6
176
     1
 40
30.0
176
     1
 62
     7
420
 16777215
176
     1
 90
        0
176
     1
 90
        4
176
     1
 62
     7
176
     1
 62
   257
176
     1
 90
        1
176
     1
 90
        1
176
     1
 40
1.0
176
     1
 90
        8
176
     1
 62
   257
176
     1
 40
1.0
176
     1
 90
        1
176
     1
 90
        6
176
     1
 90
        2
176
     1
 62
     8
420
  7895160
176
     1
 90
        3
176
     1
 90
        0
176
     1
 90
        0
176
     1
290
     0
176
     1
 90
        5
176
     1
 40
0.0
176
     1
 90
        0
176
     1
290
     0
176
     1
290
     1
176
     1
290
     1
176
     1
290
     0
176
     1
290
     0
176
     1
290
     0
176
     1
290
     0
176
     1
290
     0
176
     1
290
     0
176
     1
 90
       50
176
     1
 40
0.0
176
     1
 40
1.0
176
     1
 90
        0
176
     1
 62
    18
420
        0
176
     1
 90
       50
176
     1
 90
        3
176
     1
 62
     5
420
      255
176
     1
290
     0
176
     1
 90
       50
176
     1
 90
       50
176
     1
 90
       50
176
     1
290
     0
176
     1
 90
       50
176
     1
 62
   256
176
     0
 40
1.0
176
     0
 90
        2
176
     1
  1
strokes_ogs.tif
176
     1
290
     0
176
     1
 40
1.0
176
     1
 40
1.0
176
     1
  0
VISUALSTYLE
  5
8F
102
{ACAD_REACTORS
330
7B
102
}
330
7B
100
AcDbVisualStyle
  2
Shaded with edges
 70
    26
177
     3
291
     0
 70
    58
 90
        2
176
     1
 90
        2
176
     1
 90
        1
176
     1
 90
        2
176
     1
 40
0.6
176
     1
 40
30.0
176
     1
 62
     7
420
 16777215
176
     1
 90
        1
176
     1
 90
        2
176
     1
 62
     7
176
     1
 62
   257
176
     1
 90
        2
176
     1
 90
        1
176
     1
 40
1.0
176
     1
 90
        8
176
     1
 62
   257
176
     1
 40
1.0
176
     1
 90
        1
176
     1
 90
        6
176
     1
 90
        2
176
     1
 62
     7
176
     1
 90
        3
176
     1
 90
        0
176
     1
 90
        0
176
     1
290
     0
176
     1
 90
        5
176
     1
 40
0.0
176
     1
 90
        0
176
     1
290
     0
176
     1
290
     1
176
     1
290
     1
176
     1
290
     0
176
     1
290
     0
176
     1
290
     0
176
     1
290
     0
176
     1
290
     0
176
     1
290
     0
176
     1
 90
       50
176
     1
 40
0.0
176
     1
 40
1.0
176
     1
 90
        0
176
     1
 62
    18
420
        0
176
     1
 90
       50
176
     1
 90
        3
176
     1
 62
     5
420
      255
176
     1
290
     0
176
     1
 90
       50
176
     1
 90
       50
176
     1
 90
       50
176
     1
290
     0
176
     1
 90
       50
176
     1
 62
   256
176
     0
 40
1.0
176
     0
 90
        2
176
     1
  1
strokes_ogs.tif
176
     1
290
     0
176
     1
 40
1.0
176
     1
 40
1.0
176
     1
  0
VISUALSTYLE
  5
8C
102
{ACAD_REACTORS
330
7B
102
}
330
7B
100
AcDbVisualStyle
  2
Shades of Gray
 70
    23
177
     3
291
     0
 70
    58
 90
        2
176
     1
 90
        2
176
     1
 90
        3
176
     1
 90
        0
176
     1
 40
0.6
176
     1
 40
30.0
176
     1
 62
     7
420
 16777215
176
     1
 90
        2
176
     1
 90
        2
176
     1
 62
     7
176
     1
 62
     7
176
     1
 90
        1
176
     1
 90
        1
176
     1
 40
40.0
176
     1
 90
        8
176
     1
 62
     7
176
     1
 40
1.0
176
     1
 90
        1
176
     1
 90
        6
176
     1
 90
        2
176
     1
 62
     7
176
     1
 90
        3
176
     1
 90
        0
176
     1
 90
        0
176
     1
290
     0
176
     1
 90
        1
176
     1
 40
0.0
176
     1
 90
        0
176
     1
290
     0
176
     1
290
     1
176
     1
290
     1
176
     1
290
     0
176
     1
290
     0
176
     1
290
     0
176
     1
290
     0
176
     1
290
     0
176
     1
290
     0
176
     1
 90
       50
176
     1
 40
0.0
176
     1
 40
1.0
176
     1
 90
        0
176
     1
 62
    18
420
        0
176
     1
 90
       50
176
     1
 90
        3
176
     1
 62
     5
420
      255
176
     1
290
     0
176
     1
 90
       50
176
     1
 90
       50
176
     1
 90
       50
176
     1
290
     0
176
     1
 90
       50
176
     1
 62
   256
176
     0
 40
1.0
176
     0
 90
        2
176
     1
  1
strokes_ogs.tif
176
     1
290
     0
176
     1
 40
1.0
176
     1
 40
1.0
176
     1
  0
VISUALSTYLE
  5
8D
102
{ACAD_REACTORS
330
7B
102
}
330
7B
100
AcDbVisualStyle
  2
Sketchy
 70
    24
177
     3
291
     0
 70
    58
 90
        1
176
     1
 90
        2
176
     1
 90
        2
176
     1
 90
        0
176
     1
 40
0.6
176
     1
 40
30.0
176
     1
 62
     7
420
 16777215
176
     1
 90
        2
176
     1
 90
        2
176
     1
 62
     7
176
     1
 62
     7
176
     1
 90
        1
176
     1
 90
        1
176
     1
 40
40.0
176
     1
 90
       11
176
     1
 62
     7
176
     1
 40
1.0
176
     1
 90
        1
176
     1
 90
        6
176
     1
 90
        2
176
     1
 62
     7
176
     1
 90
        6
176
     1
 90
        0
176
     1
 90
        0
176
     1
290
     0
176
     1
 90
        1
176
     1
 40
0.0
176
     1
 90
        0
176
     1
290
     0
176
     1
290
     1
176
     1
290
     1
176
     1
290
     0
176
     1
290
     0
176
     1
290
     0
176
     1
290
     0
176
     1
290
     0
176
     1
290
     0
176
     1
 90
       50
176
     1
 40
0.0
176
     1
 40
1.0
176
     1
 90
        0
176
     1
 62
    18
420
        0
176
     1
 90
       50
176
     1
 90
        3
176
     1
 62
     5
420
      255
176
     1
290
     0
176
     1
 90
       50
176
     1
 90
       50
176
     1
 90
       50
176
     1
290
     0
176
     1
 90
       50
176
     1
 62
   256
176
     0
 40
1.0
176
     0
 90
        2
176
     1
  1
strokes_ogs.tif
176
     1
290
     0
176
     1
 40
1.0
176
     1
 40
1.0
176
     1
  0
VISUALSTYLE
  5
88
102
{ACAD_REACTORS
330
7B
102
}
330
7B
100
AcDbVisualStyle
  2
Thicken
 70
    13
177
     3
291
     1
 70
    58
 90
        2
176
     1
 90
        2
176
     1
 90
        0
176
     1
 90
        0
176
     1
 40
0.6
176
     1
 40
30.0
176
     1
 62
     7
420
 16777215
176
     1
 90
        1
176
     1
 90
        4
176
     1
 62
     7
176
     1
 62
   257
176
     1
 90
        1
176
     1
 90
        1
176
     1
 40
1.0
176
     1
 90
       12
176
     1
 62
     7
176
     1
 40
1.0
176
     1
 90
        1
176
     1
 90
        6
176
     1
 90
        2
176
     1
 62
     7
176
     1
 90
        5
176
     1
 90
        0
176
     1
 90
        0
176
     1
290
     0
176
     1
 90
        1
176
     1
 40
0.0
176
     1
 90
        0
176
     1
290
     0
176
     1
290
     1
176
     1
290
     1
176
     1
290
     0
176
     1
290
     0
176
     1
290
     0
176
     1
290
     0
176
     1
290
     0
176
     1
290
     0
176
     1
 90
       50
176
     1
 40
0.0
176
     1
 40
1.0
176
     1
 90
        0
176
     1
 62
    18
420
        0
176
     1
 90
       50
176
     1
 90
        3
176
     1
 62
     5
420
      255
176
     1
290
     0
176
     1
 90
       50
176
     1
 90
       50
176
     1
 90
       50
176
     1
290
     0
176
     1
 90
       50
176
     1
 62
   256
176
     0
 40
1.0
176
     0
 90
        2
176
     1
  1
strokes_ogs.tif
176
     1
290
     0
176
     1
 40
1.0
176
     1
 40
1.0
176
     1
  0
VISUALSTYLE
  5
82
102
{ACAD_REACTORS
330
7B
102
}
330
7B
100
AcDbVisualStyle
  2
Wireframe
 70
     5
177
     3
291
     0
 70
    58
 90
        0
176
     1
 90
        2
176
     1
 90
        0
176
     1
 90
        0
176
     1
 40
0.6
176
     1
 40
30.0
176
     1
 62
     7
420
 16777215
176
     1
 90
        1
176
     1
 90
        4
176
     1
 62
     7
176
     1
 62
   257
176
     1
 90
        1
176
     1
 90
        1
176
     1
 40
1.0
176
     1
 90
        0
176
     1
 62
   257
176
     1
 40
1.0
176
     1
 90
        1
176
     1
 90
        6
176
     1
 90
        2
176
     1
 62
     7
176
     1
 90
        3
176
     1
 90
        0
176
     1
 90
        0
176
     1
290
     0
176
     1
 90
        1
176
     1
 40
0.0
176
     1
 90
        0
176
     1
290
     0
176
     1
290
     1
176
     1
290
     1
176
     1
290
     0
176
     1
290
     0
176
     1
290
     0
176
     1
290
     0
176
     1
290
     0
176
     1
290
     0
176
     1
 90
       50
176
     1
 40
0.0
176
     1
 40
1.0
176
     1
 90
        0
176
     1
 62
    18
420
        0
176
     1
 90
       50
176
     1
 90
        3
176
     1
 62
     5
420
      255
176
     1
290
     0
176
     1
 90
       50
176
     1
 90
       50
176
     1
 90
       50
176
     1
290
     0
176
     1
 90
       50
176
     1
 62
   256
176
     0
 40
1.0
176
     0
 90
        2
176
     1
  1
strokes_ogs.tif
176
     1
290
     0
176
     1
 40
1.0
176
     1
 40
1.0
176
     1
  0
VISUALSTYLE
  5
8E
102
{ACAD_REACTORS
330
7B
102
}
330
7B
100
AcDbVisualStyle
  2
X-Ray
 70
    25
177
     3
291
     0
 70
    58
 90
        2
176
     1
 90
        2
176
     1
 90
        1
176
     1
 90
        1
176
     1
 40
0.5
176
     1
 40
30.0
176
     1
 62
     7
420
 16777215
176
     1
 90
        1
176
     1
 90
        0
176
     1
 62
     7
176
     1
 62
   257
176
     1
 90
        1
176
     1
 90
        1
176
     1
 40
1.0
176
     1
 90
        8
176
     1
 62
     7
176
     1
 40
1.0
176
     1
 90
        1
176
     1
 90
        6
176
     1
 90
        2
176
     1
 62
     7
176
     1
 90
        3
176
     1
 90
        0
176
     1
 90
        0
176
     1
290
     0
176
     1
 90
       13
176
     1
 40
0.0
176
     1
 90
        0
176
     1
290
     0
176
     1
290
     1
176
     1
290
     1
176
     1
290
     0
176
     1
290
     0
176
     1
290
     0
176
     1
290
     0
176
     1
290
     0
176
     1
290
     0
176
     1
 90
       50
176
     1
 40
0.0
176
     1
 40
1.0
176
     1
 90
        0
176
     1
 62
    18
420
        0
176
     1
 90
       50
176
     1
 90
        3
176
     1
 62
     5
420
      255
176
     1
290
     0
176
     1
 90
       50
176
     1
 90
       50
176
     1
 90
       50
176
     1
290
     0
176
     1
 90
       50
176
     1
 62
   256
176
     0
 40
1.0
176
     0
 90
        2
176
     1
  1
strokes_ogs.tif
176
     1
290
     0
176
     1
 40
1.0
176
     1
 40
1.0
176
     1
  0
DICTIONARYVAR
  5
1E3
102
{ACAD_REACTORS
330
1DD
102
}
330
1DD
100
DictionaryVariables
280
     0
  1
1:1
  0
DICTIONARYVAR
  5
1DF
102
{ACAD_REACTORS
330
1DD
102
}
330
1DD
100
DictionaryVariables
280
     0
  1
STANDARD
  0
DICTIONARYVAR
  5
1DE
102
{ACAD_REACTORS
330
1DD
102
}
330
1DD
100
DictionaryVariables
280
     0
  1
STANDARD
  0
DICTIONARYVAR
  5
1E0
102
{ACAD_REACTORS
330
1DD
102
}
330
1DD
100
DictionaryVariables
280
     0
  1
Imperial24
  0
DICTIONARYVAR
  5
1E1
102
{ACAD_REACTORS
330
1DD
102
}
330
1DD
100
DictionaryVariables
280
     0
  1
Imperial24
  0
DICTIONARYVAR
  5
1E5
102
{ACAD_REACTORS
330
1DD
102
}
330
1DD
100
DictionaryVariables
280
     0
  1
1
  0
DICTIONARYVAR
  5
1E6
102
{ACAD_REACTORS
330
1DD
102
}
330
1DD
100
DictionaryVariables
280
     0
  1
15
  0
DICTIONARYVAR
  5
1E4
102
{ACAD_REACTORS
330
1DD
102
}
330
1DD
100
DictionaryVariables
280
     0
  1
0
  0
DICTIONARYVAR
  5
1E2
102
{ACAD_REACTORS
330
1DD
102
}
330
1DD
100
DictionaryVariables
280
     0
  1
0
  0
XRECORD
  5
1DC
102
{ACAD_REACTORS
330
1DA
102
}
330
1DA
100
AcDbXrecord
280
     1
  0
DICTIONARY
  5
6C
330
6B
100
AcDbDictionary
280
     1
281
     1
  3
BUMPTILE
360
6E
  3
DIFFUSETILE
360
6D
  3
OPACITYTILE
360
71
  3
REFLECTIONTILE
360
70
  3
REFRACTIONTILE
360
72
  3
SPECULARTILE
360
6F
  0
DICTIONARY
  5
64
330
63
100
AcDbDictionary
280
     1
281
     1
  3
BUMPTILE
360
66
  3
DIFFUSETILE
360
65
  3
OPACITYTILE
360
69
  3
REFLECTIONTILE
360
68
  3
REFRACTIONTILE
360
6A
  3
SPECULARTILE
360
67
  0
DICTIONARY
  5
74
330
73
100
AcDbDictionary
280
     1
281
     1
  3
BUMPTILE
360
76
  3
DIFFUSETILE
360
75
  3
OPACITYTILE
360
79
  3
REFLECTIONTILE
360
78
  3
REFRACTIONTILE
360
7A
  3
SPECULARTILE
360
77
  0
DICTIONARY
  5
1E7
330
96
100
AcDbDictionary
280
     1
281
     1
  3
ACAD_ROUNDTRIP_2008_TABLESTYLE_CELLSTYLEMAP
360
1E8
  0
XRECORD
  5
6E
102
{ACAD_REACTORS
330
6C
102
}
330
6C
100
AcDbXrecord
280
     1
270
     1
271
     1
  0
XRECORD
  5
6D
102
{ACAD_REACTORS
330
6C
102
}
330
6C
100
AcDbXrecord
280
     1
270
     1
271
     1
  0
XRECORD
  5
71
102
{ACAD_REACTORS
330
6C
102
}
330
6C
100
AcDbXrecord
280
     1
270
     1
271
     1
  0
XRECORD
  5
70
102
{ACAD_REACTORS
330
6C
102
}
330
6C
100
AcDbXrecord
280
     1
270
     1
271
     1
  0
XRECORD
  5
72
102
{ACAD_REACTORS
330
6C
102
}
330
6C
100
AcDbXrecord
280
     1
270
     1
271
     1
  0
XRECORD
  5
6F
102
{ACAD_REACTORS
330
6C
102
}
330
6C
100
AcDbXrecord
280
     1
270
     1
271
     1
  0
XRECORD
  5
66
102
{ACAD_REACTORS
330
64
102
}
330
64
100
AcDbXrecord
280
     1
270
     1
271
     1
  0
XRECORD
  5
65
102
{ACAD_REACTORS
330
64
102
}
330
64
100
AcDbXrecord
280
     1
270
     1
271
     1
  0
XRECORD
  5
69
102
{ACAD_REACTORS
330
64
102
}
330
64
100
AcDbXrecord
280
     1
270
     1
271
     1
  0
XRECORD
  5
68
102
{ACAD_REACTORS
330
64
102
}
330
64
100
AcDbXrecord
280
     1
270
     1
271
     1
  0
XRECORD
  5
6A
102
{ACAD_REACTORS
330
64
102
}
330
64
100
AcDbXrecord
280
     1
270
     1
271
     1
  0
XRECORD
  5
67
102
{ACAD_REACTORS
330
64
102
}
330
64
100
AcDbXrecord
280
     1
270
     1
271
     1
  0
XRECORD
  5
76
102
{ACAD_REACTORS
330
74
102
}
330
74
100
AcDbXrecord
280
     1
270
     1
271
     1
  0
XRECORD
  5
75
102
{ACAD_REACTORS
330
74
102
}
330
74
100
AcDbXrecord
280
     1
270
     1
271
     1
  0
XRECORD
  5
79
102
{ACAD_REACTORS
330
74
102
}
330
74
100
AcDbXrecord
280
     1
270
     1
271
     1
  0
XRECORD
  5
78
102
{ACAD_REACTORS
330
74
102
}
330
74
100
AcDbXrecord
280
     1
270
     1
271
     1
  0
XRECORD
  5
7A
102
{ACAD_REACTORS
330
74
102
}
330
74
100
AcDbXrecord
280
     1
270
     1
271
     1
  0
XRECORD
  5
77
102
{ACAD_REACTORS
330
74
102
}
330
74
100
AcDbXrecord
280
     1
270
     1
271
     1
  0
CELLSTYLEMAP
  5
1E8
102
{ACAD_REACTORS
330
1E7
102
}
330
1E7
100
AcDbCellStyleMap
 90
        3
300
CELLSTYLE
  1
TABLEFORMAT_BEGIN
 90
        5
170
     1
 91
        0
 92
    32768
 62
   257
 93
        1
300
CONTENTFORMAT
  1
CONTENTFORMAT_BEGIN
 90
        0
 91
        0
 92
      512
 93
        0
300

 40
0.0
140
1.0
 94
        5
 62
     0
340
12
144
0.25
309
CONTENTFORMAT_END
171
     0
 94
        0
309
TABLEFORMAT_END
  1
CELLSTYLE_BEGIN
 90
        1
 91
        1
300
_TITLE
309
CELLSTYLE_END
300
CELLSTYLE
  1
TABLEFORMAT_BEGIN
 90
        5
170
     1
 91
        0
 92
        0
 62
   257
 93
        1
300
CONTENTFORMAT
  1
CONTENTFORMAT_BEGIN
 90
        0
 91
        0
 92
      512
 93
        0
300

 40
0.0
140
1.0
 94
        5
 62
     0
340
12
144
0.18
309
CONTENTFORMAT_END
171
     0
 94
        0
309
TABLEFORMAT_END
  1
CELLSTYLE_BEGIN
 90
        2
 91
        1
300
_HEADER
309
CELLSTYLE_END
300
CELLSTYLE
  1
TABLEFORMAT_BEGIN
 90
        5
170
     1
 91
        0
 92
        0
 62
   257
 93
        1
300
CONTENTFORMAT
  1
CONTENTFORMAT_BEGIN
 90
        0
 91
        0
 92
      512
 93
        0
300

 40
0.0
140
1.0
 94
        2
 62
     0
340
12
144
0.18
309
CONTENTFORMAT_END
171
     0
 94
        0
309
TABLEFORMAT_END
  1
CELLSTYLE_BEGIN
 90
        3
 91
        2
300
_DATA
309
CELLSTYLE_END
  0
ENDSEC
  0
EOF
