999
Erzeugt mit innoplus bad 
0
SECTION
2
HEADER
9
$ACADVER
1
AC1009
9
$DWGCODEPAGE
3
ISO8859-1
0
ENDSEC
0
SECTION
2
TABLES
0
TABLE
2
LAYER
70
1
0
LAYER
2
0
70
0
62
7
6
CONTINUOUS
0
ENDTAB
0
ENDSEC
0
SECTION
2
ENTITIES
0
LINE
8
0
6
CONTINUOUS
10
362.000000
20
-117.000019
30
0.0
11
362.707054
21
-117.271011
31
0.0
0
LINE
8
0
6
CONTINUOUS
10
362.707054
20
-117.271011
30
0.0
11
363.000000
21
-117.925854
31
0.0
0
LINE
8
0
6
CONTINUOUS
10
362.707107
20
-116.116734
30
0.0
11
362.707054
21
-117.271011
31
0.0
0
LINE
8
0
6
CONTINUOUS
10
363.000000
20
-117.925854
30
0.0
11
363.000000
21
-116.397982
31
0.0
0
LINE
8
0
6
CONTINUOUS
10
362.000000
20
-116.000238
30
0.0
11
362.707107
21
-116.116734
31
0.0
0
LINE
8
0
6
CONTINUOUS
10
362.008551
20
89.869534
30
0.0
11
362.000000
21
-116.000238
31
0.0
0
LINE
8
0
6
CONTINUOUS
10
362.709782
20
89.961810
30
0.0
11
362.707107
21
-116.116734
31
0.0
0
LINE
8
0
6
CONTINUOUS
10
363.000000
20
-116.397982
30
0.0
11
363.000000
21
90.000000
31
0.0
0
LINE
8
0
6
CONTINUOUS
10
361.062133
20
93.500196
30
0.0
11
362.008551
21
89.869534
31
0.0
0
LINE
8
0
6
CONTINUOUS
10
361.675309
20
93.854144
30
0.0
11
362.709782
21
89.961810
31
0.0
0
LINE
8
0
6
CONTINUOUS
10
363.000000
20
90.000000
30
0.0
11
361.928203
21
94.000000
31
0.0
0
LINE
8
0
6
CONTINUOUS
10
358.499923
20
96.062429
30
0.0
11
361.062133
21
93.500196
31
0.0
0
LINE
8
0
6
CONTINUOUS
10
358.854099
20
96.675607
30
0.0
11
361.675309
21
93.854144
31
0.0
0
LINE
8
0
6
CONTINUOUS
10
361.928203
20
94.000000
30
0.0
11
358.999999
21
96.928204
31
0.0
0
LINE
8
0
6
CONTINUOUS
10
354.869444
20
97.008795
30
0.0
11
358.499923
21
96.062429
31
0.0
0
LINE
8
0
6
CONTINUOUS
10
354.961931
20
97.710971
30
0.0
11
358.854099
21
96.675607
31
0.0
0
LINE
8
0
6
CONTINUOUS
10
358.999999
20
96.928204
30
0.0
11
355.000000
21
98.000000
31
0.0
0
LINE
8
0
6
CONTINUOUS
10
137.130556
20
97.008795
30
0.0
11
354.869444
21
97.008795
31
0.0
0
LINE
8
0
6
CONTINUOUS
10
137.038069
20
97.710971
30
0.0
11
354.961931
21
97.710971
31
0.0
0
LINE
8
0
6
CONTINUOUS
10
355.000000
20
98.000000
30
0.0
11
137.000000
21
98.000000
31
0.0
0
LINE
8
0
6
CONTINUOUS
10
133.500077
20
96.062429
30
0.0
11
137.130556
21
97.008795
31
0.0
0
LINE
8
0
6
CONTINUOUS
10
133.146103
20
96.675403
30
0.0
11
137.038069
21
97.710971
31
0.0
0
LINE
8
0
6
CONTINUOUS
10
137.000000
20
98.000000
30
0.0
11
133.000000
21
96.928203
31
0.0
0
LINE
8
0
6
CONTINUOUS
10
130.937867
20
93.500196
30
0.0
11
133.500077
21
96.062429
31
0.0
0
LINE
8
0
6
CONTINUOUS
10
130.324812
20
93.854026
30
0.0
11
133.146103
21
96.675403
31
0.0
0
LINE
8
0
6
CONTINUOUS
10
133.000000
20
96.928203
30
0.0
11
130.071796
21
93.999999
31
0.0
0
LINE
8
0
6
CONTINUOUS
10
129.991449
20
89.869534
30
0.0
11
130.937867
21
93.500196
31
0.0
0
LINE
8
0
6
CONTINUOUS
10
129.290218
20
89.961810
30
0.0
11
130.324812
21
93.854026
31
0.0
0
LINE
8
0
6
CONTINUOUS
10
130.071796
20
93.999999
30
0.0
11
129.000000
21
90.000000
31
0.0
0
LINE
8
0
6
CONTINUOUS
10
130.000000
20
-116.000238
30
0.0
11
129.991449
21
89.869534
31
0.0
0
LINE
8
0
6
CONTINUOUS
10
130.000000
20
-116.000238
30
0.0
11
129.290218
21
89.961810
31
0.0
0
LINE
8
0
6
CONTINUOUS
10
129.292893
20
-116.205073
30
0.0
11
129.290218
21
89.961810
31
0.0
0
LINE
8
0
6
CONTINUOUS
10
129.000000
20
90.000000
30
0.0
11
129.000000
21
-116.699589
31
0.0
0
LINE
8
0
6
CONTINUOUS
10
129.292893
20
-116.205073
30
0.0
11
129.000000
21
90.000000
31
0.0
0
LINE
8
0
6
CONTINUOUS
10
129.292893
20
-116.205073
30
0.0
11
129.000000
21
-116.699589
31
0.0
0
LINE
8
0
6
CONTINUOUS
10
130.000000
20
-116.000238
30
0.0
11
129.292893
21
-116.205073
31
0.0
0
LINE
8
0
6
CONTINUOUS
10
362.000000
20
-116.000238
30
0.0
11
130.000000
21
-116.000238
31
0.0
0
LINE
8
0
6
CONTINUOUS
10
129.000000
20
-117.000000
30
0.0
11
362.000000
21
-117.000019
31
0.0
0
LINE
8
0
6
CONTINUOUS
10
129.000000
20
-116.699589
30
0.0
11
129.000000
21
-117.000000
31
0.0
0
LINE
8
0
6
CONTINUOUS
10
-363.000000
20
-117.925876
30
0.0
11
-362.707207
21
-117.270865
31
0.0
0
LINE
8
0
6
CONTINUOUS
10
-362.707207
20
-117.270865
30
0.0
11
-362.000000
21
-116.999921
31
0.0
0
LINE
8
0
6
CONTINUOUS
10
-363.000000
20
-116.382640
30
0.0
11
-363.000000
21
-117.923778
31
0.0
0
LINE
8
0
6
CONTINUOUS
10
-362.707306
20
-117.270489
30
0.0
11
-362.000100
21
-116.999894
31
0.0
0
LINE
8
0
6
CONTINUOUS
10
-362.707107
20
-116.112032
30
0.0
11
-362.707306
21
-117.270489
31
0.0
0
LINE
8
0
6
CONTINUOUS
10
-363.000000
20
90.000000
30
0.0
11
-363.000000
21
-116.382640
31
0.0
0
LINE
8
0
6
CONTINUOUS
10
-362.707107
20
-116.112032
30
0.0
11
-362.000000
21
-115.999943
31
0.0
0
LINE
8
0
6
CONTINUOUS
10
-362.709613
20
89.961770
30
0.0
11
-362.707107
21
-116.112032
31
0.0
0
LINE
8
0
6
CONTINUOUS
10
-362.000000
20
-115.999943
30
0.0
11
-362.008555
21
89.869474
31
0.0
0
LINE
8
0
6
CONTINUOUS
10
-361.928203
20
94.000000
30
0.0
11
-363.000000
21
90.000000
31
0.0
0
LINE
8
0
6
CONTINUOUS
10
-361.674550
20
93.853553
30
0.0
11
-362.709613
21
89.961770
31
0.0
0
LINE
8
0
6
CONTINUOUS
10
-362.008555
20
89.869474
30
0.0
11
-361.062178
21
93.500000
31
0.0
0
LINE
8
0
6
CONTINUOUS
10
-358.999993
20
96.928177
30
0.0
11
-361.928203
21
94.000000
31
0.0
0
LINE
8
0
6
CONTINUOUS
10
-358.853553
20
96.674550
30
0.0
11
-361.674550
21
93.853553
31
0.0
0
LINE
8
0
6
CONTINUOUS
10
-361.062178
20
93.500000
30
0.0
11
-358.500000
21
96.062178
31
0.0
0
LINE
8
0
6
CONTINUOUS
10
-354.999788
20
98.000059
30
0.0
11
-358.999993
21
96.928177
31
0.0
0
LINE
8
0
6
CONTINUOUS
10
-354.961557
20
97.709670
30
0.0
11
-358.853553
21
96.674550
31
0.0
0
LINE
8
0
6
CONTINUOUS
10
-358.500000
20
96.062178
30
0.0
11
-354.869261
21
97.008612
31
0.0
0
LINE
8
0
6
CONTINUOUS
10
109.000007
20
98.000084
30
0.0
11
-354.999788
21
98.000059
31
0.0
0
LINE
8
0
6
CONTINUOUS
10
108.961770
20
97.709670
30
0.0
11
-354.961557
21
97.709670
31
0.0
0
LINE
8
0
6
CONTINUOUS
10
-354.869261
20
97.008612
30
0.0
11
108.869474
21
97.008612
31
0.0
0
LINE
8
0
6
CONTINUOUS
10
112.999997
20
96.928240
30
0.0
11
109.000007
21
98.000084
31
0.0
0
LINE
8
0
6
CONTINUOUS
10
112.853566
20
96.674604
30
0.0
11
108.961770
21
97.709670
31
0.0
0
LINE
8
0
6
CONTINUOUS
10
108.869474
20
97.008612
30
0.0
11
112.500009
21
96.062234
31
0.0
0
LINE
8
0
6
CONTINUOUS
10
115.928203
20
94.000000
30
0.0
11
112.999997
21
96.928240
31
0.0
0
LINE
8
0
6
CONTINUOUS
10
115.674550
20
93.853555
30
0.0
11
112.853566
21
96.674604
31
0.0
0
LINE
8
0
6
CONTINUOUS
10
112.500009
20
96.062234
30
0.0
11
115.062175
21
93.500005
31
0.0
0
LINE
8
0
6
CONTINUOUS
10
117.000005
20
90.000000
30
0.0
11
115.928203
21
94.000000
31
0.0
0
LINE
8
0
6
CONTINUOUS
10
116.709613
20
89.961770
30
0.0
11
115.674550
21
93.853555
31
0.0
0
LINE
8
0
6
CONTINUOUS
10
115.062175
20
93.500005
30
0.0
11
116.008555
21
89.869474
31
0.0
0
LINE
8
0
6
CONTINUOUS
10
117.000000
20
-116.707101
30
0.0
11
117.000005
21
90.000000
31
0.0
0
LINE
8
0
6
CONTINUOUS
10
117.000000
20
-116.707101
30
0.0
11
116.709613
21
89.961770
31
0.0
0
LINE
8
0
6
CONTINUOUS
10
116.707107
20
-116.207113
30
0.0
11
116.709613
21
89.961770
31
0.0
0
LINE
8
0
6
CONTINUOUS
10
116.008555
20
89.869474
30
0.0
11
116.000000
21
-116.000011
31
0.0
0
LINE
8
0
6
CONTINUOUS
10
116.707107
20
-116.207113
30
0.0
11
116.008555
21
89.869474
31
0.0
0
LINE
8
0
6
CONTINUOUS
10
116.000000
20
-116.000011
30
0.0
11
-362.000000
21
-115.999943
31
0.0
0
LINE
8
0
6
CONTINUOUS
10
116.707107
20
-116.207113
30
0.0
11
116.000000
21
-116.000011
31
0.0
0
LINE
8
0
6
CONTINUOUS
10
117.000000
20
-116.707101
30
0.0
11
116.707107
21
-116.207113
31
0.0
0
LINE
8
0
6
CONTINUOUS
10
116.999993
20
-116.999973
30
0.0
11
117.000000
21
-116.707101
31
0.0
0
LINE
8
0
6
CONTINUOUS
10
-362.000100
20
-116.999894
30
0.0
11
116.999993
21
-116.999973
31
0.0
0
LINE
8
0
6
CONTINUOUS
10
-375.000000
20
129.000000
30
0.0
11
-375.000000
21
-129.000000
31
0.0
0
LINE
8
0
6
CONTINUOUS
10
-374.729402
20
128.887915
30
0.0
11
-374.729402
21
-128.887915
31
0.0
0
LINE
8
0
6
CONTINUOUS
10
-374.076120
20
-128.617317
30
0.0
11
-374.076120
21
128.617317
31
0.0
0
LINE
8
0
6
CONTINUOUS
10
-375.000000
20
129.000000
30
0.0
11
-374.729402
21
128.887915
31
0.0
0
LINE
8
0
6
CONTINUOUS
10
-374.000000
20
130.000000
30
0.0
11
-375.000000
21
129.000000
31
0.0
0
LINE
8
0
6
CONTINUOUS
10
-373.887915
20
129.729402
30
0.0
11
-374.729402
21
128.887915
31
0.0
0
LINE
8
0
6
CONTINUOUS
10
-374.076120
20
128.617317
30
0.0
11
-373.617317
21
129.076120
31
0.0
0
LINE
8
0
6
CONTINUOUS
10
-374.000000
20
130.000000
30
0.0
11
-373.887915
21
129.729402
31
0.0
0
LINE
8
0
6
CONTINUOUS
10
-364.000000
20
130.000000
30
0.0
11
-374.000000
21
130.000000
31
0.0
0
LINE
8
0
6
CONTINUOUS
10
-364.112085
20
129.729402
30
0.0
11
-373.887915
21
129.729402
31
0.0
0
LINE
8
0
6
CONTINUOUS
10
-373.617317
20
129.076120
30
0.0
11
-364.382683
21
129.076120
31
0.0
0
LINE
8
0
6
CONTINUOUS
10
-364.000000
20
130.000000
30
0.0
11
-364.112085
21
129.729402
31
0.0
0
LINE
8
0
6
CONTINUOUS
10
-363.000000
20
129.000000
30
0.0
11
-364.000000
21
130.000000
31
0.0
0
LINE
8
0
6
CONTINUOUS
10
-363.270598
20
128.887915
30
0.0
11
-364.112085
21
129.729402
31
0.0
0
LINE
8
0
6
CONTINUOUS
10
-364.382683
20
129.076120
30
0.0
11
-363.923880
21
128.617317
31
0.0
0
LINE
8
0
6
CONTINUOUS
10
-363.000000
20
129.000000
30
0.0
11
-363.270598
21
128.887915
31
0.0
0
LINE
8
0
6
CONTINUOUS
10
-363.000000
20
118.000000
30
0.0
11
-363.000000
21
129.000000
31
0.0
0
LINE
8
0
6
CONTINUOUS
10
-363.923880
20
128.617317
30
0.0
11
-363.991445
21
117.869474
31
0.0
0
LINE
8
0
6
CONTINUOUS
10
-363.290387
20
117.961770
30
0.0
11
-363.270598
21
128.887915
31
0.0
0
LINE
8
0
6
CONTINUOUS
10
-361.928203
20
114.000000
30
0.0
11
-363.000000
21
118.000000
31
0.0
0
LINE
8
0
6
CONTINUOUS
10
-362.184914
20
113.852731
30
0.0
11
-363.290387
21
117.961770
31
0.0
0
LINE
8
0
6
CONTINUOUS
10
-363.991445
20
117.869474
30
0.0
11
-362.795475
21
113.499661
31
0.0
0
LINE
8
0
6
CONTINUOUS
10
-359.000000
20
111.071797
30
0.0
11
-361.928203
21
114.000000
31
0.0
0
LINE
8
0
6
CONTINUOUS
10
-359.146447
20
110.818144
30
0.0
11
-362.184914
21
113.852731
31
0.0
0
LINE
8
0
6
CONTINUOUS
10
-362.795475
20
113.499661
30
0.0
11
-359.500000
21
110.205771
31
0.0
0
LINE
8
0
6
CONTINUOUS
10
-355.000000
20
110.000000
30
0.0
11
-359.000000
21
111.071797
31
0.0
0
LINE
8
0
6
CONTINUOUS
10
-355.037408
20
109.712670
30
0.0
11
-359.146447
21
110.818144
31
0.0
0
LINE
8
0
6
CONTINUOUS
10
-359.500000
20
110.205771
30
0.0
11
-355.129239
21
109.017019
31
0.0
0
LINE
8
0
6
CONTINUOUS
10
355.000000
20
110.000000
30
0.0
11
-355.000000
21
110.000000
31
0.0
0
LINE
8
0
6
CONTINUOUS
10
355.038230
20
109.709613
30
0.0
11
-355.037408
21
109.712670
31
0.0
0
LINE
8
0
6
CONTINUOUS
10
-355.129239
20
109.017019
30
0.0
11
355.130526
21
109.008555
31
0.0
0
LINE
8
0
6
CONTINUOUS
10
359.000000
20
111.071797
30
0.0
11
355.000000
21
110.000000
31
0.0
0
LINE
8
0
6
CONTINUOUS
10
359.147269
20
110.815086
30
0.0
11
355.038230
21
109.709613
31
0.0
0
LINE
8
0
6
CONTINUOUS
10
355.130526
20
109.008555
30
0.0
11
359.500339
21
110.204525
31
0.0
0
LINE
8
0
6
CONTINUOUS
10
361.928203
20
114.000000
30
0.0
11
359.000000
21
111.071797
31
0.0
0
LINE
8
0
6
CONTINUOUS
10
362.181856
20
113.853553
30
0.0
11
359.147269
21
110.815086
31
0.0
0
LINE
8
0
6
CONTINUOUS
10
359.500339
20
110.204525
30
0.0
11
362.794229
21
113.500000
31
0.0
0
LINE
8
0
6
CONTINUOUS
10
363.000000
20
118.000000
30
0.0
11
361.928203
21
114.000000
31
0.0
0
LINE
8
0
6
CONTINUOUS
10
363.287330
20
117.962592
30
0.0
11
362.181856
21
113.853553
31
0.0
0
LINE
8
0
6
CONTINUOUS
10
362.794229
20
113.500000
30
0.0
11
363.982981
21
117.870761
31
0.0
0
LINE
8
0
6
CONTINUOUS
10
363.000000
20
129.000000
30
0.0
11
363.000000
21
118.000000
31
0.0
0
LINE
8
0
6
CONTINUOUS
10
363.982981
20
117.870761
30
0.0
11
363.923880
21
128.617317
31
0.0
0
LINE
8
0
6
CONTINUOUS
10
363.270598
20
128.887915
30
0.0
11
363.287330
21
117.962592
31
0.0
0
LINE
8
0
6
CONTINUOUS
10
363.000000
20
129.000000
30
0.0
11
363.270598
21
128.887915
31
0.0
0
LINE
8
0
6
CONTINUOUS
10
364.000000
20
130.000000
30
0.0
11
363.000000
21
129.000000
31
0.0
0
LINE
8
0
6
CONTINUOUS
10
364.112085
20
129.729402
30
0.0
11
363.270598
21
128.887915
31
0.0
0
LINE
8
0
6
CONTINUOUS
10
363.923880
20
128.617317
30
0.0
11
364.382683
21
129.076120
31
0.0
0
LINE
8
0
6
CONTINUOUS
10
364.000000
20
130.000000
30
0.0
11
364.112085
21
129.729402
31
0.0
0
LINE
8
0
6
CONTINUOUS
10
374.000000
20
130.000000
30
0.0
11
364.000000
21
130.000000
31
0.0
0
LINE
8
0
6
CONTINUOUS
10
373.887915
20
129.729402
30
0.0
11
364.112085
21
129.729402
31
0.0
0
LINE
8
0
6
CONTINUOUS
10
364.382683
20
129.076120
30
0.0
11
373.617317
21
129.076120
31
0.0
0
LINE
8
0
6
CONTINUOUS
10
374.000000
20
130.000000
30
0.0
11
373.887915
21
129.729402
31
0.0
0
LINE
8
0
6
CONTINUOUS
10
375.000000
20
129.000000
30
0.0
11
374.000000
21
130.000000
31
0.0
0
LINE
8
0
6
CONTINUOUS
10
374.729402
20
128.887915
30
0.0
11
373.887915
21
129.729402
31
0.0
0
LINE
8
0
6
CONTINUOUS
10
373.617317
20
129.076120
30
0.0
11
374.076120
21
128.617317
31
0.0
0
LINE
8
0
6
CONTINUOUS
10
375.000000
20
129.000000
30
0.0
11
374.729402
21
128.887915
31
0.0
0
LINE
8
0
6
CONTINUOUS
10
375.000000
20
-129.000000
30
0.0
11
375.000000
21
129.000000
31
0.0
0
LINE
8
0
6
CONTINUOUS
10
374.729402
20
-128.887915
30
0.0
11
374.729402
21
128.887915
31
0.0
0
LINE
8
0
6
CONTINUOUS
10
374.076120
20
128.617317
30
0.0
11
374.076120
21
-128.617317
31
0.0
0
LINE
8
0
6
CONTINUOUS
10
375.000000
20
-129.000000
30
0.0
11
374.729402
21
-128.887915
31
0.0
0
LINE
8
0
6
CONTINUOUS
10
374.000000
20
-130.000000
30
0.0
11
375.000000
21
-129.000000
31
0.0
0
LINE
8
0
6
CONTINUOUS
10
373.887915
20
-129.729402
30
0.0
11
374.729402
21
-128.887915
31
0.0
0
LINE
8
0
6
CONTINUOUS
10
374.076120
20
-128.617317
30
0.0
11
373.617317
21
-129.076120
31
0.0
0
LINE
8
0
6
CONTINUOUS
10
374.000000
20
-130.000000
30
0.0
11
373.887915
21
-129.729402
31
0.0
0
LINE
8
0
6
CONTINUOUS
10
364.000000
20
-130.000000
30
0.0
11
374.000000
21
-130.000000
31
0.0
0
LINE
8
0
6
CONTINUOUS
10
364.112085
20
-129.729402
30
0.0
11
373.887915
21
-129.729402
31
0.0
0
LINE
8
0
6
CONTINUOUS
10
373.617317
20
-129.076120
30
0.0
11
364.382683
21
-129.076120
31
0.0
0
LINE
8
0
6
CONTINUOUS
10
364.000000
20
-130.000000
30
0.0
11
364.112085
21
-129.729402
31
0.0
0
LINE
8
0
6
CONTINUOUS
10
363.000000
20
-129.000000
30
0.0
11
364.000000
21
-130.000000
31
0.0
0
LINE
8
0
6
CONTINUOUS
10
363.270598
20
-128.887915
30
0.0
11
364.112085
21
-129.729402
31
0.0
0
LINE
8
0
6
CONTINUOUS
10
364.382683
20
-129.076120
30
0.0
11
363.923880
21
-128.617317
31
0.0
0
LINE
8
0
6
CONTINUOUS
10
363.000000
20
-129.000000
30
0.0
11
363.270598
21
-128.887915
31
0.0
0
LINE
8
0
6
CONTINUOUS
10
363.000000
20
90.000000
30
0.0
11
363.000000
21
-129.000000
31
0.0
0
LINE
8
0
6
CONTINUOUS
10
363.290387
20
90.038230
30
0.0
11
363.270598
21
-128.887915
31
0.0
0
LINE
8
0
6
CONTINUOUS
10
361.928203
20
94.000000
30
0.0
11
363.000000
21
90.000000
31
0.0
0
LINE
8
0
6
CONTINUOUS
10
362.184914
20
94.147269
30
0.0
11
363.290387
21
90.038230
31
0.0
0
LINE
8
0
6
CONTINUOUS
10
363.991445
20
90.130526
30
0.0
11
362.795475
21
94.500339
31
0.0
0
LINE
8
0
6
CONTINUOUS
10
359.000000
20
96.928203
30
0.0
11
361.928203
21
94.000000
31
0.0
0
LINE
8
0
6
CONTINUOUS
10
359.146447
20
97.181856
30
0.0
11
362.184914
21
94.147269
31
0.0
0
LINE
8
0
6
CONTINUOUS
10
362.795475
20
94.500339
30
0.0
11
359.500000
21
97.794229
31
0.0
0
LINE
8
0
6
CONTINUOUS
10
355.000000
20
98.000000
30
0.0
11
359.000000
21
96.928203
31
0.0
0
LINE
8
0
6
CONTINUOUS
10
355.037408
20
98.287330
30
0.0
11
359.146447
21
97.181856
31
0.0
0
LINE
8
0
6
CONTINUOUS
10
359.500000
20
97.794229
30
0.0
11
355.129239
21
98.982981
31
0.0
0
LINE
8
0
6
CONTINUOUS
10
137.000000
20
98.000000
30
0.0
11
355.000000
21
98.000000
31
0.0
0
LINE
8
0
6
CONTINUOUS
10
136.961770
20
98.290387
30
0.0
11
355.037408
21
98.287330
31
0.0
0
LINE
8
0
6
CONTINUOUS
10
355.129239
20
98.982981
30
0.0
11
136.869474
21
98.991445
31
0.0
0
LINE
8
0
6
CONTINUOUS
10
133.000000
20
96.928203
30
0.0
11
137.000000
21
98.000000
31
0.0
0
LINE
8
0
6
CONTINUOUS
10
132.852731
20
97.184914
30
0.0
11
136.961770
21
98.290387
31
0.0
0
LINE
8
0
6
CONTINUOUS
10
136.869474
20
98.991445
30
0.0
11
132.499661
21
97.795475
31
0.0
0
LINE
8
0
6
CONTINUOUS
10
130.071797
20
94.000000
30
0.0
11
133.000000
21
96.928203
31
0.0
0
LINE
8
0
6
CONTINUOUS
10
129.818144
20
94.146447
30
0.0
11
132.852731
21
97.184914
31
0.0
0
LINE
8
0
6
CONTINUOUS
10
132.499661
20
97.795475
30
0.0
11
129.205771
21
94.500000
31
0.0
0
LINE
8
0
6
CONTINUOUS
10
129.000000
20
90.000000
30
0.0
11
130.071797
21
94.000000
31
0.0
0
LINE
8
0
6
CONTINUOUS
10
128.712670
20
90.037408
30
0.0
11
129.818144
21
94.146447
31
0.0
0
LINE
8
0
6
CONTINUOUS
10
129.205771
20
94.500000
30
0.0
11
128.017019
21
90.129239
31
0.0
0
LINE
8
0
6
CONTINUOUS
10
129.000000
20
-117.000000
30
0.0
11
129.000000
21
90.000000
31
0.0
0
LINE
8
0
6
CONTINUOUS
10
128.017019
20
90.129239
30
0.0
11
128.076120
21
-116.617317
31
0.0
0
LINE
8
0
6
CONTINUOUS
10
128.729402
20
-116.887915
30
0.0
11
128.712670
21
90.037408
31
0.0
0
LINE
8
0
6
CONTINUOUS
10
129.000000
20
-117.000000
30
0.0
11
128.729402
21
-116.887915
31
0.0
0
LINE
8
0
6
CONTINUOUS
10
128.000000
20
-118.000000
30
0.0
11
129.000000
21
-117.000000
31
0.0
0
LINE
8
0
6
CONTINUOUS
10
127.887915
20
-117.729402
30
0.0
11
128.729402
21
-116.887915
31
0.0
0
LINE
8
0
6
CONTINUOUS
10
128.076120
20
-116.617317
30
0.0
11
127.617317
21
-117.076120
31
0.0
0
LINE
8
0
6
CONTINUOUS
10
128.000000
20
-118.000000
30
0.0
11
127.887915
21
-117.729402
31
0.0
0
LINE
8
0
6
CONTINUOUS
10
118.000000
20
-118.000000
30
0.0
11
128.000000
21
-118.000000
31
0.0
0
LINE
8
0
6
CONTINUOUS
10
118.112085
20
-117.729402
30
0.0
11
127.887915
21
-117.729402
31
0.0
0
LINE
8
0
6
CONTINUOUS
10
127.617317
20
-117.076120
30
0.0
11
118.382683
21
-117.076120
31
0.0
0
LINE
8
0
6
CONTINUOUS
10
118.000000
20
-118.000000
30
0.0
11
118.112085
21
-117.729402
31
0.0
0
LINE
8
0
6
CONTINUOUS
10
117.000000
20
-117.000000
30
0.0
11
118.000000
21
-118.000000
31
0.0
0
LINE
8
0
6
CONTINUOUS
10
117.270598
20
-116.887915
30
0.0
11
118.112085
21
-117.729402
31
0.0
0
LINE
8
0
6
CONTINUOUS
10
118.382683
20
-117.076120
30
0.0
11
117.923880
21
-116.617317
31
0.0
0
LINE
8
0
6
CONTINUOUS
10
117.000000
20
-117.000000
30
0.0
11
117.270598
21
-116.887915
31
0.0
0
LINE
8
0
6
CONTINUOUS
10
117.000000
20
90.000000
30
0.0
11
117.000000
21
-117.000000
31
0.0
0
LINE
8
0
6
CONTINUOUS
10
117.923880
20
-116.617317
30
0.0
11
117.991445
21
90.130526
31
0.0
0
LINE
8
0
6
CONTINUOUS
10
117.290387
20
90.038230
30
0.0
11
117.270598
21
-116.887915
31
0.0
0
LINE
8
0
6
CONTINUOUS
10
115.928203
20
94.000000
30
0.0
11
117.000000
21
90.000000
31
0.0
0
LINE
8
0
6
CONTINUOUS
10
116.184914
20
94.147269
30
0.0
11
117.290387
21
90.038230
31
0.0
0
LINE
8
0
6
CONTINUOUS
10
117.991445
20
90.130526
30
0.0
11
116.795475
21
94.500339
31
0.0
0
LINE
8
0
6
CONTINUOUS
10
113.000000
20
96.928203
30
0.0
11
115.928203
21
94.000000
31
0.0
0
LINE
8
0
6
CONTINUOUS
10
113.146448
20
97.181855
30
0.0
11
116.184914
21
94.147269
31
0.0
0
LINE
8
0
6
CONTINUOUS
10
116.795475
20
94.500339
30
0.0
11
113.500005
21
97.794225
31
0.0
0
LINE
8
0
6
CONTINUOUS
10
109.000000
20
98.000057
30
0.0
11
113.000000
21
96.928203
31
0.0
0
LINE
8
0
6
CONTINUOUS
10
109.037410
20
98.287387
30
0.0
11
113.146448
21
97.181855
31
0.0
0
LINE
8
0
6
CONTINUOUS
10
113.500005
20
97.794225
30
0.0
11
109.129245
21
98.983037
31
0.0
0
LINE
8
0
6
CONTINUOUS
10
-354.999998
20
98.000000
30
0.0
11
109.000000
21
98.000057
31
0.0
0
LINE
8
0
6
CONTINUOUS
10
-355.038230
20
98.290388
30
0.0
11
109.037410
21
98.287387
31
0.0
0
LINE
8
0
6
CONTINUOUS
10
109.129245
20
98.983037
30
0.0
11
-355.130526
21
98.991445
31
0.0
0
LINE
8
0
6
CONTINUOUS
10
-359.000000
20
96.928203
30
0.0
11
-354.999998
21
98.000000
31
0.0
0
LINE
8
0
6
CONTINUOUS
10
-359.147269
20
97.184914
30
0.0
11
-355.038230
21
98.290388
31
0.0
0
LINE
8
0
6
CONTINUOUS
10
-355.130526
20
98.991445
30
0.0
11
-359.500339
21
97.795475
31
0.0
0
LINE
8
0
6
CONTINUOUS
10
-361.928203
20
94.000000
30
0.0
11
-359.000000
21
96.928203
31
0.0
0
LINE
8
0
6
CONTINUOUS
10
-362.181856
20
94.146447
30
0.0
11
-359.147269
21
97.184914
31
0.0
0
LINE
8
0
6
CONTINUOUS
10
-359.500339
20
97.795475
30
0.0
11
-362.794229
21
94.500000
31
0.0
0
LINE
8
0
6
CONTINUOUS
10
-363.000000
20
90.000000
30
0.0
11
-361.928203
21
94.000000
31
0.0
0
LINE
8
0
6
CONTINUOUS
10
-363.287330
20
90.037408
30
0.0
11
-362.181856
21
94.146447
31
0.0
0
LINE
8
0
6
CONTINUOUS
10
-362.794229
20
94.500000
30
0.0
11
-363.982981
21
90.129239
31
0.0
0
LINE
8
0
6
CONTINUOUS
10
-363.000000
20
-129.000000
30
0.0
11
-363.000000
21
90.000000
31
0.0
0
LINE
8
0
6
CONTINUOUS
10
-363.982981
20
90.129239
30
0.0
11
-363.923865
21
-128.612280
31
0.0
0
LINE
8
0
6
CONTINUOUS
10
-363.270598
20
-128.887915
30
0.0
11
-363.287330
21
90.037408
31
0.0
0
LINE
8
0
6
CONTINUOUS
10
-363.000000
20
-129.000000
30
0.0
11
-363.270598
21
-128.887915
31
0.0
0
LINE
8
0
6
CONTINUOUS
10
-364.000000
20
-130.000000
30
0.0
11
-363.000000
21
-129.000000
31
0.0
0
LINE
8
0
6
CONTINUOUS
10
-364.112085
20
-129.729402
30
0.0
11
-363.270598
21
-128.887915
31
0.0
0
LINE
8
0
6
CONTINUOUS
10
-363.923865
20
-128.612280
30
0.0
11
-364.382683
21
-129.076120
31
0.0
0
LINE
8
0
6
CONTINUOUS
10
-364.000000
20
-130.000000
30
0.0
11
-364.112085
21
-129.729402
31
0.0
0
LINE
8
0
6
CONTINUOUS
10
-374.000000
20
-130.000000
30
0.0
11
-364.000000
21
-130.000000
31
0.0
0
LINE
8
0
6
CONTINUOUS
10
-373.887915
20
-129.729402
30
0.0
11
-364.112085
21
-129.729402
31
0.0
0
LINE
8
0
6
CONTINUOUS
10
-364.382683
20
-129.076120
30
0.0
11
-373.617317
21
-129.076120
31
0.0
0
LINE
8
0
6
CONTINUOUS
10
-374.000000
20
-130.000000
30
0.0
11
-373.887915
21
-129.729402
31
0.0
0
LINE
8
0
6
CONTINUOUS
10
-375.000000
20
-129.000000
30
0.0
11
-374.000000
21
-130.000000
31
0.0
0
LINE
8
0
6
CONTINUOUS
10
-374.729402
20
-128.887915
30
0.0
11
-375.000000
21
-129.000000
31
0.0
0
LINE
8
0
6
CONTINUOUS
10
-374.729402
20
-128.887915
30
0.0
11
-373.887915
21
-129.729402
31
0.0
0
LINE
8
0
6
CONTINUOUS
10
-373.617317
20
-129.076120
30
0.0
11
-374.076120
21
-128.617317
31
0.0
0
LINE
8
0
6
CONTINUOUS
10
363.923880
20
-128.617317
30
0.0
11
363.991445
21
90.130526
31
0.0
0
LINE
8
0
6
CONTINUOUS
10
362.000000
20
-117.000022
30
0.0
11
362.706847
21
-117.271344
31
0.0
0
LINE
8
0
6
CONTINUOUS
10
362.706847
20
-117.271344
30
0.0
11
363.000000
21
-117.925974
31
0.0
0
LINE
8
0
6
CONTINUOUS
10
362.000000
20
-116.999995
30
0.0
11
362.707159
21
-117.270806
31
0.0
0
LINE
8
0
6
CONTINUOUS
10
362.707107
20
-116.112086
30
0.0
11
362.707159
21
-117.270806
31
0.0
0
LINE
8
0
6
CONTINUOUS
10
363.000000
20
-117.923991
30
0.0
11
363.000000
21
-116.382685
31
0.0
0
LINE
8
0
6
CONTINUOUS
10
362.000000
20
-116.000000
30
0.0
11
362.707107
21
-116.112086
31
0.0
0
LINE
8
0
6
CONTINUOUS
10
362.008555
20
89.869474
30
0.0
11
362.000000
21
-116.000000
31
0.0
0
LINE
8
0
6
CONTINUOUS
10
362.709613
20
89.961770
30
0.0
11
362.707107
21
-116.112086
31
0.0
0
LINE
8
0
6
CONTINUOUS
10
363.000000
20
-116.382685
30
0.0
11
363.000000
21
90.000000
31
0.0
0
LINE
8
0
6
CONTINUOUS
10
361.062178
20
93.500000
30
0.0
11
362.008555
21
89.869474
31
0.0
0
LINE
8
0
6
CONTINUOUS
10
361.674550
20
93.853553
30
0.0
11
362.709613
21
89.961770
31
0.0
0
LINE
8
0
6
CONTINUOUS
10
363.000000
20
90.000000
30
0.0
11
361.927964
21
93.999936
31
0.0
0
LINE
8
0
6
CONTINUOUS
10
358.500000
20
96.062178
30
0.0
11
361.062178
21
93.500000
31
0.0
0
LINE
8
0
6
CONTINUOUS
10
358.853553
20
96.674550
30
0.0
11
361.674550
21
93.853553
31
0.0
0
LINE
8
0
6
CONTINUOUS
10
361.927964
20
93.999936
30
0.0
11
359.000000
21
96.928203
31
0.0
0
LINE
8
0
6
CONTINUOUS
10
354.869474
20
97.008555
30
0.0
11
358.500000
21
96.062178
31
0.0
0
LINE
8
0
6
CONTINUOUS
10
354.961770
20
97.709613
30
0.0
11
358.853553
21
96.674550
31
0.0
0
LINE
8
0
6
CONTINUOUS
10
359.000000
20
96.928203
30
0.0
11
355.000000
21
98.000000
31
0.0
0
LINE
8
0
6
CONTINUOUS
10
137.130526
20
97.008555
30
0.0
11
354.869474
21
97.008555
31
0.0
0
LINE
8
0
6
CONTINUOUS
10
137.038230
20
97.709613
30
0.0
11
354.961770
21
97.709613
31
0.0
0
LINE
8
0
6
CONTINUOUS
10
355.000000
20
98.000000
30
0.0
11
137.000000
21
98.000000
31
0.0
0
LINE
8
0
6
CONTINUOUS
10
133.500000
20
96.062178
30
0.0
11
137.130526
21
97.008555
31
0.0
0
LINE
8
0
6
CONTINUOUS
10
133.146447
20
96.674550
30
0.0
11
137.038230
21
97.709613
31
0.0
0
LINE
8
0
6
CONTINUOUS
10
137.000000
20
98.000000
30
0.0
11
132.999935
21
96.928444
31
0.0
0
LINE
8
0
6
CONTINUOUS
10
130.937822
20
93.500000
30
0.0
11
133.500000
21
96.062178
31
0.0
0
LINE
8
0
6
CONTINUOUS
10
130.325450
20
93.853553
30
0.0
11
133.146447
21
96.674550
31
0.0
0
LINE
8
0
6
CONTINUOUS
10
132.999935
20
96.928444
30
0.0
11
130.071797
21
94.000000
31
0.0
0
LINE
8
0
6
CONTINUOUS
10
129.991445
20
89.869474
30
0.0
11
130.937822
21
93.500000
31
0.0
0
LINE
8
0
6
CONTINUOUS
10
129.290387
20
89.961770
30
0.0
11
130.325450
21
93.853553
31
0.0
0
LINE
8
0
6
CONTINUOUS
10
130.071797
20
94.000000
30
0.0
11
129.000000
21
90.000000
31
0.0
0
LINE
8
0
6
CONTINUOUS
10
130.000000
20
-115.999989
30
0.0
11
129.991445
21
89.869474
31
0.0
0
LINE
8
0
6
CONTINUOUS
10
130.000000
20
-115.999989
30
0.0
11
129.290387
21
89.961770
31
0.0
0
LINE
8
0
6
CONTINUOUS
10
129.292893
20
-116.207094
30
0.0
11
129.290387
21
89.961770
31
0.0
0
LINE
8
0
6
CONTINUOUS
10
129.000000
20
90.000000
30
0.0
11
128.999995
21
-116.707090
31
0.0
0
LINE
8
0
6
CONTINUOUS
10
129.292893
20
-116.207094
30
0.0
11
129.000000
21
90.000000
31
0.0
0
LINE
8
0
6
CONTINUOUS
10
129.292893
20
-116.207094
30
0.0
11
128.999995
21
-116.707090
31
0.0
0
LINE
8
0
6
CONTINUOUS
10
130.000000
20
-115.999989
30
0.0
11
129.292893
21
-116.207094
31
0.0
0
LINE
8
0
6
CONTINUOUS
10
362.000000
20
-116.000000
30
0.0
11
130.000000
21
-115.999989
31
0.0
0
LINE
8
0
6
CONTINUOUS
10
128.999995
20
-116.999976
30
0.0
11
362.000000
21
-116.999995
31
0.0
0
LINE
8
0
6
CONTINUOUS
10
128.999995
20
-116.707090
30
0.0
11
128.999995
21
-116.999976
31
0.0
0
LINE
8
0
6
CONTINUOUS
10
362.000000
20
-117.000012
30
0.0
11
362.706847
21
-117.271344
31
0.0
0
LINE
8
0
6
CONTINUOUS
10
362.706847
20
-117.271344
30
0.0
11
363.000000
21
-117.925974
31
0.0
0
LINE
8
0
6
CONTINUOUS
10
362.000000
20
-116.999992
30
0.0
11
362.707159
21
-117.270807
31
0.0
0
LINE
8
0
6
CONTINUOUS
10
362.707107
20
-116.112086
30
0.0
11
362.707159
21
-117.270807
31
0.0
0
LINE
8
0
6
CONTINUOUS
10
363.000000
20
-117.923991
30
0.0
11
363.000000
21
-116.382685
31
0.0
0
LINE
8
0
6
CONTINUOUS
10
362.000000
20
-116.000000
30
0.0
11
362.707107
21
-116.112086
31
0.0
0
LINE
8
0
6
CONTINUOUS
10
362.008555
20
89.869474
30
0.0
11
362.000000
21
-116.000000
31
0.0
0
LINE
8
0
6
CONTINUOUS
10
362.709613
20
89.961770
30
0.0
11
362.707107
21
-116.112086
31
0.0
0
LINE
8
0
6
CONTINUOUS
10
363.000000
20
-116.382685
30
0.0
11
363.000000
21
90.000000
31
0.0
0
LINE
8
0
6
CONTINUOUS
10
361.062178
20
93.500000
30
0.0
11
362.008555
21
89.869474
31
0.0
0
LINE
8
0
6
CONTINUOUS
10
361.674550
20
93.853553
30
0.0
11
362.709613
21
89.961770
31
0.0
0
LINE
8
0
6
CONTINUOUS
10
363.000000
20
90.000000
30
0.0
11
361.928203
21
94.000000
31
0.0
0
LINE
8
0
6
CONTINUOUS
10
358.500000
20
96.062178
30
0.0
11
361.062178
21
93.500000
31
0.0
0
LINE
8
0
6
CONTINUOUS
10
358.853553
20
96.674550
30
0.0
11
361.674550
21
93.853553
31
0.0
0
LINE
8
0
6
CONTINUOUS
10
361.928203
20
94.000000
30
0.0
11
359.000000
21
96.928203
31
0.0
0
LINE
8
0
6
CONTINUOUS
10
354.869474
20
97.008555
30
0.0
11
358.500000
21
96.062178
31
0.0
0
LINE
8
0
6
CONTINUOUS
10
354.961770
20
97.709613
30
0.0
11
358.853553
21
96.674550
31
0.0
0
LINE
8
0
6
CONTINUOUS
10
359.000000
20
96.928203
30
0.0
11
355.000000
21
98.000000
31
0.0
0
LINE
8
0
6
CONTINUOUS
10
137.130526
20
97.008555
30
0.0
11
354.869474
21
97.008555
31
0.0
0
LINE
8
0
6
CONTINUOUS
10
137.038230
20
97.709613
30
0.0
11
354.961770
21
97.709613
31
0.0
0
LINE
8
0
6
CONTINUOUS
10
355.000000
20
98.000000
30
0.0
11
137.000000
21
98.000000
31
0.0
0
LINE
8
0
6
CONTINUOUS
10
133.500000
20
96.062178
30
0.0
11
137.130526
21
97.008555
31
0.0
0
LINE
8
0
6
CONTINUOUS
10
133.146447
20
96.674550
30
0.0
11
137.038230
21
97.709613
31
0.0
0
LINE
8
0
6
CONTINUOUS
10
137.000000
20
98.000000
30
0.0
11
133.000000
21
96.928203
31
0.0
0
LINE
8
0
6
CONTINUOUS
10
130.937822
20
93.500000
30
0.0
11
133.500000
21
96.062178
31
0.0
0
LINE
8
0
6
CONTINUOUS
10
130.325450
20
93.853553
30
0.0
11
133.146447
21
96.674550
31
0.0
0
LINE
8
0
6
CONTINUOUS
10
133.000000
20
96.928203
30
0.0
11
130.071797
21
94.000000
31
0.0
0
LINE
8
0
6
CONTINUOUS
10
129.991445
20
89.869474
30
0.0
11
130.937822
21
93.500000
31
0.0
0
LINE
8
0
6
CONTINUOUS
10
129.290387
20
89.961770
30
0.0
11
130.325450
21
93.853553
31
0.0
0
LINE
8
0
6
CONTINUOUS
10
130.071797
20
94.000000
30
0.0
11
129.000000
21
90.000000
31
0.0
0
LINE
8
0
6
CONTINUOUS
10
130.000000
20
-115.999989
30
0.0
11
129.991445
21
89.869474
31
0.0
0
LINE
8
0
6
CONTINUOUS
10
130.000000
20
-115.999989
30
0.0
11
129.290387
21
89.961770
31
0.0
0
LINE
8
0
6
CONTINUOUS
10
129.292896
20
-116.207095
30
0.0
11
129.290387
21
89.961770
31
0.0
0
LINE
8
0
6
CONTINUOUS
10
129.000000
20
90.000000
30
0.0
11
129.000008
21
-116.707094
31
0.0
0
LINE
8
0
6
CONTINUOUS
10
129.292896
20
-116.207095
30
0.0
11
129.000000
21
90.000000
31
0.0
0
LINE
8
0
6
CONTINUOUS
10
129.292896
20
-116.207095
30
0.0
11
129.000008
21
-116.707094
31
0.0
0
LINE
8
0
6
CONTINUOUS
10
130.000000
20
-115.999989
30
0.0
11
129.292896
21
-116.207095
31
0.0
0
LINE
8
0
6
CONTINUOUS
10
362.000000
20
-116.000000
30
0.0
11
130.000000
21
-115.999989
31
0.0
0
LINE
8
0
6
CONTINUOUS
10
129.000008
20
-116.999978
30
0.0
11
362.000000
21
-116.999992
31
0.0
0
LINE
8
0
6
CONTINUOUS
10
129.000008
20
-116.707094
30
0.0
11
129.000008
21
-116.999978
31
0.0
0
LINE
8
0
6
CONTINUOUS
10
-363.000000
20
-117.925874
30
0.0
11
-362.706908
21
-117.271126
31
0.0
0
LINE
8
0
6
CONTINUOUS
10
-363.000000
20
-116.397935
30
0.0
11
-363.000000
21
-117.925874
31
0.0
0
LINE
8
0
6
CONTINUOUS
10
-362.706908
20
-117.271126
30
0.0
11
-361.999900
21
-117.000180
31
0.0
0
LINE
8
0
6
CONTINUOUS
10
-362.707107
20
-116.116680
30
0.0
11
-362.706908
21
-117.271126
31
0.0
0
LINE
8
0
6
CONTINUOUS
10
-363.000000
20
90.000000
30
0.0
11
-363.000000
21
-116.397935
31
0.0
0
LINE
8
0
6
CONTINUOUS
10
-362.707107
20
-116.116680
30
0.0
11
-362.000000
21
-116.000180
31
0.0
0
LINE
8
0
6
CONTINUOUS
10
-362.709782
20
89.961810
30
0.0
11
-362.707107
21
-116.116680
31
0.0
0
LINE
8
0
6
CONTINUOUS
10
-362.000000
20
-116.000180
30
0.0
11
-362.008551
21
89.869534
31
0.0
0
LINE
8
0
6
CONTINUOUS
10
-361.928203
20
94.000000
30
0.0
11
-363.000000
21
90.000000
31
0.0
0
LINE
8
0
6
CONTINUOUS
10
-361.675107
20
93.853940
30
0.0
11
-362.709782
21
89.961810
31
0.0
0
LINE
8
0
6
CONTINUOUS
10
-362.008551
20
89.869534
30
0.0
11
-361.062133
21
93.500196
31
0.0
0
LINE
8
0
6
CONTINUOUS
10
-359.000000
20
96.928203
30
0.0
11
-361.928203
21
94.000000
31
0.0
0
LINE
8
0
6
CONTINUOUS
10
-358.854099
20
96.675607
30
0.0
11
-361.675107
21
93.853940
31
0.0
0
LINE
8
0
6
CONTINUOUS
10
-361.062133
20
93.500196
30
0.0
11
-358.499923
21
96.062429
31
0.0
0
LINE
8
0
6
CONTINUOUS
10
-354.999789
20
98.000000
30
0.0
11
-359.000000
21
96.928203
31
0.0
0
LINE
8
0
6
CONTINUOUS
10
-354.961718
20
97.711027
30
0.0
11
-358.854099
21
96.675607
31
0.0
0
LINE
8
0
6
CONTINUOUS
10
-358.499923
20
96.062429
30
0.0
11
-354.869231
21
97.008852
31
0.0
0
LINE
8
0
6
CONTINUOUS
10
109.000007
20
98.000027
30
0.0
11
-354.999789
21
98.000000
31
0.0
0
LINE
8
0
6
CONTINUOUS
10
108.961931
20
97.710971
30
0.0
11
-354.961718
21
97.711027
31
0.0
0
LINE
8
0
6
CONTINUOUS
10
-354.869231
20
97.008852
30
0.0
11
108.869444
21
97.008795
31
0.0
0
LINE
8
0
6
CONTINUOUS
10
113.000000
20
96.928203
30
0.0
11
109.000007
21
98.000027
31
0.0
0
LINE
8
0
6
CONTINUOUS
10
112.854099
20
96.675607
30
0.0
11
108.961931
21
97.710971
31
0.0
0
LINE
8
0
6
CONTINUOUS
10
108.869444
20
97.008795
30
0.0
11
112.499923
21
96.062429
31
0.0
0
LINE
8
0
6
CONTINUOUS
10
115.928203
20
94.000000
30
0.0
11
113.000000
21
96.928203
31
0.0
0
LINE
8
0
6
CONTINUOUS
10
115.675309
20
93.854144
30
0.0
11
112.854099
21
96.675607
31
0.0
0
LINE
8
0
6
CONTINUOUS
10
112.499923
20
96.062429
30
0.0
11
115.062133
21
93.500196
31
0.0
0
LINE
8
0
6
CONTINUOUS
10
117.000000
20
90.000000
30
0.0
11
115.928203
21
94.000000
31
0.0
0
LINE
8
0
6
CONTINUOUS
10
116.709782
20
89.961810
30
0.0
11
115.675309
21
93.854144
31
0.0
0
LINE
8
0
6
CONTINUOUS
10
115.062133
20
93.500196
30
0.0
11
116.008551
21
89.869534
31
0.0
0
LINE
8
0
6
CONTINUOUS
10
117.000000
20
-116.699589
30
0.0
11
117.000000
21
90.000000
31
0.0
0
LINE
8
0
6
CONTINUOUS
10
117.000000
20
-116.699589
30
0.0
11
116.709782
21
89.961810
31
0.0
0
LINE
8
0
6
CONTINUOUS
10
116.707107
20
-116.205073
30
0.0
11
116.709782
21
89.961810
31
0.0
0
LINE
8
0
6
CONTINUOUS
10
116.008551
20
89.869534
30
0.0
11
116.000000
21
-116.000238
31
0.0
0
LINE
8
0
6
CONTINUOUS
10
116.707107
20
-116.205073
30
0.0
11
116.008551
21
89.869534
31
0.0
0
LINE
8
0
6
CONTINUOUS
10
116.000000
20
-116.000238
30
0.0
11
-362.000000
21
-116.000180
31
0.0
0
LINE
8
0
6
CONTINUOUS
10
116.707107
20
-116.205073
30
0.0
11
116.000000
21
-116.000238
31
0.0
0
LINE
8
0
6
CONTINUOUS
10
117.000000
20
-116.699589
30
0.0
11
116.707107
21
-116.205073
31
0.0
0
LINE
8
0
6
CONTINUOUS
10
116.999999
20
-116.999999
30
0.0
11
117.000000
21
-116.699589
31
0.0
0
LINE
8
0
6
CONTINUOUS
10
-361.999900
20
-117.000180
30
0.0
11
116.999999
21
-116.999999
31
0.0
0
LINE
8
0
6
CONTINUOUS
10
130.071797
20
94.000000
30
0.0
11
132.999998
21
96.928205
31
0.0
0
LINE
8
0
6
CONTINUOUS
10
132.999798
20
96.928408
30
0.0
11
130.071797
21
94.000000
31
0.0
0
LINE
8
0
6
CONTINUOUS
10
132.999998
20
96.928205
30
0.0
11
137.000000
21
98.000000
31
0.0
0
LINE
8
0
6
CONTINUOUS
10
137.000000
20
98.000000
30
0.0
11
132.999798
21
96.928408
31
0.0
0
LINE
8
0
6
CONTINUOUS
10
133.500000
20
96.062178
30
0.0
11
130.937822
21
93.500000
31
0.0
0
LINE
8
0
6
CONTINUOUS
10
137.130526
20
97.008555
30
0.0
11
133.500000
21
96.062178
31
0.0
0
LINE
8
0
6
CONTINUOUS
10
354.869474
20
97.008555
30
0.0
11
137.130526
21
97.008555
31
0.0
0
LINE
8
0
6
CONTINUOUS
10
358.500000
20
96.062178
30
0.0
11
354.869474
21
97.008555
31
0.0
0
LINE
8
0
6
CONTINUOUS
10
361.062178
20
93.500000
30
0.0
11
358.500000
21
96.062178
31
0.0
0
LINE
8
0
6
CONTINUOUS
10
362.008555
20
89.869474
30
0.0
11
361.062178
21
93.500000
31
0.0
0
LINE
8
0
6
CONTINUOUS
10
362.000000
20
-116.000000
30
0.0
11
362.008555
21
89.869474
31
0.0
0
LINE
8
0
6
CONTINUOUS
10
130.000000
20
-115.999989
30
0.0
11
362.000000
21
-116.000000
31
0.0
0
LINE
8
0
6
CONTINUOUS
10
129.991445
20
89.869474
30
0.0
11
130.000000
21
-115.999989
31
0.0
0
LINE
8
0
6
CONTINUOUS
10
130.937822
20
93.500000
30
0.0
11
129.991445
21
89.869474
31
0.0
0
LINE
8
0
6
CONTINUOUS
10
133.500000
20
96.062178
30
0.0
11
130.937822
21
93.500000
31
0.0
0
LINE
8
0
6
CONTINUOUS
10
137.130526
20
97.008555
30
0.0
11
133.500000
21
96.062178
31
0.0
0
LINE
8
0
6
CONTINUOUS
10
354.869474
20
97.008555
30
0.0
11
137.130526
21
97.008555
31
0.0
0
LINE
8
0
6
CONTINUOUS
10
358.500000
20
96.062178
30
0.0
11
354.869474
21
97.008555
31
0.0
0
LINE
8
0
6
CONTINUOUS
10
361.062178
20
93.500000
30
0.0
11
358.500000
21
96.062178
31
0.0
0
LINE
8
0
6
CONTINUOUS
10
362.008555
20
89.869474
30
0.0
11
361.062178
21
93.500000
31
0.0
0
LINE
8
0
6
CONTINUOUS
10
362.000000
20
-116.000000
30
0.0
11
362.008555
21
89.869474
31
0.0
0
LINE
8
0
6
CONTINUOUS
10
130.000000
20
-115.999989
30
0.0
11
362.000000
21
-116.000000
31
0.0
0
LINE
8
0
6
CONTINUOUS
10
129.991445
20
89.869474
30
0.0
11
130.000000
21
-115.999989
31
0.0
0
LINE
8
0
6
CONTINUOUS
10
130.937822
20
93.500000
30
0.0
11
129.991445
21
89.869474
31
0.0
0
LINE
8
0
6
CONTINUOUS
10
133.500077
20
96.062429
30
0.0
11
130.937867
21
93.500196
31
0.0
0
LINE
8
0
6
CONTINUOUS
10
137.130556
20
97.008795
30
0.0
11
133.500077
21
96.062429
31
0.0
0
LINE
8
0
6
CONTINUOUS
10
354.869444
20
97.008795
30
0.0
11
137.130556
21
97.008795
31
0.0
0
LINE
8
0
6
CONTINUOUS
10
358.499923
20
96.062429
30
0.0
11
354.869444
21
97.008795
31
0.0
0
LINE
8
0
6
CONTINUOUS
10
361.062133
20
93.500196
30
0.0
11
358.499923
21
96.062429
31
0.0
0
LINE
8
0
6
CONTINUOUS
10
362.008551
20
89.869534
30
0.0
11
361.062133
21
93.500196
31
0.0
0
LINE
8
0
6
CONTINUOUS
10
362.000000
20
-116.000238
30
0.0
11
362.008551
21
89.869534
31
0.0
0
LINE
8
0
6
CONTINUOUS
10
130.000000
20
-116.000238
30
0.0
11
362.000000
21
-116.000238
31
0.0
0
LINE
8
0
6
CONTINUOUS
10
129.991449
20
89.869534
30
0.0
11
130.000000
21
-116.000238
31
0.0
0
LINE
8
0
6
CONTINUOUS
10
130.937867
20
93.500196
30
0.0
11
129.991449
21
89.869534
31
0.0
0
LINE
8
0
6
CONTINUOUS
10
-358.499923
20
96.062429
30
0.0
11
-361.062133
21
93.500196
31
0.0
0
LINE
8
0
6
CONTINUOUS
10
-354.869231
20
97.008852
30
0.0
11
-358.499923
21
96.062429
31
0.0
0
LINE
8
0
6
CONTINUOUS
10
108.869444
20
97.008795
30
0.0
11
-354.869231
21
97.008852
31
0.0
0
LINE
8
0
6
CONTINUOUS
10
112.499923
20
96.062429
30
0.0
11
108.869444
21
97.008795
31
0.0
0
LINE
8
0
6
CONTINUOUS
10
115.062133
20
93.500196
30
0.0
11
112.499923
21
96.062429
31
0.0
0
LINE
8
0
6
CONTINUOUS
10
116.008551
20
89.869534
30
0.0
11
115.062133
21
93.500196
31
0.0
0
LINE
8
0
6
CONTINUOUS
10
116.000000
20
-116.000238
30
0.0
11
116.008551
21
89.869534
31
0.0
0
LINE
8
0
6
CONTINUOUS
10
-362.000000
20
-116.000180
30
0.0
11
116.000000
21
-116.000238
31
0.0
0
LINE
8
0
6
CONTINUOUS
10
-362.008551
20
89.869534
30
0.0
11
-362.000000
21
-116.000180
31
0.0
0
LINE
8
0
6
CONTINUOUS
10
-361.062133
20
93.500196
30
0.0
11
-362.008551
21
89.869534
31
0.0
0
LINE
8
0
6
CONTINUOUS
10
-358.500000
20
96.062178
30
0.0
11
-361.062178
21
93.500000
31
0.0
0
LINE
8
0
6
CONTINUOUS
10
-354.869261
20
97.008612
30
0.0
11
-358.500000
21
96.062178
31
0.0
0
LINE
8
0
6
CONTINUOUS
10
108.869474
20
97.008612
30
0.0
11
-354.869261
21
97.008612
31
0.0
0
LINE
8
0
6
CONTINUOUS
10
112.500009
20
96.062234
30
0.0
11
108.869474
21
97.008612
31
0.0
0
LINE
8
0
6
CONTINUOUS
10
115.062175
20
93.500005
30
0.0
11
112.500009
21
96.062234
31
0.0
0
LINE
8
0
6
CONTINUOUS
10
116.008555
20
89.869474
30
0.0
11
115.062175
21
93.500005
31
0.0
0
LINE
8
0
6
CONTINUOUS
10
116.000000
20
-116.000011
30
0.0
11
116.008555
21
89.869474
31
0.0
0
LINE
8
0
6
CONTINUOUS
10
-362.000000
20
-115.999943
30
0.0
11
116.000000
21
-116.000011
31
0.0
0
LINE
8
0
6
CONTINUOUS
10
-362.008555
20
89.869474
30
0.0
11
-362.000000
21
-115.999943
31
0.0
0
LINE
8
0
6
CONTINUOUS
10
-361.062178
20
93.500000
30
0.0
11
-362.008555
21
89.869474
31
0.0
0
LINE
8
0
6
CONTINUOUS
10
116.999993
20
-116.999973
30
0.0
11
-362.000100
21
-116.999894
31
0.0
0
LINE
8
0
6
CONTINUOUS
10
-362.000000
20
-116.999921
30
0.0
11
117.000000
21
-117.000000
31
0.0
0
LINE
8
0
6
CONTINUOUS
10
362.000000
20
-116.999992
30
0.0
11
129.000008
21
-116.999978
31
0.0
0
LINE
8
0
6
CONTINUOUS
10
128.999995
20
-116.999998
30
0.0
11
362.000000
21
-117.000012
31
0.0
0
LINE
8
0
6
CONTINUOUS
10
362.000000
20
-116.999995
30
0.0
11
128.999995
21
-116.999976
31
0.0
0
LINE
8
0
6
CONTINUOUS
10
129.000000
20
-117.000003
30
0.0
11
362.000000
21
-117.000022
31
0.0
0
LINE
8
0
6
CONTINUOUS
10
-363.923880
20
128.617317
30
0.0
11
-364.382683
21
129.076120
31
0.0
0
LINE
8
0
6
CONTINUOUS
10
-363.991445
20
117.869474
30
0.0
11
-363.923880
21
128.617317
31
0.0
0
LINE
8
0
6
CONTINUOUS
10
-362.795475
20
113.499661
30
0.0
11
-363.991445
21
117.869474
31
0.0
0
LINE
8
0
6
CONTINUOUS
10
-359.500000
20
110.205771
30
0.0
11
-362.795475
21
113.499661
31
0.0
0
LINE
8
0
6
CONTINUOUS
10
-355.129239
20
109.017019
30
0.0
11
-359.500000
21
110.205771
31
0.0
0
LINE
8
0
6
CONTINUOUS
10
355.130526
20
109.008555
30
0.0
11
-355.129239
21
109.017019
31
0.0
0
LINE
8
0
6
CONTINUOUS
10
359.500339
20
110.204525
30
0.0
11
355.130526
21
109.008555
31
0.0
0
LINE
8
0
6
CONTINUOUS
10
362.794229
20
113.500000
30
0.0
11
359.500339
21
110.204525
31
0.0
0
LINE
8
0
6
CONTINUOUS
10
363.982981
20
117.870761
30
0.0
11
362.794229
21
113.500000
31
0.0
0
LINE
8
0
6
CONTINUOUS
10
363.923880
20
128.617317
30
0.0
11
363.982981
21
117.870761
31
0.0
0
LINE
8
0
6
CONTINUOUS
10
364.382683
20
129.076120
30
0.0
11
363.923880
21
128.617317
31
0.0
0
LINE
8
0
6
CONTINUOUS
10
373.617317
20
129.076120
30
0.0
11
364.382683
21
129.076120
31
0.0
0
LINE
8
0
6
CONTINUOUS
10
374.076120
20
128.617317
30
0.0
11
373.617317
21
129.076120
31
0.0
0
LINE
8
0
6
CONTINUOUS
10
374.076120
20
-128.617317
30
0.0
11
374.076120
21
128.617317
31
0.0
0
LINE
8
0
6
CONTINUOUS
10
373.617317
20
-129.076120
30
0.0
11
374.076120
21
-128.617317
31
0.0
0
LINE
8
0
6
CONTINUOUS
10
364.382683
20
-129.076120
30
0.0
11
373.617317
21
-129.076120
31
0.0
0
LINE
8
0
6
CONTINUOUS
10
363.923880
20
-128.617317
30
0.0
11
364.382683
21
-129.076120
31
0.0
0
LINE
8
0
6
CONTINUOUS
10
363.991445
20
90.130526
30
0.0
11
363.923880
21
-128.617317
31
0.0
0
LINE
8
0
6
CONTINUOUS
10
362.795475
20
94.500339
30
0.0
11
363.991445
21
90.130526
31
0.0
0
LINE
8
0
6
CONTINUOUS
10
359.500000
20
97.794229
30
0.0
11
362.795475
21
94.500339
31
0.0
0
LINE
8
0
6
CONTINUOUS
10
355.129239
20
98.982981
30
0.0
11
359.500000
21
97.794229
31
0.0
0
LINE
8
0
6
CONTINUOUS
10
136.869474
20
98.991445
30
0.0
11
355.129239
21
98.982981
31
0.0
0
LINE
8
0
6
CONTINUOUS
10
132.499661
20
97.795475
30
0.0
11
136.869474
21
98.991445
31
0.0
0
LINE
8
0
6
CONTINUOUS
10
129.205771
20
94.500000
30
0.0
11
132.499661
21
97.795475
31
0.0
0
LINE
8
0
6
CONTINUOUS
10
128.017019
20
90.129239
30
0.0
11
129.205771
21
94.500000
31
0.0
0
LINE
8
0
6
CONTINUOUS
10
128.076120
20
-116.617317
30
0.0
11
128.017019
21
90.129239
31
0.0
0
LINE
8
0
6
CONTINUOUS
10
127.617317
20
-117.076120
30
0.0
11
128.076120
21
-116.617317
31
0.0
0
LINE
8
0
6
CONTINUOUS
10
118.382683
20
-117.076120
30
0.0
11
127.617317
21
-117.076120
31
0.0
0
LINE
8
0
6
CONTINUOUS
10
117.923880
20
-116.617317
30
0.0
11
118.382683
21
-117.076120
31
0.0
0
LINE
8
0
6
CONTINUOUS
10
117.991445
20
90.130526
30
0.0
11
117.923880
21
-116.617317
31
0.0
0
LINE
8
0
6
CONTINUOUS
10
116.795475
20
94.500339
30
0.0
11
117.991445
21
90.130526
31
0.0
0
LINE
8
0
6
CONTINUOUS
10
113.500005
20
97.794225
30
0.0
11
116.795475
21
94.500339
31
0.0
0
LINE
8
0
6
CONTINUOUS
10
109.129245
20
98.983037
30
0.0
11
113.500005
21
97.794225
31
0.0
0
LINE
8
0
6
CONTINUOUS
10
-355.130526
20
98.991445
30
0.0
11
109.129245
21
98.983037
31
0.0
0
LINE
8
0
6
CONTINUOUS
10
-359.500339
20
97.795475
30
0.0
11
-355.130526
21
98.991445
31
0.0
0
LINE
8
0
6
CONTINUOUS
10
-362.794229
20
94.500000
30
0.0
11
-359.500339
21
97.795475
31
0.0
0
LINE
8
0
6
CONTINUOUS
10
-363.982981
20
90.129239
30
0.0
11
-362.794229
21
94.500000
31
0.0
0
LINE
8
0
6
CONTINUOUS
10
-363.923865
20
-128.612280
30
0.0
11
-363.982981
21
90.129239
31
0.0
0
LINE
8
0
6
CONTINUOUS
10
-364.382683
20
-129.076120
30
0.0
11
-363.923865
21
-128.612280
31
0.0
0
LINE
8
0
6
CONTINUOUS
10
-373.617317
20
-129.076120
30
0.0
11
-364.382683
21
-129.076120
31
0.0
0
LINE
8
0
6
CONTINUOUS
10
-374.076120
20
-128.617317
30
0.0
11
-373.617317
21
-129.076120
31
0.0
0
LINE
8
0
6
CONTINUOUS
10
-374.076120
20
128.617317
30
0.0
11
-374.076120
21
-128.617317
31
0.0
0
LINE
8
0
6
CONTINUOUS
10
-373.617317
20
129.076120
30
0.0
11
-374.076120
21
128.617317
31
0.0
0
LINE
8
0
6
CONTINUOUS
10
-364.382683
20
129.076120
30
0.0
11
-373.617317
21
129.076120
31
0.0
0
ENDSEC
0
EOF
