  0
SECTION
  2
HEADER
  9
$ACADVER
  1
AC1027
  9
$ACADMAINTVER
 70
   125
  9
$DWGCODEPAGE
  3
ANSI_1252
  9
$LASTSAVEDBY
  1
fleminab
  9
$REQUIREDVERSIONS
160
                 0
  9
$INSBASE
 10
0.0
 20
0.0
 30
0.0
  9
$EXTMIN
 10
0.6612353458552605
 20
0.6086020529054182
 30
-0.0000000349181948
  9
$EXTMAX
 10
15.96325412727002
 20
11.90572706584103
 30
0.0000000814935746
  9
$LIMMIN
 10
0.0
 20
0.0
  9
$LIMMAX
 10
12.0
 20
9.0
  9
$ORTHOMODE
 70
     0
  9
$REGENMODE
 70
     1
  9
$FILLMODE
 70
     1
  9
$QTEXTMODE
 70
     0
  9
$MIRRTEXT
 70
     0
  9
$LTSCALE
 40
1.0
  9
$ATTMODE
 70
     1
  9
$TEXTSIZE
 40
0.2
  9
$TRACEWID
 40
0.05
  9
$TEXTSTYLE
  7
Standard
  9
$CLAYER
  8
0
  9
$CELTYPE
  6
ByLayer
  9
$CECOLOR
 62
   256
  9
$CELTSCALE
 40
1.0
  9
$DISPSILH
 70
     0
  9
$DIMSCALE
 40
1.0
  9
$DIMASZ
 40
0.18
  9
$DIMEXO
 40
0.0625
  9
$DIMDLI
 40
0.38
  9
$DIMRND
 40
0.0
  9
$DIMDLE
 40
0.0
  9
$DIMEXE
 40
0.18
  9
$DIMTP
 40
0.0
  9
$DIMTM
 40
0.0
  9
$DIMTXT
 40
0.18
  9
$DIMCEN
 40
0.09
  9
$DIMTSZ
 40
0.0
  9
$DIMTOL
 70
     0
  9
$DIMLIM
 70
     0
  9
$DIMTIH
 70
     1
  9
$DIMTOH
 70
     1
  9
$DIMSE1
 70
     0
  9
$DIMSE2
 70
     0
  9
$DIMTAD
 70
     0
  9
$DIMZIN
 70
     0
  9
$DIMBLK
  1

  9
$DIMASO
 70
     1
  9
$DIMSHO
 70
     1
  9
$DIMPOST
  1

  9
$DIMAPOST
  1

  9
$DIMALT
 70
     0
  9
$DIMALTD
 70
     2
  9
$DIMALTF
 40
25.4
  9
$DIMLFAC
 40
1.0
  9
$DIMTOFL
 70
     0
  9
$DIMTVP
 40
0.0
  9
$DIMTIX
 70
     0
  9
$DIMSOXD
 70
     0
  9
$DIMSAH
 70
     0
  9
$DIMBLK1
  1

  9
$DIMBLK2
  1

  9
$DIMSTYLE
  2
Standard
  9
$DIMCLRD
 70
     0
  9
$DIMCLRE
 70
     0
  9
$DIMCLRT
 70
     0
  9
$DIMTFAC
 40
1.0
  9
$DIMGAP
 40
0.09
  9
$DIMJUST
 70
     0
  9
$DIMSD1
 70
     0
  9
$DIMSD2
 70
     0
  9
$DIMTOLJ
 70
     1
  9
$DIMTZIN
 70
     0
  9
$DIMALTZ
 70
     0
  9
$DIMALTTZ
 70
     0
  9
$DIMUPT
 70
     0
  9
$DIMDEC
 70
     4
  9
$DIMTDEC
 70
     4
  9
$DIMALTU
 70
     2
  9
$DIMALTTD
 70
     2
  9
$DIMTXSTY
  7
Standard
  9
$DIMAUNIT
 70
     0
  9
$DIMADEC
 70
     0
  9
$DIMALTRND
 40
0.0
  9
$DIMAZIN
 70
     0
  9
$DIMDSEP
 70
    46
  9
$DIMATFIT
 70
     3
  9
$DIMFRAC
 70
     0
  9
$DIMLDRBLK
  1

  9
$DIMLUNIT
 70
     2
  9
$DIMLWD
 70
    -2
  9
$DIMLWE
 70
    -2
  9
$DIMTMOVE
 70
     0
  9
$DIMFXL
 40
1.0
  9
$DIMFXLON
 70
     0
  9
$DIMJOGANG
 40
0.7853981633974483
  9
$DIMTFILL
 70
     0
  9
$DIMTFILLCLR
 70
     0
  9
$DIMARCSYM
 70
     0
  9
$DIMLTYPE
  6

  9
$DIMLTEX1
  6

  9
$DIMLTEX2
  6

  9
$DIMTXTDIRECTION
 70
     0
  9
$LUNITS
 70
     2
  9
$LUPREC
 70
     4
  9
$SKETCHINC
 40
0.1
  9
$FILLETRAD
 40
0.0
  9
$AUNITS
 70
     0
  9
$AUPREC
 70
     0
  9
$MENU
  1
.
  9
$ELEVATION
 40
0.0
  9
$PELEVATION
 40
0.0
  9
$THICKNESS
 40
0.0
  9
$LIMCHECK
 70
     0
  9
$CHAMFERA
 40
0.0
  9
$CHAMFERB
 40
0.0
  9
$CHAMFERC
 40
0.0
  9
$CHAMFERD
 40
0.0
  9
$SKPOLY
 70
     0
  9
$TDCREATE
 40
2458248.487118056
  9
$TDUCREATE
 40
2458248.070451389
  9
$TDUPDATE
 40
2458248.487638889
  9
$TDUUPDATE
 40
2458248.070972222
  9
$TDINDWG
 40
0.0005208333
  9
$TDUSRTIMER
 40
0.0005208333
  9
$USRTIMER
 70
     1
  9
$ANGBASE
 50
0.0
  9
$ANGDIR
 70
     0
  9
$PDMODE
 70
     0
  9
$PDSIZE
 40
0.0
  9
$PLINEWID
 40
0.0
  9
$SPLFRAME
 70
     0
  9
$SPLINETYPE
 70
     6
  9
$SPLINESEGS
 70
     8
  9
$HANDSEED
  5
4B0
  9
$SURFTAB1
 70
     6
  9
$SURFTAB2
 70
     6
  9
$SURFTYPE
 70
     6
  9
$SURFU
 70
     6
  9
$SURFV
 70
     6
  9
$UCSBASE
  2

  9
$UCSNAME
  2

  9
$UCSORG
 10
0.0
 20
0.0
 30
0.0
  9
$UCSXDIR
 10
1.0
 20
0.0
 30
0.0
  9
$UCSYDIR
 10
0.0
 20
1.0
 30
0.0
  9
$UCSORTHOREF
  2

  9
$UCSORTHOVIEW
 70
     0
  9
$UCSORGTOP
 10
0.0
 20
0.0
 30
0.0
  9
$UCSORGBOTTOM
 10
0.0
 20
0.0
 30
0.0
  9
$UCSORGLEFT
 10
0.0
 20
0.0
 30
0.0
  9
$UCSORGRIGHT
 10
0.0
 20
0.0
 30
0.0
  9
$UCSORGFRONT
 10
0.0
 20
0.0
 30
0.0
  9
$UCSORGBACK
 10
0.0
 20
0.0
 30
0.0
  9
$PUCSBASE
  2

  9
$PUCSNAME
  2

  9
$PUCSORG
 10
0.0
 20
0.0
 30
0.0
  9
$PUCSXDIR
 10
1.0
 20
0.0
 30
0.0
  9
$PUCSYDIR
 10
0.0
 20
1.0
 30
0.0
  9
$PUCSORTHOREF
  2

  9
$PUCSORTHOVIEW
 70
     0
  9
$PUCSORGTOP
 10
0.0
 20
0.0
 30
0.0
  9
$PUCSORGBOTTOM
 10
0.0
 20
0.0
 30
0.0
  9
$PUCSORGLEFT
 10
0.0
 20
0.0
 30
0.0
  9
$PUCSORGRIGHT
 10
0.0
 20
0.0
 30
0.0
  9
$PUCSORGFRONT
 10
0.0
 20
0.0
 30
0.0
  9
$PUCSORGBACK
 10
0.0
 20
0.0
 30
0.0
  9
$USERI1
 70
     0
  9
$USERI2
 70
     0
  9
$USERI3
 70
     0
  9
$USERI4
 70
     0
  9
$USERI5
 70
     0
  9
$USERR1
 40
0.0
  9
$USERR2
 40
0.0
  9
$USERR3
 40
0.0
  9
$USERR4
 40
0.0
  9
$USERR5
 40
0.0
  9
$WORLDVIEW
 70
     1
  9
$SHADEDGE
 70
     3
  9
$SHADEDIF
 70
    70
  9
$TILEMODE
 70
     1
  9
$MAXACTVP
 70
    64
  9
$PINSBASE
 10
0.0
 20
0.0
 30
0.0
  9
$PLIMCHECK
 70
     0
  9
$PEXTMIN
 10
1.000000000000000E+20
 20
1.000000000000000E+20
 30
1.000000000000000E+20
  9
$PEXTMAX
 10
-1.000000000000000E+20
 20
-1.000000000000000E+20
 30
-1.000000000000000E+20
  9
$PLIMMIN
 10
-0.7524054877282309
 20
-0.5025428238148726
  9
$PLIMMAX
 10
35.24759547345533
 20
23.49745621500156
  9
$UNITMODE
 70
     0
  9
$VISRETAIN
 70
     1
  9
$PLINEGEN
 70
     0
  9
$PSLTSCALE
 70
     1
  9
$TREEDEPTH
 70
  3020
  9
$CMLSTYLE
  2
Standard
  9
$CMLJUST
 70
     0
  9
$CMLSCALE
 40
1.0
  9
$PROXYGRAPHICS
 70
     1
  9
$MEASUREMENT
 70
     0
  9
$CELWEIGHT
370
    -1
  9
$ENDCAPS
280
     0
  9
$JOINSTYLE
280
     0
  9
$LWDISPLAY
290
     0
  9
$INSUNITS
 70
     1
  9
$HYPERLINKBASE
  1

  9
$STYLESHEET
  1

  9
$XEDIT
290
     1
  9
$CEPSNTYPE
380
     0
  9
$PSTYLEMODE
290
     1
  9
$FINGERPRINTGUID
  2
{5D265B8E-E99D-E243-8A18-1731267DD67A}
  9
$VERSIONGUID
  2
{6E3EB3B4-6B2F-6F4E-A810-934D56EB40C2}
  9
$EXTNAMES
290
     1
  9
$PSVPSCALE
 40
0.0
  9
$OLESTARTUP
290
     0
  9
$SORTENTS
280
   127
  9
$INDEXCTL
280
     0
  9
$HIDETEXT
280
     0
  9
$XCLIPFRAME
280
     0
  9
$HALOGAP
280
     0
  9
$OBSCOLOR
 70
   257
  9
$OBSLTYPE
280
     0
  9
$INTERSECTIONDISPLAY
280
     0
  9
$INTERSECTIONCOLOR
 70
   257
  9
$DIMASSOC
280
     1
  9
$PROJECTNAME
  1

  9
$CAMERADISPLAY
290
     0
  9
$LENSLENGTH
 40
50.0
  9
$CAMERAHEIGHT
 40
0.0
  9
$STEPSPERSEC
 40
2.0
  9
$STEPSIZE
 40
6.0
  9
$3DDWFPREC
 40
2.0
  9
$PSOLWIDTH
 40
0.25
  9
$PSOLHEIGHT
 40
4.0
  9
$LOFTANG1
 40
1.570796326794896
  9
$LOFTANG2
 40
1.570796326794896
  9
$LOFTMAG1
 40
0.0
  9
$LOFTMAG2
 40
0.0
  9
$LOFTPARAM
 70
     7
  9
$LOFTNORMALS
280
     1
  9
$LATITUDE
 40
37.795
  9
$LONGITUDE
 40
-122.394
  9
$NORTHDIRECTION
 40
0.0
  9
$TIMEZONE
 70
 -8000
  9
$LIGHTGLYPHDISPLAY
280
     1
  9
$TILEMODELIGHTSYNCH
280
     1
  9
$CMATERIAL
347
7F
  9
$SOLIDHIST
280
     1
  9
$SHOWHIST
280
     1
  9
$DWFFRAME
280
     2
  9
$DGNFRAME
280
     0
  9
$REALWORLDSCALE
290
     1
  9
$INTERFERECOLOR
 62
     1
  9
$INTERFEREOBJVS
345
8C
  9
$INTERFEREVPVS
346
A5
  9
$CSHADOW
280
     0
  9
$SHADOWPLANELOCATION
 40
0.0
  0
ENDSEC
  0
SECTION
  2
CLASSES
  0
CLASS
  1
ACDBDICTIONARYWDFLT
  2
AcDbDictionaryWithDefault
  3
ObjectDBX Classes
 90
        0
 91
        1
280
     0
281
     0
  0
CLASS
  1
PLOTSETTINGS
  2
AcDbPlotSettings
  3
ObjectDBX Classes
 90
        0
 91
        0
280
     0
281
     0
  0
CLASS
  1
MATERIAL
  2
AcDbMaterial
  3
ObjectDBX Classes
 90
     1153
 91
        3
280
     0
281
     0
  0
CLASS
  1
VISUALSTYLE
  2
AcDbVisualStyle
  3
ObjectDBX Classes
 90
     4095
 91
       26
280
     0
281
     0
  0
CLASS
  1
TABLESTYLE
  2
AcDbTableStyle
  3
ObjectDBX Classes
 90
     4095
 91
        1
280
     0
281
     0
  0
CLASS
  1
DICTIONARYVAR
  2
AcDbDictionaryVar
  3
ObjectDBX Classes
 90
        0
 91
       17
280
     0
281
     0
  0
CLASS
  1
SCALE
  2
AcDbScale
  3
ObjectDBX Classes
 90
     1153
 91
       17
280
     0
281
     0
  0
CLASS
  1
MLEADERSTYLE
  2
AcDbMLeaderStyle
  3
ACDB_MLEADERSTYLE_CLASS
 90
     4095
 91
        1
280
     0
281
     0
  0
CLASS
  1
ACDBSECTIONVIEWSTYLE
  2
AcDbSectionViewStyle
  3
ObjectDBX Classes
 90
     1025
 91
        1
280
     0
281
     0
  0
CLASS
  1
ACDBDETAILVIEWSTYLE
  2
AcDbDetailViewStyle
  3
ObjectDBX Classes
 90
     1025
 91
        1
280
     0
281
     0
  0
CLASS
  1
CELLSTYLEMAP
  2
AcDbCellStyleMap
  3
ObjectDBX Classes
 90
     1152
 91
        1
280
     0
281
     0
  0
ENDSEC
  0
SECTION
  2
TABLES
  0
TABLE
  2
VPORT
  5
19
330
0
100
AcDbSymbolTable
 70
     1
1001
ACAD
1000
DbSaveVer
1071
        5
  0
VPORT
  5
7D
330
19
100
AcDbSymbolTableRecord
100
AcDbViewportTableRecord
  2
*Active
 70
     0
 10
0.0
 20
0.0
 11
1.0
 21
1.0
 12
8.312244736562639
 22
6.257164559373226
 13
0.0
 23
0.0
 14
0.5
 24
0.5
 15
0.5
 25
0.5
 16
0.0
 26
0.0
 36
1.0
 17
0.0
 27
0.0
 37
0.0
 40
11.37801134954375
 41
2.292712066905615
 42
50.0
 43
0.0
 44
0.0
 50
0.0
 51
0.0
 71
     0
 72
  1000
 73
     1
 74
     3
 75
     0
 76
     0
 77
     0
 78
     0
281
     0
 65
     1
110
0.0
120
0.0
130
0.0
111
1.0
121
0.0
131
0.0
112
0.0
122
1.0
132
0.0
 79
     0
146
0.0
348
88
 60
     3
 61
     5
292
     1
282
     1
141
0.0
142
0.0
 63
   250
421
  3355443
1001
ACAD_NAV_VCDISPLAY
1070
     3
  0
ENDTAB
  0
TABLE
  2
LTYPE
  5
14
330
0
100
AcDbSymbolTable
 70
     1
  0
LTYPE
  5
15
330
14
100
AcDbSymbolTableRecord
100
AcDbLinetypeTableRecord
  2
ByBlock
 70
     0
  3

 72
    65
 73
     0
 40
0.0
  0
LTYPE
  5
16
330
14
100
AcDbSymbolTableRecord
100
AcDbLinetypeTableRecord
  2
ByLayer
 70
     0
  3

 72
    65
 73
     0
 40
0.0
  0
LTYPE
  5
8
330
14
100
AcDbSymbolTableRecord
100
AcDbLinetypeTableRecord
  2
Continuous
 70
     0
  3
Solid line
 72
    65
 73
     0
 40
0.0
  0
ENDTAB
  0
TABLE
  2
LAYER
  5
10
330
0
100
AcDbSymbolTable
 70
     4
  0
LAYER
  5
4
102
{ACAD_XDICTIONARY
360
48B
102
}
330
10
100
AcDbSymbolTableRecord
100
AcDbLayerTableRecord
  2
0
 70
     0
 62
     7
  6
Continuous
370
    -3
390
5
347
81
348
0
  0
LAYER
  5
25
102
{ACAD_XDICTIONARY
360
48D
102
}
330
10
100
AcDbSymbolTableRecord
100
AcDbLayerTableRecord
  2
Title Block
 70
     0
 62
     7
  6
Continuous
370
    -3
390
5
347
81
348
0
  0
LAYER
  5
CE
102
{ACAD_XDICTIONARY
360
48F
102
}
330
10
100
AcDbSymbolTableRecord
100
AcDbLayerTableRecord
  2
PDF_Layer 1
 70
     0
 62
    28
420
  1052429
  6
Continuous
370
    -3
390
5
347
81
348
0
  0
LAYER
  5
DD
102
{ACAD_XDICTIONARY
360
491
102
}
330
10
100
AcDbSymbolTableRecord
100
AcDbLayerTableRecord
  2
PDF_Text
 70
     0
 62
   250
420
  2301728
  6
Continuous
370
    -3
390
5
347
81
348
0
  0
ENDTAB
  0
TABLE
  2
STYLE
  5
11
330
0
100
AcDbSymbolTable
 70
     3
  0
STYLE
  5
12
330
11
100
AcDbSymbolTableRecord
100
AcDbTextStyleTableRecord
  2
Standard
 70
     0
 40
0.0
 41
1.0
 50
0.0
 71
     0
 42
0.2
  3
txt
  4

  0
STYLE
  5
27
330
11
100
AcDbSymbolTableRecord
100
AcDbTextStyleTableRecord
  2
Roman
 70
     0
 40
0.0
 41
1.0
 50
0.0
 71
     0
 42
0.2
  3
ROMANS.SHX
  4

  0
STYLE
  5
DC
330
11
100
AcDbSymbolTableRecord
100
AcDbTextStyleTableRecord
  2
PDF Arial
 70
     0
 40
0.0
 41
1.0
 50
0.0
 71
     0
 42
0.2
  3
arial.ttf
  4

1001
ACAD
1000
Arial
1071
       34
  0
ENDTAB
  0
TABLE
  2
VIEW
  5
17
330
0
100
AcDbSymbolTable
 70
     0
  0
ENDTAB
  0
TABLE
  2
UCS
  5
18
330
0
100
AcDbSymbolTable
 70
     0
  0
ENDTAB
  0
TABLE
  2
APPID
  5
1B
330
0
100
AcDbSymbolTable
 70
     2
  0
APPID
  5
1C
330
1B
100
AcDbSymbolTableRecord
100
AcDbRegAppTableRecord
  2
ACAD
 70
     0
  0
APPID
  5
493
330
1B
100
AcDbSymbolTableRecord
100
AcDbRegAppTableRecord
  2
ACAD_NAV_VCDISPLAY
 70
     0
  0
ENDTAB
  0
TABLE
  2
DIMSTYLE
  5
1D
330
0
100
AcDbSymbolTable
 70
     1
100
AcDbDimStyleTable
 71
     0
  0
DIMSTYLE
105
23
330
1D
100
AcDbSymbolTableRecord
100
AcDbDimStyleTableRecord
  2
Standard
 70
     0
340
12
  0
ENDTAB
  0
TABLE
  2
BLOCK_RECORD
  5
1
330
0
100
AcDbSymbolTable
 70
     0
  0
BLOCK_RECORD
  5
2
330
1
100
AcDbSymbolTableRecord
100
AcDbBlockTableRecord
  2
*Model_Space
340
A
 70
     0
280
     1
281
     0
  0
BLOCK_RECORD
  5
C
330
1
100
AcDbSymbolTableRecord
100
AcDbBlockTableRecord
  2
*Paper_Space
340
F
 70
     0
280
     1
281
     0
  0
ENDTAB
  0
ENDSEC
  0
SECTION
  2
BLOCKS
  0
BLOCK
  5
3
330
2
100
AcDbEntity
  8
0
100
AcDbBlockBegin
  2
*Model_Space
 70
     2
 10
0.0
 20
0.0
 30
0.0
  3
*Model_Space
  1

  0
ENDBLK
  5
9
330
2
100
AcDbEntity
  8
0
100
AcDbBlockEnd
  0
BLOCK
  5
D
330
C
100
AcDbEntity
 67
     1
  8
0
100
AcDbBlockBegin
  2
*Paper_Space
 70
     0
 10
0.0
 20
0.0
 30
0.0
  3
*Paper_Space
  1

  0
ENDBLK
  5
E
330
C
100
AcDbEntity
 67
     1
  8
0
100
AcDbBlockEnd
  0
ENDSEC
  0
SECTION
  2
ENTITIES
  0
SOLID
  5
CF
330
2
100
AcDbEntity
  8
PDF_Layer 1
 62
     7
420
 16777215
440
 33554559
370
    40
100
AcDbTrace
 10
11.46998472222222
 20
3.395101388888889
 30
0.0
 11
11.40717916666666
 21
3.368420833333333
 31
0.0
 12
11.40717916666666
 22
3.246212499999999
 32
0.0
 13
11.34435972222222
 23
3.395101388888889
 33
0.0
  0
SOLID
  5
D0
330
2
100
AcDbEntity
  8
PDF_Layer 1
 62
     7
420
 16777215
440
 33554559
370
    40
100
AcDbTrace
 10
11.46998472222222
 20
7.440619444444443
 30
0.0
 11
11.40717916666666
 21
7.467299999999998
 31
0.0
 12
11.40717916666666
 22
7.589522222222221
 32
0.0
 13
11.34435972222222
 23
7.440619444444443
 33
0.0
  0
SOLID
  5
D1
330
2
100
AcDbEntity
  8
PDF_Layer 1
 62
     7
420
 16777215
440
 33554559
370
    40
100
AcDbTrace
 10
3.537347222222221
 20
7.129368055555554
 30
0.0
 11
3.510666666666666
 21
7.192173611111109
 31
0.0
 12
3.388458333333332
 22
7.192173611111109
 32
0.0
 13
3.537347222222221
 23
7.254993055555554
 33
0.0
  0
SOLID
  5
D2
330
2
100
AcDbEntity
  8
PDF_Layer 1
 62
     7
420
 16777215
440
 33554559
370
    40
100
AcDbTrace
 10
2.592176388888888
 20
7.254991666666665
 30
0.0
 11
2.618856944444444
 21
7.19218611111111
 31
0.0
 12
2.741065277777777
 22
7.19218611111111
 32
0.0
 13
2.592176388888888
 23
7.129366666666665
 33
0.0
  0
SOLID
  5
D3
330
2
100
AcDbEntity
  8
PDF_Layer 1
 62
     7
420
 16777215
440
 33554559
370
    40
100
AcDbTrace
 10
1.29669861111111
 20
3.395101388888889
 30
0.0
 11
1.233893055555555
 21
3.368420833333333
 31
0.0
 12
1.233893055555555
 22
3.246212499999999
 32
0.0
 13
1.17107361111111
 23
3.395101388888889
 33
0.0
  0
SOLID
  5
D4
330
2
100
AcDbEntity
  8
PDF_Layer 1
 62
     7
420
 16777215
440
 33554559
370
    40
100
AcDbTrace
 10
1.29669861111111
 20
11.75652361111111
 30
0.0
 11
1.233893055555555
 21
11.78320416666666
 31
0.0
 12
1.233893055555555
 22
11.90542638888889
 32
0.0
 13
1.17107361111111
 23
11.75652361111111
 33
0.0
  0
SOLID
  5
D5
330
2
100
AcDbEntity
  8
PDF_Layer 1
 62
     7
420
 16777215
440
 33554559
370
    40
100
AcDbTrace
 10
9.569552777777776
 20
5.168972222222222
 30
0.0
 11
9.596247222222221
 21
5.106166666666666
 31
0.0
 12
9.718455555555554
 22
5.106166666666666
 32
0.0
 13
9.569552777777776
 23
5.043347222222221
 33
0.0
  0
SOLID
  5
D6
330
2
100
AcDbEntity
  8
PDF_Layer 1
 62
     7
420
 16777215
440
 33554559
370
    40
100
AcDbTrace
 10
3.211941666666666
 20
5.168972222222222
 30
0.0
 11
3.18526111111111
 21
5.106166666666666
 31
0.0
 12
3.063052777777777
 22
5.106166666666666
 32
0.0
 13
3.211941666666666
 23
5.043347222222221
 33
0.0
  0
SOLID
  5
D7
330
2
100
AcDbEntity
  8
PDF_Layer 1
 62
     7
420
 16777215
440
 33554559
370
    40
100
AcDbTrace
 10
11.9019375
 20
8.12805138888889
 30
0.0
 11
11.84557638888889
 21
8.089565277777779
 31
0.0
 12
11.86954861111111
 22
7.969731944444445
 32
0.0
 13
11.77875694444444
 23
8.103412500000001
 33
0.0
  0
SOLID
  5
D8
330
2
100
AcDbEntity
  8
PDF_Layer 1
 62
     7
420
 16777215
440
 33554559
370
    40
100
AcDbTrace
 10
11.96352777777778
 20
7.439358333333333
 30
0.0
 11
11.90127777777777
 21
7.467330555555555
 31
0.0
 12
11.90380555555555
 22
7.589525
 32
0.0
 13
11.83793055555555
 23
7.441955555555556
 33
0.0
  0
SOLID
  5
D9
330
2
100
AcDbEntity
  8
PDF_Layer 1
 62
     7
420
 16777215
440
 33554559
370
    40
100
AcDbTrace
 10
15.80853888888889
 20
2.81279861111111
 30
0.0
 11
15.83521944444444
 21
2.749993055555555
 31
0.0
 12
15.95744166666666
 22
2.749993055555555
 32
0.0
 13
15.80853888888889
 23
2.687173611111111
 33
0.0
  0
SOLID
  5
DA
330
2
100
AcDbEntity
  8
PDF_Layer 1
 62
     7
420
 16777215
440
 33554559
370
    40
100
AcDbTrace
 10
14.48956944444444
 20
2.81279861111111
 30
0.0
 11
14.46288888888888
 21
2.749993055555555
 31
0.0
 12
14.34068055555555
 22
2.749993055555555
 32
0.0
 13
14.48956944444444
 23
2.687173611111111
 33
0.0
  0
LWPOLYLINE
  5
DE
330
2
100
AcDbEntity
  8
PDF_Layer 1
 62
     7
420
 16777215
370
    40
100
AcDbPolyline
 90
        3
 70
     0
 43
0.0
 10
12.09903472222222
 20
7.589518055555554
 10
9.718451388888889
 20
7.589518055555554
 10
9.718451388888889
 20
5.040101388888888
  0
LWPOLYLINE
  5
DF
330
2
100
AcDbEntity
  8
PDF_Layer 1
 62
     7
420
 16777215
370
    40
100
AcDbPolyline
 90
        2
 70
     0
 43
0.0
 10
11.40717222222222
 20
3.347466666666666
 10
11.40717222222222
 20
7.488258333333332
  0
LWPOLYLINE
  5
E0
330
2
100
AcDbEntity
  8
PDF_Layer 1
 62
     7
420
 16777215
370
    40
100
AcDbPolyline
 90
        2
 70
     0
 43
0.0
 10
14.34068472222222
 20
2.74998611111111
 10
13.1692125
 20
2.74998611111111
  0
LWPOLYLINE
  5
E1
330
2
100
AcDbEntity
  8
PDF_Layer 1
 62
     7
420
 16777215
370
    40
100
AcDbPolyline
 90
        2
 70
     0
 43
0.0
 10
3.065355555555555
 20
3.229994444444443
 10
3.065355555555555
 20
5.333716666666665
  0
LWPOLYLINE
  5
E2
330
2
100
AcDbEntity
  8
PDF_Layer 1
 62
     7
420
 16777215
370
   120
100
AcDbPolyline
 90
       27
 70
     0
 43
0.0
 10
14.54277916666666
 20
2.571912499999999
 10
14.54277916666666
 20
2.475995833333333
 10
14.55647361111111
 20
2.475995833333333
 10
14.58045972222222
 20
2.475995833333333
 10
14.61127916666666
 20
2.475995833333333
 10
14.64895972222222
 20
2.475995833333333
 10
14.70034861111111
 20
2.475995833333333
 10
14.75514027777777
 20
2.475995833333333
 10
14.81679305555555
 20
2.475995833333333
 10
14.88530694444444
 20
2.475995833333333
 10
14.95723749999999
 20
2.475995833333333
 10
15.03259861111111
 20
2.475995833333333
 10
15.10794583333333
 20
2.475995833333333
 10
15.1867375
 20
2.475995833333333
 10
15.26551527777777
 20
2.475995833333333
 10
15.34087638888889
 20
2.475995833333333
 10
15.41280694444444
 20
2.475995833333333
 10
15.47789027777777
 20
2.475995833333333
 10
15.54297361111111
 20
2.475995833333333
 10
15.59777916666666
 20
2.475995833333333
 10
15.64572361111111
 20
2.475995833333333
 10
15.68683472222222
 20
2.475995833333333
 10
15.71765416666666
 20
2.475995833333333
 10
15.74162638888888
 20
2.475995833333333
 10
15.75191805555555
 20
2.475995833333333
 10
15.75533472222222
 20
2.475995833333333
 10
15.75533472222222
 20
2.571912499999999
  0
LWPOLYLINE
  5
E4
330
2
100
AcDbEntity
  8
PDF_Layer 1
 62
     7
420
 16777215
370
   120
100
AcDbPolyline
 90
       50
 70
     1
 43
0.0
 10
15.77930694444444
 20
2.571912499999999
 10
15.77930694444444
 20
2.636995833333333
 10
15.76904305555555
 20
2.636995833333333
 10
15.7484875
 20
2.636995833333333
 10
15.71765416666666
 20
2.636995833333333
 10
15.6799875
 20
2.636995833333333
 10
15.63544583333333
 20
2.636995833333333
 10
15.58065416666666
 20
2.636995833333333
 10
15.5189875
 20
2.636995833333333
 10
15.45391805555555
 20
2.636995833333333
 10
15.38197361111111
 20
2.636995833333333
 10
15.30661249999999
 20
2.636995833333333
 10
15.22783472222222
 20
2.636995833333333
 10
15.14905694444444
 20
2.636995833333333
 10
15.07026527777777
 20
2.636995833333333
 10
14.99150138888889
 20
2.636995833333333
 10
14.91614027777777
 20
2.636995833333333
 10
14.84419583333333
 20
2.636995833333333
 10
14.77569583333333
 20
2.636995833333333
 10
14.71745972222222
 20
2.636995833333333
 10
14.66266805555555
 20
2.636995833333333
 10
14.61470972222222
 20
2.636995833333333
 10
14.57702916666666
 20
2.636995833333333
 10
14.54962638888888
 20
2.636995833333333
 10
14.52907083333333
 20
2.636995833333333
 10
14.51879305555555
 20
2.636995833333333
 10
14.51879305555555
 20
2.571912499999999
 10
14.52907083333333
 20
2.571912499999999
 10
14.54962638888888
 20
2.571912499999999
 10
14.57702916666666
 20
2.571912499999999
 10
14.61470972222222
 20
2.571912499999999
 10
14.66266805555555
 20
2.571912499999999
 10
14.71745972222222
 20
2.571912499999999
 10
14.77569583333333
 20
2.571912499999999
 10
14.84419583333333
 20
2.571912499999999
 10
14.91614027777777
 20
2.571912499999999
 10
14.99150138888889
 20
2.571912499999999
 10
15.07026527777777
 20
2.571912499999999
 10
15.14905694444444
 20
2.571912499999999
 10
15.22783472222222
 20
2.571912499999999
 10
15.30661249999999
 20
2.571912499999999
 10
15.38197361111111
 20
2.571912499999999
 10
15.45391805555555
 20
2.571912499999999
 10
15.5189875
 20
2.571912499999999
 10
15.58065416666666
 20
2.571912499999999
 10
15.63544583333333
 20
2.571912499999999
 10
15.6799875
 20
2.571912499999999
 10
15.71765416666666
 20
2.571912499999999
 10
15.7484875
 20
2.571912499999999
 10
15.76904305555555
 20
2.571912499999999
  0
LWPOLYLINE
  5
E6
330
2
100
AcDbEntity
  8
PDF_Layer 1
 62
     7
420
 16777215
370
   120
100
AcDbPolyline
 90
       36
 70
     0
 43
0.0
 10
14.85104305555555
 20
2.010162499999999
 10
14.86476527777777
 20
2.010162499999999
 10
14.89900138888888
 20
2.013579166666666
 10
14.94352916666666
 20
2.017009722222222
 10
15.00176527777777
 20
2.017009722222222
 10
15.06684861111111
 20
2.020426388888888
 10
15.13534861111111
 20
2.023856944444444
 10
15.20729305555555
 20
2.023856944444444
 10
15.2723625
 20
2.027273611111111
 10
15.33402916666666
 20
2.030704166666666
 10
15.38540416666666
 20
2.030704166666666
 10
15.41965416666666
 20
2.034134722222221
 10
15.44362638888888
 20
2.037551388888888
 10
15.44705694444444
 20
2.037551388888888
 10
15.44705694444444
 20
2.044412499999999
 10
15.44705694444444
 20
2.051259722222222
 10
15.46418194444444
 20
2.0615375
 10
15.48130694444444
 20
2.071815277777777
 10
15.48130694444444
 20
2.0786625
 10
15.46418194444444
 20
2.088940277777777
 10
15.44705694444444
 20
2.095787499999999
 10
15.44705694444444
 20
2.102634722222222
 10
15.44705694444444
 20
2.109481944444444
 10
15.4333625
 20
2.109481944444444
 10
15.40252916666666
 20
2.106065277777777
 10
15.35800138888889
 20
2.102634722222222
 10
15.30319583333333
 20
2.102634722222222
 10
15.2381125
 20
2.099218055555555
 10
15.1696125
 20
2.095787499999999
 10
15.09766805555555
 20
2.095787499999999
 10
15.02918194444444
 20
2.092370833333333
 10
14.96751527777777
 20
2.088940277777777
 10
14.91614027777777
 20
2.088940277777777
 10
14.87845972222222
 20
2.085509722222222
 10
14.85447361111111
 20
2.085509722222222
 10
14.84762638888888
 20
2.082079166666666
  0
LWPOLYLINE
  5
E7
330
2
100
AcDbEntity
  8
PDF_Layer 1
 62
     7
420
 16777215
370
   120
100
AcDbPolyline
 90
       19
 70
     0
 43
0.0
 10
15.44705694444444
 20
2.109481944444444
 10
15.46418194444444
 20
2.119759722222222
 10
15.48130694444444
 20
2.130051388888888
 10
15.48130694444444
 20
2.136898611111111
 10
15.46418194444444
 20
2.147162499999999
 10
15.44705694444444
 20
2.154023611111111
 10
15.44020972222222
 20
2.154023611111111
 10
15.41965416666666
 20
2.150593055555555
 10
15.38197361111111
 20
2.150593055555555
 10
15.33059861111111
 20
2.147162499999999
 10
15.26894583333333
 20
2.143745833333333
 10
15.20044583333333
 20
2.143745833333333
 10
15.12850138888888
 20
2.140315277777777
 10
15.0599875
 20
2.136898611111111
 10
14.99491805555555
 20
2.136898611111111
 10
14.94009861111111
 20
2.133468055555555
 10
14.89557083333333
 20
2.130051388888888
 10
14.86476527777777
 20
2.130051388888888
 10
14.85104305555555
 20
2.126606944444444
  0
LWPOLYLINE
  5
E8
330
2
100
AcDbEntity
  8
PDF_Layer 1
 62
     7
420
 16777215
370
   120
100
AcDbPolyline
 90
        4
 70
     0
 43
0.0
 10
15.44705694444444
 20
2.154023611111111
 10
15.44705694444444
 20
2.164287499999999
 10
15.44705694444444
 20
2.171148611111111
 10
15.45733472222222
 20
2.174579166666666
  0
LWPOLYLINE
  5
E9
330
2
100
AcDbEntity
  8
PDF_Layer 1
 62
     7
420
 16777215
370
   120
100
AcDbPolyline
 90
       24
 70
     0
 43
0.0
 10
15.43677916666666
 20
2.636995833333333
 10
15.44362638888888
 20
2.578759722222221
 10
15.44705694444444
 20
2.640426388888888
 10
15.46418194444444
 20
2.64727361111111
 10
15.48130694444444
 20
2.657537499999999
 10
15.48130694444444
 20
2.664384722222222
 10
15.46418194444444
 20
2.674662499999999
 10
15.44705694444444
 20
2.684954166666666
 10
15.44705694444444
 20
2.691801388888888
 10
15.44705694444444
 20
2.69864861111111
 10
15.44362638888888
 20
2.695218055555555
 10
15.42308472222222
 20
2.695218055555555
 10
15.38540416666666
 20
2.691801388888888
 10
15.33744583333333
 20
2.691801388888888
 10
15.27579305555555
 20
2.688370833333333
 10
15.21070972222222
 20
2.684954166666666
 10
15.13877916666666
 20
2.684954166666666
 10
15.07026527777777
 20
2.68152361111111
 10
15.00519583333333
 20
2.678093055555555
 10
14.94697361111111
 20
2.678093055555555
 10
14.89900138888888
 20
2.674662499999999
 10
14.86818194444444
 20
2.671231944444444
 10
14.85104305555555
 20
2.671231944444444
 10
14.85104305555555
 20
2.667815277777777
  0
LWPOLYLINE
  5
EA
330
2
100
AcDbEntity
  8
PDF_Layer 1
 62
     7
420
 16777215
370
   120
100
AcDbPolyline
 90
        4
 70
     0
 43
0.0
 10
15.44705694444444
 20
2.69864861111111
 10
15.46418194444444
 20
2.705495833333332
 10
15.48130694444444
 20
2.715759722222221
 10
15.48130694444444
 20
2.722634722222222
  0
LWPOLYLINE
  5
EB
330
2
100
AcDbEntity
  8
PDF_Layer 1
 62
     7
420
 16777215
370
   120
100
AcDbPolyline
 90
       32
 70
     0
 43
0.0
 10
14.84762638888888
 20
2.729481944444444
 10
14.85789027777777
 20
2.729481944444444
 10
14.88187638888888
 20
2.732898611111111
 10
14.91955694444444
 20
2.732898611111111
 10
14.97093194444444
 20
2.736329166666666
 10
15.03259861111111
 20
2.739745833333333
 10
15.10109861111111
 20
2.739745833333333
 10
15.17302916666666
 20
2.743176388888888
 10
15.24154305555555
 20
2.746593055555555
 10
15.30661249999999
 20
2.746593055555555
 10
15.36141805555555
 20
2.75002361111111
 10
15.40594583333333
 20
2.753440277777777
 10
15.4333625
 20
2.753440277777777
 10
15.44705694444444
 20
2.756870833333333
 10
15.46418194444444
 20
2.767162499999999
 10
15.48130694444444
 20
2.774009722222221
 10
15.48130694444444
 20
2.78427361111111
 10
15.46418194444444
 20
2.791120833333333
 10
15.44705694444444
 20
2.80139861111111
 10
15.44362638888888
 20
2.797968055555555
 10
15.41965416666666
 20
2.797968055555555
 10
15.38197361111111
 20
2.794551388888888
 10
15.33402916666666
 20
2.791120833333333
 10
15.2723625
 20
2.791120833333333
 10
15.2038625
 20
2.787704166666666
 10
15.13534861111111
 20
2.787704166666666
 10
15.06341805555555
 20
2.78427361111111
 10
14.99834861111111
 20
2.780856944444444
 10
14.94352916666666
 20
2.780856944444444
 10
14.89557083333333
 20
2.777426388888888
 10
14.86476527777777
 20
2.774009722222221
 10
14.85104305555555
 20
2.774009722222221
  0
LWPOLYLINE
  5
EC
330
2
100
AcDbEntity
  8
PDF_Layer 1
 62
     7
420
 16777215
370
   120
100
AcDbPolyline
 90
        5
 70
     0
 43
0.0
 10
15.44705694444444
 20
2.80139861111111
 10
15.44705694444444
 20
2.808259722222222
 10
15.44705694444444
 20
2.815106944444444
 10
15.46418194444444
 20
2.825384722222222
 10
15.48130694444444
 20
2.832231944444444
  0
LWPOLYLINE
  5
ED
330
2
100
AcDbEntity
  8
PDF_Layer 1
 62
     7
420
 16777215
370
   120
100
AcDbPolyline
 90
       36
 70
     0
 43
0.0
 10
14.85104305555555
 20
2.832231944444444
 10
14.85447361111111
 20
2.832231944444444
 10
14.87845972222222
 20
2.83564861111111
 10
14.91614027777777
 20
2.83564861111111
 10
14.96751527777777
 20
2.839079166666666
 10
15.02918194444444
 20
2.842495833333332
 10
15.09425138888888
 20
2.842495833333332
 10
15.16618194444444
 20
2.845926388888888
 10
15.23468194444444
 20
2.849370833333333
 10
15.29976527777777
 20
2.849370833333333
 10
15.35800138888889
 20
2.852787499999999
 10
15.40252916666666
 20
2.856218055555555
 10
15.4333625
 20
2.856218055555555
 10
15.44705694444444
 20
2.859634722222222
 10
15.44705694444444
 20
2.866481944444444
 10
15.44705694444444
 20
2.873329166666666
 10
15.46418194444444
 20
2.883606944444444
 10
15.48130694444444
 20
2.893898611111111
 10
15.48130694444444
 20
2.900745833333333
 10
15.46418194444444
 20
2.911009722222221
 10
15.44705694444444
 20
2.917856944444443
 10
15.44705694444444
 20
2.924704166666666
 10
15.44705694444444
 20
2.931579166666666
 10
15.44020972222222
 20
2.931579166666666
 10
15.4162375
 20
2.928134722222221
 10
15.37855694444444
 20
2.928134722222221
 10
15.32718194444444
 20
2.924704166666666
 10
15.26551527777777
 20
2.9212875
 10
15.20044583333333
 20
2.9212875
 10
15.12850138888888
 20
2.917856944444443
 10
15.0599875
 20
2.914440277777777
 10
14.99491805555555
 20
2.914440277777777
 10
14.93668194444444
 20
2.911009722222221
 10
14.89215416666666
 20
2.907593055555555
 10
14.86476527777777
 20
2.907593055555555
 10
14.85104305555555
 20
2.904162499999999
  0
LWPOLYLINE
  5
EE
330
2
100
AcDbEntity
  8
PDF_Layer 1
 62
     7
420
 16777215
370
   120
100
AcDbPolyline
 90
       22
 70
     0
 43
0.0
 10
15.44705694444444
 20
2.931579166666666
 10
15.46418194444444
 20
2.941843055555555
 10
15.48130694444444
 20
2.952120833333333
 10
15.48130694444444
 20
2.958968055555555
 10
15.46418194444444
 20
2.969245833333332
 10
15.44705694444444
 20
2.976106944444444
 10
15.44705694444444
 20
2.986370833333332
 10
15.44705694444444
 20
2.993218055555555
 10
15.44705694444444
 20
2.989801388888888
 10
15.42993194444444
 20
2.989801388888888
 10
15.39909861111111
 20
2.986370833333332
 10
15.35457083333333
 20
2.982954166666666
 10
15.29634861111111
 20
2.982954166666666
 10
15.23126527777777
 20
2.97952361111111
 10
15.15933472222222
 20
2.976106944444444
 10
15.09082083333333
 20
2.976106944444444
 10
15.02232083333333
 20
2.972662499999999
 10
14.96066805555555
 20
2.972662499999999
 10
14.91270972222222
 20
2.969245833333332
 10
14.87502916666666
 20
2.965815277777777
 10
14.85447361111111
 20
2.965815277777777
 10
14.85104305555555
 20
2.962384722222222
  0
LWPOLYLINE
  5
EF
330
2
100
AcDbEntity
  8
PDF_Layer 1
 62
     7
420
 16777215
370
   120
100
AcDbPolyline
 90
       22
 70
     0
 43
0.0
 10
15.44705694444444
 20
2.993218055555555
 10
15.46418194444444
 20
3.000065277777777
 10
15.48130694444444
 20
3.010343055555555
 10
15.48130694444444
 20
3.017204166666666
 10
15.46418194444444
 20
3.027481944444444
 10
15.44705694444444
 20
3.037745833333333
 10
15.44705694444444
 20
3.044593055555555
 10
15.44705694444444
 20
3.051454166666666
 10
15.44020972222222
 20
3.04802361111111
 10
15.4162375
 20
3.04802361111111
 10
15.37512638888888
 20
3.044593055555555
 10
15.32373749999999
 20
3.041176388888888
 10
15.26208472222222
 20
3.041176388888888
 10
15.19358472222222
 20
3.037745833333333
 10
15.12165416666666
 20
3.034329166666666
 10
15.05314027777777
 20
3.034329166666666
 10
14.98807083333333
 20
3.03089861111111
 10
14.93325138888888
 20
3.027481944444444
 10
14.89215416666666
 20
3.027481944444444
 10
14.86133472222222
 20
3.024051388888888
 10
14.84762638888888
 20
3.020634722222221
 10
14.85104305555555
 20
3.020634722222221
  0
LWPOLYLINE
  5
F0
330
2
100
AcDbEntity
  8
PDF_Layer 1
 62
     7
420
 16777215
370
   120
100
AcDbPolyline
 90
        4
 70
     0
 43
0.0
 10
15.44705694444444
 20
3.051454166666666
 10
15.46418194444444
 20
3.058315277777777
 10
15.48130694444444
 20
3.068579166666666
 10
15.48130694444444
 20
3.123384722222222
  0
LWPOLYLINE
  5
F1
330
2
100
AcDbEntity
  8
PDF_Layer 1
 62
     7
420
 16777215
370
   120
100
AcDbPolyline
 90
        3
 70
     0
 43
0.0
 10
14.82365416666666
 20
2.099218055555555
 10
14.84077916666666
 20
2.088940277777777
 10
14.85447361111111
 20
2.0786625
  0
LWPOLYLINE
  5
F2
330
2
100
AcDbEntity
  8
PDF_Layer 1
 62
     7
420
 16777215
370
   120
100
AcDbPolyline
 90
        3
 70
     0
 43
0.0
 10
14.82365416666666
 20
2.157440277777777
 10
14.84077916666666
 20
2.147162499999999
 10
14.85447361111111
 20
2.140315277777777
  0
LWPOLYLINE
  5
F3
330
2
100
AcDbEntity
  8
PDF_Layer 1
 62
     7
420
 16777215
370
   120
100
AcDbPolyline
 90
        3
 70
     0
 43
0.0
 10
14.82365416666666
 20
2.684954166666666
 10
14.84077916666666
 20
2.674662499999999
 10
14.85447361111111
 20
2.667815277777777
  0
LWPOLYLINE
  5
F4
330
2
100
AcDbEntity
  8
PDF_Layer 1
 62
     7
420
 16777215
370
   120
100
AcDbPolyline
 90
        3
 70
     0
 43
0.0
 10
14.82365416666666
 20
2.743176388888888
 10
14.84077916666666
 20
2.736329166666666
 10
14.85447361111111
 20
2.726051388888888
  0
LWPOLYLINE
  5
F5
330
2
100
AcDbEntity
  8
PDF_Layer 1
 62
     7
420
 16777215
370
   120
100
AcDbPolyline
 90
        3
 70
     0
 43
0.0
 10
14.82365416666666
 20
2.80139861111111
 10
14.84077916666666
 20
2.794551388888888
 10
14.85447361111111
 20
2.78427361111111
  0
LWPOLYLINE
  5
F6
330
2
100
AcDbEntity
  8
PDF_Layer 1
 62
     7
420
 16777215
370
   120
100
AcDbPolyline
 90
        3
 70
     0
 43
0.0
 10
14.82365416666666
 20
2.863065277777777
 10
14.84077916666666
 20
2.852787499999999
 10
14.85447361111111
 20
2.842495833333332
  0
LWPOLYLINE
  5
F7
330
2
100
AcDbEntity
  8
PDF_Layer 1
 62
     7
420
 16777215
370
   120
100
AcDbPolyline
 90
        3
 70
     0
 43
0.0
 10
14.82365416666666
 20
2.9212875
 10
14.84077916666666
 20
2.911009722222221
 10
14.85447361111111
 20
2.900745833333333
  0
LWPOLYLINE
  5
F8
330
2
100
AcDbEntity
  8
PDF_Layer 1
 62
     7
420
 16777215
370
   120
100
AcDbPolyline
 90
        3
 70
     0
 43
0.0
 10
14.82365416666666
 20
2.97952361111111
 10
14.84077916666666
 20
2.969245833333332
 10
14.85447361111111
 20
2.962384722222222
  0
LWPOLYLINE
  5
F9
330
2
100
AcDbEntity
  8
PDF_Layer 1
 62
     7
420
 16777215
370
   120
100
AcDbPolyline
 90
        3
 70
     0
 43
0.0
 10
14.82365416666666
 20
3.037745833333333
 10
14.84077916666666
 20
3.027481944444444
 10
14.85447361111111
 20
3.020634722222221
  0
LWPOLYLINE
  5
FA
330
2
100
AcDbEntity
  8
PDF_Layer 1
 62
     7
420
 16777215
370
   120
100
AcDbPolyline
 90
        3
 70
     0
 43
0.0
 10
14.82365416666666
 20
3.095981944444444
 10
14.84077916666666
 20
3.085704166666666
 10
14.85447361111111
 20
3.078856944444444
  0
LWPOLYLINE
  5
FB
330
2
100
AcDbEntity
  8
PDF_Layer 1
 62
     7
420
 16777215
370
   120
100
AcDbPolyline
 90
        3
 70
     0
 43
0.0
 10
14.82365416666666
 20
2.040981944444444
 10
14.84077916666666
 20
2.030704166666666
 10
14.85447361111111
 20
2.020426388888888
  0
LWPOLYLINE
  5
FC
330
2
100
AcDbEntity
  8
PDF_Layer 1
 62
     7
420
 16777215
370
   120
100
AcDbPolyline
 90
        6
 70
     0
 43
0.0
 10
15.45391805555555
 20
1.97589861111111
 10
15.44705694444444
 20
1.979329166666666
 10
15.44705694444444
 20
1.986176388888888
 10
15.44705694444444
 20
1.993023611111111
 10
15.46418194444444
 20
2.003315277777777
 10
15.48130694444444
 20
2.010162499999999
  0
LWPOLYLINE
  5
FD
330
2
100
AcDbEntity
  8
PDF_Layer 1
 62
     7
420
 16777215
370
   120
100
AcDbPolyline
 90
        8
 70
     0
 43
0.0
 10
14.84762638888888
 20
2.068384722222222
 10
14.84762638888888
 20
2.075231944444444
 10
14.84762638888888
 20
2.082079166666666
 10
14.84762638888888
 20
2.075231944444444
 10
14.84762638888888
 20
2.068384722222222
 10
14.83393194444444
 20
2.058106944444444
 10
14.81679305555555
 20
2.047843055555555
 10
14.81679305555555
 20
2.040981944444444
  0
LWPOLYLINE
  5
FE
330
2
100
AcDbEntity
  8
PDF_Layer 1
 62
     7
420
 16777215
370
   120
100
AcDbPolyline
 90
        2
 70
     0
 43
0.0
 10
14.81679305555555
 20
2.106065277777777
 10
14.81679305555555
 20
2.099218055555555
  0
LWPOLYLINE
  5
FF
330
2
100
AcDbEntity
  8
PDF_Layer 1
 62
     7
420
 16777215
370
   120
100
AcDbPolyline
 90
        3
 70
     0
 43
0.0
 10
14.83050138888888
 20
2.174579166666666
 10
14.81679305555555
 20
2.167718055555555
 10
14.81679305555555
 20
2.157440277777777
  0
LWPOLYLINE
  5
100
330
2
100
AcDbEntity
  8
PDF_Layer 1
 62
     7
420
 16777215
370
   120
100
AcDbPolyline
 90
        8
 70
     0
 43
0.0
 10
14.84762638888888
 20
2.712343055555555
 10
14.84762638888888
 20
2.719190277777777
 10
14.84762638888888
 20
2.729481944444444
 10
14.84762638888888
 20
2.719190277777777
 10
14.84762638888888
 20
2.712343055555555
 10
14.83393194444444
 20
2.705495833333332
 10
14.81679305555555
 20
2.695218055555555
 10
14.81679305555555
 20
2.688370833333333
  0
LWPOLYLINE
  5
101
330
2
100
AcDbEntity
  8
PDF_Layer 1
 62
     7
420
 16777215
370
   120
100
AcDbPolyline
 90
        4
 70
     0
 43
0.0
 10
14.84762638888888
 20
2.774009722222221
 10
14.83393194444444
 20
2.763731944444444
 10
14.81679305555555
 20
2.753440277777777
 10
14.81679305555555
 20
2.746593055555555
  0
LWPOLYLINE
  5
102
330
2
100
AcDbEntity
  8
PDF_Layer 1
 62
     7
420
 16777215
370
   120
100
AcDbPolyline
 90
        8
 70
     0
 43
0.0
 10
14.84762638888888
 20
2.832231944444444
 10
14.84762638888888
 20
2.839079166666666
 10
14.84762638888888
 20
2.845926388888888
 10
14.84762638888888
 20
2.839079166666666
 10
14.84762638888888
 20
2.832231944444444
 10
14.83393194444444
 20
2.821954166666666
 10
14.81679305555555
 20
2.811690277777777
 10
14.81679305555555
 20
2.804843055555555
  0
LWPOLYLINE
  5
103
330
2
100
AcDbEntity
  8
PDF_Layer 1
 62
     7
420
 16777215
370
   120
100
AcDbPolyline
 90
        8
 70
     0
 43
0.0
 10
14.84762638888888
 20
2.890468055555555
 10
14.84762638888888
 20
2.897315277777777
 10
14.84762638888888
 20
2.904162499999999
 10
14.84762638888888
 20
2.897315277777777
 10
14.84762638888888
 20
2.890468055555555
 10
14.83393194444444
 20
2.880176388888888
 10
14.81679305555555
 20
2.869912499999999
 10
14.81679305555555
 20
2.863065277777777
  0
LWPOLYLINE
  5
104
330
2
100
AcDbEntity
  8
PDF_Layer 1
 62
     7
420
 16777215
370
   120
100
AcDbPolyline
 90
        2
 70
     0
 43
0.0
 10
14.81679305555555
 20
2.928134722222221
 10
14.81679305555555
 20
2.9212875
  0
LWPOLYLINE
  5
105
330
2
100
AcDbEntity
  8
PDF_Layer 1
 62
     7
420
 16777215
370
   120
100
AcDbPolyline
 90
       21
 70
     0
 43
0.0
 10
15.44705694444444
 20
3.037745833333333
 10
15.44020972222222
 20
3.034329166666666
 10
15.4162375
 20
3.03089861111111
 10
15.37512638888888
 20
3.03089861111111
 10
15.32373749999999
 20
3.027481944444444
 10
15.26208472222222
 20
3.024051388888888
 10
15.19358472222222
 20
3.024051388888888
 10
15.12165416666666
 20
3.020634722222221
 10
15.05314027777777
 20
3.017204166666666
 10
14.98807083333333
 20
3.017204166666666
 10
14.93325138888888
 20
3.013773611111111
 10
14.89215416666666
 20
3.010343055555555
 10
14.86133472222222
 20
3.010343055555555
 10
14.84762638888888
 20
3.006912499999999
 10
14.84762638888888
 20
3.013773611111111
 10
14.84762638888888
 20
3.020634722222221
 10
14.84762638888888
 20
3.013773611111111
 10
14.84762638888888
 20
3.006912499999999
 10
14.83393194444444
 20
2.99664861111111
 10
14.81679305555555
 20
2.989801388888888
 10
14.81679305555555
 20
2.97952361111111
  0
LWPOLYLINE
  5
106
330
2
100
AcDbEntity
  8
PDF_Layer 1
 62
     7
420
 16777215
370
   120
100
AcDbPolyline
 90
        8
 70
     0
 43
0.0
 10
14.84762638888888
 20
3.065162499999999
 10
14.84762638888888
 20
3.072009722222222
 10
14.84762638888888
 20
3.078856944444444
 10
14.84762638888888
 20
3.072009722222222
 10
14.84762638888888
 20
3.065162499999999
 10
14.83393194444444
 20
3.058315277777777
 10
14.81679305555555
 20
3.04802361111111
 10
14.81679305555555
 20
3.041176388888888
  0
LWPOLYLINE
  5
107
330
2
100
AcDbEntity
  8
PDF_Layer 1
 62
     7
420
 16777215
370
   120
100
AcDbPolyline
 90
        2
 70
     0
 43
0.0
 10
14.81679305555555
 20
3.123384722222222
 10
14.81679305555555
 20
3.09939861111111
  0
LWPOLYLINE
  5
10C
330
2
100
AcDbEntity
  8
PDF_Layer 1
 62
     7
420
 16777215
370
   120
100
AcDbPolyline
 90
        4
 70
     0
 43
0.0
 10
15.48130694444444
 20
2.83564861111111
 10
15.48130694444444
 20
2.842495833333332
 10
15.46418194444444
 20
2.852787499999999
 10
15.44705694444444
 20
2.859634722222222
  0
LWPOLYLINE
  5
112
330
2
100
AcDbEntity
  8
PDF_Layer 1
 62
     7
420
 16777215
370
   120
100
AcDbPolyline
 90
        4
 70
     0
 43
0.0
 10
15.48130694444444
 20
2.013579166666666
 10
15.48130694444444
 20
2.020426388888888
 10
15.46418194444444
 20
2.030704166666666
 10
15.44705694444444
 20
2.037551388888888
  0
LWPOLYLINE
  5
115
330
2
100
AcDbEntity
  8
PDF_Layer 1
 62
     7
420
 16777215
370
   120
100
AcDbPolyline
 90
        7
 70
     0
 43
0.0
 10
14.84762638888888
 20
2.948690277777777
 10
14.84762638888888
 20
2.955537499999999
 10
14.84762638888888
 20
2.962384722222222
 10
14.84762638888888
 20
2.955537499999999
 10
14.84762638888888
 20
2.948690277777777
 10
14.83393194444444
 20
2.938426388888888
 10
14.81679305555555
 20
2.931579166666666
  0
LWPOLYLINE
  5
11A
330
2
100
AcDbEntity
  8
PDF_Layer 1
 62
     7
420
 16777215
370
   120
100
AcDbPolyline
 90
        7
 70
     0
 43
0.0
 10
14.84762638888888
 20
2.654120833333333
 10
14.84762638888888
 20
2.660968055555555
 10
14.84762638888888
 20
2.667815277777777
 10
14.84762638888888
 20
2.660968055555555
 10
14.84762638888888
 20
2.654120833333333
 10
14.83393194444444
 20
2.64727361111111
 10
14.81679305555555
 20
2.636995833333333
  0
LWPOLYLINE
  5
11C
330
2
100
AcDbEntity
  8
PDF_Layer 1
 62
     7
420
 16777215
370
   120
100
AcDbPolyline
 90
        7
 70
     0
 43
0.0
 10
14.84762638888888
 20
2.126606944444444
 10
14.84762638888888
 20
2.133468055555555
 10
14.84762638888888
 20
2.140315277777777
 10
14.84762638888888
 20
2.133468055555555
 10
14.84762638888888
 20
2.126606944444444
 10
14.83393194444444
 20
2.116343055555555
 10
14.81679305555555
 20
2.109481944444444
  0
LWPOLYLINE
  5
11E
330
2
100
AcDbEntity
  8
PDF_Layer 1
 62
     7
420
 16777215
370
   120
100
AcDbPolyline
 90
        7
 70
     0
 43
0.0
 10
14.84762638888888
 20
2.010162499999999
 10
14.84762638888888
 20
2.017009722222222
 10
14.84762638888888
 20
2.023856944444444
 10
14.84762638888888
 20
2.017009722222222
 10
14.84762638888888
 20
2.010162499999999
 10
14.83393194444444
 20
1.999870833333333
 10
14.82023749999999
 20
1.993023611111111
  0
LWPOLYLINE
  5
124
330
2
100
AcDbEntity
  8
PDF_Layer 1
 62
     7
420
 16777215
370
   120
100
AcDbPolyline
 90
        5
 70
     0
 43
0.0
 10
15.48130694444444
 20
2.726051388888888
 10
15.46418194444444
 20
2.732898611111111
 10
15.44705694444444
 20
2.743176388888888
 10
15.44705694444444
 20
2.75002361111111
 10
15.44705694444444
 20
2.756870833333333
  0
LWPOLYLINE
  5
12A
330
2
100
AcDbEntity
  8
PDF_Layer 1
 62
     7
420
 16777215
370
   120
100
AcDbPolyline
 90
       34
 70
     0
 43
0.0
 10
14.82365416666666
 20
1.989606944444444
 10
14.84762638888888
 20
1.965634722222222
 10
14.85447361111111
 20
1.95877361111111
 10
14.85789027777777
 20
1.95877361111111
 10
14.86818194444444
 20
1.95877361111111
 10
14.88530694444444
 20
1.95877361111111
 10
14.91614027777777
 20
1.95877361111111
 10
14.95039027777777
 20
1.95877361111111
 10
14.99491805555555
 20
1.95877361111111
 10
15.04287638888888
 20
1.95877361111111
 10
15.09425138888888
 20
1.95877361111111
 10
15.14905694444444
 20
1.95877361111111
 10
15.20044583333333
 20
1.95877361111111
 10
15.2552375
 20
1.95877361111111
 10
15.30319583333333
 20
1.95877361111111
 10
15.34429305555555
 20
1.95877361111111
 10
15.38197361111111
 20
1.95877361111111
 10
15.40939027777777
 20
1.95877361111111
 10
15.42993194444444
 20
1.95877361111111
 10
15.44020972222222
 20
1.95877361111111
 10
15.45391805555555
 20
1.972481944444444
 10
15.45047361111111
 20
1.972481944444444
 10
15.41280694444444
 20
1.969051388888888
 10
15.34772361111111
 20
1.969051388888888
 10
15.25866805555555
 20
1.965634722222222
 10
15.15933472222222
 20
1.965634722222222
 10
15.14562638888888
 20
1.965634722222222
 10
15.17302916666666
 20
1.965634722222222
 10
15.24497361111111
 20
1.969051388888888
 10
15.30661249999999
 20
1.969051388888888
 10
15.36141805555555
 20
1.972481944444444
 10
15.40594583333333
 20
1.972481944444444
 10
15.4333625
 20
1.97589861111111
 10
15.44705694444444
 20
1.979329166666666
  0
LWPOLYLINE
  5
132
330
2
100
AcDbEntity
  8
PDF_Layer 1
 62
     7
420
 16777215
370
   120
100
AcDbPolyline
 90
        4
 70
     1
 43
0.0
 10
14.84762638888888
 20
2.770579166666666
 10
14.84762638888888
 20
2.780856944444444
 10
14.84762638888888
 20
2.787704166666666
 10
14.84762638888888
 20
2.780856944444444
  0
LWPOLYLINE
  5
14E
330
2
100
AcDbEntity
  8
PDF_Layer 1
 62
     7
420
 16777215
370
   120
100
AcDbPolyline
 90
       69
 70
     0
 43
0.0
 10
15.58407083333333
 20
7.586579166666665
 10
15.58065416666666
 20
7.593426388888889
 10
15.57379305555555
 20
7.60713472222222
 10
15.53612638888888
 20
7.788662499999999
 10
15.50529305555555
 20
7.980481944444443
 10
15.4847375
 20
8.175731944444443
 10
15.47104305555555
 20
8.370981944444443
 10
15.47104305555555
 20
8.391523611111111
 10
15.47104305555555
 20
8.768315277777777
 10
15.47104305555555
 20
8.946426388888887
 10
15.47104305555555
 20
9.121120833333332
 10
15.47104305555555
 20
9.292384722222221
 10
15.47104305555555
 20
9.460231944444444
 10
15.47104305555555
 20
9.624648611111108
 10
15.47104305555555
 20
9.785634722222223
 10
15.47104305555555
 20
9.93977361111111
 10
15.47104305555555
 20
10.09048194444444
 10
15.47104305555555
 20
10.23435694444444
 10
15.47104305555555
 20
10.37137083333333
 10
15.47104305555555
 20
10.50152361111111
 10
15.47104305555555
 20
10.62825972222222
 10
15.47104305555555
 20
10.74130138888889
 10
15.47104305555555
 20
10.8509125
 10
15.47104305555555
 20
10.95024583333333
 10
15.47104305555555
 20
11.04271805555555
 10
15.47104305555555
 20
11.12492638888888
 10
15.47104305555555
 20
11.2002875
 10
15.47104305555555
 20
11.26195416666667
 10
15.47104305555555
 20
11.31674583333333
 10
15.47104305555555
 20
11.36127361111111
 10
15.47104305555555
 20
11.39895416666666
 10
15.47104305555555
 20
11.42294027777777
 10
15.47104305555555
 20
11.43663472222222
 10
15.47104305555555
 20
11.44348194444444
 42
0.9994830794152623
 10
14.82365416666666
 20
11.44348194444444
 10
14.82365416666666
 20
11.43663472222222
 10
14.82365416666666
 20
11.42294027777777
 10
14.82365416666666
 20
11.39895416666666
 10
14.82365416666666
 20
11.36127361111111
 10
14.82365416666666
 20
11.31674583333333
 10
14.82365416666666
 20
11.26195416666667
 10
14.82365416666666
 20
11.2002875
 10
14.82365416666666
 20
11.12492638888888
 10
14.82365416666666
 20
11.04271805555555
 10
14.82365416666666
 20
10.95024583333333
 10
14.82365416666666
 20
10.8509125
 10
14.82365416666666
 20
10.74130138888889
 10
14.82365416666666
 20
10.62825972222222
 10
14.82365416666666
 20
10.50152361111111
 10
14.82365416666666
 20
10.37137083333333
 10
14.82365416666666
 20
10.23435694444444
 10
14.82365416666666
 20
10.09048194444444
 10
14.82365416666666
 20
9.93977361111111
 10
14.82365416666666
 20
9.785634722222223
 10
14.82365416666666
 20
9.624648611111108
 10
14.82365416666666
 20
9.460231944444444
 10
14.82365416666666
 20
9.292384722222221
 10
14.82365416666666
 20
9.121120833333332
 10
14.82365416666666
 20
8.946426388888887
 10
14.82365416666666
 20
8.768315277777777
 10
14.82365416666666
 20
8.391523611111111
 10
14.82023749999999
 20
8.285343055555554
 10
14.80309861111111
 20
8.093523611111109
 10
14.77912638888889
 20
7.905134722222221
 10
14.74487638888889
 20
7.716745833333331
 10
14.72089027777777
 20
7.60713472222222
 10
14.72089027777777
 20
7.596856944444443
 10
14.71404305555555
 20
7.586579166666665
 10
14.7106125
 20
7.58314861111111
  0
LWPOLYLINE
  5
153
330
2
100
AcDbEntity
  8
PDF_Layer 1
 62
     7
420
 16777215
370
   120
100
AcDbPolyline
 90
        2
 70
     0
 43
0.0
 10
14.82365416666666
 20
7.411884722222221
 10
14.82365416666666
 20
4.740134722222221
  0
LWPOLYLINE
  5
154
330
2
100
AcDbEntity
  8
PDF_Layer 1
 62
     7
420
 16777215
370
   120
100
AcDbPolyline
 90
       14
 70
     0
 43
0.0
 10
15.47104305555555
 20
4.740134722222221
 10
15.47104305555555
 20
7.411884722222221
 10
15.49158472222222
 20
7.415315277777776
 10
15.53612638888888
 20
7.425593055555554
 10
15.5703625
 20
7.435870833333332
 10
15.60119583333333
 20
7.452981944444442
 10
15.61832083333333
 20
7.466690277777776
 10
15.63202916666666
 20
7.48039861111111
 10
15.64230694444444
 20
7.500940277777776
 10
15.64230694444444
 20
7.521495833333332
 10
15.63544583333333
 20
7.545468055555554
 10
15.62175138888888
 20
7.559176388888888
 10
15.60804305555555
 20
7.572870833333332
 10
15.59091805555555
 20
7.58314861111111
  0
LWPOLYLINE
  5
156
330
2
100
AcDbEntity
  8
PDF_Layer 1
 62
     7
420
 16777215
370
   120
100
AcDbPolyline
 90
       15
 70
     0
 43
0.0
 10
14.70034861111111
 20
7.579718055555555
 10
14.68320972222222
 20
7.569454166666665
 10
14.66951527777777
 20
7.555745833333332
 10
14.6592375
 20
7.538620833333332
 10
14.65580694444444
 20
7.518079166666666
 10
14.6592375
 20
7.494093055555555
 10
14.66608472222222
 20
7.476968055555555
 10
14.67977916666666
 20
7.463259722222222
 10
14.69691805555555
 20
7.449565277777776
 10
14.72430694444444
 20
7.435870833333332
 10
14.7619875
 20
7.425593055555554
 10
14.80651527777777
 20
7.415315277777776
 10
14.85447361111111
 20
7.408454166666665
 10
14.90586249999999
 20
7.401606944444442
 10
14.95723749999999
 20
7.394759722222222
  0
LWPOLYLINE
  5
160
330
2
100
AcDbEntity
  8
PDF_Layer 1
 62
     7
420
 16777215
370
   120
100
AcDbPolyline
 90
      150
 70
     0
 43
0.0
 10
15.91633472222222
 20
3.246690277777777
 10
15.91289027777777
 20
3.246690277777777
 10
15.89577916666666
 20
3.246690277777777
 10
15.87179305555555
 20
3.246690277777777
 10
15.83754305555555
 20
3.246690277777777
 10
15.78959861111111
 20
3.246690277777777
 10
15.73820972222222
 20
3.246690277777777
 10
15.67655694444444
 20
3.246690277777777
 10
15.60804305555555
 20
3.246690277777777
 10
15.53268194444444
 20
3.246690277777777
 10
15.45391805555555
 20
3.246690277777777
 10
15.36827916666666
 20
3.246690277777777
 10
15.28265416666666
 20
3.246690277777777
 10
15.19358472222222
 20
3.246690277777777
 10
15.10452916666666
 20
3.246690277777777
 10
15.01545972222222
 20
3.246690277777777
 10
14.92640416666666
 20
3.246690277777777
 10
14.84419583333333
 20
3.246690277777777
 10
14.7619875
 20
3.246690277777777
 10
14.69005694444444
 20
3.246690277777777
 10
14.62155694444444
 20
3.246690277777777
 10
14.55989027777777
 20
3.246690277777777
 10
14.50509861111111
 20
3.246690277777777
 10
14.46057083333333
 20
3.246690277777777
 10
14.42630694444444
 20
3.246690277777777
 10
14.39891805555555
 20
3.246690277777777
 10
14.38520972222222
 20
3.246690277777777
 10
14.3783625
 20
3.246690277777777
 10
14.37493194444444
 20
3.246690277777777
 10
14.37493194444444
 20
3.24327361111111
 10
14.37151527777777
 20
3.24327361111111
 10
14.36808472222222
 20
3.24327361111111
 10
14.36808472222222
 20
3.239843055555555
 10
14.36465416666666
 20
3.239843055555555
 10
14.36465416666666
 20
3.236426388888888
 10
14.35780694444444
 20
3.226134722222222
 10
14.35094583333333
 20
3.212440277777777
 10
14.34409861111111
 20
3.195315277777777
 10
14.34068194444444
 20
3.181606944444444
 10
14.33725138888888
 20
3.167912499999999
 10
14.33725138888888
 20
3.154218055555555
 10
14.33725138888888
 20
3.137079166666666
 10
14.34068194444444
 20
3.123384722222222
 10
14.34752916666666
 20
3.123384722222222
 10
14.36465416666666
 20
3.123384722222222
 10
14.39205694444444
 20
3.123384722222222
 10
14.42630694444444
 20
3.123384722222222
 10
14.47083472222222
 20
3.123384722222222
 10
14.52222361111111
 20
3.123384722222222
 10
14.58387638888888
 20
3.123384722222222
 10
14.65239027777777
 20
3.123384722222222
 10
14.72430694444444
 20
3.123384722222222
 10
14.80309861111111
 20
3.123384722222222
 10
14.88530694444444
 20
3.123384722222222
 10
14.97093194444444
 20
3.123384722222222
 10
15.0599875
 20
3.123384722222222
 10
15.14905694444444
 20
3.123384722222222
 10
15.2381125
 20
3.123384722222222
 10
15.32373749999999
 20
3.123384722222222
 10
15.40939027777777
 20
3.123384722222222
 10
15.49501527777777
 20
3.123384722222222
 10
15.5703625
 20
3.123384722222222
 10
15.64572361111111
 20
3.123384722222222
 10
15.71080694444444
 20
3.123384722222222
 10
15.77245972222222
 20
3.123384722222222
 10
15.82726527777777
 20
3.123384722222222
 10
15.87179305555555
 20
3.123384722222222
 10
15.90604305555555
 20
3.123384722222222
 10
15.93345972222222
 20
3.123384722222222
 10
15.95057083333333
 20
3.123384722222222
 10
15.95741805555555
 20
3.123384722222222
 10
15.95741805555555
 20
3.137079166666666
 10
15.9608625
 20
3.154218055555555
 10
15.95741805555555
 20
3.167912499999999
 10
15.95400138888888
 20
3.181606944444444
 10
15.95057083333333
 20
3.195315277777777
 10
15.94715416666666
 20
3.212440277777777
 10
15.94030694444444
 20
3.226134722222222
 10
15.93345972222222
 20
3.236426388888888
 10
15.93002916666666
 20
3.239843055555555
 10
15.9266125
 20
3.24327361111111
 10
15.92318194444444
 20
3.24327361111111
 10
15.91976527777777
 20
3.246690277777777
 10
15.91633472222222
 20
3.246690277777777
 10
15.91289027777777
 20
3.246690277777777
 10
15.90947361111111
 20
3.246690277777777
 10
15.90604305555555
 20
3.246690277777777
 10
15.90604305555555
 20
3.250120833333332
 10
15.90262638888888
 20
3.253551388888888
 10
15.89919583333333
 20
3.256968055555555
 10
15.89919583333333
 20
3.26039861111111
 10
15.89919583333333
 20
3.270676388888888
 10
15.89577916666666
 20
3.284370833333333
 10
15.89234861111111
 20
3.29464861111111
 10
15.88893194444444
 20
3.304926388888888
 10
15.88550138888888
 20
3.315204166666666
 10
15.87865416666666
 20
3.325481944444444
 10
15.87522361111111
 20
3.335759722222221
 10
15.86836249999999
 20
3.34602361111111
 10
15.86494583333333
 20
3.34602361111111
 10
15.86494583333333
 20
3.349454166666666
 10
15.86151527777777
 20
3.349454166666666
 10
15.86151527777777
 20
3.352870833333333
 10
15.85809861111111
 20
3.352870833333333
 10
15.85466805555555
 20
3.352870833333333
 10
15.84782083333333
 20
3.352870833333333
 10
15.83412638888888
 20
3.352870833333333
 10
15.81014027777777
 20
3.352870833333333
 10
15.77245972222222
 20
3.352870833333333
 10
15.72793194444444
 20
3.352870833333333
 10
15.67655694444444
 20
3.352870833333333
 10
15.61489027777777
 20
3.352870833333333
 10
15.54982083333333
 20
3.352870833333333
 10
15.47789027777777
 20
3.352870833333333
 10
15.39909861111111
 20
3.352870833333333
 10
15.31689027777777
 20
3.352870833333333
 10
15.23468194444444
 20
3.352870833333333
 10
15.14905694444444
 20
3.352870833333333
 10
15.06341805555555
 20
3.352870833333333
 10
14.97777916666666
 20
3.352870833333333
 10
14.89900138888888
 20
3.352870833333333
 10
14.82023749999999
 20
3.352870833333333
 10
14.74829305555555
 20
3.352870833333333
 10
14.67977916666666
 20
3.352870833333333
 10
14.61814027777777
 20
3.352870833333333
 10
14.56675138888888
 20
3.352870833333333
 10
14.52222361111111
 20
3.352870833333333
 10
14.48797361111111
 20
3.352870833333333
 10
14.46398749999999
 20
3.352870833333333
 10
14.44686249999999
 20
3.352870833333333
 10
14.44344583333333
 20
3.352870833333333
 10
14.44001527777777
 20
3.352870833333333
 10
14.43658472222222
 20
3.352870833333333
 10
14.43315416666666
 20
3.349454166666666
 10
14.4297375
 20
3.34602361111111
 10
14.42289027777777
 20
3.335759722222221
 10
14.41604305555555
 20
3.325481944444444
 10
14.4126125
 20
3.315204166666666
 10
14.40576527777777
 20
3.304926388888888
 10
14.40233472222222
 20
3.29464861111111
 10
14.39891805555555
 20
3.284370833333333
 10
14.39891805555555
 20
3.270676388888888
 10
14.3954875
 20
3.26039861111111
 10
14.3954875
 20
3.256968055555555
 10
14.3954875
 20
3.253551388888888
 10
14.39205694444444
 20
3.253551388888888
 10
14.39205694444444
 20
3.250120833333332
 10
14.38862638888888
 20
3.246690277777777
 10
14.38520972222222
 20
3.246690277777777
 10
14.38177916666666
 20
3.246690277777777
  0
LWPOLYLINE
  5
167
330
2
100
AcDbEntity
  8
PDF_Layer 1
 62
     7
420
 16777215
370
   120
100
AcDbPolyline
 90
       61
 70
     0
 43
0.0
 10
15.84440416666666
 20
3.352870833333333
 10
15.84097361111111
 20
3.352870833333333
 10
15.83754305555555
 20
3.356315277777777
 10
15.83412638888888
 20
3.356315277777777
 10
15.83412638888888
 20
3.359731944444444
 10
15.83068194444444
 20
3.359731944444444
 10
15.77245972222222
 20
3.5172875
 10
15.72108472222222
 20
3.678287499999999
 10
15.67655694444444
 20
3.83927361111111
 10
15.64230694444444
 20
4.003690277777777
 10
15.61489027777777
 20
4.171537499999999
 10
15.59434861111111
 20
4.339370833333333
 10
15.58407083333333
 20
4.507218055555555
 10
15.58407083333333
 20
4.675065277777777
 10
15.58407083333333
 20
4.688759722222221
 10
15.58065416666666
 20
4.69902361111111
 10
15.57379305555555
 20
4.712731944444444
 10
15.56351527777777
 20
4.723009722222221
 10
15.55666805555555
 20
4.729856944444444
 10
15.54297361111111
 20
4.736704166666666
 10
15.53268194444444
 20
4.740134722222221
 10
15.5189875
 20
4.740134722222221
 10
15.50870972222222
 20
4.740134722222221
 10
15.48815416666666
 20
4.740134722222221
 10
15.45733472222222
 20
4.740134722222221
 10
15.41965416666666
 20
4.740134722222221
 10
15.37512638888888
 20
4.740134722222221
 10
15.32373749999999
 20
4.740134722222221
 10
15.26894583333333
 20
4.740134722222221
 10
15.21070972222222
 20
4.740134722222221
 10
15.14905694444444
 20
4.740134722222221
 10
15.08740416666666
 20
4.740134722222221
 10
15.02918194444444
 20
4.740134722222221
 10
14.97093194444444
 20
4.740134722222221
 10
14.91955694444444
 20
4.740134722222221
 10
14.87502916666666
 20
4.740134722222221
 10
14.83734861111111
 20
4.740134722222221
 10
14.80994583333333
 20
4.740134722222221
 10
14.78940416666666
 20
4.740134722222221
 10
14.77912638888889
 20
4.740134722222221
 10
14.76541805555555
 20
4.740134722222221
 10
14.75172361111111
 20
4.736704166666666
 10
14.74144583333333
 20
4.729856944444444
 10
14.73115416666666
 20
4.723009722222221
 10
14.72430694444444
 20
4.712731944444444
 10
14.71745972222222
 20
4.69902361111111
 10
14.71404305555555
 20
4.688759722222221
 10
14.71404305555555
 20
4.675065277777777
 10
14.7106125
 20
4.507218055555555
 10
14.70034861111111
 20
4.339370833333333
 10
14.68320972222222
 20
4.171537499999999
 10
14.65580694444444
 20
4.003690277777777
 10
14.61814027777777
 20
3.83927361111111
 10
14.57702916666666
 20
3.678287499999999
 10
14.52565416666666
 20
3.5172875
 10
14.46398749999999
 20
3.359731944444444
 10
14.46057083333333
 20
3.356315277777777
 10
14.45714027777777
 20
3.356315277777777
 10
14.45714027777777
 20
3.352870833333333
 10
14.45372361111111
 20
3.352870833333333
 10
14.45029305555555
 20
3.352870833333333
  0
LWPOLYLINE
  5
16D
330
2
100
AcDbEntity
  8
PDF_Layer 1
 62
     7
420
 16777215
370
   120
100
AcDbPolyline
 90
        2
 70
     0
 43
0.0
 10
15.37170972222222
 20
1.866287499999999
 10
15.37170972222222
 20
1.95877361111111
  0
LWPOLYLINE
  5
16E
330
2
100
AcDbEntity
  8
PDF_Layer 1
 62
     7
420
 16777215
370
   120
100
AcDbPolyline
 90
        2
 70
     0
 43
0.0
 10
14.92640416666666
 20
1.95877361111111
 10
14.92640416666666
 20
1.866287499999999
  0
LWPOLYLINE
  5
170
330
2
100
AcDbEntity
  8
PDF_Layer 1
 62
     7
420
 16777215
370
   120
100
AcDbPolyline
 90
        4
 70
     0
 43
0.0
 10
14.67977916666666
 20
2.475995833333333
 10
14.67977916666666
 20
2.174579166666666
 10
14.91614027777777
 20
2.174579166666666
 10
14.91614027777777
 20
2.475995833333333
  0
LWPOLYLINE
  5
173
330
2
100
AcDbEntity
  8
PDF_Layer 1
 62
     7
420
 16777215
370
   120
100
AcDbPolyline
 90
        4
 70
     0
 43
0.0
 10
15.38197361111111
 20
2.475995833333333
 10
15.38197361111111
 20
2.174579166666666
 10
15.61489027777777
 20
2.174579166666666
 10
15.61489027777777
 20
2.475995833333333
  0
LWPOLYLINE
  5
176
330
2
100
AcDbEntity
  8
PDF_Layer 1
 62
     7
420
 16777215
370
   120
100
AcDbPolyline
 90
        2
 70
     0
 43
0.0
 10
15.38197361111111
 20
2.174579166666666
 10
14.91614027777777
 20
2.174579166666666
  0
LWPOLYLINE
  5
179
330
2
100
AcDbEntity
  8
PDF_Layer 1
 62
     7
420
 16777215
370
   120
100
AcDbPolyline
 90
       28
 70
     0
 43
0.0
 10
15.44705694444444
 20
1.993023611111111
 10
15.4333625
 20
1.989606944444444
 10
15.40594583333333
 20
1.989606944444444
 10
15.36141805555555
 20
1.986176388888888
 10
15.30661249999999
 20
1.982745833333333
 10
15.24497361111111
 20
1.982745833333333
 10
15.17302916666666
 20
1.979329166666666
 10
15.10452916666666
 20
1.979329166666666
 10
15.03602916666666
 20
1.97589861111111
 10
14.97436249999999
 20
1.972481944444444
 10
14.91955694444444
 20
1.972481944444444
 10
14.88187638888888
 20
1.969051388888888
 10
14.85789027777777
 20
1.965634722222222
 10
14.84762638888888
 20
1.965634722222222
 10
14.85104305555555
 20
1.969051388888888
 10
14.88872361111111
 20
1.97589861111111
 10
14.95382083333333
 20
1.986176388888888
 10
14.99834861111111
 20
1.989606944444444
 10
15.07026527777777
 20
1.993023611111111
 10
15.10109861111111
 20
1.996454166666666
 10
15.17987638888888
 20
1.999870833333333
 10
15.2552375
 20
1.999870833333333
 10
15.32373749999999
 20
2.003315277777777
 10
15.38540416666666
 20
2.003315277777777
 10
15.4333625
 20
2.006731944444444
 10
15.46418194444444
 20
2.010162499999999
 10
15.47789027777777
 20
2.010162499999999
 10
15.47789027777777
 20
2.013579166666666
  0
LWPOLYLINE
  5
17B
330
2
100
AcDbEntity
  8
PDF_Layer 1
 62
     7
420
 16777215
370
   120
100
AcDbPolyline
 90
       14
 70
     0
 43
0.0
 10
14.82023749999999
 20
2.040981944444444
 10
14.81679305555555
 20
2.040981944444444
 10
14.83734861111111
 20
2.044412499999999
 10
14.87161249999999
 20
2.047843055555555
 10
14.92298749999999
 20
2.047843055555555
 10
15.00519583333333
 20
2.051259722222222
 10
15.10109861111111
 20
2.054690277777777
 10
15.17987638888888
 20
2.058106944444444
 10
15.2552375
 20
2.058106944444444
 10
15.32373749999999
 20
2.0615375
 10
15.38540416666666
 20
2.064954166666666
 10
15.4333625
 20
2.064954166666666
 10
15.46418194444444
 20
2.068384722222222
 10
15.47789027777777
 20
2.071815277777777
  0
LWPOLYLINE
  5
17C
330
2
100
AcDbEntity
  8
PDF_Layer 1
 62
     7
420
 16777215
370
   120
100
AcDbPolyline
 90
       14
 70
     0
 43
0.0
 10
14.82023749999999
 20
2.099218055555555
 10
14.81679305555555
 20
2.102634722222222
 10
14.83734861111111
 20
2.102634722222222
 10
14.87161249999999
 20
2.106065277777777
 10
14.92298749999999
 20
2.109481944444444
 10
15.00519583333333
 20
2.109481944444444
 10
15.10109861111111
 20
2.112912499999999
 10
15.17987638888888
 20
2.116343055555555
 10
15.2552375
 20
2.116343055555555
 10
15.32373749999999
 20
2.119759722222222
 10
15.38540416666666
 20
2.123190277777777
 10
15.4333625
 20
2.123190277777777
 10
15.46418194444444
 20
2.126606944444444
 10
15.47789027777777
 20
2.130051388888888
  0
LWPOLYLINE
  5
17D
330
2
100
AcDbEntity
  8
PDF_Layer 1
 62
     7
420
 16777215
370
   120
100
AcDbPolyline
 90
        8
 70
     0
 43
0.0
 10
14.82023749999999
 20
2.157440277777777
 10
14.81679305555555
 20
2.160870833333333
 10
14.83734861111111
 20
2.160870833333333
 10
14.87161249999999
 20
2.164287499999999
 10
14.92298749999999
 20
2.167718055555555
 10
15.00519583333333
 20
2.171148611111111
 10
15.10109861111111
 20
2.171148611111111
 10
15.16618194444444
 20
2.174579166666666
  0
LWPOLYLINE
  5
17E
330
2
100
AcDbEntity
  8
PDF_Layer 1
 62
     7
420
 16777215
370
   120
100
AcDbPolyline
 90
       10
 70
     0
 43
0.0
 10
14.94009861111111
 20
2.636995833333333
 10
15.00519583333333
 20
2.640426388888888
 10
15.10109861111111
 20
2.640426388888888
 10
15.17987638888888
 20
2.643843055555555
 10
15.2552375
 20
2.64727361111111
 10
15.32373749999999
 20
2.64727361111111
 10
15.38540416666666
 20
2.650690277777777
 10
15.4333625
 20
2.654120833333333
 10
15.46418194444444
 20
2.654120833333333
 10
15.47789027777777
 20
2.657537499999999
  0
LWPOLYLINE
  5
17F
330
2
100
AcDbEntity
  8
PDF_Layer 1
 62
     7
420
 16777215
370
   120
100
AcDbPolyline
 90
       14
 70
     0
 43
0.0
 10
14.82023749999999
 20
2.688370833333333
 10
14.81679305555555
 20
2.688370833333333
 10
14.83734861111111
 20
2.691801388888888
 10
14.87161249999999
 20
2.691801388888888
 10
14.92298749999999
 20
2.695218055555555
 10
15.00519583333333
 20
2.69864861111111
 10
15.10109861111111
 20
2.702065277777777
 10
15.17987638888888
 20
2.702065277777777
 10
15.2552375
 20
2.705495833333332
 10
15.32373749999999
 20
2.708912499999999
 10
15.38540416666666
 20
2.708912499999999
 10
15.4333625
 20
2.712343055555555
 10
15.46418194444444
 20
2.712343055555555
 10
15.47789027777777
 20
2.715759722222221
  0
LWPOLYLINE
  5
180
330
2
100
AcDbEntity
  8
PDF_Layer 1
 62
     7
420
 16777215
370
   120
100
AcDbPolyline
 90
       14
 70
     0
 43
0.0
 10
14.82023749999999
 20
2.746593055555555
 10
14.81679305555555
 20
2.746593055555555
 10
14.83734861111111
 20
2.75002361111111
 10
14.87161249999999
 20
2.75002361111111
 10
14.92298749999999
 20
2.753440277777777
 10
15.00519583333333
 20
2.756870833333333
 10
15.10109861111111
 20
2.7602875
 10
15.17987638888888
 20
2.7602875
 10
15.2552375
 20
2.763731944444444
 10
15.32373749999999
 20
2.767162499999999
 10
15.38540416666666
 20
2.767162499999999
 10
15.4333625
 20
2.770579166666666
 10
15.46418194444444
 20
2.774009722222221
 10
15.47789027777777
 20
2.774009722222221
  0
LWPOLYLINE
  5
181
330
2
100
AcDbEntity
  8
PDF_Layer 1
 62
     7
420
 16777215
370
   120
100
AcDbPolyline
 90
       15
 70
     0
 43
0.0
 10
14.82023749999999
 20
2.804843055555555
 10
14.81679305555555
 20
2.804843055555555
 10
14.83734861111111
 20
2.808259722222222
 10
14.87161249999999
 20
2.811690277777777
 10
14.92298749999999
 20
2.811690277777777
 10
15.00519583333333
 20
2.815106944444444
 10
15.10109861111111
 20
2.818537499999999
 10
15.17987638888888
 20
2.821954166666666
 10
15.2552375
 20
2.821954166666666
 10
15.32373749999999
 20
2.825384722222222
 10
15.38540416666666
 20
2.825384722222222
 10
15.4333625
 20
2.828801388888888
 10
15.46418194444444
 20
2.832231944444444
 10
15.47789027777777
 20
2.832231944444444
 10
15.47789027777777
 20
2.83564861111111
  0
LWPOLYLINE
  5
182
330
2
100
AcDbEntity
  8
PDF_Layer 1
 62
     7
420
 16777215
370
   120
100
AcDbPolyline
 90
       14
 70
     0
 43
0.0
 10
14.82023749999999
 20
2.863065277777777
 10
14.81679305555555
 20
2.863065277777777
 10
14.83734861111111
 20
2.866481944444444
 10
14.87161249999999
 20
2.869912499999999
 10
14.92298749999999
 20
2.869912499999999
 10
15.00519583333333
 20
2.873329166666666
 10
15.10109861111111
 20
2.876759722222221
 10
15.17987638888888
 20
2.880176388888888
 10
15.2552375
 20
2.880176388888888
 10
15.32373749999999
 20
2.883606944444444
 10
15.38540416666666
 20
2.887037499999999
 10
15.4333625
 20
2.887037499999999
 10
15.46418194444444
 20
2.890468055555555
 10
15.47789027777777
 20
2.893898611111111
  0
LWPOLYLINE
  5
183
330
2
100
AcDbEntity
  8
PDF_Layer 1
 62
     7
420
 16777215
370
   120
100
AcDbPolyline
 90
       14
 70
     0
 43
0.0
 10
14.82023749999999
 20
2.9212875
 10
14.81679305555555
 20
2.924704166666666
 10
14.83734861111111
 20
2.924704166666666
 10
14.87161249999999
 20
2.928134722222221
 10
14.92298749999999
 20
2.931579166666666
 10
15.00519583333333
 20
2.931579166666666
 10
15.10109861111111
 20
2.934995833333333
 10
15.17987638888888
 20
2.938426388888888
 10
15.2552375
 20
2.938426388888888
 10
15.32373749999999
 20
2.941843055555555
 10
15.38540416666666
 20
2.94527361111111
 10
15.4333625
 20
2.94527361111111
 10
15.46418194444444
 20
2.948690277777777
 10
15.47789027777777
 20
2.952120833333333
  0
LWPOLYLINE
  5
184
330
2
100
AcDbEntity
  8
PDF_Layer 1
 62
     7
420
 16777215
370
   120
100
AcDbPolyline
 90
       14
 70
     0
 43
0.0
 10
14.82023749999999
 20
2.97952361111111
 10
14.81679305555555
 20
2.982954166666666
 10
14.83734861111111
 20
2.982954166666666
 10
14.87161249999999
 20
2.986370833333332
 10
14.92298749999999
 20
2.989801388888888
 10
15.00519583333333
 20
2.993218055555555
 10
15.10109861111111
 20
2.993218055555555
 10
15.17987638888888
 20
2.99664861111111
 10
15.2552375
 20
3.000065277777777
 10
15.32373749999999
 20
3.000065277777777
 10
15.38540416666666
 20
3.003495833333333
 10
15.4333625
 20
3.006912499999999
 10
15.46418194444444
 20
3.006912499999999
 10
15.47789027777777
 20
3.010343055555555
  0
LWPOLYLINE
  5
185
330
2
100
AcDbEntity
  8
PDF_Layer 1
 62
     7
420
 16777215
370
   120
100
AcDbPolyline
 90
       14
 70
     0
 43
0.0
 10
14.82023749999999
 20
3.041176388888888
 10
14.81679305555555
 20
3.041176388888888
 10
14.83734861111111
 20
3.044593055555555
 10
14.87161249999999
 20
3.044593055555555
 10
14.92298749999999
 20
3.04802361111111
 10
15.00519583333333
 20
3.051454166666666
 10
15.10109861111111
 20
3.051454166666666
 10
15.17987638888888
 20
3.054870833333333
 10
15.2552375
 20
3.058315277777777
 10
15.32373749999999
 20
3.058315277777777
 10
15.38540416666666
 20
3.061731944444444
 10
15.4333625
 20
3.065162499999999
 10
15.46418194444444
 20
3.065162499999999
 10
15.47789027777777
 20
3.068579166666666
  0
LWPOLYLINE
  5
186
330
2
100
AcDbEntity
  8
PDF_Layer 1
 62
     7
420
 16777215
370
   120
100
AcDbPolyline
 90
       18
 70
     0
 43
0.0
 10
14.82023749999999
 20
3.09939861111111
 10
14.81679305555555
 20
3.09939861111111
 10
14.83734861111111
 20
3.102843055555555
 10
14.87161249999999
 20
3.102843055555555
 10
14.92298749999999
 20
3.106259722222222
 10
15.00519583333333
 20
3.109690277777777
 10
15.10109861111111
 20
3.113106944444444
 10
15.17987638888888
 20
3.113106944444444
 10
15.23468194444444
 20
3.116537499999999
 10
15.22440416666666
 20
3.095981944444444
 10
15.15591805555555
 20
3.095981944444444
 10
15.08397361111111
 20
3.092551388888888
 10
15.01889027777777
 20
3.089120833333333
 10
14.95723749999999
 20
3.089120833333333
 10
14.90929305555555
 20
3.085704166666666
 10
14.87161249999999
 20
3.085704166666666
 10
14.85104305555555
 20
3.08227361111111
 10
14.85104305555555
 20
3.078856944444444
  0
LWPOLYLINE
  5
189
330
2
100
AcDbEntity
  8
PDF_Layer 1
 62
     7
420
 16777215
370
   120
100
AcDbPolyline
 90
       14
 70
     0
 43
0.0
 10
14.85104305555555
 20
2.023856944444444
 10
14.86476527777777
 20
2.027273611111111
 10
14.89900138888888
 20
2.027273611111111
 10
14.94352916666666
 20
2.030704166666666
 10
15.00176527777777
 20
2.034134722222221
 10
15.06684861111111
 20
2.034134722222221
 10
15.13534861111111
 20
2.037551388888888
 10
15.20729305555555
 20
2.040981944444444
 10
15.2723625
 20
2.040981944444444
 10
15.33402916666666
 20
2.044412499999999
 10
15.38540416666666
 20
2.047843055555555
 10
15.41965416666666
 20
2.047843055555555
 10
15.44362638888888
 20
2.051259722222222
 10
15.44705694444444
 20
2.051259722222222
  0
LWPOLYLINE
  5
18B
330
2
100
AcDbEntity
  8
PDF_Layer 1
 62
     7
420
 16777215
370
   120
100
AcDbPolyline
 90
       14
 70
     0
 43
0.0
 10
14.85104305555555
 20
2.140315277777777
 10
14.86476527777777
 20
2.143745833333333
 10
14.89557083333333
 20
2.147162499999999
 10
14.94009861111111
 20
2.147162499999999
 10
14.99491805555555
 20
2.150593055555555
 10
15.0599875
 20
2.154023611111111
 10
15.12850138888888
 20
2.154023611111111
 10
15.20044583333333
 20
2.157440277777777
 10
15.26894583333333
 20
2.157440277777777
 10
15.33059861111111
 20
2.160870833333333
 10
15.38197361111111
 20
2.164287499999999
 10
15.41965416666666
 20
2.164287499999999
 10
15.44020972222222
 20
2.167718055555555
 10
15.44705694444444
 20
2.171148611111111
  0
LWPOLYLINE
  5
18F
330
2
100
AcDbEntity
  8
PDF_Layer 1
 62
     7
420
 16777215
370
   120
100
AcDbPolyline
 90
       14
 70
     0
 43
0.0
 10
14.85104305555555
 20
2.787704166666666
 10
14.86476527777777
 20
2.791120833333333
 10
14.89557083333333
 20
2.791120833333333
 10
14.94352916666666
 20
2.794551388888888
 10
14.99834861111111
 20
2.797968055555555
 10
15.06341805555555
 20
2.797968055555555
 10
15.13534861111111
 20
2.80139861111111
 10
15.2038625
 20
2.80139861111111
 10
15.2723625
 20
2.804843055555555
 10
15.33402916666666
 20
2.808259722222222
 10
15.38197361111111
 20
2.808259722222222
 10
15.41965416666666
 20
2.811690277777777
 10
15.44362638888888
 20
2.815106944444444
 10
15.44705694444444
 20
2.815106944444444
  0
LWPOLYLINE
  5
190
330
2
100
AcDbEntity
  8
PDF_Layer 1
 62
     7
420
 16777215
370
   120
100
AcDbPolyline
 90
       14
 70
     0
 43
0.0
 10
14.84762638888888
 20
2.845926388888888
 10
14.85447361111111
 20
2.845926388888888
 10
14.87845972222222
 20
2.849370833333333
 10
14.91614027777777
 20
2.852787499999999
 10
14.96751527777777
 20
2.852787499999999
 10
15.02918194444444
 20
2.856218055555555
 10
15.09425138888888
 20
2.859634722222222
 10
15.16618194444444
 20
2.859634722222222
 10
15.23468194444444
 20
2.863065277777777
 10
15.29976527777777
 20
2.866481944444444
 10
15.35800138888889
 20
2.866481944444444
 10
15.40252916666666
 20
2.869912499999999
 10
15.4333625
 20
2.869912499999999
 10
15.44705694444444
 20
2.873329166666666
  0
LWPOLYLINE
  5
195
330
2
100
AcDbEntity
  8
PDF_Layer 1
 62
     7
420
 16777215
370
   120
100
AcDbPolyline
 90
        2
 70
     0
 43
0.0
 10
14.84762638888888
 20
1.965634722222222
 10
14.84762638888888
 20
1.965634722222222
  0
LWPOLYLINE
  5
196
330
2
100
AcDbEntity
  8
PDF_Layer 1
 62
     7
420
 16777215
370
   120
100
AcDbPolyline
 90
       20
 70
     0
 43
0.0
 10
15.10109861111111
 20
1.996454166666666
 10
15.07026527777777
 20
1.996454166666666
 10
15.03944583333333
 20
1.996454166666666
 10
15.00861249999999
 20
1.996454166666666
 10
14.98120972222222
 20
1.996454166666666
 10
14.95382083333333
 20
1.996454166666666
 10
14.92640416666666
 20
1.996454166666666
 10
14.90244583333333
 20
1.996454166666666
 10
14.88187638888888
 20
1.996454166666666
 10
14.92298749999999
 20
1.996454166666666
 10
14.98464027777777
 20
1.999870833333333
 10
15.05657083333333
 20
2.003315277777777
 10
15.13534861111111
 20
2.003315277777777
 10
15.21414027777777
 20
2.006731944444444
 10
15.28607083333333
 20
2.010162499999999
 10
15.35457083333333
 20
2.010162499999999
 10
15.40939027777777
 20
2.013579166666666
 10
15.45047361111111
 20
2.017009722222222
 10
15.47445972222222
 20
2.017009722222222
 10
15.47789027777777
 20
2.020426388888888
  0
LWPOLYLINE
  5
197
330
2
100
AcDbEntity
  8
PDF_Layer 1
 62
     7
420
 16777215
370
   120
100
AcDbPolyline
 90
       15
 70
     0
 43
0.0
 10
14.82023749999999
 20
2.047843055555555
 10
14.82365416666666
 20
2.051259722222222
 10
14.84762638888888
 20
2.051259722222222
 10
14.88187638888888
 20
2.054690277777777
 10
14.92298749999999
 20
2.058106944444444
 10
14.98464027777777
 20
2.058106944444444
 10
15.05657083333333
 20
2.0615375
 10
15.13534861111111
 20
2.0615375
 10
15.21414027777777
 20
2.064954166666666
 10
15.28607083333333
 20
2.068384722222222
 10
15.35457083333333
 20
2.068384722222222
 10
15.40939027777777
 20
2.071815277777777
 10
15.45047361111111
 20
2.075231944444444
 10
15.47445972222222
 20
2.075231944444444
 10
15.47789027777777
 20
2.0786625
  0
LWPOLYLINE
  5
198
330
2
100
AcDbEntity
  8
PDF_Layer 1
 62
     7
420
 16777215
370
   120
100
AcDbPolyline
 90
       15
 70
     0
 43
0.0
 10
14.82023749999999
 20
2.109481944444444
 10
14.82365416666666
 20
2.109481944444444
 10
14.84762638888888
 20
2.112912499999999
 10
14.88187638888888
 20
2.112912499999999
 10
14.92298749999999
 20
2.116343055555555
 10
14.98464027777777
 20
2.116343055555555
 10
15.05657083333333
 20
2.119759722222222
 10
15.13534861111111
 20
2.123190277777777
 10
15.21414027777777
 20
2.123190277777777
 10
15.28607083333333
 20
2.126606944444444
 10
15.35457083333333
 20
2.130051388888888
 10
15.40939027777777
 20
2.130051388888888
 10
15.45047361111111
 20
2.133468055555555
 10
15.47445972222222
 20
2.136898611111111
 10
15.47789027777777
 20
2.136898611111111
  0
LWPOLYLINE
  5
199
330
2
100
AcDbEntity
  8
PDF_Layer 1
 62
     7
420
 16777215
370
   120
100
AcDbPolyline
 90
        6
 70
     0
 43
0.0
 10
14.82023749999999
 20
2.167718055555555
 10
14.82365416666666
 20
2.167718055555555
 10
14.84762638888888
 20
2.171148611111111
 10
14.88187638888888
 20
2.171148611111111
 10
14.92298749999999
 20
2.174579166666666
 10
14.92640416666666
 20
2.174579166666666
  0
LWPOLYLINE
  5
19A
330
2
100
AcDbEntity
  8
PDF_Layer 1
 62
     7
420
 16777215
370
   120
100
AcDbPolyline
 90
       15
 70
     0
 43
0.0
 10
14.82023749999999
 20
2.636995833333333
 10
14.82365416666666
 20
2.636995833333333
 10
14.84762638888888
 20
2.640426388888888
 10
14.88187638888888
 20
2.640426388888888
 10
14.92298749999999
 20
2.643843055555555
 10
14.98464027777777
 20
2.64727361111111
 10
15.05657083333333
 20
2.64727361111111
 10
15.13534861111111
 20
2.650690277777777
 10
15.21414027777777
 20
2.654120833333333
 10
15.28607083333333
 20
2.654120833333333
 10
15.35457083333333
 20
2.657537499999999
 10
15.40939027777777
 20
2.657537499999999
 10
15.45047361111111
 20
2.660968055555555
 10
15.47445972222222
 20
2.664384722222222
 10
15.47789027777777
 20
2.664384722222222
  0
LWPOLYLINE
  5
19B
330
2
100
AcDbEntity
  8
PDF_Layer 1
 62
     7
420
 16777215
370
   120
100
AcDbPolyline
 90
       15
 70
     0
 43
0.0
 10
14.82023749999999
 20
2.695218055555555
 10
14.82365416666666
 20
2.695218055555555
 10
14.84762638888888
 20
2.69864861111111
 10
14.88187638888888
 20
2.702065277777777
 10
14.92298749999999
 20
2.702065277777777
 10
14.98464027777777
 20
2.705495833333332
 10
15.05657083333333
 20
2.705495833333332
 10
15.13534861111111
 20
2.708912499999999
 10
15.21414027777777
 20
2.712343055555555
 10
15.28607083333333
 20
2.712343055555555
 10
15.35457083333333
 20
2.715759722222221
 10
15.40939027777777
 20
2.719190277777777
 10
15.45047361111111
 20
2.719190277777777
 10
15.47445972222222
 20
2.722634722222222
 10
15.47789027777777
 20
2.722634722222222
  0
LWPOLYLINE
  5
19C
330
2
100
AcDbEntity
  8
PDF_Layer 1
 62
     7
420
 16777215
370
   120
100
AcDbPolyline
 90
       15
 70
     0
 43
0.0
 10
14.82023749999999
 20
2.753440277777777
 10
14.82365416666666
 20
2.756870833333333
 10
14.84762638888888
 20
2.756870833333333
 10
14.88187638888888
 20
2.7602875
 10
14.92298749999999
 20
2.7602875
 10
14.98464027777777
 20
2.763731944444444
 10
15.05657083333333
 20
2.767162499999999
 10
15.13534861111111
 20
2.767162499999999
 10
15.21414027777777
 20
2.770579166666666
 10
15.28607083333333
 20
2.770579166666666
 10
15.35457083333333
 20
2.774009722222221
 10
15.40939027777777
 20
2.777426388888888
 10
15.45047361111111
 20
2.777426388888888
 10
15.47445972222222
 20
2.780856944444444
 10
15.47789027777777
 20
2.78427361111111
  0
LWPOLYLINE
  5
19D
330
2
100
AcDbEntity
  8
PDF_Layer 1
 62
     7
420
 16777215
370
   120
100
AcDbPolyline
 90
       15
 70
     0
 43
0.0
 10
14.82023749999999
 20
2.811690277777777
 10
14.82365416666666
 20
2.815106944444444
 10
14.84762638888888
 20
2.815106944444444
 10
14.88187638888888
 20
2.818537499999999
 10
14.92298749999999
 20
2.818537499999999
 10
14.98464027777777
 20
2.821954166666666
 10
15.05657083333333
 20
2.825384722222222
 10
15.13534861111111
 20
2.825384722222222
 10
15.21414027777777
 20
2.828801388888888
 10
15.28607083333333
 20
2.832231944444444
 10
15.35457083333333
 20
2.832231944444444
 10
15.40939027777777
 20
2.83564861111111
 10
15.45047361111111
 20
2.839079166666666
 10
15.47445972222222
 20
2.839079166666666
 10
15.47789027777777
 20
2.842495833333332
  0
LWPOLYLINE
  5
19E
330
2
100
AcDbEntity
  8
PDF_Layer 1
 62
     7
420
 16777215
370
   120
100
AcDbPolyline
 90
       15
 70
     0
 43
0.0
 10
14.82023749999999
 20
2.869912499999999
 10
14.82365416666666
 20
2.873329166666666
 10
14.84762638888888
 20
2.873329166666666
 10
14.88187638888888
 20
2.876759722222221
 10
14.92298749999999
 20
2.880176388888888
 10
14.98464027777777
 20
2.880176388888888
 10
15.05657083333333
 20
2.883606944444444
 10
15.13534861111111
 20
2.883606944444444
 10
15.21414027777777
 20
2.887037499999999
 10
15.28607083333333
 20
2.890468055555555
 10
15.35457083333333
 20
2.890468055555555
 10
15.40939027777777
 20
2.893898611111111
 10
15.45047361111111
 20
2.897315277777777
 10
15.47445972222222
 20
2.897315277777777
 10
15.47789027777777
 20
2.900745833333333
  0
LWPOLYLINE
  5
19F
330
2
100
AcDbEntity
  8
PDF_Layer 1
 62
     7
420
 16777215
370
   120
100
AcDbPolyline
 90
       15
 70
     0
 43
0.0
 10
14.82023749999999
 20
2.931579166666666
 10
14.82365416666666
 20
2.931579166666666
 10
14.84762638888888
 20
2.934995833333333
 10
14.88187638888888
 20
2.934995833333333
 10
14.92298749999999
 20
2.938426388888888
 10
14.98464027777777
 20
2.938426388888888
 10
15.05657083333333
 20
2.941843055555555
 10
15.13534861111111
 20
2.94527361111111
 10
15.21414027777777
 20
2.94527361111111
 10
15.28607083333333
 20
2.948690277777777
 10
15.35457083333333
 20
2.952120833333333
 10
15.40939027777777
 20
2.952120833333333
 10
15.45047361111111
 20
2.955537499999999
 10
15.47445972222222
 20
2.958968055555555
 10
15.47789027777777
 20
2.958968055555555
  0
LWPOLYLINE
  5
1A0
330
2
100
AcDbEntity
  8
PDF_Layer 1
 62
     7
420
 16777215
370
   120
100
AcDbPolyline
 90
       15
 70
     0
 43
0.0
 10
14.82023749999999
 20
2.989801388888888
 10
14.82365416666666
 20
2.989801388888888
 10
14.84762638888888
 20
2.993218055555555
 10
14.88187638888888
 20
2.993218055555555
 10
14.92298749999999
 20
2.99664861111111
 10
14.98464027777777
 20
2.99664861111111
 10
15.05657083333333
 20
3.000065277777777
 10
15.13534861111111
 20
3.003495833333333
 10
15.21414027777777
 20
3.003495833333333
 10
15.28607083333333
 20
3.006912499999999
 10
15.35457083333333
 20
3.010343055555555
 10
15.40939027777777
 20
3.010343055555555
 10
15.45047361111111
 20
3.013773611111111
 10
15.47445972222222
 20
3.017204166666666
 10
15.47789027777777
 20
3.017204166666666
  0
LWPOLYLINE
  5
1A1
330
2
100
AcDbEntity
  8
PDF_Layer 1
 62
     7
420
 16777215
370
   120
100
AcDbPolyline
 90
       11
 70
     0
 43
0.0
 10
14.82023749999999
 20
3.04802361111111
 10
14.82365416666666
 20
3.04802361111111
 10
14.84762638888888
 20
3.051454166666666
 10
14.88187638888888
 20
3.051454166666666
 10
14.92298749999999
 20
3.054870833333333
 10
14.98464027777777
 20
3.058315277777777
 10
15.05657083333333
 20
3.058315277777777
 10
15.13534861111111
 20
3.061731944444444
 10
15.21414027777777
 20
3.065162499999999
 10
15.23468194444444
 20
3.065162499999999
 10
15.23468194444444
 20
3.116537499999999
  0
LWPOLYLINE
  5
1A4
330
2
100
AcDbEntity
  8
PDF_Layer 1
 62
     7
420
 16777215
370
   120
100
AcDbPolyline
 90
        4
 70
     0
 43
0.0
 10
14.88187638888888
 20
1.996454166666666
 10
14.84419583333333
 20
1.996454166666666
 10
14.82023749999999
 20
1.993023611111111
 10
14.82365416666666
 20
1.993023611111111
  0
LWPOLYLINE
  5
1A8
330
2
100
AcDbEntity
  8
PDF_Layer 1
 62
     7
420
 16777215
370
   120
100
AcDbPolyline
 90
       14
 70
     0
 43
0.0
 10
14.85104305555555
 20
2.068384722222222
 10
14.85447361111111
 20
2.068384722222222
 10
14.87845972222222
 20
2.071815277777777
 10
14.91614027777777
 20
2.075231944444444
 10
14.96751527777777
 20
2.075231944444444
 10
15.02918194444444
 20
2.0786625
 10
15.09766805555555
 20
2.0786625
 10
15.1696125
 20
2.082079166666666
 10
15.2381125
 20
2.085509722222222
 10
15.30319583333333
 20
2.085509722222222
 10
15.35800138888889
 20
2.088940277777777
 10
15.40252916666666
 20
2.092370833333333
 10
15.4333625
 20
2.092370833333333
 10
15.44705694444444
 20
2.095787499999999
  0
LWPOLYLINE
  5
1AA
330
2
100
AcDbEntity
  8
PDF_Layer 1
 62
     7
420
 16777215
370
   120
100
AcDbPolyline
 90
       14
 70
     0
 43
0.0
 10
14.85104305555555
 20
2.654120833333333
 10
14.86818194444444
 20
2.657537499999999
 10
14.89900138888888
 20
2.660968055555555
 10
14.94697361111111
 20
2.660968055555555
 10
15.00519583333333
 20
2.664384722222222
 10
15.07026527777777
 20
2.667815277777777
 10
15.13877916666666
 20
2.667815277777777
 10
15.21070972222222
 20
2.671231944444444
 10
15.27579305555555
 20
2.674662499999999
 10
15.33744583333333
 20
2.674662499999999
 10
15.38540416666666
 20
2.678093055555555
 10
15.42308472222222
 20
2.68152361111111
 10
15.44362638888888
 20
2.68152361111111
 10
15.44705694444444
 20
2.684954166666666
  0
LWPOLYLINE
  5
1AB
330
2
100
AcDbEntity
  8
PDF_Layer 1
 62
     7
420
 16777215
370
   120
100
AcDbPolyline
 90
       14
 70
     0
 43
0.0
 10
14.85104305555555
 20
2.712343055555555
 10
14.85789027777777
 20
2.715759722222221
 10
14.88187638888888
 20
2.719190277777777
 10
14.91955694444444
 20
2.719190277777777
 10
14.97093194444444
 20
2.722634722222222
 10
15.03259861111111
 20
2.722634722222222
 10
15.10109861111111
 20
2.726051388888888
 10
15.17302916666666
 20
2.729481944444444
 10
15.24154305555555
 20
2.729481944444444
 10
15.30661249999999
 20
2.732898611111111
 10
15.36141805555555
 20
2.736329166666666
 10
15.40594583333333
 20
2.736329166666666
 10
15.4333625
 20
2.739745833333333
 10
15.44705694444444
 20
2.743176388888888
  0
LWPOLYLINE
  5
1AE
330
2
100
AcDbEntity
  8
PDF_Layer 1
 62
     7
420
 16777215
370
   120
100
AcDbPolyline
 90
       14
 70
     0
 43
0.0
 10
14.85104305555555
 20
2.890468055555555
 10
14.86476527777777
 20
2.893898611111111
 10
14.89215416666666
 20
2.893898611111111
 10
14.93668194444444
 20
2.897315277777777
 10
14.99491805555555
 20
2.897315277777777
 10
15.0599875
 20
2.900745833333333
 10
15.12850138888888
 20
2.904162499999999
 10
15.20044583333333
 20
2.904162499999999
 10
15.26551527777777
 20
2.907593055555555
 10
15.32718194444444
 20
2.911009722222221
 10
15.37855694444444
 20
2.911009722222221
 10
15.4162375
 20
2.914440277777777
 10
15.44020972222222
 20
2.917856944444443
 10
15.44705694444444
 20
2.917856944444443
  0
LWPOLYLINE
  5
1AF
330
2
100
AcDbEntity
  8
PDF_Layer 1
 62
     7
420
 16777215
370
   120
100
AcDbPolyline
 90
       14
 70
     0
 43
0.0
 10
14.85104305555555
 20
2.948690277777777
 10
14.85447361111111
 20
2.948690277777777
 10
14.87502916666666
 20
2.952120833333333
 10
14.91270972222222
 20
2.955537499999999
 10
14.96066805555555
 20
2.955537499999999
 10
15.02232083333333
 20
2.958968055555555
 10
15.09082083333333
 20
2.962384722222222
 10
15.15933472222222
 20
2.962384722222222
 10
15.23126527777777
 20
2.965815277777777
 10
15.29634861111111
 20
2.965815277777777
 10
15.35457083333333
 20
2.969245833333332
 10
15.39909861111111
 20
2.972662499999999
 10
15.42993194444444
 20
2.972662499999999
 10
15.44705694444444
 20
2.976106944444444
  0
LWPOLYLINE
  5
1B1
330
2
100
AcDbEntity
  8
PDF_Layer 1
 62
     7
420
 16777215
370
   120
100
AcDbPolyline
 90
       10
 70
     0
 43
0.0
 10
14.85104305555555
 20
3.065162499999999
 10
14.85104305555555
 20
3.068579166666666
 10
14.87161249999999
 20
3.068579166666666
 10
14.90929305555555
 20
3.072009722222222
 10
14.95723749999999
 20
3.072009722222222
 10
15.01889027777777
 20
3.075426388888888
 10
15.08397361111111
 20
3.078856944444444
 10
15.15591805555555
 20
3.078856944444444
 10
15.22440416666666
 20
3.08227361111111
 10
15.23468194444444
 20
3.065162499999999
  0
LWPOLYLINE
  5
1B3
330
2
100
AcDbEntity
  8
PDF_Layer 1
 62
     7
420
 16777215
370
   120
100
AcDbPolyline
 90
        2
 70
     0
 43
0.0
 10
14.84762638888888
 20
1.965634722222222
 10
14.84762638888888
 20
1.965634722222222
  0
LWPOLYLINE
  5
1B4
330
2
100
AcDbEntity
  8
PDF_Layer 1
 62
     7
420
 16777215
370
   120
100
AcDbPolyline
 90
        9
 70
     0
 43
0.0
 10
15.14562638888888
 20
1.965634722222222
 10
15.11480694444444
 20
1.965634722222222
 10
15.06684861111111
 20
1.965634722222222
 10
15.02232083333333
 20
1.965634722222222
 10
14.93668194444444
 20
1.965634722222222
 10
14.90586249999999
 20
1.965634722222222
 10
14.87845972222222
 20
1.965634722222222
 10
14.86133472222222
 20
1.965634722222222
 10
14.84762638888888
 20
1.965634722222222
  0
LWPOLYLINE
  5
1B7
330
2
100
AcDbEntity
  8
PDF_Layer 1
 62
     7
420
 16777215
370
   120
100
AcDbPolyline
 90
        2
 70
     0
 43
0.0
 10
15.22440416666666
 20
3.08227361111111
 10
15.22440416666666
 20
3.095981944444444
  0
LWPOLYLINE
  5
1B8
330
2
100
AcDbEntity
  8
PDF_Layer 1
 62
     7
420
 16777215
370
   120
100
AcDbPolyline
 90
        2
 70
     0
 43
0.0
 10
14.84762638888888
 20
1.965634722222222
 10
14.84762638888888
 20
1.965634722222222
  0
ARC
  5
1B9
330
2
100
AcDbEntity
  8
PDF_Layer 1
 62
     7
420
 16777215
370
   120
100
AcDbCircle
 10
15.14734861111111
 20
7.492156532283101
 30
0.0
 40
0.9558447760195281
100
AcDbArc
 50
70.20550608493022
 51
109.7944939150703
  0
LWPOLYLINE
  5
1BA
330
2
100
AcDbEntity
  8
PDF_Layer 1
 62
     7
420
 16777215
370
   120
100
AcDbPolyline
 90
       29
 70
     0
 43
0.0
 10
15.45733472222222
 20
7.411884722222221
 10
15.45047361111111
 20
7.408454166666665
 10
15.39909861111111
 20
7.401606944444442
 10
15.34087638888889
 20
7.398190277777776
 10
15.27920972222222
 20
7.391343055555554
 10
15.21414027777777
 20
7.391343055555554
 10
15.14905694444444
 20
7.387912499999999
 10
15.08055694444444
 20
7.391343055555554
 10
15.01545972222222
 20
7.391343055555554
 10
14.96751527777777
 20
7.394759722222222
 10
14.95382083333333
 20
7.398190277777776
 10
14.89900138888888
 20
7.401606944444442
 10
14.84419583333333
 20
7.408454166666665
 10
14.79966805555555
 20
7.418731944444442
 10
14.7619875
 20
7.429009722222221
 10
14.73459861111111
 20
7.439287499999998
 10
14.71404305555555
 20
7.449565277777776
 10
14.70376527777777
 20
7.459843055555554
 10
14.70376527777777
 20
7.473537499999999
 10
14.71404305555555
 20
7.483815277777777
 10
14.73459861111111
 20
7.494093055555555
 10
14.7619875
 20
7.504370833333332
 10
14.79966805555555
 20
7.51464861111111
 10
14.84419583333333
 20
7.524926388888888
 10
14.89900138888888
 20
7.53177361111111
 10
14.95382083333333
 20
7.535190277777776
 10
15.01545972222222
 20
7.542051388888888
 10
15.08055694444444
 20
7.542051388888888
 10
15.14905694444444
 20
7.545468055555554
  0
LWPOLYLINE
  5
1BB
330
2
100
AcDbEntity
  8
PDF_Layer 1
 62
     7
420
 16777215
370
   120
100
AcDbPolyline
 90
       19
 70
     0
 43
0.0
 10
15.58750138888888
 20
7.58314861111111
 10
15.56009861111111
 20
7.596856944444443
 10
15.52583472222222
 20
7.603704166666665
 10
15.48130694444444
 20
7.613981944444444
 10
15.4333625
 20
7.620829166666665
 10
15.37512638888888
 20
7.627690277777777
 10
15.31347361111111
 20
7.634537499999999
 10
15.24839027777777
 20
7.637954166666665
 10
15.18330694444444
 20
7.637954166666665
 10
15.11480694444444
 20
7.637954166666665
 10
15.04629305555555
 20
7.637954166666665
 10
14.98120972222222
 20
7.634537499999999
 10
14.91955694444444
 20
7.627690277777777
 10
14.86476527777777
 20
7.620829166666665
 10
14.8133625
 20
7.613981944444444
 10
14.77226527777777
 20
7.603704166666665
 10
14.73459861111111
 20
7.596856944444443
 10
14.7106125
 20
7.58314861111111
 10
14.70376527777777
 20
7.58314861111111
  0
ELLIPSE
  5
1BC
330
2
100
AcDbEntity
  8
PDF_Layer 1
 62
     7
420
 16777215
370
   120
100
AcDbEllipse
 10
15.1496103674546
 20
7.466220116344208
 30
0.0
 11
0.3535989990967908
 21
0.0007424917014248
 31
0.0
210
0.0
220
0.0
230
1.0
 40
0.1730259357028408
 41
4.710460530262865
 42
10.99364583744245
  0
ELLIPSE
  5
1BD
330
2
100
AcDbEntity
  8
PDF_Layer 1
 62
     7
420
 16777215
370
   120
100
AcDbEllipse
 10
15.24952549353562
 20
8.410688912223728
 30
0.0
 11
-0.2244357124730937
 21
0.0143539484830513
 31
0.0
210
0.0
220
0.0
230
1.0
 40
0.1456466087746431
 41
2.988734413815459
 42
5.185779058579921
  0
ELLIPSE
  5
1BE
330
2
100
AcDbEntity
  8
PDF_Layer 1
 62
     7
420
 16777215
370
   120
100
AcDbEllipse
 10
15.10039534678102
 20
8.393497297498287
 30
0.0
 11
0.2773299383397433
 21
0.0056279995214473
 31
0.0
210
0.0
220
0.0
230
1.0
 40
0.1899402790609698
 41
1.390565793773077
 42
3.07241970120549
  0
LWPOLYLINE
  5
1C1
330
2
100
AcDbEntity
  8
PDF_Layer 1
 62
     7
420
 16777215
370
   120
100
AcDbPolyline
 90
       29
 70
     0
 43
0.0
 10
14.36465416666666
 20
3.236426388888888
 10
14.36808472222222
 20
3.236426388888888
 10
14.38520972222222
 20
3.236426388888888
 10
14.40918194444444
 20
3.236426388888888
 10
14.44344583333333
 20
3.236426388888888
 10
14.48454305555555
 20
3.236426388888888
 10
14.53593194444444
 20
3.236426388888888
 10
14.59415416666666
 20
3.236426388888888
 10
14.6592375
 20
3.236426388888888
 10
14.73115416666666
 20
3.236426388888888
 10
14.80994583333333
 20
3.236426388888888
 10
14.88872361111111
 20
3.236426388888888
 10
14.97436249999999
 20
3.236426388888888
 10
15.0599875
 20
3.236426388888888
 10
15.14905694444444
 20
3.236426388888888
 10
15.23468194444444
 20
3.236426388888888
 10
15.32373749999999
 20
3.236426388888888
 10
15.40594583333333
 20
3.236426388888888
 10
15.48815416666666
 20
3.236426388888888
 10
15.56351527777777
 20
3.236426388888888
 10
15.63544583333333
 20
3.236426388888888
 10
15.70394583333333
 20
3.236426388888888
 10
15.76219583333333
 20
3.236426388888888
 10
15.81014027777777
 20
3.236426388888888
 10
15.85466805555555
 20
3.236426388888888
 10
15.88893194444444
 20
3.236426388888888
 10
15.91289027777777
 20
3.236426388888888
 10
15.9266125
 20
3.236426388888888
 10
15.93345972222222
 20
3.236426388888888
  0
LWPOLYLINE
  5
1C3
330
2
100
AcDbEntity
  8
PDF_Layer 1
 62
     7
420
 16777215
370
   120
100
AcDbPolyline
 90
       27
 70
     0
 43
0.0
 10
14.46398749999999
 20
3.359731944444444
 10
14.47083472222222
 20
3.359731944444444
 10
14.48454305555555
 20
3.359731944444444
 10
14.50851527777777
 20
3.359731944444444
 10
14.54277916666666
 20
3.359731944444444
 10
14.58730694444444
 20
3.359731944444444
 10
14.63525138888888
 20
3.359731944444444
 10
14.6934875
 20
3.359731944444444
 10
14.75857083333333
 20
3.359731944444444
 10
14.83050138888888
 20
3.359731944444444
 10
14.90586249999999
 20
3.359731944444444
 10
14.98464027777777
 20
3.359731944444444
 10
15.06684861111111
 20
3.359731944444444
 10
15.14905694444444
 20
3.359731944444444
 10
15.23126527777777
 20
3.359731944444444
 10
15.31347361111111
 20
3.359731944444444
 10
15.39225138888888
 20
3.359731944444444
 10
15.4676125
 20
3.359731944444444
 10
15.53612638888888
 20
3.359731944444444
 10
15.60119583333333
 20
3.359731944444444
 10
15.65941805555555
 20
3.359731944444444
 10
15.71080694444444
 20
3.359731944444444
 10
15.75191805555555
 20
3.359731944444444
 10
15.78615416666666
 20
3.359731944444444
 10
15.81357083333333
 20
3.359731944444444
 10
15.82726527777777
 20
3.359731944444444
 10
15.83068194444444
 20
3.359731944444444
  0
LWPOLYLINE
  5
1C6
330
2
100
AcDbEntity
  8
PDF_Layer 1
 62
     7
420
 16777215
370
   120
100
AcDbPolyline
 90
       18
 70
     0
 43
0.0
 10
14.92983472222222
 20
1.862856944444444
 10
14.94009861111111
 20
1.849162499999999
 10
14.96751527777777
 20
1.818329166666666
 10
15.01889027777777
 20
1.760106944444444
 10
15.05657083333333
 20
1.701870833333333
 10
15.07712638888888
 20
1.701870833333333
 10
15.10109861111111
 20
1.701870833333333
 10
15.12508472222222
 20
1.701870833333333
 10
15.14905694444444
 20
1.701870833333333
 10
15.17302916666666
 20
1.701870833333333
 10
15.19700138888888
 20
1.701870833333333
 10
15.21755694444444
 20
1.701870833333333
 10
15.24154305555555
 20
1.701870833333333
 10
15.26208472222222
 20
1.736120833333333
 10
15.28607083333333
 20
1.766954166666666
 10
15.33059861111111
 20
1.821759722222222
 10
15.35800138888889
 20
1.849162499999999
 10
15.36827916666666
 20
1.862856944444444
  0
ARC
  5
1C9
330
2
100
AcDbEntity
  8
PDF_Layer 1
 62
     7
420
 16777215
370
   120
100
AcDbCircle
 10
15.14734861111111
 20
7.868948198949563
 30
0.0
 40
0.9558447760197211
100
AcDbArc
 50
70.20550608493429
 51
109.794493915066
  0
ELLIPSE
  5
1CA
330
2
100
AcDbEntity
  8
PDF_Layer 1
 62
     7
420
 16777215
370
   120
100
AcDbEllipse
 10
15.17139524322696
 20
7.469456463975598
 30
0.0
 11
-0.4200930563896041
 21
0.0029088464207971
 31
0.0
210
0.0
220
0.0
230
1.0
 40
0.1808266795274573
 41
2.320684940911318
 42
4.766839485632187
  0
LWPOLYLINE
  5
1CE
330
2
100
AcDbEntity
  8
PDF_Layer 1
 62
     7
420
 16777215
370
   120
100
AcDbPolyline
 90
       29
 70
     0
 43
0.0
 10
14.3954875
 20
3.26039861111111
 10
14.39891805555555
 20
3.26039861111111
 10
14.4126125
 20
3.26039861111111
 10
14.43315416666666
 20
3.26039861111111
 10
14.46398749999999
 20
3.26039861111111
 10
14.50509861111111
 20
3.26039861111111
 10
14.55304305555555
 20
3.26039861111111
 10
14.6078625
 20
3.26039861111111
 10
14.67293194444444
 20
3.26039861111111
 10
14.74144583333333
 20
3.26039861111111
 10
14.81679305555555
 20
3.26039861111111
 10
14.89557083333333
 20
3.26039861111111
 10
14.97777916666666
 20
3.26039861111111
 10
15.06341805555555
 20
3.26039861111111
 10
15.14905694444444
 20
3.26039861111111
 10
15.23468194444444
 20
3.26039861111111
 10
15.31689027777777
 20
3.26039861111111
 10
15.40252916666666
 20
3.26039861111111
 10
15.48130694444444
 20
3.26039861111111
 10
15.55325138888888
 20
3.26039861111111
 10
15.62518194444444
 20
3.26039861111111
 10
15.68683472222222
 20
3.26039861111111
 10
15.74505694444444
 20
3.26039861111111
 10
15.79301527777777
 20
3.26039861111111
 10
15.83068194444444
 20
3.26039861111111
 10
15.86494583333333
 20
3.26039861111111
 10
15.88550138888888
 20
3.26039861111111
 10
15.89577916666666
 20
3.26039861111111
 10
15.89919583333333
 20
3.26039861111111
  0
LWPOLYLINE
  5
1D0
330
2
100
AcDbEntity
  8
PDF_Layer 1
 62
     7
420
 16777215
370
   120
100
AcDbPolyline
 90
       27
 70
     0
 43
0.0
 10
14.4297375
 20
3.34602361111111
 10
14.43658472222222
 20
3.34602361111111
 10
14.45372361111111
 20
3.34602361111111
 10
14.48112638888888
 20
3.34602361111111
 10
14.51879305555555
 20
3.34602361111111
 10
14.56332083333333
 20
3.34602361111111
 10
14.61814027777777
 20
3.34602361111111
 10
14.67977916666666
 20
3.34602361111111
 10
14.74487638888889
 20
3.34602361111111
 10
14.82023749999999
 20
3.34602361111111
 10
14.89900138888888
 20
3.34602361111111
 10
14.97777916666666
 20
3.34602361111111
 10
15.06341805555555
 20
3.34602361111111
 10
15.14905694444444
 20
3.34602361111111
 10
15.23468194444444
 20
3.34602361111111
 10
15.31689027777777
 20
3.34602361111111
 10
15.39909861111111
 20
3.34602361111111
 10
15.47789027777777
 20
3.34602361111111
 10
15.54982083333333
 20
3.34602361111111
 10
15.61832083333333
 20
3.34602361111111
 10
15.6799875
 20
3.34602361111111
 10
15.7313625
 20
3.34602361111111
 10
15.77930694444444
 20
3.34602361111111
 10
15.81357083333333
 20
3.34602361111111
 10
15.84097361111111
 20
3.34602361111111
 10
15.85809861111111
 20
3.34602361111111
 10
15.86836249999999
 20
3.34602361111111
  0
LWPOLYLINE
  5
1D2
330
2
100
AcDbEntity
  8
PDF_Layer 1
 62
     7
420
 16777215
370
   120
100
AcDbPolyline
 90
       22
 70
     0
 43
0.0
 10
15.58407083333333
 20
4.675065277777777
 10
15.58065416666666
 20
4.675065277777777
 10
15.56694583333333
 20
4.675065277777777
 10
15.54639027777777
 20
4.675065277777777
 10
15.51214027777777
 20
4.675065277777777
 10
15.47445972222222
 20
4.675065277777777
 10
15.42650138888888
 20
4.675065277777777
 10
15.37170972222222
 20
4.675065277777777
 10
15.31004305555555
 20
4.675065277777777
 10
15.24839027777777
 20
4.675065277777777
 10
15.18330694444444
 20
4.675065277777777
 10
15.11480694444444
 20
4.675065277777777
 10
15.04972361111111
 20
4.675065277777777
 10
14.98464027777777
 20
4.675065277777777
 10
14.92640416666666
 20
4.675065277777777
 10
14.87161249999999
 20
4.675065277777777
 10
14.82365416666666
 20
4.675065277777777
 10
14.78255694444444
 20
4.675065277777777
 10
14.75172361111111
 20
4.675065277777777
 10
14.72773749999999
 20
4.675065277777777
 10
14.71745972222222
 20
4.675065277777777
 10
14.71404305555555
 20
4.675065277777777
  0
LWPOLYLINE
  5
1D4
330
2
100
AcDbEntity
  8
PDF_Layer 1
 62
     7
420
 16777215
370
   120
100
AcDbPolyline
 90
        7
 70
     0
 43
0.0
 10
3.556294444444445
 20
2.598826388888888
 10
3.573419444444445
 20
2.598826388888888
 10
3.6111
 20
2.598826388888888
 10
3.638502777777778
 20
2.598826388888888
 10
3.659044444444444
 20
2.598826388888888
 10
3.669336111111111
 20
2.598826388888888
 10
3.669336111111111
 20
2.694729166666666
  0
LWPOLYLINE
  5
1D5
330
2
100
AcDbEntity
  8
PDF_Layer 1
 62
     7
420
 16777215
370
   120
100
AcDbPolyline
 90
       14
 70
     0
 43
0.0
 10
2.569808333333333
 20
2.759826388888888
 10
2.552669444444445
 20
2.759826388888888
 10
2.511572222222222
 20
2.759826388888888
 10
2.477308333333333
 20
2.759826388888888
 10
2.453336111111111
 20
2.759826388888888
 10
2.436225
 20
2.759826388888888
 10
2.432780555555555
 20
2.759826388888888
 10
2.432780555555555
 20
2.694729166666666
 10
2.436225
 20
2.694729166666666
 10
2.453336111111111
 20
2.694729166666666
 10
2.477308333333333
 20
2.694729166666666
 10
2.511572222222222
 20
2.694729166666666
 10
2.552669444444445
 20
2.694729166666666
 10
2.559530555555555
 20
2.694729166666666
  0
LWPOLYLINE
  5
1D6
330
2
100
AcDbEntity
  8
PDF_Layer 1
 62
     7
420
 16777215
370
   120
100
AcDbPolyline
 90
       14
 70
     0
 43
0.0
 10
3.559725
 20
2.694729166666666
 10
3.573419444444445
 20
2.694729166666666
 10
3.617947222222222
 20
2.694729166666666
 10
3.648780555555555
 20
2.694729166666666
 10
3.676183333333333
 20
2.694729166666666
 10
3.689877777777778
 20
2.694729166666666
 10
3.693308333333333
 20
2.694729166666666
 10
3.693308333333333
 20
2.759826388888888
 10
3.689877777777778
 20
2.759826388888888
 10
3.676183333333333
 20
2.759826388888888
 10
3.648780555555555
 20
2.759826388888888
 10
3.617947222222222
 20
2.759826388888888
 10
3.573419444444445
 20
2.759826388888888
 10
3.569988888888889
 20
2.759826388888888
  0
LWPOLYLINE
  5
1D7
330
2
100
AcDbEntity
  8
PDF_Layer 1
 62
     7
420
 16777215
370
   120
100
AcDbPolyline
 90
       22
 70
     0
 43
0.0
 10
3.388461111111111
 20
5.607395833333333
 10
3.388461111111111
 20
8.329381944444444
 10
3.3816
 20
8.329381944444444
 10
3.367905555555555
 20
8.329381944444444
 10
3.343919444444444
 20
8.329381944444444
 10
3.3131
 20
8.329381944444444
 10
3.271988888888889
 20
8.329381944444444
 10
3.224044444444444
 20
8.329381944444444
 10
3.172655555555556
 20
8.329381944444444
 10
3.121280555555555
 20
8.329381944444444
 10
3.063044444444444
 20
8.329381944444444
 10
3.008238888888889
 20
8.329381944444444
 10
2.953433333333333
 20
8.329381944444444
 10
2.902058333333333
 20
8.329381944444444
 10
2.8541
 20
8.329381944444444
 10
2.816433333333333
 20
8.329381944444444
 10
2.782169444444444
 20
8.329381944444444
 10
2.758197222222222
 20
8.329381944444444
 10
2.744488888888889
 20
8.329381944444444
 10
2.741072222222222
 20
8.329381944444444
 10
2.741072222222222
 20
5.643937499999999
 10
2.741072222222222
 20
4.862951388888888
  0
LWPOLYLINE
  5
1D9
330
2
100
AcDbEntity
  8
PDF_Layer 1
 62
     7
420
 16777215
370
   120
100
AcDbPolyline
 90
        2
 70
     0
 43
0.0
 10
3.388461111111111
 20
4.862951388888888
 10
3.388461111111111
 20
5.643937499999999
  0
ARC
  5
1DB
330
2
100
AcDbEntity
  8
PDF_Layer 1
 62
     7
420
 16777215
370
   120
100
AcDbCircle
 10
6.301666336720954
 20
8.329211401718472
 30
0.0
 40
2.913205230601736
100
AcDbArc
 50
10.02508649050616
 51
179.996645832457
  0
ARC
  5
1DC
330
2
100
AcDbEntity
  8
PDF_Layer 1
 62
     7
420
 16777215
370
   120
100
AcDbCircle
 10
6.301292046755998
 20
8.32815678673481
 30
0.0
 40
3.560220035336962
100
AcDbArc
 50
9.992727943260719
 51
179.9802831379272
  0
LWPOLYLINE
  5
1DF
330
2
100
AcDbEntity
  8
PDF_Layer 1
 62
     7
420
 16777215
370
   120
100
AcDbPolyline
 90
      111
 70
     0
 43
0.0
 10
10.15689166666666
 20
7.76078472222222
 10
10.14661388888889
 20
7.76078472222222
 10
10.12605833333333
 20
7.757354166666665
 10
10.09865555555555
 20
7.750506944444444
 10
10.060975
 20
7.74365972222222
 10
10.01644722222222
 20
7.736812499999999
 10
9.965072222222223
 20
7.72653472222222
 10
9.910266666666665
 20
7.71967361111111
 10
9.848599999999999
 20
7.705979166666665
 10
9.783530555555554
 20
7.695701388888888
 10
9.71844722222222
 20
7.68542361111111
 10
9.649947222222222
 20
7.671729166666667
 10
9.584863888888889
 20
7.661451388888888
 10
9.523211111111111
 20
7.65117361111111
 10
9.461544444444445
 20
7.640895833333333
 10
9.410169444444445
 20
7.630618055555554
 10
9.362211111111111
 20
7.620354166666666
 10
9.321113888888888
 20
7.613493055555554
 10
9.286849999999999
 20
7.610062499999999
 10
9.262891666666666
 20
7.603215277777776
 10
9.249169444444444
 20
7.603215277777776
 10
9.242322222222222
 20
7.599798611111109
 10
9.232058333333332
 20
7.589520833333331
 10
9.225211111111111
 20
7.575812499999997
 10
9.221780555555554
 20
7.558687499999999
 10
9.225211111111111
 20
7.541562499999999
 10
9.232058333333332
 20
7.527854166666665
 10
9.245752777777777
 20
7.517590277777776
 10
9.262891666666666
 20
7.510729166666665
 10
9.280002777777777
 20
7.510729166666665
 10
9.283433333333332
 20
7.51415972222222
 10
9.297127777777777
 20
7.51415972222222
 10
9.321113888888888
 20
7.521006944444442
 10
9.355363888888888
 20
7.524437499999999
 10
9.396475
 20
7.531284722222221
 10
9.444419444444443
 20
7.541562499999999
 10
9.499225
 20
7.551840277777776
 10
9.557461111111111
 20
7.562118055555554
 10
9.61911388888889
 20
7.572395833333333
 10
9.684197222222222
 20
7.582673611111109
 10
9.749280555555554
 20
7.596368055555554
 10
9.814363888888887
 20
7.606645833333333
 10
9.876016666666666
 20
7.61692361111111
 10
9.937669444444445
 20
7.627201388888888
 10
9.989044444444443
 20
7.637465277777776
 10
10.03700277777778
 20
7.647743055555555
 10
10.07811388888889
 20
7.654604166666665
 10
10.11236388888889
 20
7.658020833333333
 10
10.13633611111111
 20
7.664881944444443
 10
10.15004444444444
 20
7.664881944444443
 10
10.15689166666666
 20
7.66829861111111
 10
10.17058611111111
 20
7.671729166666667
 10
10.18428055555555
 20
7.681993055555555
 10
10.19114166666666
 20
7.695701388888888
 10
10.19457222222222
 20
7.712826388888888
 10
10.19457222222222
 20
7.729951388888887
 10
10.18428055555555
 20
7.74365972222222
 10
10.17401666666666
 20
7.753937499999999
 10
10.15689166666666
 20
7.76078472222222
 10
10.15004444444444
 20
7.764201388888888
 10
10.14318333333333
 20
7.767631944444444
 10
10.13633611111111
 20
7.771062499999997
 10
10.12948888888889
 20
7.774479166666665
 10
10.12605833333333
 20
7.781340277777776
 10
10.11921111111111
 20
7.788187499999999
 10
10.11579444444444
 20
7.791618055555554
 10
10.11236388888889
 20
7.801881944444444
 10
10.07468333333333
 20
7.894368055555554
 10
10.04043333333333
 20
7.986854166666665
 10
10.00616944444444
 20
8.082756944444442
 10
9.97533611111111
 20
8.178673611111111
 10
9.944516666666666
 20
8.278006944444442
 10
9.920544444444443
 20
8.37390972222222
 10
9.896572222222221
 20
8.469826388888888
 10
9.872586111111111
 20
8.569159722222222
 10
9.807502777777777
 20
8.945937499999999
 10
9.800655555555556
 20
8.945937499999999
 10
9.786961111111112
 20
8.942520833333333
 10
9.762974999999999
 20
8.939090277777777
 10
9.732155555555555
 20
8.935673611111111
 10
9.691044444444443
 20
8.928812499999999
 10
9.646516666666665
 20
8.918548611111111
 10
9.595127777777776
 20
8.911687499999999
 10
9.543752777777777
 20
8.90140972222222
 10
9.488947222222222
 20
8.891145833333332
 10
9.430725
 20
8.880868055555554
 10
9.379336111111109
 20
8.870590277777777
 10
9.327961111111109
 20
8.863729166666665
 10
9.283433333333332
 20
8.853465277777777
 10
9.242322222222222
 20
8.846618055555554
 10
9.211488888888888
 20
8.843187499999999
 10
9.187530555555555
 20
8.839756944444443
 10
9.173808333333333
 20
8.836340277777777
 10
9.170391666666667
 20
8.836340277777777
 10
9.235475
 20
8.456118055555554
 10
9.249169444444444
 20
8.35678472222222
 10
9.25944722222222
 20
8.257451388888886
 10
9.266308333333332
 20
8.158118055555554
 10
9.273155555555554
 20
8.055354166666665
 10
9.276586111111111
 20
7.956020833333331
 10
9.276586111111111
 20
7.853270833333331
 10
9.276586111111111
 20
7.753937499999999
 10
9.273155555555554
 20
7.65117361111111
 10
9.273155555555554
 20
7.644326388888888
 10
9.269738888888888
 20
7.637465277777776
 10
9.269738888888888
 20
7.630618055555554
 10
9.266308333333332
 20
7.623770833333331
 10
9.25944722222222
 20
7.61692361111111
 10
9.256030555555556
 20
7.610062499999999
 10
9.249169444444444
 20
7.606645833333333
 10
9.242322222222222
 20
7.599798611111109
  0
LWPOLYLINE
  5
1E6
330
2
100
AcDbEntity
  8
PDF_Layer 1
 62
     7
420
 16777215
370
   120
100
AcDbPolyline
 90
       66
 70
     0
 43
0.0
 10
3.761808333333333
 20
3.475701388888888
 10
3.758391666666667
 20
3.475701388888888
 10
3.754961111111111
 20
3.475701388888888
 10
3.751544444444444
 20
3.479131944444444
 10
3.748113888888889
 20
3.482562499999999
 10
3.686461111111111
 20
3.640118055555555
 10
3.635072222222222
 20
3.801104166666666
 10
3.590544444444444
 20
3.962104166666666
 10
3.556294444444445
 20
4.126520833333333
 10
3.528891666666667
 20
4.294354166666666
 10
3.511766666666667
 20
4.462201388888888
 10
3.501488888888889
 20
4.63004861111111
 10
3.498058333333333
 20
4.797881944444444
 10
3.498058333333333
 20
4.811576388888887
 10
3.494641666666667
 20
4.821854166666666
 10
3.487780555555556
 20
4.835562499999999
 10
3.480933333333333
 20
4.845840277777777
 10
3.470655555555556
 20
4.8526875
 10
3.460391666666667
 20
4.859534722222221
 10
3.446683333333333
 20
4.862951388888888
 10
3.432988888888889
 20
4.862951388888888
 10
3.429558333333333
 20
4.862951388888888
 10
3.415863888888889
 20
4.862951388888888
 10
3.402155555555555
 20
4.862951388888888
 10
3.398725
 20
4.862951388888888
 10
3.385030555555555
 20
4.862951388888888
 10
3.361044444444444
 20
4.862951388888888
 10
3.326794444444444
 20
4.862951388888888
 10
3.289113888888889
 20
4.862951388888888
 10
3.241169444444444
 20
4.862951388888888
 10
3.189780555555556
 20
4.862951388888888
 10
3.134988888888889
 20
4.862951388888888
 10
3.076752777777778
 20
4.862951388888888
 10
3.021947222222222
 20
4.862951388888888
 10
2.963711111111111
 20
4.862951388888888
 10
2.912336111111111
 20
4.862951388888888
 10
2.860961111111111
 20
4.862951388888888
 10
2.81985
 20
4.862951388888888
 10
2.782169444444444
 20
4.862951388888888
 10
2.754766666666667
 20
4.862951388888888
 10
2.734225
 20
4.862951388888888
 10
2.723947222222222
 20
4.862951388888888
 10
2.713669444444445
 20
4.862951388888888
 10
2.696544444444445
 20
4.862951388888888
 10
2.693113888888889
 20
4.862951388888888
 10
2.679419444444445
 20
4.862951388888888
 10
2.669141666666667
 20
4.859534722222221
 10
2.655433333333333
 20
4.8526875
 10
2.648586111111111
 20
4.845840277777777
 10
2.638308333333333
 20
4.835562499999999
 10
2.631461111111111
 20
4.821854166666666
 10
2.628030555555556
 20
4.811576388888887
 10
2.628030555555556
 20
4.797881944444444
 10
2.628030555555556
 20
4.63004861111111
 10
2.617752777777778
 20
4.462201388888888
 10
2.597197222222222
 20
4.294354166666666
 10
2.569808333333333
 20
4.126520833333333
 10
2.535544444444445
 20
3.962104166666666
 10
2.491016666666667
 20
3.801104166666666
 10
2.439641666666667
 20
3.640118055555555
 10
2.381405555555556
 20
3.482562499999999
 10
2.377988888888889
 20
3.482562499999999
 10
2.377988888888889
 20
3.479131944444444
 10
2.374558333333333
 20
3.479131944444444
 10
2.371127777777778
 20
3.475701388888888
 10
2.367711111111111
 20
3.475701388888888
  0
LWPOLYLINE
  5
1EA
330
2
100
AcDbEntity
  8
PDF_Layer 1
 62
     7
420
 16777215
370
   120
100
AcDbPolyline
 90
       39
 70
     0
 43
0.0
 10
2.675988888888889
 20
0.7388819444444439
 10
2.706808333333333
 20
0.7217430555555553
 10
2.706808333333333
 20
0.6395347222222223
 10
2.706808333333333
 20
0.6326874999999999
 10
2.710238888888889
 20
0.6258402777777774
 10
2.713669444444445
 20
0.6224097222222223
 10
2.717086111111111
 20
0.6155624999999998
 10
2.720516666666667
 20
0.6121458333333334
 10
2.727363888888889
 20
0.6087152777777778
 10
2.734225
 20
0.6087152777777778
 10
2.741072222222222
 20
0.6087152777777778
 10
2.744488888888889
 20
0.6087152777777778
 10
2.758197222222222
 20
0.6087152777777778
 10
2.782169444444444
 20
0.6087152777777778
 10
2.816433333333333
 20
0.6087152777777778
 10
2.8541
 20
0.6087152777777778
 10
2.902058333333333
 20
0.6087152777777778
 10
2.953433333333333
 20
0.6087152777777778
 10
3.008238888888889
 20
0.6087152777777778
 10
3.063044444444444
 20
0.6087152777777778
 10
3.121280555555555
 20
0.6087152777777778
 10
3.172655555555556
 20
0.6087152777777778
 10
3.224044444444444
 20
0.6087152777777778
 10
3.271988888888889
 20
0.6087152777777778
 10
3.3131
 20
0.6087152777777778
 10
3.343919444444444
 20
0.6087152777777778
 10
3.367905555555555
 20
0.6087152777777778
 10
3.3816
 20
0.6087152777777778
 10
3.388461111111111
 20
0.6087152777777778
 10
3.395308333333333
 20
0.6087152777777778
 10
3.398725
 20
0.6087152777777778
 10
3.405572222222222
 20
0.6121458333333334
 10
3.409002777777778
 20
0.6155624999999998
 10
3.415863888888889
 20
0.6224097222222223
 10
3.415863888888889
 20
0.6258402777777774
 10
3.419280555555555
 20
0.6326874999999999
 10
3.419280555555555
 20
0.6395347222222223
 10
3.419280555555555
 20
0.7217430555555553
 10
3.453530555555555
 20
0.7388819444444439
  0
LWPOLYLINE
  5
1F0
330
2
100
AcDbEntity
  8
PDF_Layer 1
 62
     7
420
 16777215
370
   120
100
AcDbPolyline
 90
       82
 70
     1
 43
0.0
 10
3.833752777777778
 20
3.369520833333333
 10
3.826891666666667
 20
3.369520833333333
 10
3.813197222222222
 20
3.369520833333333
 10
3.785794444444444
 20
3.369520833333333
 10
3.751544444444444
 20
3.369520833333333
 10
3.707016666666667
 20
3.369520833333333
 10
3.652197222222222
 20
3.369520833333333
 10
3.590544444444444
 20
3.369520833333333
 10
3.522044444444444
 20
3.369520833333333
 10
3.450113888888889
 20
3.369520833333333
 10
3.367905555555555
 20
3.369520833333333
 10
3.285697222222222
 20
3.369520833333333
 10
3.196641666666667
 20
3.369520833333333
 10
3.107572222222222
 20
3.369520833333333
 10
3.018516666666667
 20
3.369520833333333
 10
2.929461111111111
 20
3.369520833333333
 10
2.843822222222222
 20
3.369520833333333
 10
2.758197222222222
 20
3.369520833333333
 10
2.679419444444445
 20
3.369520833333333
 10
2.604058333333334
 20
3.369520833333333
 10
2.535544444444445
 20
3.369520833333333
 10
2.473891666666667
 20
3.369520833333333
 10
2.419086111111111
 20
3.369520833333333
 10
2.374558333333333
 20
3.369520833333333
 10
2.340308333333333
 20
3.369520833333333
 10
2.316336111111111
 20
3.369520833333333
 10
2.299197222222222
 20
3.369520833333333
 10
2.295780555555555
 20
3.369520833333333
 10
2.29235
 20
3.369520833333333
 10
2.288933333333333
 20
3.366104166666666
 10
2.285502777777778
 20
3.366104166666666
 10
2.282072222222222
 20
3.362673611111111
 10
2.278655555555555
 20
3.359243055555555
 10
2.271794444444445
 20
3.348965277777777
 10
2.264947222222222
 20
3.335270833333332
 10
2.261516666666667
 20
3.318145833333332
 10
2.2581
 20
3.304437499999999
 10
2.254669444444445
 20
3.290743055555555
 10
2.251252777777778
 20
3.27704861111111
 10
2.251252777777778
 20
3.259909722222221
 10
2.254669444444445
 20
3.246215277777777
 10
2.2581
 20
3.246215277777777
 10
2.275225
 20
3.246215277777777
 10
2.299197222222222
 20
3.246215277777777
 10
2.333461111111111
 20
3.246215277777777
 10
2.374558333333333
 20
3.246215277777777
 10
2.425933333333333
 20
3.246215277777777
 10
2.484169444444444
 20
3.246215277777777
 10
2.549252777777778
 20
3.246215277777777
 10
2.621183333333333
 20
3.246215277777777
 10
2.699961111111111
 20
3.246215277777777
 10
2.778752777777778
 20
3.246215277777777
 10
2.864377777777778
 20
3.246215277777777
 10
2.953433333333333
 20
3.246215277777777
 10
3.042488888888889
 20
3.246215277777777
 10
3.131544444444444
 20
3.246215277777777
 10
3.217183333333333
 20
3.246215277777777
 10
3.306252777777778
 20
3.246215277777777
 10
3.388461111111111
 20
3.246215277777777
 10
3.467238888888889
 20
3.246215277777777
 10
3.542586111111111
 20
3.246215277777777
 10
3.6111
 20
3.246215277777777
 10
3.672752777777778
 20
3.246215277777777
 10
3.727558333333333
 20
3.246215277777777
 10
3.775516666666667
 20
3.246215277777777
 10
3.813197222222222
 20
3.246215277777777
 10
3.8406
 20
3.246215277777777
 10
3.861155555555556
 20
3.246215277777777
 10
3.871419444444444
 20
3.246215277777777
 10
3.87485
 20
3.259909722222221
 10
3.87485
 20
3.27704861111111
 10
3.87485
 20
3.290743055555555
 10
3.871419444444444
 20
3.304437499999999
 10
3.867988888888889
 20
3.318145833333332
 10
3.861155555555556
 20
3.335270833333332
 10
3.854294444444444
 20
3.348965277777777
 10
3.847447222222222
 20
3.359243055555555
 10
3.847447222222222
 20
3.362673611111111
 10
3.844016666666666
 20
3.362673611111111
 10
3.844016666666666
 20
3.366104166666666
 10
3.8406
 20
3.366104166666666
 10
3.837169444444445
 20
3.366104166666666
  0
LWPOLYLINE
  5
1F5
330
2
100
AcDbEntity
  8
PDF_Layer 1
 62
     7
420
 16777215
370
   120
100
AcDbPolyline
 90
       68
 70
     0
 43
0.0
 10
3.830322222222222
 20
3.369520833333333
 10
3.826891666666667
 20
3.369520833333333
 10
3.823461111111111
 20
3.369520833333333
 10
3.820044444444445
 20
3.372951388888888
 10
3.820044444444445
 20
3.376368055555555
 10
3.816613888888889
 20
3.376368055555555
 10
3.816613888888889
 20
3.37979861111111
 10
3.816613888888889
 20
3.383215277777777
 10
3.813197222222222
 20
3.393506944444443
 10
3.813197222222222
 20
3.407201388888888
 10
3.809766666666667
 20
3.417479166666666
 10
3.806336111111111
 20
3.427743055555555
 10
3.799488888888888
 20
3.438034722222222
 10
3.796072222222222
 20
3.448312499999999
 10
3.789225
 20
3.458576388888888
 10
3.782363888888889
 20
3.468854166666666
 10
3.778933333333333
 20
3.472270833333332
 10
3.775516666666667
 20
3.472270833333332
 10
3.775516666666667
 20
3.475701388888888
 10
3.772086111111111
 20
3.475701388888888
 10
3.768669444444444
 20
3.475701388888888
 10
3.765238888888889
 20
3.475701388888888
 10
3.748113888888889
 20
3.475701388888888
 10
3.724127777777778
 20
3.475701388888888
 10
3.689877777777778
 20
3.475701388888888
 10
3.64535
 20
3.475701388888888
 10
3.590544444444444
 20
3.475701388888888
 10
3.532308333333333
 20
3.475701388888888
 10
3.463808333333333
 20
3.475701388888888
 10
3.391877777777778
 20
3.475701388888888
 10
3.3131
 20
3.475701388888888
 10
3.234308333333333
 20
3.475701388888888
 10
3.148683333333333
 20
3.475701388888888
 10
3.063044444444444
 20
3.475701388888888
 10
2.977419444444445
 20
3.475701388888888
 10
2.895211111111111
 20
3.475701388888888
 10
2.813002777777778
 20
3.475701388888888
 10
2.734225
 20
3.475701388888888
 10
2.662280555555556
 20
3.475701388888888
 10
2.593780555555555
 20
3.475701388888888
 10
2.535544444444445
 20
3.475701388888888
 10
2.484169444444444
 20
3.475701388888888
 10
2.439641666666667
 20
3.475701388888888
 10
2.401961111111111
 20
3.475701388888888
 10
2.377988888888889
 20
3.475701388888888
 10
2.364280555555556
 20
3.475701388888888
 10
2.357433333333333
 20
3.475701388888888
 10
2.354016666666667
 20
3.475701388888888
 10
2.350572222222222
 20
3.475701388888888
 10
2.350572222222222
 20
3.472270833333332
 10
2.347155555555556
 20
3.472270833333332
 10
2.347155555555556
 20
3.468854166666666
 10
2.343725
 20
3.468854166666666
 10
2.336877777777778
 20
3.458576388888888
 10
2.333461111111111
 20
3.448312499999999
 10
2.3266
 20
3.438034722222222
 10
2.323183333333334
 20
3.427743055555555
 10
2.319752777777778
 20
3.417479166666666
 10
2.316336111111111
 20
3.407201388888888
 10
2.312905555555555
 20
3.393506944444443
 10
2.312905555555555
 20
3.383215277777777
 10
2.312905555555555
 20
3.37979861111111
 10
2.309475
 20
3.376368055555555
 10
2.306044444444444
 20
3.372951388888888
 10
2.306044444444444
 20
3.369520833333333
 10
2.302627777777778
 20
3.369520833333333
 10
2.299197222222222
 20
3.369520833333333
 10
2.295780555555555
 20
3.369520833333333
  0
LWPOLYLINE
  5
1FE
330
2
100
AcDbEntity
  8
PDF_Layer 1
 62
     7
420
 16777215
370
   120
100
AcDbPolyline
 90
       59
 70
     0
 43
0.0
 10
2.723947222222222
 20
4.862951388888888
 10
2.710238888888889
 20
4.862951388888888
 10
2.699961111111111
 20
4.859534722222221
 10
2.689697222222222
 20
4.8526875
 10
2.679419444444445
 20
4.845840277777777
 10
2.669141666666667
 20
4.835562499999999
 10
2.665711111111111
 20
4.825270833333332
 10
2.662280555555556
 20
4.811576388888887
 10
2.658863888888889
 20
4.797881944444444
 10
2.655433333333333
 20
4.63004861111111
 10
2.638308333333333
 20
4.462201388888888
 10
2.617752777777778
 20
4.294354166666666
 10
2.586933333333333
 20
4.126520833333333
 10
2.545822222222222
 20
3.962104166666666
 10
2.497863888888889
 20
3.801104166666666
 10
2.443072222222222
 20
3.640118055555555
 10
2.381405555555556
 20
3.482562499999999
 10
2.384836111111111
 20
3.482562499999999
 10
2.398544444444445
 20
3.482562499999999
 10
2.425933333333333
 20
3.482562499999999
 10
2.456766666666667
 20
3.482562499999999
 10
2.501294444444444
 20
3.482562499999999
 10
2.552669444444445
 20
3.482562499999999
 10
2.610905555555556
 20
3.482562499999999
 10
2.675988888888889
 20
3.482562499999999
 10
2.744488888888889
 20
3.482562499999999
 10
2.81985
 20
3.482562499999999
 10
2.898627777777778
 20
3.482562499999999
 10
2.980836111111111
 20
3.482562499999999
 10
3.063044444444444
 20
3.482562499999999
 10
3.145252777777778
 20
3.482562499999999
 10
3.227461111111111
 20
3.482562499999999
 10
3.306252777777778
 20
3.482562499999999
 10
3.3816
 20
3.482562499999999
 10
3.453530555555555
 20
3.482562499999999
 10
3.518613888888889
 20
3.482562499999999
 10
3.57685
 20
3.482562499999999
 10
3.624808333333334
 20
3.482562499999999
 10
3.669336111111111
 20
3.482562499999999
 10
3.703586111111111
 20
3.482562499999999
 10
3.727558333333333
 20
3.482562499999999
 10
3.741266666666667
 20
3.482562499999999
 10
3.748113888888889
 20
3.482562499999999
 10
3.683030555555556
 20
3.640118055555555
 10
3.628225
 20
3.801104166666666
 10
3.580280555555556
 20
3.962104166666666
 10
3.539169444444445
 20
4.126520833333333
 10
3.508336111111111
 20
4.294354166666666
 10
3.487780555555556
 20
4.462201388888888
 10
3.474086111111112
 20
4.63004861111111
 10
3.467238888888889
 20
4.797881944444444
 10
3.467238888888889
 20
4.811576388888887
 10
3.463808333333333
 20
4.825270833333332
 10
3.456961111111112
 20
4.835562499999999
 10
3.450113888888889
 20
4.845840277777777
 10
3.439836111111111
 20
4.8526875
 10
3.429558333333333
 20
4.859534722222221
 10
3.415863888888889
 20
4.862951388888888
 10
3.402155555555555
 20
4.862951388888888
  0
LWPOLYLINE
  5
202
330
2
100
AcDbEntity
  8
PDF_Layer 1
 62
     7
420
 16777215
370
   120
100
AcDbPolyline
 90
        6
 70
     0
 43
0.0
 10
2.566377777777778
 20
2.420715277777777
 10
2.562961111111111
 20
2.420715277777777
 10
2.559530555555555
 20
2.417270833333333
 10
2.569808333333333
 20
2.407006944444444
 10
2.610905555555556
 20
2.365895833333333
 10
2.610905555555556
 20
2.153534722222222
  0
LWPOLYLINE
  5
203
330
2
100
AcDbEntity
  8
PDF_Layer 1
 62
     7
420
 16777215
370
   120
100
AcDbPolyline
 90
        6
 70
     0
 43
0.0
 10
2.566377777777778
 20
3.242784722222221
 10
2.562961111111111
 20
3.242784722222221
 10
2.552669444444445
 20
3.235937499999999
 10
2.552669444444445
 20
3.232506944444444
 10
2.562961111111111
 20
3.225659722222221
 10
2.566377777777778
 20
3.225659722222221
  0
LWPOLYLINE
  5
204
330
2
100
AcDbEntity
  8
PDF_Layer 1
 62
     7
420
 16777215
370
   120
100
AcDbPolyline
 90
        6
 70
     0
 43
0.0
 10
2.566377777777778
 20
3.208534722222221
 10
2.562961111111111
 20
3.208534722222221
 10
2.552669444444445
 20
3.201687499999999
 10
2.552669444444445
 20
3.198256944444444
 10
2.562961111111111
 20
3.191409722222221
 10
2.566377777777778
 20
3.191409722222221
  0
LWPOLYLINE
  5
205
330
2
100
AcDbEntity
  8
PDF_Layer 1
 62
     7
420
 16777215
370
   120
100
AcDbPolyline
 90
        6
 70
     0
 43
0.0
 10
2.566377777777778
 20
3.174270833333332
 10
2.562961111111111
 20
3.174270833333332
 10
2.552669444444445
 20
3.16742361111111
 10
2.552669444444445
 20
3.164006944444444
 10
2.562961111111111
 20
3.157159722222222
 10
2.566377777777778
 20
3.157159722222222
  0
LWPOLYLINE
  5
206
330
2
100
AcDbEntity
  8
PDF_Layer 1
 62
     7
420
 16777215
370
   120
100
AcDbPolyline
 90
        6
 70
     0
 43
0.0
 10
2.566377777777778
 20
3.140034722222222
 10
2.562961111111111
 20
3.140034722222222
 10
2.552669444444445
 20
3.13317361111111
 10
2.552669444444445
 20
3.129743055555555
 10
2.562961111111111
 20
3.122895833333333
 10
2.566377777777778
 20
3.122895833333333
  0
LWPOLYLINE
  5
207
330
2
100
AcDbEntity
  8
PDF_Layer 1
 62
     7
420
 16777215
370
   120
100
AcDbPolyline
 90
        6
 70
     0
 43
0.0
 10
2.566377777777778
 20
3.105770833333333
 10
2.562961111111111
 20
3.105770833333333
 10
2.552669444444445
 20
3.09892361111111
 10
2.552669444444445
 20
3.095493055555555
 10
2.562961111111111
 20
3.088645833333333
 10
2.566377777777778
 20
3.088645833333333
  0
LWPOLYLINE
  5
208
330
2
100
AcDbEntity
  8
PDF_Layer 1
 62
     7
420
 16777215
370
   120
100
AcDbPolyline
 90
        6
 70
     0
 43
0.0
 10
2.566377777777778
 20
3.071520833333333
 10
2.562961111111111
 20
3.071520833333333
 10
2.552669444444445
 20
3.064673611111111
 10
2.552669444444445
 20
3.061243055555555
 10
2.562961111111111
 20
3.054395833333332
 10
2.566377777777778
 20
3.054395833333332
  0
LWPOLYLINE
  5
209
330
2
100
AcDbEntity
  8
PDF_Layer 1
 62
     7
420
 16777215
370
   120
100
AcDbPolyline
 90
        6
 70
     0
 43
0.0
 10
2.566377777777778
 20
3.037270833333332
 10
2.562961111111111
 20
3.037270833333332
 10
2.552669444444445
 20
3.030409722222222
 10
2.552669444444445
 20
3.026993055555555
 10
2.562961111111111
 20
3.020145833333332
 10
2.566377777777778
 20
3.020145833333332
  0
LWPOLYLINE
  5
20A
330
2
100
AcDbEntity
  8
PDF_Layer 1
 62
     7
420
 16777215
370
   120
100
AcDbPolyline
 90
        6
 70
     0
 43
0.0
 10
2.566377777777778
 20
3.003006944444444
 10
2.562961111111111
 20
3.003006944444444
 10
2.552669444444445
 20
2.996159722222222
 10
2.552669444444445
 20
2.992729166666666
 10
2.562961111111111
 20
2.985881944444443
 10
2.566377777777778
 20
2.985881944444443
  0
LWPOLYLINE
  5
20B
330
2
100
AcDbEntity
  8
PDF_Layer 1
 62
     7
420
 16777215
370
   120
100
AcDbPolyline
 90
        6
 70
     0
 43
0.0
 10
2.566377777777778
 20
2.968756944444444
 10
2.562961111111111
 20
2.968756944444444
 10
2.552669444444445
 20
2.961909722222221
 10
2.552669444444445
 20
2.958479166666666
 10
2.562961111111111
 20
2.951631944444444
 10
2.566377777777778
 20
2.951631944444444
  0
LWPOLYLINE
  5
20C
330
2
100
AcDbEntity
  8
PDF_Layer 1
 62
     7
420
 16777215
370
   120
100
AcDbPolyline
 90
        6
 70
     0
 43
0.0
 10
2.566377777777778
 20
2.934506944444444
 10
2.562961111111111
 20
2.934506944444444
 10
2.552669444444445
 20
2.927659722222221
 10
2.552669444444445
 20
2.924229166666666
 10
2.562961111111111
 20
2.917381944444444
 10
2.566377777777778
 20
2.917381944444444
  0
LWPOLYLINE
  5
20D
330
2
100
AcDbEntity
  8
PDF_Layer 1
 62
     7
420
 16777215
370
   120
100
AcDbPolyline
 90
        6
 70
     0
 43
0.0
 10
2.566377777777778
 20
2.900256944444444
 10
2.562961111111111
 20
2.900256944444444
 10
2.552669444444445
 20
2.893409722222222
 10
2.552669444444445
 20
2.889979166666666
 10
2.562961111111111
 20
2.883118055555555
 10
2.566377777777778
 20
2.883118055555555
  0
LWPOLYLINE
  5
20E
330
2
100
AcDbEntity
  8
PDF_Layer 1
 62
     7
420
 16777215
370
   120
100
AcDbPolyline
 90
        6
 70
     0
 43
0.0
 10
2.566377777777778
 20
2.865993055555555
 10
2.562961111111111
 20
2.865993055555555
 10
2.552669444444445
 20
2.859145833333332
 10
2.552669444444445
 20
2.855729166666666
 10
2.562961111111111
 20
2.848881944444443
 10
2.566377777777778
 20
2.848881944444443
  0
LWPOLYLINE
  5
20F
330
2
100
AcDbEntity
  8
PDF_Layer 1
 62
     7
420
 16777215
370
   120
100
AcDbPolyline
 90
        6
 70
     0
 43
0.0
 10
2.566377777777778
 20
2.831743055555555
 10
2.562961111111111
 20
2.831743055555555
 10
2.552669444444445
 20
2.824895833333333
 10
2.552669444444445
 20
2.821465277777777
 10
2.562961111111111
 20
2.814618055555555
 10
2.566377777777778
 20
2.814618055555555
  0
LWPOLYLINE
  5
210
330
2
100
AcDbEntity
  8
PDF_Layer 1
 62
     7
420
 16777215
370
   120
100
AcDbPolyline
 90
        6
 70
     0
 43
0.0
 10
2.566377777777778
 20
2.797493055555555
 10
2.562961111111111
 20
2.797493055555555
 10
2.552669444444445
 20
2.790631944444444
 10
2.552669444444445
 20
2.787215277777777
 10
2.562961111111111
 20
2.780368055555555
 10
2.566377777777778
 20
2.780368055555555
  0
LWPOLYLINE
  5
211
330
2
100
AcDbEntity
  8
PDF_Layer 1
 62
     7
420
 16777215
370
   120
100
AcDbPolyline
 90
        3
 70
     0
 43
0.0
 10
2.566377777777778
 20
2.763243055555555
 10
2.562961111111111
 20
2.763243055555555
 10
2.559530555555555
 20
2.759826388888888
  0
LWPOLYLINE
  5
212
330
2
100
AcDbEntity
  8
PDF_Layer 1
 62
     7
420
 16777215
370
   120
100
AcDbPolyline
 90
        6
 70
     0
 43
0.0
 10
2.566377777777778
 20
2.591979166666666
 10
2.562961111111111
 20
2.591979166666666
 10
2.552669444444445
 20
2.585118055555555
 10
2.552669444444445
 20
2.581687499999999
 10
2.562961111111111
 20
2.574840277777777
 10
2.566377777777778
 20
2.574840277777777
  0
LWPOLYLINE
  5
213
330
2
100
AcDbEntity
  8
PDF_Layer 1
 62
     7
420
 16777215
370
   120
100
AcDbPolyline
 90
        6
 70
     0
 43
0.0
 10
2.566377777777778
 20
2.557729166666666
 10
2.562961111111111
 20
2.557729166666666
 10
2.552669444444445
 20
2.550881944444443
 10
2.552669444444445
 20
2.547451388888888
 10
2.562961111111111
 20
2.540590277777777
 10
2.566377777777778
 20
2.540590277777777
  0
LWPOLYLINE
  5
214
330
2
100
AcDbEntity
  8
PDF_Layer 1
 62
     7
420
 16777215
370
   120
100
AcDbPolyline
 90
        6
 70
     0
 43
0.0
 10
2.566377777777778
 20
2.523465277777777
 10
2.562961111111111
 20
2.523465277777777
 10
2.552669444444445
 20
2.516618055555555
 10
2.552669444444445
 20
2.513201388888888
 10
2.562961111111111
 20
2.506354166666666
 10
2.566377777777778
 20
2.506354166666666
  0
LWPOLYLINE
  5
215
330
2
100
AcDbEntity
  8
PDF_Layer 1
 62
     7
420
 16777215
370
   120
100
AcDbPolyline
 90
        6
 70
     0
 43
0.0
 10
2.566377777777778
 20
2.489215277777777
 10
2.562961111111111
 20
2.489215277777777
 10
2.552669444444445
 20
2.482368055555555
 10
2.552669444444445
 20
2.478937499999999
 10
2.562961111111111
 20
2.472090277777777
 10
2.566377777777778
 20
2.472090277777777
  0
LWPOLYLINE
  5
216
330
2
100
AcDbEntity
  8
PDF_Layer 1
 62
     7
420
 16777215
370
   120
100
AcDbPolyline
 90
        6
 70
     0
 43
0.0
 10
2.566377777777778
 20
2.454951388888888
 10
2.562961111111111
 20
2.454951388888888
 10
2.552669444444445
 20
2.448104166666666
 10
2.552669444444445
 20
2.444687499999999
 10
2.562961111111111
 20
2.437840277777777
 10
2.566377777777778
 20
2.437840277777777
  0
LWPOLYLINE
  5
218
330
2
100
AcDbEntity
  8
PDF_Layer 1
 62
     7
420
 16777215
370
   120
100
AcDbPolyline
 90
        4
 70
     0
 43
0.0
 10
3.563141666666667
 20
3.208534722222221
 10
3.573419444444445
 20
3.215381944444444
 10
3.573419444444445
 20
3.21879861111111
 10
3.563141666666667
 20
3.225659722222221
  0
LWPOLYLINE
  5
219
330
2
100
AcDbEntity
  8
PDF_Layer 1
 62
     7
420
 16777215
370
   120
100
AcDbPolyline
 90
        4
 70
     0
 43
0.0
 10
3.563141666666667
 20
3.174270833333332
 10
3.573419444444445
 20
3.181131944444444
 10
3.573419444444445
 20
3.184562499999999
 10
3.563141666666667
 20
3.191409722222221
  0
LWPOLYLINE
  5
21A
330
2
100
AcDbEntity
  8
PDF_Layer 1
 62
     7
420
 16777215
370
   120
100
AcDbPolyline
 90
        4
 70
     0
 43
0.0
 10
3.563141666666667
 20
3.140034722222222
 10
3.573419444444445
 20
3.146881944444444
 10
3.573419444444445
 20
3.15029861111111
 10
3.563141666666667
 20
3.157159722222222
  0
LWPOLYLINE
  5
21B
330
2
100
AcDbEntity
  8
PDF_Layer 1
 62
     7
420
 16777215
370
   120
100
AcDbPolyline
 90
        4
 70
     0
 43
0.0
 10
3.563141666666667
 20
3.105770833333333
 10
3.573419444444445
 20
3.112618055555555
 10
3.573419444444445
 20
3.11604861111111
 10
3.563141666666667
 20
3.122895833333333
  0
LWPOLYLINE
  5
21C
330
2
100
AcDbEntity
  8
PDF_Layer 1
 62
     7
420
 16777215
370
   120
100
AcDbPolyline
 90
        4
 70
     0
 43
0.0
 10
3.563141666666667
 20
3.071520833333333
 10
3.573419444444445
 20
3.078368055555555
 10
3.573419444444445
 20
3.08179861111111
 10
3.563141666666667
 20
3.088645833333333
  0
LWPOLYLINE
  5
21D
330
2
100
AcDbEntity
  8
PDF_Layer 1
 62
     7
420
 16777215
370
   120
100
AcDbPolyline
 90
        4
 70
     0
 43
0.0
 10
3.563141666666667
 20
3.037270833333332
 10
3.573419444444445
 20
3.044118055555555
 10
3.573419444444445
 20
3.047534722222221
 10
3.563141666666667
 20
3.054395833333332
  0
LWPOLYLINE
  5
21E
330
2
100
AcDbEntity
  8
PDF_Layer 1
 62
     7
420
 16777215
370
   120
100
AcDbPolyline
 90
        4
 70
     0
 43
0.0
 10
3.563141666666667
 20
3.003006944444444
 10
3.573419444444445
 20
3.009854166666666
 10
3.573419444444445
 20
3.01329861111111
 10
3.563141666666667
 20
3.020145833333332
  0
LWPOLYLINE
  5
21F
330
2
100
AcDbEntity
  8
PDF_Layer 1
 62
     7
420
 16777215
370
   120
100
AcDbPolyline
 90
        4
 70
     0
 43
0.0
 10
3.563141666666667
 20
2.968756944444444
 10
3.573419444444445
 20
2.975618055555555
 10
3.573419444444445
 20
2.979034722222221
 10
3.563141666666667
 20
2.985881944444443
  0
LWPOLYLINE
  5
220
330
2
100
AcDbEntity
  8
PDF_Layer 1
 62
     7
420
 16777215
370
   120
100
AcDbPolyline
 90
        4
 70
     0
 43
0.0
 10
3.563141666666667
 20
2.934506944444444
 10
3.573419444444445
 20
2.941354166666666
 10
3.573419444444445
 20
2.944784722222221
 10
3.563141666666667
 20
2.951631944444444
  0
LWPOLYLINE
  5
221
330
2
100
AcDbEntity
  8
PDF_Layer 1
 62
     7
420
 16777215
370
   120
100
AcDbPolyline
 90
        4
 70
     0
 43
0.0
 10
3.563141666666667
 20
2.900256944444444
 10
3.573419444444445
 20
2.907104166666666
 10
3.573419444444445
 20
2.910520833333333
 10
3.563141666666667
 20
2.917381944444444
  0
LWPOLYLINE
  5
222
330
2
100
AcDbEntity
  8
PDF_Layer 1
 62
     7
420
 16777215
370
   120
100
AcDbPolyline
 90
        4
 70
     0
 43
0.0
 10
3.563141666666667
 20
2.865993055555555
 10
3.573419444444445
 20
2.872840277777777
 10
3.573419444444445
 20
2.876270833333332
 10
3.563141666666667
 20
2.883118055555555
  0
LWPOLYLINE
  5
223
330
2
100
AcDbEntity
  8
PDF_Layer 1
 62
     7
420
 16777215
370
   120
100
AcDbPolyline
 90
        4
 70
     0
 43
0.0
 10
3.563141666666667
 20
2.831743055555555
 10
3.573419444444445
 20
2.838590277777777
 10
3.573419444444445
 20
2.842020833333333
 10
3.563141666666667
 20
2.848881944444443
  0
LWPOLYLINE
  5
224
330
2
100
AcDbEntity
  8
PDF_Layer 1
 62
     7
420
 16777215
370
   120
100
AcDbPolyline
 90
        4
 70
     0
 43
0.0
 10
3.563141666666667
 20
2.797493055555555
 10
3.573419444444445
 20
2.804354166666666
 10
3.573419444444445
 20
2.807770833333333
 10
3.563141666666667
 20
2.814618055555555
  0
LWPOLYLINE
  5
225
330
2
100
AcDbEntity
  8
PDF_Layer 1
 62
     7
420
 16777215
370
   120
100
AcDbPolyline
 90
        4
 70
     0
 43
0.0
 10
3.563141666666667
 20
2.763243055555555
 10
3.573419444444445
 20
2.770090277777777
 10
3.573419444444445
 20
2.773520833333332
 10
3.563141666666667
 20
2.780368055555555
  0
LWPOLYLINE
  5
226
330
2
100
AcDbEntity
  8
PDF_Layer 1
 62
     7
420
 16777215
370
   120
100
AcDbPolyline
 90
        4
 70
     0
 43
0.0
 10
3.563141666666667
 20
2.557729166666666
 10
3.573419444444445
 20
2.564576388888888
 10
3.573419444444445
 20
2.567993055555555
 10
3.563141666666667
 20
2.574840277777777
  0
LWPOLYLINE
  5
227
330
2
100
AcDbEntity
  8
PDF_Layer 1
 62
     7
420
 16777215
370
   120
100
AcDbPolyline
 90
        4
 70
     0
 43
0.0
 10
3.563141666666667
 20
2.523465277777777
 10
3.573419444444445
 20
2.530312499999999
 10
3.573419444444445
 20
2.533743055555555
 10
3.563141666666667
 20
2.540590277777777
  0
LWPOLYLINE
  5
228
330
2
100
AcDbEntity
  8
PDF_Layer 1
 62
     7
420
 16777215
370
   120
100
AcDbPolyline
 90
        4
 70
     0
 43
0.0
 10
3.563141666666667
 20
2.489215277777777
 10
3.573419444444445
 20
2.496062499999999
 10
3.573419444444445
 20
2.499479166666666
 10
3.563141666666667
 20
2.506354166666666
  0
LWPOLYLINE
  5
229
330
2
100
AcDbEntity
  8
PDF_Layer 1
 62
     7
420
 16777215
370
   120
100
AcDbPolyline
 90
        4
 70
     0
 43
0.0
 10
3.563141666666667
 20
2.454951388888888
 10
3.573419444444445
 20
2.46179861111111
 10
3.573419444444445
 20
2.465243055555555
 10
3.563141666666667
 20
2.472090277777777
  0
LWPOLYLINE
  5
22A
330
2
100
AcDbEntity
  8
PDF_Layer 1
 62
     7
420
 16777215
370
   120
100
AcDbPolyline
 90
        4
 70
     0
 43
0.0
 10
3.563141666666667
 20
2.420715277777777
 10
3.573419444444445
 20
2.427562499999999
 10
3.573419444444445
 20
2.430993055555555
 10
3.563141666666667
 20
2.437840277777777
  0
LWPOLYLINE
  5
23E
330
2
100
AcDbEntity
  8
PDF_Layer 1
 62
     7
420
 16777215
370
   120
100
AcDbPolyline
 90
        2
 70
     0
 43
0.0
 10
3.563141666666667
 20
3.242784722222221
 10
3.566572222222222
 20
3.246215277777777
  0
LWPOLYLINE
  5
24D
330
2
100
AcDbEntity
  8
PDF_Layer 1
 62
     7
420
 16777215
370
   120
100
AcDbPolyline
 90
        2
 70
     0
 43
0.0
 10
3.563141666666667
 20
2.591979166666666
 10
3.573419444444445
 20
2.598826388888888
  0
LWPOLYLINE
  5
261
330
2
100
AcDbEntity
  8
PDF_Layer 1
 62
     7
420
 16777215
370
   120
100
AcDbPolyline
 90
        2
 70
     0
 43
0.0
 10
3.573419444444445
 20
2.598826388888888
 10
3.573419444444445
 20
2.598826388888888
  0
LWPOLYLINE
  5
27A
330
2
100
AcDbEntity
  8
PDF_Layer 1
 62
     7
420
 16777215
370
   120
100
AcDbPolyline
 90
        3
 70
     0
 43
0.0
 10
3.378183333333333
 20
1.187590277777777
 10
3.378183333333333
 20
1.191006944444444
 10
3.395308333333333
 20
1.197868055555555
  0
LWPOLYLINE
  5
27B
330
2
100
AcDbEntity
  8
PDF_Layer 1
 62
     7
420
 16777215
370
   120
100
AcDbPolyline
 90
        6
 70
     0
 43
0.0
 10
2.751336111111111
 20
1.187590277777777
 10
2.747919444444444
 20
1.187590277777777
 10
2.730794444444445
 20
1.177312499999999
 10
2.730794444444445
 20
1.170465277777777
 10
2.747919444444444
 20
1.160187499999999
 10
2.751336111111111
 20
1.160187499999999
  0
LWPOLYLINE
  5
27C
330
2
100
AcDbEntity
  8
PDF_Layer 1
 62
     7
420
 16777215
370
   120
100
AcDbPolyline
 90
       23
 70
     0
 43
0.0
 10
3.357627777777778
 20
1.523270833333333
 10
3.354197222222222
 20
1.523270833333333
 10
3.337072222222222
 20
1.523270833333333
 10
3.3131
 20
1.523270833333333
 10
3.282266666666667
 20
1.523270833333333
 10
3.241169444444444
 20
1.523270833333333
 10
3.193211111111111
 20
1.523270833333333
 10
3.145252777777778
 20
1.523270833333333
 10
3.090447222222223
 20
1.523270833333333
 10
3.035641666666667
 20
1.523270833333333
 10
2.984266666666666
 20
1.523270833333333
 10
2.932891666666667
 20
1.523270833333333
 10
2.884933333333334
 20
1.523270833333333
 10
2.847252777777778
 20
1.523270833333333
 10
2.813002777777778
 20
1.523270833333333
 10
2.789016666666666
 20
1.523270833333333
 10
2.775322222222222
 20
1.523270833333333
 10
2.768475
 20
1.523270833333333
 10
2.768475
 20
1.249256944444444
 10
2.761627777777778
 20
1.242395833333333
 10
2.744488888888889
 20
1.221840277777777
 10
2.747919444444444
 20
1.21842361111111
 10
2.751336111111111
 20
1.21842361111111
  0
LWPOLYLINE
  5
27D
330
2
100
AcDbEntity
  8
PDF_Layer 1
 62
     7
420
 16777215
370
   120
100
AcDbPolyline
 90
        3
 70
     0
 43
0.0
 10
2.737641666666667
 20
1.208145833333333
 10
2.761627777777778
 20
1.211576388888888
 10
2.765044444444444
 20
1.211576388888888
  0
LWPOLYLINE
  5
27E
330
2
100
AcDbEntity
  8
PDF_Layer 1
 62
     7
420
 16777215
370
   120
100
AcDbPolyline
 90
        3
 70
     0
 43
0.0
 10
3.395308333333333
 20
1.20129861111111
 10
3.395308333333333
 20
1.208145833333333
 10
3.378183333333333
 20
1.21842361111111
  0
LWPOLYLINE
  5
27F
330
2
100
AcDbEntity
  8
PDF_Layer 1
 62
     7
420
 16777215
370
   120
100
AcDbPolyline
 90
        4
 70
     0
 43
0.0
 10
3.395308333333333
 20
1.143062499999999
 10
3.395308333333333
 20
1.149909722222221
 10
3.378183333333333
 20
1.156770833333333
 10
3.378183333333333
 20
1.160187499999999
  0
LWPOLYLINE
  5
286
330
2
100
AcDbEntity
  8
PDF_Layer 1
 62
     7
420
 16777215
370
   120
100
AcDbPolyline
 90
       12
 70
     0
 43
0.0
 10
3.515197222222222
 20
2.153534722222222
 10
3.515197222222222
 20
2.365895833333333
 10
3.566572222222222
 20
2.417270833333333
 10
3.563141666666667
 20
2.420715277777777
 10
3.556294444444445
 20
2.424131944444444
 10
3.556294444444445
 20
2.427562499999999
 10
3.556294444444445
 20
2.434409722222222
 10
3.563141666666667
 20
2.437840277777777
 10
3.573419444444445
 20
2.444687499999999
 10
3.573419444444445
 20
2.448104166666666
 10
3.563141666666667
 20
2.454951388888888
 10
3.556294444444445
 20
2.458381944444444
  0
LWPOLYLINE
  5
287
330
2
100
AcDbEntity
  8
PDF_Layer 1
 62
     7
420
 16777215
370
   120
100
AcDbPolyline
 90
       10
 70
     0
 43
0.0
 10
3.569988888888889
 20
3.215381944444444
 10
3.566572222222222
 20
3.211951388888888
 10
3.556294444444445
 20
3.211951388888888
 10
3.556294444444445
 20
3.215381944444444
 10
3.556294444444445
 20
3.222229166666666
 10
3.563141666666667
 20
3.225659722222221
 10
3.573419444444445
 20
3.232506944444444
 10
3.573419444444445
 20
3.235937499999999
 10
3.563141666666667
 20
3.242784722222221
 10
3.556294444444445
 20
3.246215277777777
  0
LWPOLYLINE
  5
288
330
2
100
AcDbEntity
  8
PDF_Layer 1
 62
     7
420
 16777215
370
   120
100
AcDbPolyline
 90
       10
 70
     0
 43
0.0
 10
3.569988888888889
 20
3.181131944444444
 10
3.566572222222222
 20
3.177701388888888
 10
3.556294444444445
 20
3.177701388888888
 10
3.556294444444445
 20
3.181131944444444
 10
3.556294444444445
 20
3.187979166666666
 10
3.563141666666667
 20
3.191409722222221
 10
3.573419444444445
 20
3.198256944444444
 10
3.573419444444445
 20
3.201687499999999
 10
3.563141666666667
 20
3.208534722222221
 10
3.556294444444445
 20
3.211951388888888
  0
LWPOLYLINE
  5
289
330
2
100
AcDbEntity
  8
PDF_Layer 1
 62
     7
420
 16777215
370
   120
100
AcDbPolyline
 90
       10
 70
     0
 43
0.0
 10
3.569988888888889
 20
3.146881944444444
 10
3.566572222222222
 20
3.143451388888888
 10
3.556294444444445
 20
3.143451388888888
 10
3.556294444444445
 20
3.146881944444444
 10
3.556294444444445
 20
3.153729166666666
 10
3.563141666666667
 20
3.157159722222222
 10
3.573419444444445
 20
3.164006944444444
 10
3.573419444444445
 20
3.16742361111111
 10
3.563141666666667
 20
3.174270833333332
 10
3.556294444444445
 20
3.177701388888888
  0
LWPOLYLINE
  5
28A
330
2
100
AcDbEntity
  8
PDF_Layer 1
 62
     7
420
 16777215
370
   120
100
AcDbPolyline
 90
       10
 70
     0
 43
0.0
 10
3.569988888888889
 20
3.112618055555555
 10
3.566572222222222
 20
3.109201388888888
 10
3.556294444444445
 20
3.109201388888888
 10
3.556294444444445
 20
3.112618055555555
 10
3.556294444444445
 20
3.119479166666666
 10
3.563141666666667
 20
3.122895833333333
 10
3.573419444444445
 20
3.129743055555555
 10
3.573419444444445
 20
3.13317361111111
 10
3.563141666666667
 20
3.140034722222222
 10
3.556294444444445
 20
3.143451388888888
  0
LWPOLYLINE
  5
28B
330
2
100
AcDbEntity
  8
PDF_Layer 1
 62
     7
420
 16777215
370
   120
100
AcDbPolyline
 90
       10
 70
     0
 43
0.0
 10
3.569988888888889
 20
3.078368055555555
 10
3.566572222222222
 20
3.074937499999999
 10
3.556294444444445
 20
3.074937499999999
 10
3.556294444444445
 20
3.078368055555555
 10
3.556294444444445
 20
3.085215277777777
 10
3.563141666666667
 20
3.088645833333333
 10
3.573419444444445
 20
3.095493055555555
 10
3.573419444444445
 20
3.09892361111111
 10
3.563141666666667
 20
3.105770833333333
 10
3.556294444444445
 20
3.109201388888888
  0
LWPOLYLINE
  5
28C
330
2
100
AcDbEntity
  8
PDF_Layer 1
 62
     7
420
 16777215
370
   120
100
AcDbPolyline
 90
       10
 70
     0
 43
0.0
 10
3.569988888888889
 20
3.044118055555555
 10
3.566572222222222
 20
3.040687499999999
 10
3.556294444444445
 20
3.040687499999999
 10
3.556294444444445
 20
3.044118055555555
 10
3.556294444444445
 20
3.050965277777777
 10
3.563141666666667
 20
3.054395833333332
 10
3.573419444444445
 20
3.061243055555555
 10
3.573419444444445
 20
3.064673611111111
 10
3.563141666666667
 20
3.071520833333333
 10
3.556294444444445
 20
3.074937499999999
  0
LWPOLYLINE
  5
28D
330
2
100
AcDbEntity
  8
PDF_Layer 1
 62
     7
420
 16777215
370
   120
100
AcDbPolyline
 90
       10
 70
     0
 43
0.0
 10
3.569988888888889
 20
3.009854166666666
 10
3.566572222222222
 20
3.006437499999999
 10
3.556294444444445
 20
3.006437499999999
 10
3.556294444444445
 20
3.009854166666666
 10
3.556294444444445
 20
3.016715277777777
 10
3.563141666666667
 20
3.020145833333332
 10
3.573419444444445
 20
3.026993055555555
 10
3.573419444444445
 20
3.030409722222222
 10
3.563141666666667
 20
3.037270833333332
 10
3.556294444444445
 20
3.040687499999999
  0
LWPOLYLINE
  5
28E
330
2
100
AcDbEntity
  8
PDF_Layer 1
 62
     7
420
 16777215
370
   120
100
AcDbPolyline
 90
       10
 70
     0
 43
0.0
 10
3.569988888888889
 20
2.975618055555555
 10
3.566572222222222
 20
2.972187499999999
 10
3.556294444444445
 20
2.972187499999999
 10
3.556294444444445
 20
2.975618055555555
 10
3.556294444444445
 20
2.982465277777777
 10
3.563141666666667
 20
2.985881944444443
 10
3.573419444444445
 20
2.992729166666666
 10
3.573419444444445
 20
2.996159722222222
 10
3.563141666666667
 20
3.003006944444444
 10
3.556294444444445
 20
3.006437499999999
  0
LWPOLYLINE
  5
28F
330
2
100
AcDbEntity
  8
PDF_Layer 1
 62
     7
420
 16777215
370
   120
100
AcDbPolyline
 90
       10
 70
     0
 43
0.0
 10
3.569988888888889
 20
2.941354166666666
 10
3.566572222222222
 20
2.937937499999999
 10
3.556294444444445
 20
2.937937499999999
 10
3.556294444444445
 20
2.941354166666666
 10
3.556294444444445
 20
2.948201388888888
 10
3.563141666666667
 20
2.951631944444444
 10
3.573419444444445
 20
2.958479166666666
 10
3.573419444444445
 20
2.961909722222221
 10
3.563141666666667
 20
2.968756944444444
 10
3.556294444444445
 20
2.972187499999999
  0
LWPOLYLINE
  5
290
330
2
100
AcDbEntity
  8
PDF_Layer 1
 62
     7
420
 16777215
370
   120
100
AcDbPolyline
 90
       10
 70
     0
 43
0.0
 10
3.569988888888889
 20
2.907104166666666
 10
3.566572222222222
 20
2.903673611111111
 10
3.556294444444445
 20
2.903673611111111
 10
3.556294444444445
 20
2.907104166666666
 10
3.556294444444445
 20
2.913951388888888
 10
3.563141666666667
 20
2.917381944444444
 10
3.573419444444445
 20
2.924229166666666
 10
3.573419444444445
 20
2.927659722222221
 10
3.563141666666667
 20
2.934506944444444
 10
3.556294444444445
 20
2.937937499999999
  0
LWPOLYLINE
  5
291
330
2
100
AcDbEntity
  8
PDF_Layer 1
 62
     7
420
 16777215
370
   120
100
AcDbPolyline
 90
       10
 70
     0
 43
0.0
 10
3.569988888888889
 20
2.872840277777777
 10
3.566572222222222
 20
2.86942361111111
 10
3.556294444444445
 20
2.86942361111111
 10
3.556294444444445
 20
2.872840277777777
 10
3.556294444444445
 20
2.879701388888888
 10
3.563141666666667
 20
2.883118055555555
 10
3.573419444444445
 20
2.889979166666666
 10
3.573419444444445
 20
2.893409722222222
 10
3.563141666666667
 20
2.900256944444444
 10
3.556294444444445
 20
2.903673611111111
  0
LWPOLYLINE
  5
292
330
2
100
AcDbEntity
  8
PDF_Layer 1
 62
     7
420
 16777215
370
   120
100
AcDbPolyline
 90
       10
 70
     0
 43
0.0
 10
3.569988888888889
 20
2.838590277777777
 10
3.566572222222222
 20
2.83517361111111
 10
3.556294444444445
 20
2.83517361111111
 10
3.556294444444445
 20
2.838590277777777
 10
3.556294444444445
 20
2.845451388888888
 10
3.563141666666667
 20
2.848881944444443
 10
3.573419444444445
 20
2.855729166666666
 10
3.573419444444445
 20
2.859145833333332
 10
3.563141666666667
 20
2.865993055555555
 10
3.556294444444445
 20
2.86942361111111
  0
LWPOLYLINE
  5
293
330
2
100
AcDbEntity
  8
PDF_Layer 1
 62
     7
420
 16777215
370
   120
100
AcDbPolyline
 90
       10
 70
     0
 43
0.0
 10
3.569988888888889
 20
2.804354166666666
 10
3.566572222222222
 20
2.80092361111111
 10
3.556294444444445
 20
2.80092361111111
 10
3.556294444444445
 20
2.804354166666666
 10
3.556294444444445
 20
2.811201388888888
 10
3.563141666666667
 20
2.814618055555555
 10
3.573419444444445
 20
2.821465277777777
 10
3.573419444444445
 20
2.824895833333333
 10
3.563141666666667
 20
2.831743055555555
 10
3.556294444444445
 20
2.83517361111111
  0
LWPOLYLINE
  5
299
330
2
100
AcDbEntity
  8
PDF_Layer 1
 62
     7
420
 16777215
370
   120
100
AcDbPolyline
 90
       45
 70
     0
 43
0.0
 10
3.569988888888889
 20
2.598826388888888
 10
3.566572222222222
 20
2.595409722222222
 10
3.556294444444445
 20
2.595409722222222
 10
3.556294444444445
 20
2.598826388888888
 10
3.556294444444445
 20
2.60567361111111
 10
3.563141666666667
 20
2.609104166666666
 10
3.573419444444445
 20
2.615951388888888
 10
3.573419444444445
 20
2.619368055555555
 10
3.563141666666667
 20
2.626229166666666
 10
3.556294444444445
 20
2.629645833333333
 10
3.556294444444445
 20
2.633090277777777
 10
3.556294444444445
 20
2.639937499999999
 10
3.563141666666667
 20
2.643354166666666
 10
3.573419444444445
 20
2.650201388888888
 10
3.573419444444445
 20
2.653631944444444
 10
3.563141666666667
 20
2.660479166666666
 10
3.556294444444445
 20
2.663895833333333
 10
3.556294444444445
 20
2.667326388888888
 10
3.556294444444445
 20
2.674187499999999
 10
3.563141666666667
 20
2.677618055555555
 10
3.573419444444445
 20
2.684465277777777
 10
3.573419444444445
 20
2.687881944444444
 10
3.563141666666667
 20
2.694729166666666
 10
3.556294444444445
 20
2.698159722222222
 10
3.556294444444445
 20
2.701576388888888
 10
3.556294444444445
 20
2.708437499999999
 10
3.563141666666667
 20
2.711854166666666
 10
3.573419444444445
 20
2.718715277777777
 10
3.573419444444445
 20
2.722145833333333
 10
3.563141666666667
 20
2.728993055555555
 10
3.556294444444445
 20
2.732409722222222
 10
3.556294444444445
 20
2.735840277777777
 10
3.556294444444445
 20
2.742687499999999
 10
3.563141666666667
 20
2.746104166666666
 10
3.573419444444445
 20
2.752965277777777
 10
3.573419444444445
 20
2.756381944444444
 10
3.563141666666667
 20
2.763243055555555
 10
3.556294444444445
 20
2.76667361111111
 10
3.556294444444445
 20
2.770090277777777
 10
3.556294444444445
 20
2.776937499999999
 10
3.563141666666667
 20
2.780368055555555
 10
3.573419444444445
 20
2.787215277777777
 10
3.573419444444445
 20
2.790631944444444
 10
3.563141666666667
 20
2.797493055555555
 10
3.556294444444445
 20
2.80092361111111
  0
LWPOLYLINE
  5
29A
330
2
100
AcDbEntity
  8
PDF_Layer 1
 62
     7
420
 16777215
370
   120
100
AcDbPolyline
 90
       10
 70
     0
 43
0.0
 10
3.569988888888889
 20
2.564576388888888
 10
3.566572222222222
 20
2.561145833333333
 10
3.556294444444445
 20
2.561145833333333
 10
3.556294444444445
 20
2.564576388888888
 10
3.556294444444445
 20
2.57142361111111
 10
3.563141666666667
 20
2.574840277777777
 10
3.573419444444445
 20
2.581687499999999
 10
3.573419444444445
 20
2.585118055555555
 10
3.563141666666667
 20
2.591979166666666
 10
3.556294444444445
 20
2.595409722222222
  0
LWPOLYLINE
  5
29B
330
2
100
AcDbEntity
  8
PDF_Layer 1
 62
     7
420
 16777215
370
   120
100
AcDbPolyline
 90
       10
 70
     0
 43
0.0
 10
3.569988888888889
 20
2.530312499999999
 10
3.566572222222222
 20
2.526895833333333
 10
3.556294444444445
 20
2.526895833333333
 10
3.556294444444445
 20
2.530312499999999
 10
3.556294444444445
 20
2.537159722222221
 10
3.563141666666667
 20
2.540590277777777
 10
3.573419444444445
 20
2.547451388888888
 10
3.573419444444445
 20
2.550881944444443
 10
3.563141666666667
 20
2.557729166666666
 10
3.556294444444445
 20
2.561145833333333
  0
LWPOLYLINE
  5
29C
330
2
100
AcDbEntity
  8
PDF_Layer 1
 62
     7
420
 16777215
370
   120
100
AcDbPolyline
 90
       10
 70
     0
 43
0.0
 10
3.569988888888889
 20
2.496062499999999
 10
3.566572222222222
 20
2.492631944444444
 10
3.556294444444445
 20
2.492631944444444
 10
3.556294444444445
 20
2.496062499999999
 10
3.556294444444445
 20
2.502909722222221
 10
3.563141666666667
 20
2.506354166666666
 10
3.573419444444445
 20
2.513201388888888
 10
3.573419444444445
 20
2.516618055555555
 10
3.563141666666667
 20
2.523465277777777
 10
3.556294444444445
 20
2.526895833333333
  0
LWPOLYLINE
  5
29D
330
2
100
AcDbEntity
  8
PDF_Layer 1
 62
     7
420
 16777215
370
   120
100
AcDbPolyline
 90
       10
 70
     0
 43
0.0
 10
3.569988888888889
 20
2.46179861111111
 10
3.566572222222222
 20
2.458381944444444
 10
3.556294444444445
 20
2.458381944444444
 10
3.556294444444445
 20
2.46179861111111
 10
3.556294444444445
 20
2.46867361111111
 10
3.563141666666667
 20
2.472090277777777
 10
3.573419444444445
 20
2.478937499999999
 10
3.573419444444445
 20
2.482368055555555
 10
3.563141666666667
 20
2.489215277777777
 10
3.556294444444445
 20
2.492631944444444
  0
LWPOLYLINE
  5
2E8
330
2
100
AcDbEntity
  8
PDF_Layer 1
 62
     7
420
 16777215
370
   120
100
AcDbPolyline
 90
      140
 70
     0
 43
0.0
 10
2.559530555555555
 20
3.246215277777777
 10
2.562961111111111
 20
3.242784722222221
 10
2.573225
 20
3.239368055555555
 10
2.573225
 20
3.232506944444444
 10
2.573225
 20
3.229090277777777
 10
2.562961111111111
 20
3.225659722222221
 10
2.552669444444445
 20
3.21879861111111
 10
2.552669444444445
 20
3.215381944444444
 10
2.562961111111111
 20
3.208534722222221
 10
2.573225
 20
3.205104166666666
 10
2.573225
 20
3.198256944444444
 10
2.573225
 20
3.194826388888888
 10
2.562961111111111
 20
3.191409722222221
 10
2.552669444444445
 20
3.184562499999999
 10
2.552669444444445
 20
3.181131944444444
 10
2.562961111111111
 20
3.174270833333332
 10
2.573225
 20
3.170854166666666
 10
2.573225
 20
3.164006944444444
 10
2.573225
 20
3.160576388888888
 10
2.562961111111111
 20
3.157159722222222
 10
2.552669444444445
 20
3.15029861111111
 10
2.552669444444445
 20
3.146881944444444
 10
2.562961111111111
 20
3.140034722222222
 10
2.573225
 20
3.136590277777777
 10
2.573225
 20
3.129743055555555
 10
2.573225
 20
3.126326388888888
 10
2.562961111111111
 20
3.122895833333333
 10
2.552669444444445
 20
3.11604861111111
 10
2.552669444444445
 20
3.112618055555555
 10
2.562961111111111
 20
3.105770833333333
 10
2.573225
 20
3.102354166666666
 10
2.573225
 20
3.095493055555555
 10
2.573225
 20
3.092062499999999
 10
2.562961111111111
 20
3.088645833333333
 10
2.552669444444445
 20
3.08179861111111
 10
2.552669444444445
 20
3.078368055555555
 10
2.562961111111111
 20
3.071520833333333
 10
2.573225
 20
3.068090277777777
 10
2.573225
 20
3.061243055555555
 10
2.573225
 20
3.057826388888888
 10
2.562961111111111
 20
3.054395833333332
 10
2.552669444444445
 20
3.047534722222221
 10
2.552669444444445
 20
3.044118055555555
 10
2.562961111111111
 20
3.037270833333332
 10
2.573225
 20
3.033840277777777
 10
2.573225
 20
3.026993055555555
 10
2.573225
 20
3.023562499999999
 10
2.562961111111111
 20
3.020145833333332
 10
2.552669444444445
 20
3.01329861111111
 10
2.552669444444445
 20
3.009854166666666
 10
2.562961111111111
 20
3.003006944444444
 10
2.573225
 20
2.999590277777777
 10
2.573225
 20
2.992729166666666
 10
2.573225
 20
2.989312499999999
 10
2.562961111111111
 20
2.985881944444443
 10
2.552669444444445
 20
2.979034722222221
 10
2.552669444444445
 20
2.975618055555555
 10
2.562961111111111
 20
2.968756944444444
 10
2.573225
 20
2.965326388888888
 10
2.573225
 20
2.958479166666666
 10
2.573225
 20
2.95504861111111
 10
2.562961111111111
 20
2.951631944444444
 10
2.552669444444445
 20
2.944784722222221
 10
2.552669444444445
 20
2.941354166666666
 10
2.562961111111111
 20
2.934506944444444
 10
2.573225
 20
2.931090277777777
 10
2.573225
 20
2.924229166666666
 10
2.573225
 20
2.92079861111111
 10
2.562961111111111
 20
2.917381944444444
 10
2.552669444444445
 20
2.910520833333333
 10
2.552669444444445
 20
2.907104166666666
 10
2.562961111111111
 20
2.900256944444444
 10
2.573225
 20
2.896826388888888
 10
2.573225
 20
2.889979166666666
 10
2.573225
 20
2.886562499999999
 10
2.562961111111111
 20
2.883118055555555
 10
2.552669444444445
 20
2.876270833333332
 10
2.552669444444445
 20
2.872840277777777
 10
2.562961111111111
 20
2.865993055555555
 10
2.573225
 20
2.862576388888888
 10
2.573225
 20
2.855729166666666
 10
2.573225
 20
2.85229861111111
 10
2.562961111111111
 20
2.848881944444443
 10
2.552669444444445
 20
2.842020833333333
 10
2.552669444444445
 20
2.838590277777777
 10
2.562961111111111
 20
2.831743055555555
 10
2.573225
 20
2.828312499999999
 10
2.573225
 20
2.821465277777777
 10
2.573225
 20
2.81804861111111
 10
2.562961111111111
 20
2.814618055555555
 10
2.552669444444445
 20
2.807770833333333
 10
2.552669444444445
 20
2.804354166666666
 10
2.562961111111111
 20
2.797493055555555
 10
2.573225
 20
2.794062499999999
 10
2.573225
 20
2.787215277777777
 10
2.573225
 20
2.783784722222221
 10
2.562961111111111
 20
2.780368055555555
 10
2.552669444444445
 20
2.773520833333332
 10
2.552669444444445
 20
2.770090277777777
 10
2.562961111111111
 20
2.763243055555555
 10
2.573225
 20
2.759826388888888
 10
2.573225
 20
2.752965277777777
 10
2.573225
 20
2.749534722222222
 10
2.562961111111111
 20
2.746104166666666
 10
2.552669444444445
 20
2.739256944444444
 10
2.552669444444445
 20
2.735840277777777
 10
2.562961111111111
 20
2.728993055555555
 10
2.573225
 20
2.725562499999999
 10
2.573225
 20
2.718715277777777
 10
2.573225
 20
2.715284722222222
 10
2.562961111111111
 20
2.711854166666666
 10
2.552669444444445
 20
2.705006944444444
 10
2.552669444444445
 20
2.701576388888888
 10
2.562961111111111
 20
2.694729166666666
 10
2.573225
 20
2.691312499999999
 10
2.573225
 20
2.684465277777777
 10
2.573225
 20
2.681034722222221
 10
2.562961111111111
 20
2.677618055555555
 10
2.552669444444445
 20
2.670756944444444
 10
2.552669444444445
 20
2.667326388888888
 10
2.562961111111111
 20
2.660479166666666
 10
2.573225
 20
2.65704861111111
 10
2.573225
 20
2.650201388888888
 10
2.573225
 20
2.646784722222221
 10
2.562961111111111
 20
2.643354166666666
 10
2.552669444444445
 20
2.636506944444444
 10
2.552669444444445
 20
2.633090277777777
 10
2.562961111111111
 20
2.626229166666666
 10
2.573225
 20
2.622798611111111
 10
2.573225
 20
2.615951388888888
 10
2.573225
 20
2.612520833333332
 10
2.562961111111111
 20
2.609104166666666
 10
2.552669444444445
 20
2.602256944444444
 10
2.552669444444445
 20
2.598826388888888
 10
2.535544444444445
 20
2.598826388888888
 10
2.501294444444444
 20
2.598826388888888
 10
2.477308333333333
 20
2.598826388888888
 10
2.460197222222222
 20
2.598826388888888
 10
2.456766666666667
 20
2.598826388888888
 10
2.456766666666667
 20
2.694729166666666
  0
LWPOLYLINE
  5
2FB
330
2
100
AcDbEntity
  8
PDF_Layer 1
 62
     7
420
 16777215
370
   120
100
AcDbPolyline
 90
       40
 70
     0
 43
0.0
 10
2.552669444444445
 20
2.598826388888888
 10
2.562961111111111
 20
2.591979166666666
 10
2.573225
 20
2.58854861111111
 10
2.573225
 20
2.581687499999999
 10
2.573225
 20
2.578270833333332
 10
2.562961111111111
 20
2.574840277777777
 10
2.552669444444445
 20
2.567993055555555
 10
2.552669444444445
 20
2.564576388888888
 10
2.562961111111111
 20
2.557729166666666
 10
2.573225
 20
2.55429861111111
 10
2.573225
 20
2.547451388888888
 10
2.573225
 20
2.544006944444443
 10
2.562961111111111
 20
2.540590277777777
 10
2.552669444444445
 20
2.533743055555555
 10
2.552669444444445
 20
2.530312499999999
 10
2.562961111111111
 20
2.523465277777777
 10
2.573225
 20
2.52004861111111
 10
2.573225
 20
2.513201388888888
 10
2.573225
 20
2.509770833333333
 10
2.562961111111111
 20
2.506354166666666
 10
2.552669444444445
 20
2.499479166666666
 10
2.552669444444445
 20
2.496062499999999
 10
2.562961111111111
 20
2.489215277777777
 10
2.573225
 20
2.485784722222221
 10
2.573225
 20
2.478937499999999
 10
2.573225
 20
2.475520833333332
 10
2.562961111111111
 20
2.472090277777777
 10
2.552669444444445
 20
2.465243055555555
 10
2.552669444444445
 20
2.46179861111111
 10
2.562961111111111
 20
2.454951388888888
 10
2.573225
 20
2.451534722222222
 10
2.573225
 20
2.444687499999999
 10
2.573225
 20
2.441256944444444
 10
2.562961111111111
 20
2.437840277777777
 10
2.552669444444445
 20
2.430993055555555
 10
2.552669444444445
 20
2.427562499999999
 10
2.562961111111111
 20
2.420715277777777
 10
2.573225
 20
2.417270833333333
 10
2.573225
 20
2.41042361111111
 10
2.573225
 20
2.407006944444444
  0
LWPOLYLINE
  5
34A
330
2
100
AcDbEntity
  8
PDF_Layer 1
 62
     7
420
 16777215
370
   120
100
AcDbPolyline
 90
       77
 70
     0
 43
0.0
 10
2.768475
 20
1.249256944444444
 10
2.775322222222222
 20
1.249256944444444
 10
2.789016666666666
 20
1.249256944444444
 10
2.813002777777778
 20
1.249256944444444
 10
2.847252777777778
 20
1.249256944444444
 10
2.884933333333334
 20
1.249256944444444
 10
2.932891666666667
 20
1.249256944444444
 10
2.984266666666666
 20
1.249256944444444
 10
3.035641666666667
 20
1.249256944444444
 10
3.090447222222223
 20
1.249256944444444
 10
3.145252777777778
 20
1.249256944444444
 10
3.196641666666667
 20
1.249256944444444
 10
3.241169444444444
 20
1.249256944444444
 10
3.282266666666667
 20
1.249256944444444
 10
3.3131
 20
1.249256944444444
 10
3.337072222222222
 20
1.249256944444444
 10
3.354197222222222
 20
1.249256944444444
 10
3.357627777777778
 20
1.249256944444444
 10
3.357627777777778
 20
1.523270833333333
 10
3.357627777777778
 20
1.526687499999999
 10
3.357627777777778
 20
1.530118055555555
 10
3.361044444444444
 20
1.533562499999999
 10
3.361044444444444
 20
1.536979166666666
 10
3.364475
 20
1.540409722222221
 10
3.367905555555555
 20
1.543826388888888
 10
3.367905555555555
 20
1.547256944444444
 10
3.371322222222222
 20
1.55067361111111
 10
3.511766666666667
 20
1.643159722222221
 10
3.515197222222222
 20
1.646576388888888
 10
3.515197222222222
 20
1.650006944444444
 10
3.518613888888889
 20
1.650006944444444
 10
3.522044444444444
 20
1.653437499999999
 10
3.522044444444444
 20
1.656854166666666
 10
3.525461111111111
 20
1.663715277777777
 10
3.525461111111111
 20
1.667145833333333
 10
3.525461111111111
 20
1.670562499999999
 10
3.525461111111111
 20
2.153534722222222
 10
3.522044444444444
 20
2.153534722222222
 10
3.515197222222222
 20
2.153534722222222
 10
3.494641666666667
 20
2.153534722222222
 10
3.467238888888889
 20
2.153534722222222
 10
3.429558333333333
 20
2.153534722222222
 10
3.385030555555555
 20
2.153534722222222
 10
3.333641666666667
 20
2.153534722222222
 10
3.275419444444445
 20
2.153534722222222
 10
3.213766666666667
 20
2.153534722222222
 10
3.148683333333333
 20
2.153534722222222
 10
3.080169444444444
 20
2.153534722222222
 10
3.011669444444445
 20
2.153534722222222
 10
2.946586111111111
 20
2.153534722222222
 10
2.884933333333334
 20
2.153534722222222
 10
2.823280555555556
 20
2.153534722222222
 10
2.768475
 20
2.153534722222222
 10
2.720516666666667
 20
2.153534722222222
 10
2.679419444444445
 20
2.153534722222222
 10
2.645155555555556
 20
2.153534722222222
 10
2.621183333333333
 20
2.153534722222222
 10
2.607488888888889
 20
2.153534722222222
 10
2.604058333333334
 20
2.153534722222222
 10
2.604058333333334
 20
1.670562499999999
 10
2.604058333333334
 20
1.667145833333333
 10
2.604058333333334
 20
1.663715277777777
 10
2.604058333333334
 20
1.656854166666666
 10
2.607488888888889
 20
1.653437499999999
 10
2.607488888888889
 20
1.650006944444444
 10
2.610905555555556
 20
1.650006944444444
 10
2.614336111111111
 20
1.646576388888888
 10
2.617752777777778
 20
1.643159722222221
 10
2.754766666666667
 20
1.55067361111111
 10
2.758197222222222
 20
1.547256944444444
 10
2.761627777777778
 20
1.543826388888888
 10
2.761627777777778
 20
1.540409722222221
 10
2.765044444444444
 20
1.536979166666666
 10
2.768475
 20
1.533562499999999
 10
2.768475
 20
1.530118055555555
 10
2.768475
 20
1.526687499999999
 10
2.768475
 20
1.523270833333333
  0
LWPOLYLINE
  5
352
330
2
100
AcDbEntity
  8
PDF_Layer 1
 62
     7
420
 16777215
370
   120
100
AcDbPolyline
 90
        6
 70
     0
 43
0.0
 10
2.765044444444444
 20
1.238979166666666
 10
2.765044444444444
 20
1.232118055555555
 10
2.765044444444444
 20
1.225270833333333
 10
2.747919444444444
 20
1.21842361111111
 10
2.730794444444445
 20
1.208145833333333
 10
2.730794444444445
 20
1.20129861111111
  0
LWPOLYLINE
  5
353
330
2
100
AcDbEntity
  8
PDF_Layer 1
 62
     7
420
 16777215
370
   120
100
AcDbPolyline
 90
       14
 70
     0
 43
0.0
 10
3.361044444444444
 20
1.194437499999999
 10
3.340502777777778
 20
1.191006944444444
 10
3.295975
 20
1.191006944444444
 10
3.230891666666667
 20
1.187590277777777
 10
3.1521
 20
1.184159722222221
 10
3.063044444444444
 20
1.180743055555555
 10
2.973988888888889
 20
1.177312499999999
 10
2.895211111111111
 20
1.177312499999999
 10
2.830127777777778
 20
1.173895833333333
 10
2.7856
 20
1.170465277777777
 10
2.765044444444444
 20
1.16704861111111
 10
2.747919444444444
 20
1.156770833333333
 10
2.730794444444445
 20
1.149909722222221
 10
2.730794444444445
 20
1.143062499999999
  0
LWPOLYLINE
  5
354
330
2
100
AcDbEntity
  8
PDF_Layer 1
 62
     7
420
 16777215
370
   120
100
AcDbPolyline
 90
       10
 70
     0
 43
0.0
 10
3.193211111111111
 20
1.143062499999999
 10
3.241169444444444
 20
1.143062499999999
 10
3.302822222222222
 20
1.146479166666666
 10
3.34735
 20
1.149909722222221
 10
3.364475
 20
1.149909722222221
 10
3.378183333333333
 20
1.160187499999999
 10
3.395308333333333
 20
1.170465277777777
 10
3.395308333333333
 20
1.177312499999999
 10
3.378183333333333
 20
1.187590277777777
 10
3.364475
 20
1.197868055555555
  0
LWPOLYLINE
  5
355
330
2
100
AcDbEntity
  8
PDF_Layer 1
 62
     7
420
 16777215
370
   120
100
AcDbPolyline
 90
        6
 70
     0
 43
0.0
 10
3.364475
 20
1.194437499999999
 10
3.364475
 20
1.204729166666666
 10
3.364475
 20
1.211576388888888
 10
3.378183333333333
 20
1.21842361111111
 10
3.385030555555555
 20
1.221840277777777
 10
3.357627777777778
 20
1.249256944444444
  0
LWPOLYLINE
  5
359
330
2
100
AcDbEntity
  8
PDF_Layer 1
 62
     7
420
 16777215
370
   120
100
AcDbPolyline
 90
        5
 70
     0
 43
0.0
 10
2.730794444444445
 20
1.197868055555555
 10
2.747919444444444
 20
1.191006944444444
 10
2.765044444444444
 20
1.180743055555555
 10
2.765044444444444
 20
1.173895833333333
 10
2.765044444444444
 20
1.16704861111111
  0
LWPOLYLINE
  5
35F
330
2
100
AcDbEntity
  8
PDF_Layer 1
 62
     7
420
 16777215
370
   120
100
AcDbPolyline
 90
        5
 70
     0
 43
0.0
 10
3.391877777777778
 20
1.149909722222221
 10
3.391877777777778
 20
1.146479166666666
 10
3.367905555555555
 20
1.143062499999999
 10
3.364475
 20
1.143062499999999
 10
3.364475
 20
1.153340277777777
  0
LWPOLYLINE
  5
36B
330
2
100
AcDbEntity
  8
PDF_Layer 1
 62
     7
420
 16777215
370
   120
100
AcDbPolyline
 90
       36
 70
     1
 43
0.0
 10
9.872586111111111
 20
8.569159722222222
 10
9.869169444444445
 20
8.569159722222222
 10
9.852030555555554
 20
8.565729166666665
 10
9.831488888888889
 20
8.562312499999999
 10
9.797225
 20
8.555465277777775
 10
9.759544444444443
 20
8.548604166666665
 10
9.715016666666667
 20
8.541756944444442
 10
9.663641666666666
 20
8.531479166666665
 10
9.608836111111109
 20
8.524631944444443
 10
9.554030555555556
 20
8.514354166666665
 10
9.499225
 20
8.504076388888888
 10
9.444419444444443
 20
8.49379861111111
 10
9.393044444444443
 20
8.486951388888888
 10
9.348516666666666
 20
8.47667361111111
 10
9.310836111111109
 20
8.469826388888888
 10
9.276586111111111
 20
8.466409722222222
 10
9.256030555555556
 20
8.45954861111111
 10
9.238905555555556
 20
8.45954861111111
 10
9.235475
 20
8.456118055555554
 10
9.238905555555556
 20
8.45954861111111
 10
9.256030555555556
 20
8.45954861111111
 10
9.276586111111111
 20
8.466409722222222
 10
9.310836111111109
 20
8.469826388888888
 10
9.348516666666666
 20
8.47667361111111
 10
9.393044444444443
 20
8.486951388888888
 10
9.444419444444443
 20
8.49379861111111
 10
9.499225
 20
8.504076388888888
 10
9.554030555555556
 20
8.514354166666665
 10
9.608836111111109
 20
8.524631944444443
 10
9.663641666666666
 20
8.531479166666665
 10
9.715016666666667
 20
8.541756944444442
 10
9.759544444444443
 20
8.548604166666665
 10
9.797225
 20
8.555465277777775
 10
9.831488888888889
 20
8.562312499999999
 10
9.852030555555554
 20
8.565729166666665
 10
9.869169444444445
 20
8.569159722222222
  0
LWPOLYLINE
  5
370
330
2
100
AcDbEntity
  8
PDF_Layer 1
 62
     7
420
 16777215
370
   120
100
AcDbPolyline
 90
        8
 70
     0
 43
0.0
 10
3.357627777777778
 20
1.502729166666666
 10
3.385030555555555
 20
1.519840277777777
 10
3.395308333333333
 20
1.533562499999999
 10
3.405572222222222
 20
1.547256944444444
 10
3.415863888888889
 20
1.560951388888888
 10
3.422711111111111
 20
1.574645833333333
 10
3.432988888888889
 20
1.588354166666666
 10
3.432988888888889
 20
1.591784722222221
  0
LWPOLYLINE
  5
372
330
2
100
AcDbEntity
  8
PDF_Layer 1
 62
     7
420
 16777215
370
   120
100
AcDbPolyline
 90
        9
 70
     0
 43
0.0
 10
2.696544444444445
 20
1.591784722222221
 10
2.696544444444445
 20
1.588354166666666
 10
2.703391666666667
 20
1.574645833333333
 10
2.713669444444445
 20
1.560951388888888
 10
2.720516666666667
 20
1.547256944444444
 10
2.730794444444445
 20
1.533562499999999
 10
2.741072222222222
 20
1.519840277777777
 10
2.768475
 20
1.502729166666666
 10
2.758197222222222
 20
1.509576388888888
  0
LWPOLYLINE
  5
374
330
2
100
AcDbEntity
  8
PDF_Layer 1
 62
     7
420
 16777215
370
   120
100
AcDbPolyline
 90
        2
 70
     0
 43
0.0
 10
2.675988888888889
 20
1.557520833333333
 10
2.675988888888889
 20
1.557520833333333
  0
LWPOLYLINE
  5
375
330
2
100
AcDbEntity
  8
PDF_Layer 1
 62
     7
420
 16777215
370
   120
100
AcDbPolyline
 90
        4
 70
     0
 43
0.0
 10
2.675988888888889
 20
1.557520833333333
 10
2.675988888888889
 20
1.60204861111111
 10
2.675988888888889
 20
1.557520833333333
 10
2.741072222222222
 20
1.519840277777777
  0
LWPOLYLINE
  5
377
330
2
100
AcDbEntity
  8
PDF_Layer 1
 62
     7
420
 16777215
370
   120
100
AcDbPolyline
 90
        6
 70
     0
 43
0.0
 10
3.385030555555555
 20
1.519840277777777
 10
3.402155555555555
 20
1.530118055555555
 10
3.450113888888889
 20
1.557520833333333
 10
3.453530555555555
 20
1.557520833333333
 10
3.453530555555555
 20
1.581506944444444
 10
3.453530555555555
 20
1.60204861111111
  0
LWPOLYLINE
  5
37B
330
2
100
AcDbEntity
  8
PDF_Layer 1
 62
     7
420
 16777215
370
   120
100
AcDbPolyline
 90
        2
 70
     0
 43
0.0
 10
2.675988888888889
 20
1.557520833333333
 10
2.675988888888889
 20
1.557520833333333
  0
LWPOLYLINE
  5
37D
330
2
100
AcDbEntity
  8
PDF_Layer 1
 62
     7
420
 16777215
370
   120
100
AcDbPolyline
 90
       14
 70
     0
 43
0.0
 10
3.453530555555555
 20
0.7422986111111112
 10
3.453530555555555
 20
0.7594236111111109
 10
3.453530555555555
 20
0.773131944444444
 10
3.450113888888889
 20
0.773131944444444
 10
3.350780555555556
 20
0.749145833333333
 10
3.244586111111111
 20
0.7388819444444439
 10
3.1521
 20
0.749145833333333
 10
3.063044444444444
 20
0.773131944444444
 10
2.960280555555556
 20
0.749145833333333
 10
2.8541
 20
0.7388819444444439
 10
2.765044444444444
 20
0.749145833333333
 10
2.675988888888889
 20
0.773131944444444
 10
2.675988888888889
 20
0.7594236111111109
 10
2.675988888888889
 20
0.7422986111111112
  0
LWPOLYLINE
  5
37E
330
2
100
AcDbEntity
  8
PDF_Layer 1
 62
     7
420
 16777215
370
   120
100
AcDbPolyline
 90
        2
 70
     0
 43
0.0
 10
2.675988888888889
 20
0.773131944444444
 10
2.675988888888889
 20
0.773131944444444
  0
LWPOLYLINE
  5
380
330
2
100
AcDbEntity
  8
PDF_Layer 1
 62
     7
420
 16777215
370
   120
100
AcDbPolyline
 90
        2
 70
     0
 43
0.0
 10
3.063044444444444
 20
0.773131944444444
 10
3.063044444444444
 20
0.773131944444444
  0
LWPOLYLINE
  5
384
330
2
100
AcDbEntity
  8
PDF_Layer 1
 62
     7
420
 16777215
370
   120
100
AcDbPolyline
 90
       19
 70
     0
 43
0.0
 10
3.419280555555555
 20
0.7217430555555553
 10
3.409002777777778
 20
0.7217430555555553
 10
3.388461111111111
 20
0.7217430555555553
 10
3.357627777777778
 20
0.7217430555555553
 10
3.319947222222222
 20
0.7217430555555553
 10
3.275419444444445
 20
0.7217430555555553
 10
3.224044444444444
 20
0.7217430555555553
 10
3.169225
 20
0.7217430555555553
 10
3.107572222222222
 20
0.7217430555555553
 10
3.04935
 20
0.7217430555555553
 10
2.987697222222222
 20
0.7217430555555553
 10
2.929461111111111
 20
0.7217430555555553
 10
2.878072222222222
 20
0.7217430555555553
 10
2.830127777777778
 20
0.7217430555555553
 10
2.7856
 20
0.7217430555555553
 10
2.751336111111111
 20
0.7217430555555553
 10
2.727363888888889
 20
0.7217430555555553
 10
2.713669444444445
 20
0.7217430555555553
 10
2.706808333333333
 20
0.7217430555555553
  0
LWPOLYLINE
  5
385
330
2
100
AcDbEntity
  8
PDF_Layer 1
 62
     7
420
 16777215
370
   120
100
AcDbPolyline
 90
        2
 70
     1
 43
0.0
 10
3.063044444444444
 20
1.10879861111111
 10
3.063044444444444
 20
0.773131944444444
  0
LWPOLYLINE
  5
386
330
2
100
AcDbEntity
  8
PDF_Layer 1
 62
     7
420
 16777215
370
   120
100
AcDbPolyline
 90
        2
 70
     0
 43
0.0
 10
3.063044444444444
 20
1.10879861111111
 10
3.063044444444444
 20
1.10879861111111
  0
LWPOLYLINE
  5
388
330
2
100
AcDbEntity
  8
PDF_Layer 1
 62
     7
420
 16777215
370
   120
100
AcDbPolyline
 90
       11
 70
     1
 43
0.0
 10
3.128127777777778
 20
1.143062499999999
 10
3.114433333333333
 20
1.143062499999999
 10
3.097308333333333
 20
1.143062499999999
 10
3.080169444444444
 20
1.143062499999999
 10
3.063044444444444
 20
1.143062499999999
 10
3.045919444444444
 20
1.143062499999999
 10
3.032225
 20
1.143062499999999
 10
3.0151
 20
1.143062499999999
 10
2.997961111111111
 20
1.143062499999999
 10
3.011669444444445
 20
1.136215277777777
 10
3.063044444444444
 20
1.10879861111111
  0
LWPOLYLINE
  5
38B
330
2
100
AcDbEntity
  8
PDF_Layer 1
 62
     7
420
 16777215
370
   120
100
AcDbPolyline
 90
       14
 70
     0
 43
0.0
 10
2.741072222222222
 20
1.143062499999999
 10
2.730794444444445
 20
1.143062499999999
 10
2.720516666666667
 20
1.143062499999999
 10
2.713669444444445
 20
1.143062499999999
 10
2.703391666666667
 20
1.143062499999999
 10
2.696544444444445
 20
1.143062499999999
 10
2.689697222222222
 20
1.143062499999999
 10
2.682836111111111
 20
1.143062499999999
 10
2.675988888888889
 20
1.143062499999999
 10
2.675988888888889
 20
1.10879861111111
 10
2.675988888888889
 20
0.773131944444444
 10
2.675988888888889
 20
1.10879861111111
 10
2.741072222222222
 20
1.143062499999999
 10
2.997961111111111
 20
1.143062499999999
  0
LWPOLYLINE
  5
38E
330
2
100
AcDbEntity
  8
PDF_Layer 1
 62
     7
420
 16777215
370
   120
100
AcDbPolyline
 90
        2
 70
     0
 43
0.0
 10
3.128127777777778
 20
1.143062499999999
 10
3.385030555555555
 20
1.143062499999999
  0
LWPOLYLINE
  5
38F
330
2
100
AcDbEntity
  8
PDF_Layer 1
 62
     7
420
 16777215
370
   120
100
AcDbPolyline
 90
        3
 70
     0
 43
0.0
 10
3.385030555555555
 20
1.143062499999999
 10
3.402155555555555
 20
1.136215277777777
 10
3.450113888888889
 20
1.10879861111111
  0
LWPOLYLINE
  5
390
330
2
100
AcDbEntity
  8
PDF_Layer 1
 62
     7
420
 16777215
370
   120
100
AcDbPolyline
 90
        2
 70
     0
 43
0.0
 10
3.450113888888889
 20
1.10879861111111
 10
3.450113888888889
 20
0.773131944444444
  0
LWPOLYLINE
  5
393
330
2
100
AcDbEntity
  8
PDF_Layer 1
 62
     7
420
 16777215
370
   120
100
AcDbPolyline
 90
        2
 70
     0
 43
0.0
 10
2.675988888888889
 20
1.10879861111111
 10
2.675988888888889
 20
1.10879861111111
  0
LWPOLYLINE
  5
395
330
2
100
AcDbEntity
  8
PDF_Layer 1
 62
     7
420
 16777215
370
   120
100
AcDbPolyline
 90
       12
 70
     0
 43
0.0
 10
3.450113888888889
 20
1.10879861111111
 10
3.453530555555555
 20
1.10879861111111
 10
3.453530555555555
 20
1.119090277777777
 10
3.453530555555555
 20
1.143062499999999
 10
3.446683333333333
 20
1.143062499999999
 10
3.439836111111111
 20
1.143062499999999
 10
3.432988888888889
 20
1.143062499999999
 10
3.422711111111111
 20
1.143062499999999
 10
3.415863888888889
 20
1.143062499999999
 10
3.405572222222222
 20
1.143062499999999
 10
3.395308333333333
 20
1.143062499999999
 10
3.385030555555555
 20
1.143062499999999
  0
LWPOLYLINE
  5
399
330
2
100
AcDbEntity
  8
PDF_Layer 1
 62
     7
420
 16777215
370
   120
100
AcDbPolyline
 90
        2
 70
     0
 43
0.0
 10
3.453530555555555
 20
0.773131944444444
 10
3.453530555555555
 20
1.10879861111111
  0
LWPOLYLINE
  5
39B
330
2
100
AcDbEntity
  8
PDF_Layer 1
 62
     7
420
 16777215
370
   120
100
AcDbPolyline
 90
       29
 70
     0
 43
0.0
 10
2.278655555555555
 20
3.359243055555555
 10
2.285502777777778
 20
3.359243055555555
 10
2.299197222222222
 20
3.359243055555555
 10
2.323183333333334
 20
3.359243055555555
 10
2.357433333333333
 20
3.359243055555555
 10
2.398544444444445
 20
3.359243055555555
 10
2.449919444444445
 20
3.359243055555555
 10
2.508141666666667
 20
3.359243055555555
 10
2.576655555555555
 20
3.359243055555555
 10
2.645155555555556
 20
3.359243055555555
 10
2.723947222222222
 20
3.359243055555555
 10
2.806141666666666
 20
3.359243055555555
 10
2.888363888888889
 20
3.359243055555555
 10
2.977419444444445
 20
3.359243055555555
 10
3.063044444444444
 20
3.359243055555555
 10
3.1521
 20
3.359243055555555
 10
3.237738888888889
 20
3.359243055555555
 10
3.323377777777778
 20
3.359243055555555
 10
3.402155555555555
 20
3.359243055555555
 10
3.480933333333333
 20
3.359243055555555
 10
3.552863888888889
 20
3.359243055555555
 10
3.617947222222222
 20
3.359243055555555
 10
3.676183333333333
 20
3.359243055555555
 10
3.727558333333333
 20
3.359243055555555
 10
3.768669444444444
 20
3.359243055555555
 10
3.802919444444444
 20
3.359243055555555
 10
3.826891666666667
 20
3.359243055555555
 10
3.8406
 20
3.359243055555555
 10
3.847447222222222
 20
3.359243055555555
  0
LWPOLYLINE
  5
39E
330
2
100
AcDbEntity
  8
PDF_Layer 1
 62
     7
420
 16777215
370
   120
100
AcDbPolyline
 90
        3
 70
     0
 43
0.0
 10
2.559530555555555
 20
2.417270833333333
 10
2.562961111111111
 20
2.417270833333333
 10
2.569808333333333
 20
2.417270833333333
  0
LWPOLYLINE
  5
39F
330
2
100
AcDbEntity
  8
PDF_Layer 1
 62
     7
420
 16777215
370
   120
100
AcDbPolyline
 90
        2
 70
     0
 43
0.0
 10
2.5561
 20
3.235937499999999
 10
2.5561
 20
3.235937499999999
  0
LWPOLYLINE
  5
3A0
330
2
100
AcDbEntity
  8
PDF_Layer 1
 62
     7
420
 16777215
370
   120
100
AcDbPolyline
 90
        2
 70
     0
 43
0.0
 10
3.569988888888889
 20
3.21879861111111
 10
3.556294444444445
 20
3.21879861111111
  0
LWPOLYLINE
  5
3A1
330
2
100
AcDbEntity
  8
PDF_Layer 1
 62
     7
420
 16777215
370
   120
100
AcDbPolyline
 90
        2
 70
     0
 43
0.0
 10
2.573225
 20
3.201687499999999
 10
2.5561
 20
3.201687499999999
  0
LWPOLYLINE
  5
3A2
330
2
100
AcDbEntity
  8
PDF_Layer 1
 62
     7
420
 16777215
370
   120
100
AcDbPolyline
 90
        2
 70
     0
 43
0.0
 10
3.569988888888889
 20
3.184562499999999
 10
3.556294444444445
 20
3.184562499999999
  0
LWPOLYLINE
  5
3A3
330
2
100
AcDbEntity
  8
PDF_Layer 1
 62
     7
420
 16777215
370
   120
100
AcDbPolyline
 90
        2
 70
     0
 43
0.0
 10
2.573225
 20
3.16742361111111
 10
2.5561
 20
3.16742361111111
  0
LWPOLYLINE
  5
3A4
330
2
100
AcDbEntity
  8
PDF_Layer 1
 62
     7
420
 16777215
370
   120
100
AcDbPolyline
 90
        2
 70
     0
 43
0.0
 10
3.569988888888889
 20
3.15029861111111
 10
3.556294444444445
 20
3.15029861111111
  0
LWPOLYLINE
  5
3A5
330
2
100
AcDbEntity
  8
PDF_Layer 1
 62
     7
420
 16777215
370
   120
100
AcDbPolyline
 90
        2
 70
     0
 43
0.0
 10
2.573225
 20
3.13317361111111
 10
2.5561
 20
3.13317361111111
  0
LWPOLYLINE
  5
3A6
330
2
100
AcDbEntity
  8
PDF_Layer 1
 62
     7
420
 16777215
370
   120
100
AcDbPolyline
 90
        2
 70
     0
 43
0.0
 10
3.569988888888889
 20
3.11604861111111
 10
3.556294444444445
 20
3.11604861111111
  0
LWPOLYLINE
  5
3A7
330
2
100
AcDbEntity
  8
PDF_Layer 1
 62
     7
420
 16777215
370
   120
100
AcDbPolyline
 90
        2
 70
     0
 43
0.0
 10
2.573225
 20
3.09892361111111
 10
2.5561
 20
3.09892361111111
  0
LWPOLYLINE
  5
3A8
330
2
100
AcDbEntity
  8
PDF_Layer 1
 62
     7
420
 16777215
370
   120
100
AcDbPolyline
 90
        2
 70
     0
 43
0.0
 10
3.569988888888889
 20
3.08179861111111
 10
3.556294444444445
 20
3.08179861111111
  0
LWPOLYLINE
  5
3A9
330
2
100
AcDbEntity
  8
PDF_Layer 1
 62
     7
420
 16777215
370
   120
100
AcDbPolyline
 90
        2
 70
     0
 43
0.0
 10
2.573225
 20
3.064673611111111
 10
2.5561
 20
3.064673611111111
  0
LWPOLYLINE
  5
3AA
330
2
100
AcDbEntity
  8
PDF_Layer 1
 62
     7
420
 16777215
370
   120
100
AcDbPolyline
 90
        2
 70
     0
 43
0.0
 10
3.569988888888889
 20
3.047534722222221
 10
3.556294444444445
 20
3.047534722222221
  0
LWPOLYLINE
  5
3AB
330
2
100
AcDbEntity
  8
PDF_Layer 1
 62
     7
420
 16777215
370
   120
100
AcDbPolyline
 90
        2
 70
     0
 43
0.0
 10
2.573225
 20
3.030409722222222
 10
2.5561
 20
3.030409722222222
  0
LWPOLYLINE
  5
3AC
330
2
100
AcDbEntity
  8
PDF_Layer 1
 62
     7
420
 16777215
370
   120
100
AcDbPolyline
 90
        2
 70
     0
 43
0.0
 10
3.569988888888889
 20
3.01329861111111
 10
3.556294444444445
 20
3.01329861111111
  0
LWPOLYLINE
  5
3AD
330
2
100
AcDbEntity
  8
PDF_Layer 1
 62
     7
420
 16777215
370
   120
100
AcDbPolyline
 90
        2
 70
     0
 43
0.0
 10
2.573225
 20
2.996159722222222
 10
2.5561
 20
2.996159722222222
  0
LWPOLYLINE
  5
3AE
330
2
100
AcDbEntity
  8
PDF_Layer 1
 62
     7
420
 16777215
370
   120
100
AcDbPolyline
 90
        2
 70
     0
 43
0.0
 10
3.569988888888889
 20
2.979034722222221
 10
3.556294444444445
 20
2.979034722222221
  0
LWPOLYLINE
  5
3AF
330
2
100
AcDbEntity
  8
PDF_Layer 1
 62
     7
420
 16777215
370
   120
100
AcDbPolyline
 90
        2
 70
     0
 43
0.0
 10
2.573225
 20
2.961909722222221
 10
2.5561
 20
2.961909722222221
  0
LWPOLYLINE
  5
3B0
330
2
100
AcDbEntity
  8
PDF_Layer 1
 62
     7
420
 16777215
370
   120
100
AcDbPolyline
 90
        2
 70
     0
 43
0.0
 10
3.569988888888889
 20
2.944784722222221
 10
3.556294444444445
 20
2.944784722222221
  0
LWPOLYLINE
  5
3B1
330
2
100
AcDbEntity
  8
PDF_Layer 1
 62
     7
420
 16777215
370
   120
100
AcDbPolyline
 90
        2
 70
     0
 43
0.0
 10
2.573225
 20
2.927659722222221
 10
2.5561
 20
2.927659722222221
  0
LWPOLYLINE
  5
3B2
330
2
100
AcDbEntity
  8
PDF_Layer 1
 62
     7
420
 16777215
370
   120
100
AcDbPolyline
 90
        2
 70
     0
 43
0.0
 10
3.569988888888889
 20
2.910520833333333
 10
3.556294444444445
 20
2.910520833333333
  0
LWPOLYLINE
  5
3B3
330
2
100
AcDbEntity
  8
PDF_Layer 1
 62
     7
420
 16777215
370
   120
100
AcDbPolyline
 90
        2
 70
     0
 43
0.0
 10
2.573225
 20
2.893409722222222
 10
2.5561
 20
2.893409722222222
  0
LWPOLYLINE
  5
3B4
330
2
100
AcDbEntity
  8
PDF_Layer 1
 62
     7
420
 16777215
370
   120
100
AcDbPolyline
 90
        2
 70
     0
 43
0.0
 10
3.569988888888889
 20
2.876270833333332
 10
3.556294444444445
 20
2.876270833333332
  0
LWPOLYLINE
  5
3B5
330
2
100
AcDbEntity
  8
PDF_Layer 1
 62
     7
420
 16777215
370
   120
100
AcDbPolyline
 90
        2
 70
     0
 43
0.0
 10
2.573225
 20
2.859145833333332
 10
2.5561
 20
2.859145833333332
  0
LWPOLYLINE
  5
3B6
330
2
100
AcDbEntity
  8
PDF_Layer 1
 62
     7
420
 16777215
370
   120
100
AcDbPolyline
 90
        2
 70
     0
 43
0.0
 10
3.569988888888889
 20
2.842020833333333
 10
3.556294444444445
 20
2.842020833333333
  0
LWPOLYLINE
  5
3B7
330
2
100
AcDbEntity
  8
PDF_Layer 1
 62
     7
420
 16777215
370
   120
100
AcDbPolyline
 90
        2
 70
     0
 43
0.0
 10
2.573225
 20
2.824895833333333
 10
2.5561
 20
2.824895833333333
  0
LWPOLYLINE
  5
3B8
330
2
100
AcDbEntity
  8
PDF_Layer 1
 62
     7
420
 16777215
370
   120
100
AcDbPolyline
 90
        2
 70
     0
 43
0.0
 10
3.569988888888889
 20
2.807770833333333
 10
3.556294444444445
 20
2.807770833333333
  0
LWPOLYLINE
  5
3B9
330
2
100
AcDbEntity
  8
PDF_Layer 1
 62
     7
420
 16777215
370
   120
100
AcDbPolyline
 90
        2
 70
     0
 43
0.0
 10
2.573225
 20
2.790631944444444
 10
2.5561
 20
2.790631944444444
  0
LWPOLYLINE
  5
3BA
330
2
100
AcDbEntity
  8
PDF_Layer 1
 62
     7
420
 16777215
370
   120
100
AcDbPolyline
 90
        2
 70
     0
 43
0.0
 10
3.569988888888889
 20
2.773520833333332
 10
3.556294444444445
 20
2.773520833333332
  0
LWPOLYLINE
  5
3BB
330
2
100
AcDbEntity
  8
PDF_Layer 1
 62
     7
420
 16777215
370
   120
100
AcDbPolyline
 90
        2
 70
     0
 43
0.0
 10
2.573225
 20
2.585118055555555
 10
2.5561
 20
2.585118055555555
  0
LWPOLYLINE
  5
3BC
330
2
100
AcDbEntity
  8
PDF_Layer 1
 62
     7
420
 16777215
370
   120
100
AcDbPolyline
 90
        2
 70
     0
 43
0.0
 10
3.569988888888889
 20
2.567993055555555
 10
3.556294444444445
 20
2.567993055555555
  0
LWPOLYLINE
  5
3BD
330
2
100
AcDbEntity
  8
PDF_Layer 1
 62
     7
420
 16777215
370
   120
100
AcDbPolyline
 90
        2
 70
     0
 43
0.0
 10
2.573225
 20
2.550881944444443
 10
2.5561
 20
2.550881944444443
  0
LWPOLYLINE
  5
3BE
330
2
100
AcDbEntity
  8
PDF_Layer 1
 62
     7
420
 16777215
370
   120
100
AcDbPolyline
 90
        2
 70
     0
 43
0.0
 10
3.569988888888889
 20
2.533743055555555
 10
3.556294444444445
 20
2.533743055555555
  0
LWPOLYLINE
  5
3BF
330
2
100
AcDbEntity
  8
PDF_Layer 1
 62
     7
420
 16777215
370
   120
100
AcDbPolyline
 90
        2
 70
     0
 43
0.0
 10
2.573225
 20
2.516618055555555
 10
2.5561
 20
2.516618055555555
  0
LWPOLYLINE
  5
3C0
330
2
100
AcDbEntity
  8
PDF_Layer 1
 62
     7
420
 16777215
370
   120
100
AcDbPolyline
 90
        2
 70
     0
 43
0.0
 10
3.569988888888889
 20
2.499479166666666
 10
3.556294444444445
 20
2.499479166666666
  0
LWPOLYLINE
  5
3C1
330
2
100
AcDbEntity
  8
PDF_Layer 1
 62
     7
420
 16777215
370
   120
100
AcDbPolyline
 90
        2
 70
     0
 43
0.0
 10
2.573225
 20
2.482368055555555
 10
2.5561
 20
2.482368055555555
  0
LWPOLYLINE
  5
3C2
330
2
100
AcDbEntity
  8
PDF_Layer 1
 62
     7
420
 16777215
370
   120
100
AcDbPolyline
 90
        2
 70
     0
 43
0.0
 10
3.569988888888889
 20
2.465243055555555
 10
3.556294444444445
 20
2.465243055555555
  0
LWPOLYLINE
  5
3C3
330
2
100
AcDbEntity
  8
PDF_Layer 1
 62
     7
420
 16777215
370
   120
100
AcDbPolyline
 90
        2
 70
     0
 43
0.0
 10
2.573225
 20
2.448104166666666
 10
2.5561
 20
2.448104166666666
  0
LWPOLYLINE
  5
3C4
330
2
100
AcDbEntity
  8
PDF_Layer 1
 62
     7
420
 16777215
370
   120
100
AcDbPolyline
 90
        2
 70
     0
 43
0.0
 10
3.569988888888889
 20
2.430993055555555
 10
3.556294444444445
 20
2.430993055555555
  0
LWPOLYLINE
  5
3C5
330
2
100
AcDbEntity
  8
PDF_Layer 1
 62
     7
420
 16777215
370
   120
100
AcDbPolyline
 90
        3
 70
     0
 43
0.0
 10
2.573225
 20
3.232506944444444
 10
2.5561
 20
3.232506944444444
 10
2.559530555555555
 20
3.232506944444444
  0
LWPOLYLINE
  5
3C7
330
2
100
AcDbEntity
  8
PDF_Layer 1
 62
     7
420
 16777215
370
   120
100
AcDbPolyline
 90
        3
 70
     0
 43
0.0
 10
2.573225
 20
3.198256944444444
 10
2.5561
 20
3.198256944444444
 10
2.559530555555555
 20
3.198256944444444
  0
LWPOLYLINE
  5
3C9
330
2
100
AcDbEntity
  8
PDF_Layer 1
 62
     7
420
 16777215
370
   120
100
AcDbPolyline
 90
        3
 70
     0
 43
0.0
 10
2.573225
 20
3.164006944444444
 10
2.5561
 20
3.164006944444444
 10
2.559530555555555
 20
3.164006944444444
  0
LWPOLYLINE
  5
3CB
330
2
100
AcDbEntity
  8
PDF_Layer 1
 62
     7
420
 16777215
370
   120
100
AcDbPolyline
 90
        3
 70
     0
 43
0.0
 10
2.573225
 20
3.129743055555555
 10
2.5561
 20
3.129743055555555
 10
2.559530555555555
 20
3.129743055555555
  0
LWPOLYLINE
  5
3CD
330
2
100
AcDbEntity
  8
PDF_Layer 1
 62
     7
420
 16777215
370
   120
100
AcDbPolyline
 90
        3
 70
     0
 43
0.0
 10
2.573225
 20
3.095493055555555
 10
2.5561
 20
3.095493055555555
 10
2.559530555555555
 20
3.095493055555555
  0
LWPOLYLINE
  5
3CF
330
2
100
AcDbEntity
  8
PDF_Layer 1
 62
     7
420
 16777215
370
   120
100
AcDbPolyline
 90
        3
 70
     0
 43
0.0
 10
2.573225
 20
3.061243055555555
 10
2.5561
 20
3.061243055555555
 10
2.559530555555555
 20
3.061243055555555
  0
LWPOLYLINE
  5
3D1
330
2
100
AcDbEntity
  8
PDF_Layer 1
 62
     7
420
 16777215
370
   120
100
AcDbPolyline
 90
        3
 70
     0
 43
0.0
 10
2.573225
 20
3.026993055555555
 10
2.5561
 20
3.026993055555555
 10
2.559530555555555
 20
3.026993055555555
  0
LWPOLYLINE
  5
3D3
330
2
100
AcDbEntity
  8
PDF_Layer 1
 62
     7
420
 16777215
370
   120
100
AcDbPolyline
 90
        3
 70
     0
 43
0.0
 10
2.573225
 20
2.992729166666666
 10
2.5561
 20
2.992729166666666
 10
2.559530555555555
 20
2.992729166666666
  0
LWPOLYLINE
  5
3D5
330
2
100
AcDbEntity
  8
PDF_Layer 1
 62
     7
420
 16777215
370
   120
100
AcDbPolyline
 90
        3
 70
     0
 43
0.0
 10
2.573225
 20
2.958479166666666
 10
2.5561
 20
2.958479166666666
 10
2.559530555555555
 20
2.958479166666666
  0
LWPOLYLINE
  5
3D7
330
2
100
AcDbEntity
  8
PDF_Layer 1
 62
     7
420
 16777215
370
   120
100
AcDbPolyline
 90
        3
 70
     0
 43
0.0
 10
2.573225
 20
2.924229166666666
 10
2.5561
 20
2.924229166666666
 10
2.559530555555555
 20
2.924229166666666
  0
LWPOLYLINE
  5
3D9
330
2
100
AcDbEntity
  8
PDF_Layer 1
 62
     7
420
 16777215
370
   120
100
AcDbPolyline
 90
        3
 70
     0
 43
0.0
 10
2.573225
 20
2.889979166666666
 10
2.5561
 20
2.889979166666666
 10
2.559530555555555
 20
2.889979166666666
  0
LWPOLYLINE
  5
3DB
330
2
100
AcDbEntity
  8
PDF_Layer 1
 62
     7
420
 16777215
370
   120
100
AcDbPolyline
 90
        3
 70
     0
 43
0.0
 10
2.573225
 20
2.855729166666666
 10
2.5561
 20
2.855729166666666
 10
2.559530555555555
 20
2.855729166666666
  0
LWPOLYLINE
  5
3DD
330
2
100
AcDbEntity
  8
PDF_Layer 1
 62
     7
420
 16777215
370
   120
100
AcDbPolyline
 90
        3
 70
     0
 43
0.0
 10
2.573225
 20
2.821465277777777
 10
2.5561
 20
2.821465277777777
 10
2.559530555555555
 20
2.821465277777777
  0
LWPOLYLINE
  5
3DF
330
2
100
AcDbEntity
  8
PDF_Layer 1
 62
     7
420
 16777215
370
   120
100
AcDbPolyline
 90
        3
 70
     0
 43
0.0
 10
2.573225
 20
2.787215277777777
 10
2.5561
 20
2.787215277777777
 10
2.559530555555555
 20
2.787215277777777
  0
LWPOLYLINE
  5
3E1
330
2
100
AcDbEntity
  8
PDF_Layer 1
 62
     7
420
 16777215
370
   120
100
AcDbPolyline
 90
        3
 70
     0
 43
0.0
 10
2.573225
 20
2.581687499999999
 10
2.5561
 20
2.581687499999999
 10
2.559530555555555
 20
2.581687499999999
  0
LWPOLYLINE
  5
3E3
330
2
100
AcDbEntity
  8
PDF_Layer 1
 62
     7
420
 16777215
370
   120
100
AcDbPolyline
 90
        3
 70
     0
 43
0.0
 10
2.573225
 20
2.547451388888888
 10
2.5561
 20
2.547451388888888
 10
2.559530555555555
 20
2.547451388888888
  0
LWPOLYLINE
  5
3E5
330
2
100
AcDbEntity
  8
PDF_Layer 1
 62
     7
420
 16777215
370
   120
100
AcDbPolyline
 90
        3
 70
     0
 43
0.0
 10
2.573225
 20
2.513201388888888
 10
2.5561
 20
2.513201388888888
 10
2.559530555555555
 20
2.513201388888888
  0
LWPOLYLINE
  5
3E7
330
2
100
AcDbEntity
  8
PDF_Layer 1
 62
     7
420
 16777215
370
   120
100
AcDbPolyline
 90
        3
 70
     0
 43
0.0
 10
2.573225
 20
2.478937499999999
 10
2.5561
 20
2.478937499999999
 10
2.559530555555555
 20
2.478937499999999
  0
LWPOLYLINE
  5
3E9
330
2
100
AcDbEntity
  8
PDF_Layer 1
 62
     7
420
 16777215
370
   120
100
AcDbPolyline
 90
        3
 70
     0
 43
0.0
 10
2.573225
 20
2.444687499999999
 10
2.5561
 20
2.444687499999999
 10
2.559530555555555
 20
2.444687499999999
  0
LWPOLYLINE
  5
3EA
330
2
100
AcDbEntity
  8
PDF_Layer 1
 62
     7
420
 16777215
370
   120
100
AcDbPolyline
 90
        3
 70
     0
 43
0.0
 10
3.569988888888889
 20
2.427562499999999
 10
3.566572222222222
 20
2.424131944444444
 10
3.556294444444445
 20
2.424131944444444
  0
LWPOLYLINE
  5
3EB
330
2
100
AcDbEntity
  8
PDF_Layer 1
 62
     7
420
 16777215
370
   120
100
AcDbPolyline
 90
        4
 70
     0
 43
0.0
 10
2.734225
 20
1.170465277777777
 10
2.730794444444445
 20
1.170465277777777
 10
2.751336111111111
 20
1.173895833333333
 10
2.765044444444444
 20
1.173895833333333
  0
LWPOLYLINE
  5
3EC
330
2
100
AcDbEntity
  8
PDF_Layer 1
 62
     7
420
 16777215
370
   120
100
AcDbPolyline
 90
        4
 70
     0
 43
0.0
 10
3.367905555555555
 20
1.194437499999999
 10
3.371322222222222
 20
1.197868055555555
 10
3.395308333333333
 20
1.197868055555555
 10
3.391877777777778
 20
1.20129861111111
  0
LWPOLYLINE
  5
3ED
330
2
100
AcDbEntity
  8
PDF_Layer 1
 62
     7
420
 16777215
370
   120
100
AcDbPolyline
 90
       43
 70
     0
 43
0.0
 10
3.385030555555555
 20
1.221840277777777
 10
3.3816
 20
1.221840277777777
 10
3.374752777777778
 20
1.221840277777777
 10
3.367905555555555
 20
1.221840277777777
 10
3.350780555555556
 20
1.21842361111111
 10
3.319947222222222
 20
1.21842361111111
 10
3.285697222222222
 20
1.21842361111111
 10
3.241169444444444
 20
1.214993055555555
 10
3.196641666666667
 20
1.214993055555555
 10
3.141836111111111
 20
1.214993055555555
 10
3.11785
 20
1.214993055555555
 10
3.090447222222223
 20
1.214993055555555
 10
3.063044444444444
 20
1.211576388888888
 10
3.035641666666667
 20
1.211576388888888
 10
2.991113888888889
 20
1.211576388888888
 10
2.950016666666666
 20
1.211576388888888
 10
2.919183333333333
 20
1.211576388888888
 10
2.891780555555556
 20
1.211576388888888
 10
2.864377777777778
 20
1.211576388888888
 10
2.840405555555555
 20
1.211576388888888
 10
2.816433333333333
 20
1.211576388888888
 10
2.795877777777778
 20
1.211576388888888
 10
2.778752777777778
 20
1.211576388888888
 10
2.761627777777778
 20
1.211576388888888
 10
2.782169444444444
 20
1.214993055555555
 10
2.806141666666666
 20
1.214993055555555
 10
2.847252777777778
 20
1.21842361111111
 10
2.895211111111111
 20
1.225270833333333
 10
2.943169444444444
 20
1.228687499999999
 10
2.997961111111111
 20
1.232118055555555
 10
3.04935
 20
1.235534722222222
 10
3.104155555555556
 20
1.238979166666666
 10
3.128127777777778
 20
1.242395833333333
 10
3.1521
 20
1.242395833333333
 10
3.141836111111111
 20
1.242395833333333
 10
3.052780555555556
 20
1.238979166666666
 10
2.967141666666667
 20
1.235534722222222
 10
2.888363888888889
 20
1.235534722222222
 10
2.823280555555556
 20
1.232118055555555
 10
2.782169444444444
 20
1.228687499999999
 10
2.765044444444444
 20
1.225270833333333
 10
2.747919444444444
 20
1.225270833333333
 10
2.744488888888889
 20
1.221840277777777
  0
LWPOLYLINE
  5
3EF
330
2
100
AcDbEntity
  8
PDF_Layer 1
 62
     7
420
 16777215
370
   120
100
AcDbPolyline
 90
        3
 70
     0
 43
0.0
 10
2.730794444444445
 20
1.177312499999999
 10
2.751336111111111
 20
1.180743055555555
 10
2.761627777777778
 20
1.180743055555555
  0
LWPOLYLINE
  5
3F0
330
2
100
AcDbEntity
  8
PDF_Layer 1
 62
     7
420
 16777215
370
   120
100
AcDbPolyline
 90
        4
 70
     0
 43
0.0
 10
3.364475
 20
1.204729166666666
 10
3.367905555555555
 20
1.204729166666666
 10
3.391877777777778
 20
1.204729166666666
 10
3.391877777777778
 20
1.208145833333333
  0
LWPOLYLINE
  5
3F1
330
2
100
AcDbEntity
  8
PDF_Layer 1
 62
     7
420
 16777215
370
   120
100
AcDbPolyline
 90
       33
 70
     0
 43
0.0
 10
2.569808333333333
 20
2.407006944444444
 10
2.573225
 20
2.407006944444444
 10
2.576655555555555
 20
2.407006944444444
 10
2.583502777777778
 20
2.407006944444444
 10
2.597197222222222
 20
2.407006944444444
 10
2.617752777777778
 20
2.407006944444444
 10
2.628030555555556
 20
2.407006944444444
 10
2.645155555555556
 20
2.407006944444444
 10
2.675988888888889
 20
2.407006944444444
 10
2.710238888888889
 20
2.407006944444444
 10
2.730794444444445
 20
2.407006944444444
 10
2.754766666666667
 20
2.41042361111111
 10
2.799294444444444
 20
2.41042361111111
 10
2.857530555555555
 20
2.41042361111111
 10
2.902058333333333
 20
2.41042361111111
 10
2.953433333333333
 20
2.41042361111111
 10
3.018516666666667
 20
2.41042361111111
 10
3.066475
 20
2.41042361111111
 10
3.11785
 20
2.41042361111111
 10
3.186363888888889
 20
2.41042361111111
 10
3.230891666666667
 20
2.413854166666666
 10
3.278836111111111
 20
2.413854166666666
 10
3.340502777777778
 20
2.413854166666666
 10
3.378183333333333
 20
2.413854166666666
 10
3.419280555555555
 20
2.413854166666666
 10
3.463808333333333
 20
2.413854166666666
 10
3.491211111111111
 20
2.413854166666666
 10
3.515197222222222
 20
2.413854166666666
 10
3.528891666666667
 20
2.413854166666666
 10
3.542586111111111
 20
2.413854166666666
 10
3.552863888888889
 20
2.417270833333333
 10
3.563141666666667
 20
2.417270833333333
 10
3.566572222222222
 20
2.417270833333333
  0
LWPOLYLINE
  5
3F2
330
2
100
AcDbEntity
  8
PDF_Layer 1
 62
     7
420
 16777215
370
   120
100
AcDbPolyline
 90
       22
 70
     0
 43
0.0
 10
3.515197222222222
 20
2.365895833333333
 10
3.511766666666667
 20
2.365895833333333
 10
3.498058333333333
 20
2.365895833333333
 10
3.470655555555556
 20
2.365895833333333
 10
3.436405555555555
 20
2.365895833333333
 10
3.395308333333333
 20
2.365895833333333
 10
3.34735
 20
2.365895833333333
 10
3.289113888888889
 20
2.365895833333333
 10
3.230891666666667
 20
2.365895833333333
 10
3.165808333333333
 20
2.365895833333333
 10
3.097308333333333
 20
2.365895833333333
 10
3.028794444444444
 20
2.365895833333333
 10
2.963711111111111
 20
2.365895833333333
 10
2.898627777777778
 20
2.365895833333333
 10
2.836975
 20
2.365895833333333
 10
2.782169444444444
 20
2.365895833333333
 10
2.730794444444445
 20
2.365895833333333
 10
2.689697222222222
 20
2.365895833333333
 10
2.655433333333333
 20
2.365895833333333
 10
2.631461111111111
 20
2.365895833333333
 10
2.614336111111111
 20
2.365895833333333
 10
2.610905555555556
 20
2.365895833333333
  0
LWPOLYLINE
  5
3F3
330
2
100
AcDbEntity
  8
PDF_Layer 1
 62
     7
420
 16777215
370
   120
100
AcDbPolyline
 90
       14
 70
     0
 43
0.0
 10
3.569988888888889
 20
3.235937499999999
 10
3.535752777777778
 20
3.232506944444444
 10
3.477516666666667
 20
3.232506944444444
 10
3.395308333333333
 20
3.232506944444444
 10
3.292544444444445
 20
3.229090277777777
 10
3.176086111111111
 20
3.229090277777777
 10
3.056197222222222
 20
3.225659722222221
 10
2.936308333333333
 20
3.225659722222221
 10
2.847252777777778
 20
3.225659722222221
 10
2.741072222222222
 20
3.222229166666666
 10
2.655433333333333
 20
3.222229166666666
 10
2.593780555555555
 20
3.222229166666666
 10
2.559530555555555
 20
3.21879861111111
 10
2.5561
 20
3.21879861111111
  0
LWPOLYLINE
  5
3F4
330
2
100
AcDbEntity
  8
PDF_Layer 1
 62
     7
420
 16777215
370
   120
100
AcDbPolyline
 90
       14
 70
     0
 43
0.0
 10
3.569988888888889
 20
3.201687499999999
 10
3.535752777777778
 20
3.198256944444444
 10
3.477516666666667
 20
3.198256944444444
 10
3.395308333333333
 20
3.198256944444444
 10
3.292544444444445
 20
3.194826388888888
 10
3.176086111111111
 20
3.194826388888888
 10
3.056197222222222
 20
3.191409722222221
 10
2.936308333333333
 20
3.191409722222221
 10
2.847252777777778
 20
3.191409722222221
 10
2.741072222222222
 20
3.187979166666666
 10
2.655433333333333
 20
3.187979166666666
 10
2.593780555555555
 20
3.187979166666666
 10
2.559530555555555
 20
3.184562499999999
 10
2.5561
 20
3.184562499999999
  0
LWPOLYLINE
  5
3F5
330
2
100
AcDbEntity
  8
PDF_Layer 1
 62
     7
420
 16777215
370
   120
100
AcDbPolyline
 90
       14
 70
     0
 43
0.0
 10
3.569988888888889
 20
3.16742361111111
 10
3.535752777777778
 20
3.164006944444444
 10
3.477516666666667
 20
3.164006944444444
 10
3.395308333333333
 20
3.164006944444444
 10
3.292544444444445
 20
3.160576388888888
 10
3.176086111111111
 20
3.160576388888888
 10
3.056197222222222
 20
3.157159722222222
 10
2.936308333333333
 20
3.157159722222222
 10
2.847252777777778
 20
3.157159722222222
 10
2.741072222222222
 20
3.153729166666666
 10
2.655433333333333
 20
3.153729166666666
 10
2.593780555555555
 20
3.153729166666666
 10
2.559530555555555
 20
3.15029861111111
 10
2.5561
 20
3.15029861111111
  0
LWPOLYLINE
  5
3F6
330
2
100
AcDbEntity
  8
PDF_Layer 1
 62
     7
420
 16777215
370
   120
100
AcDbPolyline
 90
       14
 70
     0
 43
0.0
 10
3.569988888888889
 20
3.13317361111111
 10
3.535752777777778
 20
3.129743055555555
 10
3.477516666666667
 20
3.129743055555555
 10
3.395308333333333
 20
3.129743055555555
 10
3.292544444444445
 20
3.126326388888888
 10
3.176086111111111
 20
3.126326388888888
 10
3.056197222222222
 20
3.122895833333333
 10
2.936308333333333
 20
3.122895833333333
 10
2.847252777777778
 20
3.122895833333333
 10
2.741072222222222
 20
3.119479166666666
 10
2.655433333333333
 20
3.119479166666666
 10
2.593780555555555
 20
3.119479166666666
 10
2.559530555555555
 20
3.11604861111111
 10
2.5561
 20
3.11604861111111
  0
LWPOLYLINE
  5
3F7
330
2
100
AcDbEntity
  8
PDF_Layer 1
 62
     7
420
 16777215
370
   120
100
AcDbPolyline
 90
       14
 70
     0
 43
0.0
 10
3.569988888888889
 20
3.09892361111111
 10
3.535752777777778
 20
3.095493055555555
 10
3.477516666666667
 20
3.095493055555555
 10
3.395308333333333
 20
3.095493055555555
 10
3.292544444444445
 20
3.092062499999999
 10
3.176086111111111
 20
3.092062499999999
 10
3.056197222222222
 20
3.088645833333333
 10
2.936308333333333
 20
3.088645833333333
 10
2.847252777777778
 20
3.088645833333333
 10
2.741072222222222
 20
3.085215277777777
 10
2.655433333333333
 20
3.085215277777777
 10
2.593780555555555
 20
3.085215277777777
 10
2.559530555555555
 20
3.08179861111111
 10
2.5561
 20
3.08179861111111
  0
LWPOLYLINE
  5
3F8
330
2
100
AcDbEntity
  8
PDF_Layer 1
 62
     7
420
 16777215
370
   120
100
AcDbPolyline
 90
       14
 70
     0
 43
0.0
 10
3.569988888888889
 20
3.064673611111111
 10
3.535752777777778
 20
3.061243055555555
 10
3.477516666666667
 20
3.061243055555555
 10
3.395308333333333
 20
3.061243055555555
 10
3.292544444444445
 20
3.057826388888888
 10
3.176086111111111
 20
3.057826388888888
 10
3.056197222222222
 20
3.054395833333332
 10
2.936308333333333
 20
3.054395833333332
 10
2.847252777777778
 20
3.054395833333332
 10
2.741072222222222
 20
3.050965277777777
 10
2.655433333333333
 20
3.050965277777777
 10
2.593780555555555
 20
3.050965277777777
 10
2.559530555555555
 20
3.047534722222221
 10
2.5561
 20
3.047534722222221
  0
LWPOLYLINE
  5
3F9
330
2
100
AcDbEntity
  8
PDF_Layer 1
 62
     7
420
 16777215
370
   120
100
AcDbPolyline
 90
       14
 70
     0
 43
0.0
 10
3.569988888888889
 20
3.030409722222222
 10
3.535752777777778
 20
3.026993055555555
 10
3.477516666666667
 20
3.026993055555555
 10
3.395308333333333
 20
3.026993055555555
 10
3.292544444444445
 20
3.023562499999999
 10
3.176086111111111
 20
3.023562499999999
 10
3.056197222222222
 20
3.020145833333332
 10
2.936308333333333
 20
3.020145833333332
 10
2.847252777777778
 20
3.020145833333332
 10
2.741072222222222
 20
3.016715277777777
 10
2.655433333333333
 20
3.016715277777777
 10
2.593780555555555
 20
3.016715277777777
 10
2.559530555555555
 20
3.01329861111111
 10
2.5561
 20
3.01329861111111
  0
LWPOLYLINE
  5
3FA
330
2
100
AcDbEntity
  8
PDF_Layer 1
 62
     7
420
 16777215
370
   120
100
AcDbPolyline
 90
       14
 70
     0
 43
0.0
 10
3.569988888888889
 20
2.996159722222222
 10
3.535752777777778
 20
2.992729166666666
 10
3.477516666666667
 20
2.992729166666666
 10
3.395308333333333
 20
2.992729166666666
 10
3.292544444444445
 20
2.989312499999999
 10
3.176086111111111
 20
2.989312499999999
 10
3.056197222222222
 20
2.985881944444443
 10
2.936308333333333
 20
2.985881944444443
 10
2.847252777777778
 20
2.985881944444443
 10
2.741072222222222
 20
2.982465277777777
 10
2.655433333333333
 20
2.982465277777777
 10
2.593780555555555
 20
2.982465277777777
 10
2.559530555555555
 20
2.979034722222221
 10
2.5561
 20
2.979034722222221
  0
LWPOLYLINE
  5
3FB
330
2
100
AcDbEntity
  8
PDF_Layer 1
 62
     7
420
 16777215
370
   120
100
AcDbPolyline
 90
       14
 70
     0
 43
0.0
 10
3.569988888888889
 20
2.961909722222221
 10
3.535752777777778
 20
2.958479166666666
 10
3.477516666666667
 20
2.958479166666666
 10
3.395308333333333
 20
2.958479166666666
 10
3.292544444444445
 20
2.95504861111111
 10
3.176086111111111
 20
2.95504861111111
 10
3.056197222222222
 20
2.951631944444444
 10
2.936308333333333
 20
2.951631944444444
 10
2.847252777777778
 20
2.951631944444444
 10
2.741072222222222
 20
2.948201388888888
 10
2.655433333333333
 20
2.948201388888888
 10
2.593780555555555
 20
2.948201388888888
 10
2.559530555555555
 20
2.944784722222221
 10
2.5561
 20
2.944784722222221
  0
LWPOLYLINE
  5
3FC
330
2
100
AcDbEntity
  8
PDF_Layer 1
 62
     7
420
 16777215
370
   120
100
AcDbPolyline
 90
       14
 70
     0
 43
0.0
 10
3.569988888888889
 20
2.927659722222221
 10
3.535752777777778
 20
2.924229166666666
 10
3.477516666666667
 20
2.924229166666666
 10
3.395308333333333
 20
2.924229166666666
 10
3.292544444444445
 20
2.92079861111111
 10
3.176086111111111
 20
2.92079861111111
 10
3.056197222222222
 20
2.917381944444444
 10
2.936308333333333
 20
2.917381944444444
 10
2.847252777777778
 20
2.917381944444444
 10
2.741072222222222
 20
2.913951388888888
 10
2.655433333333333
 20
2.913951388888888
 10
2.593780555555555
 20
2.913951388888888
 10
2.559530555555555
 20
2.910520833333333
 10
2.5561
 20
2.910520833333333
  0
LWPOLYLINE
  5
3FD
330
2
100
AcDbEntity
  8
PDF_Layer 1
 62
     7
420
 16777215
370
   120
100
AcDbPolyline
 90
       14
 70
     0
 43
0.0
 10
3.569988888888889
 20
2.893409722222222
 10
3.535752777777778
 20
2.889979166666666
 10
3.477516666666667
 20
2.889979166666666
 10
3.395308333333333
 20
2.889979166666666
 10
3.292544444444445
 20
2.886562499999999
 10
3.176086111111111
 20
2.886562499999999
 10
3.056197222222222
 20
2.883118055555555
 10
2.936308333333333
 20
2.883118055555555
 10
2.847252777777778
 20
2.883118055555555
 10
2.741072222222222
 20
2.879701388888888
 10
2.655433333333333
 20
2.879701388888888
 10
2.593780555555555
 20
2.879701388888888
 10
2.559530555555555
 20
2.876270833333332
 10
2.5561
 20
2.876270833333332
  0
LWPOLYLINE
  5
3FE
330
2
100
AcDbEntity
  8
PDF_Layer 1
 62
     7
420
 16777215
370
   120
100
AcDbPolyline
 90
       14
 70
     0
 43
0.0
 10
3.569988888888889
 20
2.859145833333332
 10
3.535752777777778
 20
2.855729166666666
 10
3.477516666666667
 20
2.855729166666666
 10
3.395308333333333
 20
2.855729166666666
 10
3.292544444444445
 20
2.85229861111111
 10
3.176086111111111
 20
2.85229861111111
 10
3.056197222222222
 20
2.848881944444443
 10
2.936308333333333
 20
2.848881944444443
 10
2.847252777777778
 20
2.848881944444443
 10
2.741072222222222
 20
2.845451388888888
 10
2.655433333333333
 20
2.845451388888888
 10
2.593780555555555
 20
2.845451388888888
 10
2.559530555555555
 20
2.842020833333333
 10
2.5561
 20
2.842020833333333
  0
LWPOLYLINE
  5
3FF
330
2
100
AcDbEntity
  8
PDF_Layer 1
 62
     7
420
 16777215
370
   120
100
AcDbPolyline
 90
       14
 70
     0
 43
0.0
 10
3.569988888888889
 20
2.824895833333333
 10
3.535752777777778
 20
2.821465277777777
 10
3.477516666666667
 20
2.821465277777777
 10
3.395308333333333
 20
2.821465277777777
 10
3.292544444444445
 20
2.81804861111111
 10
3.176086111111111
 20
2.81804861111111
 10
3.056197222222222
 20
2.814618055555555
 10
2.936308333333333
 20
2.814618055555555
 10
2.847252777777778
 20
2.814618055555555
 10
2.741072222222222
 20
2.811201388888888
 10
2.655433333333333
 20
2.811201388888888
 10
2.593780555555555
 20
2.811201388888888
 10
2.559530555555555
 20
2.807770833333333
 10
2.5561
 20
2.807770833333333
  0
LWPOLYLINE
  5
400
330
2
100
AcDbEntity
  8
PDF_Layer 1
 62
     7
420
 16777215
370
   120
100
AcDbPolyline
 90
       14
 70
     0
 43
0.0
 10
3.569988888888889
 20
2.790631944444444
 10
3.535752777777778
 20
2.787215277777777
 10
3.477516666666667
 20
2.787215277777777
 10
3.395308333333333
 20
2.787215277777777
 10
3.292544444444445
 20
2.783784722222221
 10
3.176086111111111
 20
2.783784722222221
 10
3.056197222222222
 20
2.780368055555555
 10
2.936308333333333
 20
2.780368055555555
 10
2.847252777777778
 20
2.780368055555555
 10
2.741072222222222
 20
2.776937499999999
 10
2.655433333333333
 20
2.776937499999999
 10
2.593780555555555
 20
2.776937499999999
 10
2.559530555555555
 20
2.773520833333332
 10
2.5561
 20
2.773520833333332
  0
LWPOLYLINE
  5
401
330
2
100
AcDbEntity
  8
PDF_Layer 1
 62
     7
420
 16777215
370
   120
100
AcDbPolyline
 90
       14
 70
     0
 43
0.0
 10
3.569988888888889
 20
2.756381944444444
 10
3.535752777777778
 20
2.752965277777777
 10
3.477516666666667
 20
2.752965277777777
 10
3.395308333333333
 20
2.752965277777777
 10
3.292544444444445
 20
2.749534722222222
 10
3.176086111111111
 20
2.749534722222222
 10
3.056197222222222
 20
2.746104166666666
 10
2.936308333333333
 20
2.746104166666666
 10
2.847252777777778
 20
2.746104166666666
 10
2.741072222222222
 20
2.742687499999999
 10
2.655433333333333
 20
2.742687499999999
 10
2.593780555555555
 20
2.742687499999999
 10
2.559530555555555
 20
2.739256944444444
 10
2.5561
 20
2.739256944444444
  0
LWPOLYLINE
  5
402
330
2
100
AcDbEntity
  8
PDF_Layer 1
 62
     7
420
 16777215
370
   120
100
AcDbPolyline
 90
       14
 70
     0
 43
0.0
 10
3.569988888888889
 20
2.722145833333333
 10
3.535752777777778
 20
2.718715277777777
 10
3.477516666666667
 20
2.718715277777777
 10
3.395308333333333
 20
2.718715277777777
 10
3.292544444444445
 20
2.715284722222222
 10
3.176086111111111
 20
2.715284722222222
 10
3.056197222222222
 20
2.711854166666666
 10
2.936308333333333
 20
2.711854166666666
 10
2.847252777777778
 20
2.711854166666666
 10
2.741072222222222
 20
2.708437499999999
 10
2.655433333333333
 20
2.708437499999999
 10
2.593780555555555
 20
2.708437499999999
 10
2.559530555555555
 20
2.705006944444444
 10
2.5561
 20
2.705006944444444
  0
LWPOLYLINE
  5
403
330
2
100
AcDbEntity
  8
PDF_Layer 1
 62
     7
420
 16777215
370
   120
100
AcDbPolyline
 90
       14
 70
     0
 43
0.0
 10
3.569988888888889
 20
2.687881944444444
 10
3.535752777777778
 20
2.684465277777777
 10
3.477516666666667
 20
2.684465277777777
 10
3.395308333333333
 20
2.684465277777777
 10
3.292544444444445
 20
2.681034722222221
 10
3.176086111111111
 20
2.681034722222221
 10
3.056197222222222
 20
2.677618055555555
 10
2.936308333333333
 20
2.677618055555555
 10
2.847252777777778
 20
2.677618055555555
 10
2.741072222222222
 20
2.674187499999999
 10
2.655433333333333
 20
2.674187499999999
 10
2.593780555555555
 20
2.674187499999999
 10
2.559530555555555
 20
2.670756944444444
 10
2.5561
 20
2.670756944444444
  0
LWPOLYLINE
  5
404
330
2
100
AcDbEntity
  8
PDF_Layer 1
 62
     7
420
 16777215
370
   120
100
AcDbPolyline
 90
       14
 70
     0
 43
0.0
 10
3.569988888888889
 20
2.653631944444444
 10
3.535752777777778
 20
2.650201388888888
 10
3.477516666666667
 20
2.650201388888888
 10
3.395308333333333
 20
2.650201388888888
 10
3.292544444444445
 20
2.646784722222221
 10
3.176086111111111
 20
2.646784722222221
 10
3.056197222222222
 20
2.643354166666666
 10
2.936308333333333
 20
2.643354166666666
 10
2.847252777777778
 20
2.643354166666666
 10
2.741072222222222
 20
2.639937499999999
 10
2.655433333333333
 20
2.639937499999999
 10
2.593780555555555
 20
2.639937499999999
 10
2.559530555555555
 20
2.636506944444444
 10
2.5561
 20
2.636506944444444
  0
LWPOLYLINE
  5
405
330
2
100
AcDbEntity
  8
PDF_Layer 1
 62
     7
420
 16777215
370
   120
100
AcDbPolyline
 90
       14
 70
     0
 43
0.0
 10
3.569988888888889
 20
2.619368055555555
 10
3.535752777777778
 20
2.615951388888888
 10
3.477516666666667
 20
2.615951388888888
 10
3.395308333333333
 20
2.615951388888888
 10
3.292544444444445
 20
2.612520833333332
 10
3.176086111111111
 20
2.612520833333332
 10
3.056197222222222
 20
2.609104166666666
 10
2.936308333333333
 20
2.609104166666666
 10
2.847252777777778
 20
2.609104166666666
 10
2.741072222222222
 20
2.60567361111111
 10
2.655433333333333
 20
2.60567361111111
 10
2.593780555555555
 20
2.60567361111111
 10
2.559530555555555
 20
2.602256944444444
 10
2.5561
 20
2.602256944444444
  0
LWPOLYLINE
  5
406
330
2
100
AcDbEntity
  8
PDF_Layer 1
 62
     7
420
 16777215
370
   120
100
AcDbPolyline
 90
       14
 70
     0
 43
0.0
 10
3.569988888888889
 20
2.585118055555555
 10
3.535752777777778
 20
2.581687499999999
 10
3.477516666666667
 20
2.581687499999999
 10
3.395308333333333
 20
2.581687499999999
 10
3.292544444444445
 20
2.578270833333332
 10
3.176086111111111
 20
2.578270833333332
 10
3.056197222222222
 20
2.574840277777777
 10
2.936308333333333
 20
2.574840277777777
 10
2.847252777777778
 20
2.574840277777777
 10
2.741072222222222
 20
2.57142361111111
 10
2.655433333333333
 20
2.57142361111111
 10
2.593780555555555
 20
2.57142361111111
 10
2.559530555555555
 20
2.567993055555555
 10
2.5561
 20
2.567993055555555
  0
LWPOLYLINE
  5
407
330
2
100
AcDbEntity
  8
PDF_Layer 1
 62
     7
420
 16777215
370
   120
100
AcDbPolyline
 90
       14
 70
     0
 43
0.0
 10
3.569988888888889
 20
2.550881944444443
 10
3.535752777777778
 20
2.547451388888888
 10
3.477516666666667
 20
2.547451388888888
 10
3.395308333333333
 20
2.547451388888888
 10
3.292544444444445
 20
2.544006944444443
 10
3.176086111111111
 20
2.544006944444443
 10
3.056197222222222
 20
2.540590277777777
 10
2.936308333333333
 20
2.540590277777777
 10
2.847252777777778
 20
2.540590277777777
 10
2.741072222222222
 20
2.537159722222221
 10
2.655433333333333
 20
2.537159722222221
 10
2.593780555555555
 20
2.537159722222221
 10
2.559530555555555
 20
2.533743055555555
 10
2.5561
 20
2.533743055555555
  0
LWPOLYLINE
  5
408
330
2
100
AcDbEntity
  8
PDF_Layer 1
 62
     7
420
 16777215
370
   120
100
AcDbPolyline
 90
       14
 70
     0
 43
0.0
 10
3.569988888888889
 20
2.516618055555555
 10
3.535752777777778
 20
2.513201388888888
 10
3.477516666666667
 20
2.513201388888888
 10
3.395308333333333
 20
2.513201388888888
 10
3.292544444444445
 20
2.509770833333333
 10
3.176086111111111
 20
2.509770833333333
 10
3.056197222222222
 20
2.506354166666666
 10
2.936308333333333
 20
2.506354166666666
 10
2.847252777777778
 20
2.506354166666666
 10
2.741072222222222
 20
2.502909722222221
 10
2.655433333333333
 20
2.502909722222221
 10
2.593780555555555
 20
2.502909722222221
 10
2.559530555555555
 20
2.499479166666666
 10
2.5561
 20
2.499479166666666
  0
LWPOLYLINE
  5
409
330
2
100
AcDbEntity
  8
PDF_Layer 1
 62
     7
420
 16777215
370
   120
100
AcDbPolyline
 90
       14
 70
     0
 43
0.0
 10
3.569988888888889
 20
2.482368055555555
 10
3.535752777777778
 20
2.478937499999999
 10
3.477516666666667
 20
2.478937499999999
 10
3.395308333333333
 20
2.478937499999999
 10
3.292544444444445
 20
2.475520833333332
 10
3.176086111111111
 20
2.475520833333332
 10
3.056197222222222
 20
2.472090277777777
 10
2.936308333333333
 20
2.472090277777777
 10
2.847252777777778
 20
2.472090277777777
 10
2.741072222222222
 20
2.46867361111111
 10
2.655433333333333
 20
2.46867361111111
 10
2.593780555555555
 20
2.46867361111111
 10
2.559530555555555
 20
2.465243055555555
 10
2.5561
 20
2.465243055555555
  0
LWPOLYLINE
  5
40A
330
2
100
AcDbEntity
  8
PDF_Layer 1
 62
     7
420
 16777215
370
   120
100
AcDbPolyline
 90
       14
 70
     0
 43
0.0
 10
3.569988888888889
 20
2.448104166666666
 10
3.535752777777778
 20
2.444687499999999
 10
3.477516666666667
 20
2.444687499999999
 10
3.395308333333333
 20
2.444687499999999
 10
3.292544444444445
 20
2.441256944444444
 10
3.176086111111111
 20
2.441256944444444
 10
3.056197222222222
 20
2.437840277777777
 10
2.936308333333333
 20
2.437840277777777
 10
2.847252777777778
 20
2.437840277777777
 10
2.741072222222222
 20
2.434409722222222
 10
2.655433333333333
 20
2.434409722222222
 10
2.593780555555555
 20
2.434409722222222
 10
2.559530555555555
 20
2.430993055555555
 10
2.5561
 20
2.430993055555555
  0
LWPOLYLINE
  5
40B
330
2
100
AcDbEntity
  8
PDF_Layer 1
 62
     7
420
 16777215
370
   120
100
AcDbPolyline
 90
       14
 70
     0
 43
0.0
 10
3.569988888888889
 20
3.232506944444444
 10
3.566572222222222
 20
3.229090277777777
 10
3.525461111111111
 20
3.229090277777777
 10
3.453530555555555
 20
3.229090277777777
 10
3.357627777777778
 20
3.225659722222221
 10
3.237738888888889
 20
3.225659722222221
 10
3.138405555555555
 20
3.222229166666666
 10
3.035641666666667
 20
3.222229166666666
 10
2.936308333333333
 20
3.222229166666666
 10
2.81985
 20
3.21879861111111
 10
2.717086111111111
 20
3.21879861111111
 10
2.638308333333333
 20
3.21879861111111
 10
2.583502777777778
 20
3.215381944444444
 10
2.5561
 20
3.215381944444444
  0
LWPOLYLINE
  5
40C
330
2
100
AcDbEntity
  8
PDF_Layer 1
 62
     7
420
 16777215
370
   120
100
AcDbPolyline
 90
       14
 70
     0
 43
0.0
 10
3.569988888888889
 20
3.198256944444444
 10
3.566572222222222
 20
3.194826388888888
 10
3.525461111111111
 20
3.194826388888888
 10
3.453530555555555
 20
3.194826388888888
 10
3.357627777777778
 20
3.191409722222221
 10
3.237738888888889
 20
3.191409722222221
 10
3.138405555555555
 20
3.187979166666666
 10
3.035641666666667
 20
3.187979166666666
 10
2.936308333333333
 20
3.187979166666666
 10
2.81985
 20
3.184562499999999
 10
2.717086111111111
 20
3.184562499999999
 10
2.638308333333333
 20
3.184562499999999
 10
2.583502777777778
 20
3.181131944444444
 10
2.5561
 20
3.181131944444444
  0
LWPOLYLINE
  5
40D
330
2
100
AcDbEntity
  8
PDF_Layer 1
 62
     7
420
 16777215
370
   120
100
AcDbPolyline
 90
       14
 70
     0
 43
0.0
 10
3.569988888888889
 20
3.164006944444444
 10
3.566572222222222
 20
3.160576388888888
 10
3.525461111111111
 20
3.160576388888888
 10
3.453530555555555
 20
3.160576388888888
 10
3.357627777777778
 20
3.157159722222222
 10
3.237738888888889
 20
3.157159722222222
 10
3.138405555555555
 20
3.153729166666666
 10
3.035641666666667
 20
3.153729166666666
 10
2.936308333333333
 20
3.153729166666666
 10
2.81985
 20
3.15029861111111
 10
2.717086111111111
 20
3.15029861111111
 10
2.638308333333333
 20
3.15029861111111
 10
2.583502777777778
 20
3.146881944444444
 10
2.5561
 20
3.146881944444444
  0
LWPOLYLINE
  5
40E
330
2
100
AcDbEntity
  8
PDF_Layer 1
 62
     7
420
 16777215
370
   120
100
AcDbPolyline
 90
       14
 70
     0
 43
0.0
 10
3.569988888888889
 20
3.129743055555555
 10
3.566572222222222
 20
3.126326388888888
 10
3.525461111111111
 20
3.126326388888888
 10
3.453530555555555
 20
3.126326388888888
 10
3.357627777777778
 20
3.122895833333333
 10
3.237738888888889
 20
3.122895833333333
 10
3.138405555555555
 20
3.119479166666666
 10
3.035641666666667
 20
3.119479166666666
 10
2.936308333333333
 20
3.119479166666666
 10
2.81985
 20
3.11604861111111
 10
2.717086111111111
 20
3.11604861111111
 10
2.638308333333333
 20
3.11604861111111
 10
2.583502777777778
 20
3.112618055555555
 10
2.5561
 20
3.112618055555555
  0
LWPOLYLINE
  5
40F
330
2
100
AcDbEntity
  8
PDF_Layer 1
 62
     7
420
 16777215
370
   120
100
AcDbPolyline
 90
       14
 70
     0
 43
0.0
 10
3.569988888888889
 20
3.095493055555555
 10
3.566572222222222
 20
3.092062499999999
 10
3.525461111111111
 20
3.092062499999999
 10
3.453530555555555
 20
3.092062499999999
 10
3.357627777777778
 20
3.088645833333333
 10
3.237738888888889
 20
3.088645833333333
 10
3.138405555555555
 20
3.085215277777777
 10
3.035641666666667
 20
3.085215277777777
 10
2.936308333333333
 20
3.085215277777777
 10
2.81985
 20
3.08179861111111
 10
2.717086111111111
 20
3.08179861111111
 10
2.638308333333333
 20
3.08179861111111
 10
2.583502777777778
 20
3.078368055555555
 10
2.5561
 20
3.078368055555555
  0
LWPOLYLINE
  5
410
330
2
100
AcDbEntity
  8
PDF_Layer 1
 62
     7
420
 16777215
370
   120
100
AcDbPolyline
 90
       14
 70
     0
 43
0.0
 10
3.569988888888889
 20
3.061243055555555
 10
3.566572222222222
 20
3.057826388888888
 10
3.525461111111111
 20
3.057826388888888
 10
3.453530555555555
 20
3.057826388888888
 10
3.357627777777778
 20
3.054395833333332
 10
3.237738888888889
 20
3.054395833333332
 10
3.138405555555555
 20
3.050965277777777
 10
3.035641666666667
 20
3.050965277777777
 10
2.936308333333333
 20
3.050965277777777
 10
2.81985
 20
3.047534722222221
 10
2.717086111111111
 20
3.047534722222221
 10
2.638308333333333
 20
3.047534722222221
 10
2.583502777777778
 20
3.044118055555555
 10
2.5561
 20
3.044118055555555
  0
LWPOLYLINE
  5
411
330
2
100
AcDbEntity
  8
PDF_Layer 1
 62
     7
420
 16777215
370
   120
100
AcDbPolyline
 90
       14
 70
     0
 43
0.0
 10
3.569988888888889
 20
3.026993055555555
 10
3.566572222222222
 20
3.023562499999999
 10
3.525461111111111
 20
3.023562499999999
 10
3.453530555555555
 20
3.023562499999999
 10
3.357627777777778
 20
3.020145833333332
 10
3.237738888888889
 20
3.020145833333332
 10
3.138405555555555
 20
3.016715277777777
 10
3.035641666666667
 20
3.016715277777777
 10
2.936308333333333
 20
3.016715277777777
 10
2.81985
 20
3.01329861111111
 10
2.717086111111111
 20
3.01329861111111
 10
2.638308333333333
 20
3.01329861111111
 10
2.583502777777778
 20
3.009854166666666
 10
2.5561
 20
3.009854166666666
  0
LWPOLYLINE
  5
412
330
2
100
AcDbEntity
  8
PDF_Layer 1
 62
     7
420
 16777215
370
   120
100
AcDbPolyline
 90
       14
 70
     0
 43
0.0
 10
3.569988888888889
 20
2.992729166666666
 10
3.566572222222222
 20
2.989312499999999
 10
3.525461111111111
 20
2.989312499999999
 10
3.453530555555555
 20
2.989312499999999
 10
3.357627777777778
 20
2.985881944444443
 10
3.237738888888889
 20
2.985881944444443
 10
3.138405555555555
 20
2.982465277777777
 10
3.035641666666667
 20
2.982465277777777
 10
2.936308333333333
 20
2.982465277777777
 10
2.81985
 20
2.979034722222221
 10
2.717086111111111
 20
2.979034722222221
 10
2.638308333333333
 20
2.979034722222221
 10
2.583502777777778
 20
2.975618055555555
 10
2.5561
 20
2.975618055555555
  0
LWPOLYLINE
  5
413
330
2
100
AcDbEntity
  8
PDF_Layer 1
 62
     7
420
 16777215
370
   120
100
AcDbPolyline
 90
       14
 70
     0
 43
0.0
 10
3.569988888888889
 20
2.958479166666666
 10
3.566572222222222
 20
2.95504861111111
 10
3.525461111111111
 20
2.95504861111111
 10
3.453530555555555
 20
2.95504861111111
 10
3.357627777777778
 20
2.951631944444444
 10
3.237738888888889
 20
2.951631944444444
 10
3.138405555555555
 20
2.948201388888888
 10
3.035641666666667
 20
2.948201388888888
 10
2.936308333333333
 20
2.948201388888888
 10
2.81985
 20
2.944784722222221
 10
2.717086111111111
 20
2.944784722222221
 10
2.638308333333333
 20
2.944784722222221
 10
2.583502777777778
 20
2.941354166666666
 10
2.5561
 20
2.941354166666666
  0
LWPOLYLINE
  5
414
330
2
100
AcDbEntity
  8
PDF_Layer 1
 62
     7
420
 16777215
370
   120
100
AcDbPolyline
 90
       14
 70
     0
 43
0.0
 10
3.569988888888889
 20
2.924229166666666
 10
3.566572222222222
 20
2.92079861111111
 10
3.525461111111111
 20
2.92079861111111
 10
3.453530555555555
 20
2.92079861111111
 10
3.357627777777778
 20
2.917381944444444
 10
3.237738888888889
 20
2.917381944444444
 10
3.138405555555555
 20
2.913951388888888
 10
3.035641666666667
 20
2.913951388888888
 10
2.936308333333333
 20
2.913951388888888
 10
2.81985
 20
2.910520833333333
 10
2.717086111111111
 20
2.910520833333333
 10
2.638308333333333
 20
2.910520833333333
 10
2.583502777777778
 20
2.907104166666666
 10
2.5561
 20
2.907104166666666
  0
LWPOLYLINE
  5
415
330
2
100
AcDbEntity
  8
PDF_Layer 1
 62
     7
420
 16777215
370
   120
100
AcDbPolyline
 90
       14
 70
     0
 43
0.0
 10
3.569988888888889
 20
2.889979166666666
 10
3.566572222222222
 20
2.886562499999999
 10
3.525461111111111
 20
2.886562499999999
 10
3.453530555555555
 20
2.886562499999999
 10
3.357627777777778
 20
2.883118055555555
 10
3.237738888888889
 20
2.883118055555555
 10
3.138405555555555
 20
2.879701388888888
 10
3.035641666666667
 20
2.879701388888888
 10
2.936308333333333
 20
2.879701388888888
 10
2.81985
 20
2.876270833333332
 10
2.717086111111111
 20
2.876270833333332
 10
2.638308333333333
 20
2.876270833333332
 10
2.583502777777778
 20
2.872840277777777
 10
2.5561
 20
2.872840277777777
  0
LWPOLYLINE
  5
416
330
2
100
AcDbEntity
  8
PDF_Layer 1
 62
     7
420
 16777215
370
   120
100
AcDbPolyline
 90
       14
 70
     0
 43
0.0
 10
3.569988888888889
 20
2.855729166666666
 10
3.566572222222222
 20
2.85229861111111
 10
3.525461111111111
 20
2.85229861111111
 10
3.453530555555555
 20
2.85229861111111
 10
3.357627777777778
 20
2.848881944444443
 10
3.237738888888889
 20
2.848881944444443
 10
3.138405555555555
 20
2.845451388888888
 10
3.035641666666667
 20
2.845451388888888
 10
2.936308333333333
 20
2.845451388888888
 10
2.81985
 20
2.842020833333333
 10
2.717086111111111
 20
2.842020833333333
 10
2.638308333333333
 20
2.842020833333333
 10
2.583502777777778
 20
2.838590277777777
 10
2.5561
 20
2.838590277777777
  0
LWPOLYLINE
  5
417
330
2
100
AcDbEntity
  8
PDF_Layer 1
 62
     7
420
 16777215
370
   120
100
AcDbPolyline
 90
       14
 70
     0
 43
0.0
 10
3.569988888888889
 20
2.821465277777777
 10
3.566572222222222
 20
2.81804861111111
 10
3.525461111111111
 20
2.81804861111111
 10
3.453530555555555
 20
2.81804861111111
 10
3.357627777777778
 20
2.814618055555555
 10
3.237738888888889
 20
2.814618055555555
 10
3.138405555555555
 20
2.811201388888888
 10
3.035641666666667
 20
2.811201388888888
 10
2.936308333333333
 20
2.811201388888888
 10
2.81985
 20
2.807770833333333
 10
2.717086111111111
 20
2.807770833333333
 10
2.638308333333333
 20
2.807770833333333
 10
2.583502777777778
 20
2.804354166666666
 10
2.5561
 20
2.804354166666666
  0
LWPOLYLINE
  5
418
330
2
100
AcDbEntity
  8
PDF_Layer 1
 62
     7
420
 16777215
370
   120
100
AcDbPolyline
 90
       14
 70
     0
 43
0.0
 10
3.569988888888889
 20
2.787215277777777
 10
3.566572222222222
 20
2.783784722222221
 10
3.525461111111111
 20
2.783784722222221
 10
3.453530555555555
 20
2.783784722222221
 10
3.357627777777778
 20
2.780368055555555
 10
3.237738888888889
 20
2.780368055555555
 10
3.138405555555555
 20
2.776937499999999
 10
3.035641666666667
 20
2.776937499999999
 10
2.936308333333333
 20
2.776937499999999
 10
2.81985
 20
2.773520833333332
 10
2.717086111111111
 20
2.773520833333332
 10
2.638308333333333
 20
2.773520833333332
 10
2.583502777777778
 20
2.770090277777777
 10
2.5561
 20
2.770090277777777
  0
LWPOLYLINE
  5
419
330
2
100
AcDbEntity
  8
PDF_Layer 1
 62
     7
420
 16777215
370
   120
100
AcDbPolyline
 90
       14
 70
     0
 43
0.0
 10
3.569988888888889
 20
2.752965277777777
 10
3.566572222222222
 20
2.749534722222222
 10
3.525461111111111
 20
2.749534722222222
 10
3.453530555555555
 20
2.749534722222222
 10
3.357627777777778
 20
2.746104166666666
 10
3.237738888888889
 20
2.746104166666666
 10
3.138405555555555
 20
2.742687499999999
 10
3.035641666666667
 20
2.742687499999999
 10
2.936308333333333
 20
2.742687499999999
 10
2.81985
 20
2.739256944444444
 10
2.717086111111111
 20
2.739256944444444
 10
2.638308333333333
 20
2.739256944444444
 10
2.583502777777778
 20
2.735840277777777
 10
2.5561
 20
2.735840277777777
  0
LWPOLYLINE
  5
41A
330
2
100
AcDbEntity
  8
PDF_Layer 1
 62
     7
420
 16777215
370
   120
100
AcDbPolyline
 90
       14
 70
     0
 43
0.0
 10
3.569988888888889
 20
2.718715277777777
 10
3.566572222222222
 20
2.715284722222222
 10
3.525461111111111
 20
2.715284722222222
 10
3.453530555555555
 20
2.715284722222222
 10
3.357627777777778
 20
2.711854166666666
 10
3.237738888888889
 20
2.711854166666666
 10
3.138405555555555
 20
2.708437499999999
 10
3.035641666666667
 20
2.708437499999999
 10
2.936308333333333
 20
2.708437499999999
 10
2.81985
 20
2.705006944444444
 10
2.717086111111111
 20
2.705006944444444
 10
2.638308333333333
 20
2.705006944444444
 10
2.583502777777778
 20
2.701576388888888
 10
2.5561
 20
2.701576388888888
  0
LWPOLYLINE
  5
41B
330
2
100
AcDbEntity
  8
PDF_Layer 1
 62
     7
420
 16777215
370
   120
100
AcDbPolyline
 90
       14
 70
     0
 43
0.0
 10
3.569988888888889
 20
2.684465277777777
 10
3.566572222222222
 20
2.681034722222221
 10
3.525461111111111
 20
2.681034722222221
 10
3.453530555555555
 20
2.681034722222221
 10
3.357627777777778
 20
2.677618055555555
 10
3.237738888888889
 20
2.677618055555555
 10
3.138405555555555
 20
2.674187499999999
 10
3.035641666666667
 20
2.674187499999999
 10
2.936308333333333
 20
2.674187499999999
 10
2.81985
 20
2.670756944444444
 10
2.717086111111111
 20
2.670756944444444
 10
2.638308333333333
 20
2.670756944444444
 10
2.583502777777778
 20
2.667326388888888
 10
2.5561
 20
2.667326388888888
  0
LWPOLYLINE
  5
41C
330
2
100
AcDbEntity
  8
PDF_Layer 1
 62
     7
420
 16777215
370
   120
100
AcDbPolyline
 90
       14
 70
     0
 43
0.0
 10
3.569988888888889
 20
2.650201388888888
 10
3.566572222222222
 20
2.646784722222221
 10
3.525461111111111
 20
2.646784722222221
 10
3.453530555555555
 20
2.646784722222221
 10
3.357627777777778
 20
2.643354166666666
 10
3.237738888888889
 20
2.643354166666666
 10
3.138405555555555
 20
2.639937499999999
 10
3.035641666666667
 20
2.639937499999999
 10
2.936308333333333
 20
2.639937499999999
 10
2.81985
 20
2.636506944444444
 10
2.717086111111111
 20
2.636506944444444
 10
2.638308333333333
 20
2.636506944444444
 10
2.583502777777778
 20
2.633090277777777
 10
2.5561
 20
2.633090277777777
  0
LWPOLYLINE
  5
41D
330
2
100
AcDbEntity
  8
PDF_Layer 1
 62
     7
420
 16777215
370
   120
100
AcDbPolyline
 90
       14
 70
     0
 43
0.0
 10
3.569988888888889
 20
2.615951388888888
 10
3.566572222222222
 20
2.612520833333332
 10
3.525461111111111
 20
2.612520833333332
 10
3.453530555555555
 20
2.612520833333332
 10
3.357627777777778
 20
2.609104166666666
 10
3.237738888888889
 20
2.609104166666666
 10
3.138405555555555
 20
2.60567361111111
 10
3.035641666666667
 20
2.60567361111111
 10
2.936308333333333
 20
2.60567361111111
 10
2.81985
 20
2.602256944444444
 10
2.717086111111111
 20
2.602256944444444
 10
2.638308333333333
 20
2.602256944444444
 10
2.583502777777778
 20
2.598826388888888
 10
2.5561
 20
2.598826388888888
  0
LWPOLYLINE
  5
41E
330
2
100
AcDbEntity
  8
PDF_Layer 1
 62
     7
420
 16777215
370
   120
100
AcDbPolyline
 90
       14
 70
     0
 43
0.0
 10
3.569988888888889
 20
2.581687499999999
 10
3.566572222222222
 20
2.578270833333332
 10
3.525461111111111
 20
2.578270833333332
 10
3.453530555555555
 20
2.578270833333332
 10
3.357627777777778
 20
2.574840277777777
 10
3.237738888888889
 20
2.574840277777777
 10
3.138405555555555
 20
2.57142361111111
 10
3.035641666666667
 20
2.57142361111111
 10
2.936308333333333
 20
2.57142361111111
 10
2.81985
 20
2.567993055555555
 10
2.717086111111111
 20
2.567993055555555
 10
2.638308333333333
 20
2.567993055555555
 10
2.583502777777778
 20
2.564576388888888
 10
2.5561
 20
2.564576388888888
  0
LWPOLYLINE
  5
41F
330
2
100
AcDbEntity
  8
PDF_Layer 1
 62
     7
420
 16777215
370
   120
100
AcDbPolyline
 90
       14
 70
     0
 43
0.0
 10
3.569988888888889
 20
2.547451388888888
 10
3.566572222222222
 20
2.544006944444443
 10
3.525461111111111
 20
2.544006944444443
 10
3.453530555555555
 20
2.544006944444443
 10
3.357627777777778
 20
2.540590277777777
 10
3.237738888888889
 20
2.540590277777777
 10
3.138405555555555
 20
2.537159722222221
 10
3.035641666666667
 20
2.537159722222221
 10
2.936308333333333
 20
2.537159722222221
 10
2.81985
 20
2.533743055555555
 10
2.717086111111111
 20
2.533743055555555
 10
2.638308333333333
 20
2.533743055555555
 10
2.583502777777778
 20
2.530312499999999
 10
2.5561
 20
2.530312499999999
  0
LWPOLYLINE
  5
420
330
2
100
AcDbEntity
  8
PDF_Layer 1
 62
     7
420
 16777215
370
   120
100
AcDbPolyline
 90
       14
 70
     0
 43
0.0
 10
3.569988888888889
 20
2.513201388888888
 10
3.566572222222222
 20
2.509770833333333
 10
3.525461111111111
 20
2.509770833333333
 10
3.453530555555555
 20
2.509770833333333
 10
3.357627777777778
 20
2.506354166666666
 10
3.237738888888889
 20
2.506354166666666
 10
3.138405555555555
 20
2.502909722222221
 10
3.035641666666667
 20
2.502909722222221
 10
2.936308333333333
 20
2.502909722222221
 10
2.81985
 20
2.499479166666666
 10
2.717086111111111
 20
2.499479166666666
 10
2.638308333333333
 20
2.499479166666666
 10
2.583502777777778
 20
2.496062499999999
 10
2.5561
 20
2.496062499999999
  0
LWPOLYLINE
  5
421
330
2
100
AcDbEntity
  8
PDF_Layer 1
 62
     7
420
 16777215
370
   120
100
AcDbPolyline
 90
       14
 70
     0
 43
0.0
 10
3.569988888888889
 20
2.478937499999999
 10
3.566572222222222
 20
2.475520833333332
 10
3.525461111111111
 20
2.475520833333332
 10
3.453530555555555
 20
2.475520833333332
 10
3.357627777777778
 20
2.472090277777777
 10
3.237738888888889
 20
2.472090277777777
 10
3.138405555555555
 20
2.46867361111111
 10
3.035641666666667
 20
2.46867361111111
 10
2.936308333333333
 20
2.46867361111111
 10
2.81985
 20
2.465243055555555
 10
2.717086111111111
 20
2.465243055555555
 10
2.638308333333333
 20
2.465243055555555
 10
2.583502777777778
 20
2.46179861111111
 10
2.5561
 20
2.46179861111111
  0
LWPOLYLINE
  5
422
330
2
100
AcDbEntity
  8
PDF_Layer 1
 62
     7
420
 16777215
370
   120
100
AcDbPolyline
 90
       14
 70
     0
 43
0.0
 10
3.569988888888889
 20
2.444687499999999
 10
3.566572222222222
 20
2.441256944444444
 10
3.525461111111111
 20
2.441256944444444
 10
3.453530555555555
 20
2.441256944444444
 10
3.357627777777778
 20
2.437840277777777
 10
3.237738888888889
 20
2.437840277777777
 10
3.138405555555555
 20
2.434409722222222
 10
3.035641666666667
 20
2.434409722222222
 10
2.936308333333333
 20
2.434409722222222
 10
2.81985
 20
2.430993055555555
 10
2.717086111111111
 20
2.430993055555555
 10
2.638308333333333
 20
2.430993055555555
 10
2.583502777777778
 20
2.427562499999999
 10
2.5561
 20
2.427562499999999
  0
LWPOLYLINE
  5
423
330
2
100
AcDbEntity
  8
PDF_Layer 1
 62
     7
420
 16777215
370
   120
100
AcDbPolyline
 90
       13
 70
     0
 43
0.0
 10
3.542586111111111
 20
3.246215277777777
 10
3.504919444444444
 20
3.242784722222221
 10
3.429558333333333
 20
3.242784722222221
 10
3.354197222222222
 20
3.242784722222221
 10
3.265141666666667
 20
3.239368055555555
 10
3.165808333333333
 20
3.239368055555555
 10
3.063044444444444
 20
3.239368055555555
 10
2.946586111111111
 20
3.235937499999999
 10
2.833544444444445
 20
3.235937499999999
 10
2.734225
 20
3.232506944444444
 10
2.658863888888889
 20
3.232506944444444
 10
2.600627777777778
 20
3.232506944444444
 10
2.576655555555555
 20
3.229090277777777
  0
LWPOLYLINE
  5
424
330
2
100
AcDbEntity
  8
PDF_Layer 1
 62
     7
420
 16777215
370
   120
100
AcDbPolyline
 90
       14
 70
     0
 43
0.0
 10
3.549447222222222
 20
3.211951388888888
 10
3.546016666666667
 20
3.211951388888888
 10
3.504919444444444
 20
3.208534722222221
 10
3.429558333333333
 20
3.208534722222221
 10
3.354197222222222
 20
3.208534722222221
 10
3.265141666666667
 20
3.205104166666666
 10
3.165808333333333
 20
3.205104166666666
 10
3.063044444444444
 20
3.205104166666666
 10
2.946586111111111
 20
3.201687499999999
 10
2.833544444444445
 20
3.201687499999999
 10
2.734225
 20
3.198256944444444
 10
2.658863888888889
 20
3.198256944444444
 10
2.600627777777778
 20
3.198256944444444
 10
2.576655555555555
 20
3.194826388888888
  0
LWPOLYLINE
  5
425
330
2
100
AcDbEntity
  8
PDF_Layer 1
 62
     7
420
 16777215
370
   120
100
AcDbPolyline
 90
       14
 70
     0
 43
0.0
 10
3.549447222222222
 20
3.177701388888888
 10
3.546016666666667
 20
3.177701388888888
 10
3.504919444444444
 20
3.174270833333332
 10
3.429558333333333
 20
3.174270833333332
 10
3.354197222222222
 20
3.174270833333332
 10
3.265141666666667
 20
3.170854166666666
 10
3.165808333333333
 20
3.170854166666666
 10
3.063044444444444
 20
3.170854166666666
 10
2.946586111111111
 20
3.16742361111111
 10
2.833544444444445
 20
3.16742361111111
 10
2.734225
 20
3.164006944444444
 10
2.658863888888889
 20
3.164006944444444
 10
2.600627777777778
 20
3.164006944444444
 10
2.576655555555555
 20
3.160576388888888
  0
LWPOLYLINE
  5
426
330
2
100
AcDbEntity
  8
PDF_Layer 1
 62
     7
420
 16777215
370
   120
100
AcDbPolyline
 90
       14
 70
     0
 43
0.0
 10
3.549447222222222
 20
3.143451388888888
 10
3.546016666666667
 20
3.143451388888888
 10
3.504919444444444
 20
3.140034722222222
 10
3.429558333333333
 20
3.140034722222222
 10
3.354197222222222
 20
3.140034722222222
 10
3.265141666666667
 20
3.136590277777777
 10
3.165808333333333
 20
3.136590277777777
 10
3.063044444444444
 20
3.136590277777777
 10
2.946586111111111
 20
3.13317361111111
 10
2.833544444444445
 20
3.13317361111111
 10
2.734225
 20
3.129743055555555
 10
2.658863888888889
 20
3.129743055555555
 10
2.600627777777778
 20
3.129743055555555
 10
2.576655555555555
 20
3.126326388888888
  0
LWPOLYLINE
  5
427
330
2
100
AcDbEntity
  8
PDF_Layer 1
 62
     7
420
 16777215
370
   120
100
AcDbPolyline
 90
       14
 70
     0
 43
0.0
 10
3.549447222222222
 20
3.109201388888888
 10
3.546016666666667
 20
3.109201388888888
 10
3.504919444444444
 20
3.105770833333333
 10
3.429558333333333
 20
3.105770833333333
 10
3.354197222222222
 20
3.105770833333333
 10
3.265141666666667
 20
3.102354166666666
 10
3.165808333333333
 20
3.102354166666666
 10
3.063044444444444
 20
3.102354166666666
 10
2.946586111111111
 20
3.09892361111111
 10
2.833544444444445
 20
3.09892361111111
 10
2.734225
 20
3.095493055555555
 10
2.658863888888889
 20
3.095493055555555
 10
2.600627777777778
 20
3.095493055555555
 10
2.576655555555555
 20
3.092062499999999
  0
LWPOLYLINE
  5
428
330
2
100
AcDbEntity
  8
PDF_Layer 1
 62
     7
420
 16777215
370
   120
100
AcDbPolyline
 90
       14
 70
     0
 43
0.0
 10
3.549447222222222
 20
3.074937499999999
 10
3.546016666666667
 20
3.074937499999999
 10
3.504919444444444
 20
3.071520833333333
 10
3.429558333333333
 20
3.071520833333333
 10
3.354197222222222
 20
3.071520833333333
 10
3.265141666666667
 20
3.068090277777777
 10
3.165808333333333
 20
3.068090277777777
 10
3.063044444444444
 20
3.068090277777777
 10
2.946586111111111
 20
3.064673611111111
 10
2.833544444444445
 20
3.064673611111111
 10
2.734225
 20
3.061243055555555
 10
2.658863888888889
 20
3.061243055555555
 10
2.600627777777778
 20
3.061243055555555
 10
2.576655555555555
 20
3.057826388888888
  0
LWPOLYLINE
  5
429
330
2
100
AcDbEntity
  8
PDF_Layer 1
 62
     7
420
 16777215
370
   120
100
AcDbPolyline
 90
       14
 70
     0
 43
0.0
 10
3.549447222222222
 20
3.040687499999999
 10
3.546016666666667
 20
3.040687499999999
 10
3.504919444444444
 20
3.037270833333332
 10
3.429558333333333
 20
3.037270833333332
 10
3.354197222222222
 20
3.037270833333332
 10
3.265141666666667
 20
3.033840277777777
 10
3.165808333333333
 20
3.033840277777777
 10
3.063044444444444
 20
3.033840277777777
 10
2.946586111111111
 20
3.030409722222222
 10
2.833544444444445
 20
3.030409722222222
 10
2.734225
 20
3.026993055555555
 10
2.658863888888889
 20
3.026993055555555
 10
2.600627777777778
 20
3.026993055555555
 10
2.576655555555555
 20
3.023562499999999
  0
LWPOLYLINE
  5
42A
330
2
100
AcDbEntity
  8
PDF_Layer 1
 62
     7
420
 16777215
370
   120
100
AcDbPolyline
 90
       14
 70
     0
 43
0.0
 10
3.549447222222222
 20
3.006437499999999
 10
3.546016666666667
 20
3.006437499999999
 10
3.504919444444444
 20
3.003006944444444
 10
3.429558333333333
 20
3.003006944444444
 10
3.354197222222222
 20
3.003006944444444
 10
3.265141666666667
 20
2.999590277777777
 10
3.165808333333333
 20
2.999590277777777
 10
3.063044444444444
 20
2.999590277777777
 10
2.946586111111111
 20
2.996159722222222
 10
2.833544444444445
 20
2.996159722222222
 10
2.734225
 20
2.992729166666666
 10
2.658863888888889
 20
2.992729166666666
 10
2.600627777777778
 20
2.992729166666666
 10
2.576655555555555
 20
2.989312499999999
  0
LWPOLYLINE
  5
42B
330
2
100
AcDbEntity
  8
PDF_Layer 1
 62
     7
420
 16777215
370
   120
100
AcDbPolyline
 90
       14
 70
     0
 43
0.0
 10
3.549447222222222
 20
2.972187499999999
 10
3.546016666666667
 20
2.972187499999999
 10
3.504919444444444
 20
2.968756944444444
 10
3.429558333333333
 20
2.968756944444444
 10
3.354197222222222
 20
2.968756944444444
 10
3.265141666666667
 20
2.965326388888888
 10
3.165808333333333
 20
2.965326388888888
 10
3.063044444444444
 20
2.965326388888888
 10
2.946586111111111
 20
2.961909722222221
 10
2.833544444444445
 20
2.961909722222221
 10
2.734225
 20
2.958479166666666
 10
2.658863888888889
 20
2.958479166666666
 10
2.600627777777778
 20
2.958479166666666
 10
2.576655555555555
 20
2.95504861111111
  0
LWPOLYLINE
  5
42C
330
2
100
AcDbEntity
  8
PDF_Layer 1
 62
     7
420
 16777215
370
   120
100
AcDbPolyline
 90
       14
 70
     0
 43
0.0
 10
3.549447222222222
 20
2.937937499999999
 10
3.546016666666667
 20
2.937937499999999
 10
3.504919444444444
 20
2.934506944444444
 10
3.429558333333333
 20
2.934506944444444
 10
3.354197222222222
 20
2.934506944444444
 10
3.265141666666667
 20
2.931090277777777
 10
3.165808333333333
 20
2.931090277777777
 10
3.063044444444444
 20
2.931090277777777
 10
2.946586111111111
 20
2.927659722222221
 10
2.833544444444445
 20
2.927659722222221
 10
2.734225
 20
2.924229166666666
 10
2.658863888888889
 20
2.924229166666666
 10
2.600627777777778
 20
2.924229166666666
 10
2.576655555555555
 20
2.92079861111111
  0
LWPOLYLINE
  5
42D
330
2
100
AcDbEntity
  8
PDF_Layer 1
 62
     7
420
 16777215
370
   120
100
AcDbPolyline
 90
       14
 70
     0
 43
0.0
 10
3.549447222222222
 20
2.903673611111111
 10
3.546016666666667
 20
2.903673611111111
 10
3.504919444444444
 20
2.900256944444444
 10
3.429558333333333
 20
2.900256944444444
 10
3.354197222222222
 20
2.900256944444444
 10
3.265141666666667
 20
2.896826388888888
 10
3.165808333333333
 20
2.896826388888888
 10
3.063044444444444
 20
2.896826388888888
 10
2.946586111111111
 20
2.893409722222222
 10
2.833544444444445
 20
2.893409722222222
 10
2.734225
 20
2.889979166666666
 10
2.658863888888889
 20
2.889979166666666
 10
2.600627777777778
 20
2.889979166666666
 10
2.576655555555555
 20
2.886562499999999
  0
LWPOLYLINE
  5
42E
330
2
100
AcDbEntity
  8
PDF_Layer 1
 62
     7
420
 16777215
370
   120
100
AcDbPolyline
 90
       14
 70
     0
 43
0.0
 10
3.549447222222222
 20
2.86942361111111
 10
3.546016666666667
 20
2.86942361111111
 10
3.504919444444444
 20
2.865993055555555
 10
3.429558333333333
 20
2.865993055555555
 10
3.354197222222222
 20
2.865993055555555
 10
3.265141666666667
 20
2.862576388888888
 10
3.165808333333333
 20
2.862576388888888
 10
3.063044444444444
 20
2.862576388888888
 10
2.946586111111111
 20
2.859145833333332
 10
2.833544444444445
 20
2.859145833333332
 10
2.734225
 20
2.855729166666666
 10
2.658863888888889
 20
2.855729166666666
 10
2.600627777777778
 20
2.855729166666666
 10
2.576655555555555
 20
2.85229861111111
  0
LWPOLYLINE
  5
42F
330
2
100
AcDbEntity
  8
PDF_Layer 1
 62
     7
420
 16777215
370
   120
100
AcDbPolyline
 90
       14
 70
     0
 43
0.0
 10
3.549447222222222
 20
2.83517361111111
 10
3.546016666666667
 20
2.83517361111111
 10
3.504919444444444
 20
2.831743055555555
 10
3.429558333333333
 20
2.831743055555555
 10
3.354197222222222
 20
2.831743055555555
 10
3.265141666666667
 20
2.828312499999999
 10
3.165808333333333
 20
2.828312499999999
 10
3.063044444444444
 20
2.828312499999999
 10
2.946586111111111
 20
2.824895833333333
 10
2.833544444444445
 20
2.824895833333333
 10
2.734225
 20
2.821465277777777
 10
2.658863888888889
 20
2.821465277777777
 10
2.600627777777778
 20
2.821465277777777
 10
2.576655555555555
 20
2.81804861111111
  0
LWPOLYLINE
  5
430
330
2
100
AcDbEntity
  8
PDF_Layer 1
 62
     7
420
 16777215
370
   120
100
AcDbPolyline
 90
       14
 70
     0
 43
0.0
 10
3.549447222222222
 20
2.80092361111111
 10
3.546016666666667
 20
2.80092361111111
 10
3.504919444444444
 20
2.797493055555555
 10
3.429558333333333
 20
2.797493055555555
 10
3.354197222222222
 20
2.797493055555555
 10
3.265141666666667
 20
2.794062499999999
 10
3.165808333333333
 20
2.794062499999999
 10
3.063044444444444
 20
2.794062499999999
 10
2.946586111111111
 20
2.790631944444444
 10
2.833544444444445
 20
2.790631944444444
 10
2.734225
 20
2.787215277777777
 10
2.658863888888889
 20
2.787215277777777
 10
2.600627777777778
 20
2.787215277777777
 10
2.576655555555555
 20
2.783784722222221
  0
LWPOLYLINE
  5
431
330
2
100
AcDbEntity
  8
PDF_Layer 1
 62
     7
420
 16777215
370
   120
100
AcDbPolyline
 90
       14
 70
     0
 43
0.0
 10
3.549447222222222
 20
2.76667361111111
 10
3.546016666666667
 20
2.76667361111111
 10
3.504919444444444
 20
2.763243055555555
 10
3.429558333333333
 20
2.763243055555555
 10
3.354197222222222
 20
2.763243055555555
 10
3.265141666666667
 20
2.759826388888888
 10
3.165808333333333
 20
2.759826388888888
 10
3.063044444444444
 20
2.759826388888888
 10
2.946586111111111
 20
2.756381944444444
 10
2.833544444444445
 20
2.756381944444444
 10
2.734225
 20
2.752965277777777
 10
2.658863888888889
 20
2.752965277777777
 10
2.600627777777778
 20
2.752965277777777
 10
2.576655555555555
 20
2.749534722222222
  0
LWPOLYLINE
  5
432
330
2
100
AcDbEntity
  8
PDF_Layer 1
 62
     7
420
 16777215
370
   120
100
AcDbPolyline
 90
       14
 70
     0
 43
0.0
 10
3.549447222222222
 20
2.732409722222222
 10
3.546016666666667
 20
2.732409722222222
 10
3.504919444444444
 20
2.728993055555555
 10
3.429558333333333
 20
2.728993055555555
 10
3.354197222222222
 20
2.728993055555555
 10
3.265141666666667
 20
2.725562499999999
 10
3.165808333333333
 20
2.725562499999999
 10
3.063044444444444
 20
2.725562499999999
 10
2.946586111111111
 20
2.722145833333333
 10
2.833544444444445
 20
2.722145833333333
 10
2.734225
 20
2.718715277777777
 10
2.658863888888889
 20
2.718715277777777
 10
2.600627777777778
 20
2.718715277777777
 10
2.576655555555555
 20
2.715284722222222
  0
LWPOLYLINE
  5
433
330
2
100
AcDbEntity
  8
PDF_Layer 1
 62
     7
420
 16777215
370
   120
100
AcDbPolyline
 90
       14
 70
     0
 43
0.0
 10
3.549447222222222
 20
2.698159722222222
 10
3.546016666666667
 20
2.698159722222222
 10
3.504919444444444
 20
2.694729166666666
 10
3.429558333333333
 20
2.694729166666666
 10
3.354197222222222
 20
2.694729166666666
 10
3.265141666666667
 20
2.691312499999999
 10
3.165808333333333
 20
2.691312499999999
 10
3.063044444444444
 20
2.691312499999999
 10
2.946586111111111
 20
2.687881944444444
 10
2.833544444444445
 20
2.687881944444444
 10
2.734225
 20
2.684465277777777
 10
2.658863888888889
 20
2.684465277777777
 10
2.600627777777778
 20
2.684465277777777
 10
2.576655555555555
 20
2.681034722222221
  0
LWPOLYLINE
  5
434
330
2
100
AcDbEntity
  8
PDF_Layer 1
 62
     7
420
 16777215
370
   120
100
AcDbPolyline
 90
       14
 70
     0
 43
0.0
 10
3.549447222222222
 20
2.663895833333333
 10
3.546016666666667
 20
2.663895833333333
 10
3.504919444444444
 20
2.660479166666666
 10
3.429558333333333
 20
2.660479166666666
 10
3.354197222222222
 20
2.660479166666666
 10
3.265141666666667
 20
2.65704861111111
 10
3.165808333333333
 20
2.65704861111111
 10
3.063044444444444
 20
2.65704861111111
 10
2.946586111111111
 20
2.653631944444444
 10
2.833544444444445
 20
2.653631944444444
 10
2.734225
 20
2.650201388888888
 10
2.658863888888889
 20
2.650201388888888
 10
2.600627777777778
 20
2.650201388888888
 10
2.576655555555555
 20
2.646784722222221
  0
LWPOLYLINE
  5
435
330
2
100
AcDbEntity
  8
PDF_Layer 1
 62
     7
420
 16777215
370
   120
100
AcDbPolyline
 90
       14
 70
     0
 43
0.0
 10
3.549447222222222
 20
2.629645833333333
 10
3.546016666666667
 20
2.629645833333333
 10
3.504919444444444
 20
2.626229166666666
 10
3.429558333333333
 20
2.626229166666666
 10
3.354197222222222
 20
2.626229166666666
 10
3.265141666666667
 20
2.622798611111111
 10
3.165808333333333
 20
2.622798611111111
 10
3.063044444444444
 20
2.622798611111111
 10
2.946586111111111
 20
2.619368055555555
 10
2.833544444444445
 20
2.619368055555555
 10
2.734225
 20
2.615951388888888
 10
2.658863888888889
 20
2.615951388888888
 10
2.600627777777778
 20
2.615951388888888
 10
2.576655555555555
 20
2.612520833333332
  0
LWPOLYLINE
  5
436
330
2
100
AcDbEntity
  8
PDF_Layer 1
 62
     7
420
 16777215
370
   120
100
AcDbPolyline
 90
       14
 70
     0
 43
0.0
 10
3.549447222222222
 20
2.595409722222222
 10
3.546016666666667
 20
2.595409722222222
 10
3.504919444444444
 20
2.591979166666666
 10
3.429558333333333
 20
2.591979166666666
 10
3.354197222222222
 20
2.591979166666666
 10
3.265141666666667
 20
2.58854861111111
 10
3.165808333333333
 20
2.58854861111111
 10
3.063044444444444
 20
2.58854861111111
 10
2.946586111111111
 20
2.585118055555555
 10
2.833544444444445
 20
2.585118055555555
 10
2.734225
 20
2.581687499999999
 10
2.658863888888889
 20
2.581687499999999
 10
2.600627777777778
 20
2.581687499999999
 10
2.576655555555555
 20
2.578270833333332
  0
LWPOLYLINE
  5
437
330
2
100
AcDbEntity
  8
PDF_Layer 1
 62
     7
420
 16777215
370
   120
100
AcDbPolyline
 90
       14
 70
     0
 43
0.0
 10
3.549447222222222
 20
2.561145833333333
 10
3.546016666666667
 20
2.561145833333333
 10
3.504919444444444
 20
2.557729166666666
 10
3.429558333333333
 20
2.557729166666666
 10
3.354197222222222
 20
2.557729166666666
 10
3.265141666666667
 20
2.55429861111111
 10
3.165808333333333
 20
2.55429861111111
 10
3.063044444444444
 20
2.55429861111111
 10
2.946586111111111
 20
2.550881944444443
 10
2.833544444444445
 20
2.550881944444443
 10
2.734225
 20
2.547451388888888
 10
2.658863888888889
 20
2.547451388888888
 10
2.600627777777778
 20
2.547451388888888
 10
2.576655555555555
 20
2.544006944444443
  0
LWPOLYLINE
  5
438
330
2
100
AcDbEntity
  8
PDF_Layer 1
 62
     7
420
 16777215
370
   120
100
AcDbPolyline
 90
       14
 70
     0
 43
0.0
 10
3.549447222222222
 20
2.526895833333333
 10
3.546016666666667
 20
2.526895833333333
 10
3.504919444444444
 20
2.523465277777777
 10
3.429558333333333
 20
2.523465277777777
 10
3.354197222222222
 20
2.523465277777777
 10
3.265141666666667
 20
2.52004861111111
 10
3.165808333333333
 20
2.52004861111111
 10
3.063044444444444
 20
2.52004861111111
 10
2.946586111111111
 20
2.516618055555555
 10
2.833544444444445
 20
2.516618055555555
 10
2.734225
 20
2.513201388888888
 10
2.658863888888889
 20
2.513201388888888
 10
2.600627777777778
 20
2.513201388888888
 10
2.576655555555555
 20
2.509770833333333
  0
LWPOLYLINE
  5
439
330
2
100
AcDbEntity
  8
PDF_Layer 1
 62
     7
420
 16777215
370
   120
100
AcDbPolyline
 90
       14
 70
     0
 43
0.0
 10
3.549447222222222
 20
2.492631944444444
 10
3.546016666666667
 20
2.492631944444444
 10
3.504919444444444
 20
2.489215277777777
 10
3.429558333333333
 20
2.489215277777777
 10
3.354197222222222
 20
2.489215277777777
 10
3.265141666666667
 20
2.485784722222221
 10
3.165808333333333
 20
2.485784722222221
 10
3.063044444444444
 20
2.485784722222221
 10
2.946586111111111
 20
2.482368055555555
 10
2.833544444444445
 20
2.482368055555555
 10
2.734225
 20
2.478937499999999
 10
2.658863888888889
 20
2.478937499999999
 10
2.600627777777778
 20
2.478937499999999
 10
2.576655555555555
 20
2.475520833333332
  0
LWPOLYLINE
  5
43A
330
2
100
AcDbEntity
  8
PDF_Layer 1
 62
     7
420
 16777215
370
   120
100
AcDbPolyline
 90
       14
 70
     0
 43
0.0
 10
3.549447222222222
 20
2.458381944444444
 10
3.546016666666667
 20
2.458381944444444
 10
3.504919444444444
 20
2.454951388888888
 10
3.429558333333333
 20
2.454951388888888
 10
3.354197222222222
 20
2.454951388888888
 10
3.265141666666667
 20
2.451534722222222
 10
3.165808333333333
 20
2.451534722222222
 10
3.063044444444444
 20
2.451534722222222
 10
2.946586111111111
 20
2.448104166666666
 10
2.833544444444445
 20
2.448104166666666
 10
2.734225
 20
2.444687499999999
 10
2.658863888888889
 20
2.444687499999999
 10
2.600627777777778
 20
2.444687499999999
 10
2.576655555555555
 20
2.441256944444444
  0
LWPOLYLINE
  5
43B
330
2
100
AcDbEntity
  8
PDF_Layer 1
 62
     7
420
 16777215
370
   120
100
AcDbPolyline
 90
       14
 70
     0
 43
0.0
 10
3.549447222222222
 20
2.424131944444444
 10
3.546016666666667
 20
2.424131944444444
 10
3.504919444444444
 20
2.420715277777777
 10
3.429558333333333
 20
2.420715277777777
 10
3.354197222222222
 20
2.420715277777777
 10
3.265141666666667
 20
2.417270833333333
 10
3.165808333333333
 20
2.417270833333333
 10
3.063044444444444
 20
2.417270833333333
 10
2.946586111111111
 20
2.413854166666666
 10
2.833544444444445
 20
2.413854166666666
 10
2.734225
 20
2.41042361111111
 10
2.658863888888889
 20
2.41042361111111
 10
2.600627777777778
 20
2.41042361111111
 10
2.576655555555555
 20
2.407006944444444
  0
LWPOLYLINE
  5
43C
330
2
100
AcDbEntity
  8
PDF_Layer 1
 62
     7
420
 16777215
370
   120
100
AcDbPolyline
 90
       16
 70
     0
 43
0.0
 10
3.552863888888889
 20
3.222229166666666
 10
3.549447222222222
 20
3.21879861111111
 10
3.518613888888889
 20
3.21879861111111
 10
3.463808333333333
 20
3.21879861111111
 10
3.3816
 20
3.215381944444444
 10
3.285697222222222
 20
3.215381944444444
 10
3.172655555555556
 20
3.211951388888888
 10
3.056197222222222
 20
3.211951388888888
 10
2.939738888888889
 20
3.211951388888888
 10
2.867808333333334
 20
3.208534722222221
 10
2.799294444444444
 20
3.208534722222221
 10
2.713669444444445
 20
3.208534722222221
 10
2.645155555555556
 20
3.205104166666666
 10
2.597197222222222
 20
3.205104166666666
 10
2.573225
 20
3.205104166666666
 10
2.576655555555555
 20
3.205104166666666
  0
LWPOLYLINE
  5
43D
330
2
100
AcDbEntity
  8
PDF_Layer 1
 62
     7
420
 16777215
370
   120
100
AcDbPolyline
 90
       16
 70
     0
 43
0.0
 10
3.552863888888889
 20
3.187979166666666
 10
3.549447222222222
 20
3.184562499999999
 10
3.518613888888889
 20
3.184562499999999
 10
3.463808333333333
 20
3.184562499999999
 10
3.3816
 20
3.181131944444444
 10
3.285697222222222
 20
3.181131944444444
 10
3.172655555555556
 20
3.177701388888888
 10
3.056197222222222
 20
3.177701388888888
 10
2.939738888888889
 20
3.177701388888888
 10
2.867808333333334
 20
3.174270833333332
 10
2.799294444444444
 20
3.174270833333332
 10
2.713669444444445
 20
3.174270833333332
 10
2.645155555555556
 20
3.170854166666666
 10
2.597197222222222
 20
3.170854166666666
 10
2.573225
 20
3.170854166666666
 10
2.576655555555555
 20
3.170854166666666
  0
LWPOLYLINE
  5
43E
330
2
100
AcDbEntity
  8
PDF_Layer 1
 62
     7
420
 16777215
370
   120
100
AcDbPolyline
 90
       16
 70
     0
 43
0.0
 10
3.552863888888889
 20
3.153729166666666
 10
3.549447222222222
 20
3.15029861111111
 10
3.518613888888889
 20
3.15029861111111
 10
3.463808333333333
 20
3.15029861111111
 10
3.3816
 20
3.146881944444444
 10
3.285697222222222
 20
3.146881944444444
 10
3.172655555555556
 20
3.143451388888888
 10
3.056197222222222
 20
3.143451388888888
 10
2.939738888888889
 20
3.143451388888888
 10
2.867808333333334
 20
3.140034722222222
 10
2.799294444444444
 20
3.140034722222222
 10
2.713669444444445
 20
3.140034722222222
 10
2.645155555555556
 20
3.136590277777777
 10
2.597197222222222
 20
3.136590277777777
 10
2.573225
 20
3.136590277777777
 10
2.576655555555555
 20
3.136590277777777
  0
LWPOLYLINE
  5
43F
330
2
100
AcDbEntity
  8
PDF_Layer 1
 62
     7
420
 16777215
370
   120
100
AcDbPolyline
 90
       16
 70
     0
 43
0.0
 10
3.552863888888889
 20
3.119479166666666
 10
3.549447222222222
 20
3.11604861111111
 10
3.518613888888889
 20
3.11604861111111
 10
3.463808333333333
 20
3.11604861111111
 10
3.3816
 20
3.112618055555555
 10
3.285697222222222
 20
3.112618055555555
 10
3.172655555555556
 20
3.109201388888888
 10
3.056197222222222
 20
3.109201388888888
 10
2.939738888888889
 20
3.109201388888888
 10
2.867808333333334
 20
3.105770833333333
 10
2.799294444444444
 20
3.105770833333333
 10
2.713669444444445
 20
3.105770833333333
 10
2.645155555555556
 20
3.102354166666666
 10
2.597197222222222
 20
3.102354166666666
 10
2.573225
 20
3.102354166666666
 10
2.576655555555555
 20
3.102354166666666
  0
LWPOLYLINE
  5
440
330
2
100
AcDbEntity
  8
PDF_Layer 1
 62
     7
420
 16777215
370
   120
100
AcDbPolyline
 90
       16
 70
     0
 43
0.0
 10
3.552863888888889
 20
3.085215277777777
 10
3.549447222222222
 20
3.08179861111111
 10
3.518613888888889
 20
3.08179861111111
 10
3.463808333333333
 20
3.08179861111111
 10
3.3816
 20
3.078368055555555
 10
3.285697222222222
 20
3.078368055555555
 10
3.172655555555556
 20
3.074937499999999
 10
3.056197222222222
 20
3.074937499999999
 10
2.939738888888889
 20
3.074937499999999
 10
2.867808333333334
 20
3.071520833333333
 10
2.799294444444444
 20
3.071520833333333
 10
2.713669444444445
 20
3.071520833333333
 10
2.645155555555556
 20
3.068090277777777
 10
2.597197222222222
 20
3.068090277777777
 10
2.573225
 20
3.068090277777777
 10
2.576655555555555
 20
3.068090277777777
  0
LWPOLYLINE
  5
441
330
2
100
AcDbEntity
  8
PDF_Layer 1
 62
     7
420
 16777215
370
   120
100
AcDbPolyline
 90
       16
 70
     0
 43
0.0
 10
3.552863888888889
 20
3.050965277777777
 10
3.549447222222222
 20
3.047534722222221
 10
3.518613888888889
 20
3.047534722222221
 10
3.463808333333333
 20
3.047534722222221
 10
3.3816
 20
3.044118055555555
 10
3.285697222222222
 20
3.044118055555555
 10
3.172655555555556
 20
3.040687499999999
 10
3.056197222222222
 20
3.040687499999999
 10
2.939738888888889
 20
3.040687499999999
 10
2.867808333333334
 20
3.037270833333332
 10
2.799294444444444
 20
3.037270833333332
 10
2.713669444444445
 20
3.037270833333332
 10
2.645155555555556
 20
3.033840277777777
 10
2.597197222222222
 20
3.033840277777777
 10
2.573225
 20
3.033840277777777
 10
2.576655555555555
 20
3.033840277777777
  0
LWPOLYLINE
  5
442
330
2
100
AcDbEntity
  8
PDF_Layer 1
 62
     7
420
 16777215
370
   120
100
AcDbPolyline
 90
       16
 70
     0
 43
0.0
 10
3.552863888888889
 20
3.016715277777777
 10
3.549447222222222
 20
3.01329861111111
 10
3.518613888888889
 20
3.01329861111111
 10
3.463808333333333
 20
3.01329861111111
 10
3.3816
 20
3.009854166666666
 10
3.285697222222222
 20
3.009854166666666
 10
3.172655555555556
 20
3.006437499999999
 10
3.056197222222222
 20
3.006437499999999
 10
2.939738888888889
 20
3.006437499999999
 10
2.867808333333334
 20
3.003006944444444
 10
2.799294444444444
 20
3.003006944444444
 10
2.713669444444445
 20
3.003006944444444
 10
2.645155555555556
 20
2.999590277777777
 10
2.597197222222222
 20
2.999590277777777
 10
2.573225
 20
2.999590277777777
 10
2.576655555555555
 20
2.999590277777777
  0
LWPOLYLINE
  5
443
330
2
100
AcDbEntity
  8
PDF_Layer 1
 62
     7
420
 16777215
370
   120
100
AcDbPolyline
 90
       16
 70
     0
 43
0.0
 10
3.552863888888889
 20
2.982465277777777
 10
3.549447222222222
 20
2.979034722222221
 10
3.518613888888889
 20
2.979034722222221
 10
3.463808333333333
 20
2.979034722222221
 10
3.3816
 20
2.975618055555555
 10
3.285697222222222
 20
2.975618055555555
 10
3.172655555555556
 20
2.972187499999999
 10
3.056197222222222
 20
2.972187499999999
 10
2.939738888888889
 20
2.972187499999999
 10
2.867808333333334
 20
2.968756944444444
 10
2.799294444444444
 20
2.968756944444444
 10
2.713669444444445
 20
2.968756944444444
 10
2.645155555555556
 20
2.965326388888888
 10
2.597197222222222
 20
2.965326388888888
 10
2.573225
 20
2.965326388888888
 10
2.576655555555555
 20
2.965326388888888
  0
LWPOLYLINE
  5
444
330
2
100
AcDbEntity
  8
PDF_Layer 1
 62
     7
420
 16777215
370
   120
100
AcDbPolyline
 90
       16
 70
     0
 43
0.0
 10
3.552863888888889
 20
2.948201388888888
 10
3.549447222222222
 20
2.944784722222221
 10
3.518613888888889
 20
2.944784722222221
 10
3.463808333333333
 20
2.944784722222221
 10
3.3816
 20
2.941354166666666
 10
3.285697222222222
 20
2.941354166666666
 10
3.172655555555556
 20
2.937937499999999
 10
3.056197222222222
 20
2.937937499999999
 10
2.939738888888889
 20
2.937937499999999
 10
2.867808333333334
 20
2.934506944444444
 10
2.799294444444444
 20
2.934506944444444
 10
2.713669444444445
 20
2.934506944444444
 10
2.645155555555556
 20
2.931090277777777
 10
2.597197222222222
 20
2.931090277777777
 10
2.573225
 20
2.931090277777777
 10
2.576655555555555
 20
2.931090277777777
  0
LWPOLYLINE
  5
445
330
2
100
AcDbEntity
  8
PDF_Layer 1
 62
     7
420
 16777215
370
   120
100
AcDbPolyline
 90
       16
 70
     0
 43
0.0
 10
3.552863888888889
 20
2.913951388888888
 10
3.549447222222222
 20
2.910520833333333
 10
3.518613888888889
 20
2.910520833333333
 10
3.463808333333333
 20
2.910520833333333
 10
3.3816
 20
2.907104166666666
 10
3.285697222222222
 20
2.907104166666666
 10
3.172655555555556
 20
2.903673611111111
 10
3.056197222222222
 20
2.903673611111111
 10
2.939738888888889
 20
2.903673611111111
 10
2.867808333333334
 20
2.900256944444444
 10
2.799294444444444
 20
2.900256944444444
 10
2.713669444444445
 20
2.900256944444444
 10
2.645155555555556
 20
2.896826388888888
 10
2.597197222222222
 20
2.896826388888888
 10
2.573225
 20
2.896826388888888
 10
2.576655555555555
 20
2.896826388888888
  0
LWPOLYLINE
  5
446
330
2
100
AcDbEntity
  8
PDF_Layer 1
 62
     7
420
 16777215
370
   120
100
AcDbPolyline
 90
       16
 70
     0
 43
0.0
 10
3.552863888888889
 20
2.879701388888888
 10
3.549447222222222
 20
2.876270833333332
 10
3.518613888888889
 20
2.876270833333332
 10
3.463808333333333
 20
2.876270833333332
 10
3.3816
 20
2.872840277777777
 10
3.285697222222222
 20
2.872840277777777
 10
3.172655555555556
 20
2.86942361111111
 10
3.056197222222222
 20
2.86942361111111
 10
2.939738888888889
 20
2.86942361111111
 10
2.867808333333334
 20
2.865993055555555
 10
2.799294444444444
 20
2.865993055555555
 10
2.713669444444445
 20
2.865993055555555
 10
2.645155555555556
 20
2.862576388888888
 10
2.597197222222222
 20
2.862576388888888
 10
2.573225
 20
2.862576388888888
 10
2.576655555555555
 20
2.862576388888888
  0
LWPOLYLINE
  5
447
330
2
100
AcDbEntity
  8
PDF_Layer 1
 62
     7
420
 16777215
370
   120
100
AcDbPolyline
 90
       16
 70
     0
 43
0.0
 10
3.552863888888889
 20
2.845451388888888
 10
3.549447222222222
 20
2.842020833333333
 10
3.518613888888889
 20
2.842020833333333
 10
3.463808333333333
 20
2.842020833333333
 10
3.3816
 20
2.838590277777777
 10
3.285697222222222
 20
2.838590277777777
 10
3.172655555555556
 20
2.83517361111111
 10
3.056197222222222
 20
2.83517361111111
 10
2.939738888888889
 20
2.83517361111111
 10
2.867808333333334
 20
2.831743055555555
 10
2.799294444444444
 20
2.831743055555555
 10
2.713669444444445
 20
2.831743055555555
 10
2.645155555555556
 20
2.828312499999999
 10
2.597197222222222
 20
2.828312499999999
 10
2.573225
 20
2.828312499999999
 10
2.576655555555555
 20
2.828312499999999
  0
LWPOLYLINE
  5
448
330
2
100
AcDbEntity
  8
PDF_Layer 1
 62
     7
420
 16777215
370
   120
100
AcDbPolyline
 90
       16
 70
     0
 43
0.0
 10
3.552863888888889
 20
2.811201388888888
 10
3.549447222222222
 20
2.807770833333333
 10
3.518613888888889
 20
2.807770833333333
 10
3.463808333333333
 20
2.807770833333333
 10
3.3816
 20
2.804354166666666
 10
3.285697222222222
 20
2.804354166666666
 10
3.172655555555556
 20
2.80092361111111
 10
3.056197222222222
 20
2.80092361111111
 10
2.939738888888889
 20
2.80092361111111
 10
2.867808333333334
 20
2.797493055555555
 10
2.799294444444444
 20
2.797493055555555
 10
2.713669444444445
 20
2.797493055555555
 10
2.645155555555556
 20
2.794062499999999
 10
2.597197222222222
 20
2.794062499999999
 10
2.573225
 20
2.794062499999999
 10
2.576655555555555
 20
2.794062499999999
  0
LWPOLYLINE
  5
449
330
2
100
AcDbEntity
  8
PDF_Layer 1
 62
     7
420
 16777215
370
   120
100
AcDbPolyline
 90
       16
 70
     0
 43
0.0
 10
3.552863888888889
 20
2.776937499999999
 10
3.549447222222222
 20
2.773520833333332
 10
3.518613888888889
 20
2.773520833333332
 10
3.463808333333333
 20
2.773520833333332
 10
3.3816
 20
2.770090277777777
 10
3.285697222222222
 20
2.770090277777777
 10
3.172655555555556
 20
2.76667361111111
 10
3.056197222222222
 20
2.76667361111111
 10
2.939738888888889
 20
2.76667361111111
 10
2.867808333333334
 20
2.763243055555555
 10
2.799294444444444
 20
2.763243055555555
 10
2.713669444444445
 20
2.763243055555555
 10
2.645155555555556
 20
2.759826388888888
 10
2.597197222222222
 20
2.759826388888888
 10
2.573225
 20
2.759826388888888
 10
2.576655555555555
 20
2.759826388888888
  0
LWPOLYLINE
  5
44A
330
2
100
AcDbEntity
  8
PDF_Layer 1
 62
     7
420
 16777215
370
   120
100
AcDbPolyline
 90
       16
 70
     0
 43
0.0
 10
3.552863888888889
 20
2.742687499999999
 10
3.549447222222222
 20
2.739256944444444
 10
3.518613888888889
 20
2.739256944444444
 10
3.463808333333333
 20
2.739256944444444
 10
3.3816
 20
2.735840277777777
 10
3.285697222222222
 20
2.735840277777777
 10
3.172655555555556
 20
2.732409722222222
 10
3.056197222222222
 20
2.732409722222222
 10
2.939738888888889
 20
2.732409722222222
 10
2.867808333333334
 20
2.728993055555555
 10
2.799294444444444
 20
2.728993055555555
 10
2.713669444444445
 20
2.728993055555555
 10
2.645155555555556
 20
2.725562499999999
 10
2.597197222222222
 20
2.725562499999999
 10
2.573225
 20
2.725562499999999
 10
2.576655555555555
 20
2.725562499999999
  0
LWPOLYLINE
  5
44B
330
2
100
AcDbEntity
  8
PDF_Layer 1
 62
     7
420
 16777215
370
   120
100
AcDbPolyline
 90
       16
 70
     0
 43
0.0
 10
3.552863888888889
 20
2.708437499999999
 10
3.549447222222222
 20
2.705006944444444
 10
3.518613888888889
 20
2.705006944444444
 10
3.463808333333333
 20
2.705006944444444
 10
3.3816
 20
2.701576388888888
 10
3.285697222222222
 20
2.701576388888888
 10
3.172655555555556
 20
2.698159722222222
 10
3.056197222222222
 20
2.698159722222222
 10
2.939738888888889
 20
2.698159722222222
 10
2.867808333333334
 20
2.694729166666666
 10
2.799294444444444
 20
2.694729166666666
 10
2.713669444444445
 20
2.694729166666666
 10
2.645155555555556
 20
2.691312499999999
 10
2.597197222222222
 20
2.691312499999999
 10
2.573225
 20
2.691312499999999
 10
2.576655555555555
 20
2.691312499999999
  0
LWPOLYLINE
  5
44C
330
2
100
AcDbEntity
  8
PDF_Layer 1
 62
     7
420
 16777215
370
   120
100
AcDbPolyline
 90
       16
 70
     0
 43
0.0
 10
3.552863888888889
 20
2.674187499999999
 10
3.549447222222222
 20
2.670756944444444
 10
3.518613888888889
 20
2.670756944444444
 10
3.463808333333333
 20
2.670756944444444
 10
3.3816
 20
2.667326388888888
 10
3.285697222222222
 20
2.667326388888888
 10
3.172655555555556
 20
2.663895833333333
 10
3.056197222222222
 20
2.663895833333333
 10
2.939738888888889
 20
2.663895833333333
 10
2.867808333333334
 20
2.660479166666666
 10
2.799294444444444
 20
2.660479166666666
 10
2.713669444444445
 20
2.660479166666666
 10
2.645155555555556
 20
2.65704861111111
 10
2.597197222222222
 20
2.65704861111111
 10
2.573225
 20
2.65704861111111
 10
2.576655555555555
 20
2.65704861111111
  0
LWPOLYLINE
  5
44D
330
2
100
AcDbEntity
  8
PDF_Layer 1
 62
     7
420
 16777215
370
   120
100
AcDbPolyline
 90
       16
 70
     0
 43
0.0
 10
3.552863888888889
 20
2.639937499999999
 10
3.549447222222222
 20
2.636506944444444
 10
3.518613888888889
 20
2.636506944444444
 10
3.463808333333333
 20
2.636506944444444
 10
3.3816
 20
2.633090277777777
 10
3.285697222222222
 20
2.633090277777777
 10
3.172655555555556
 20
2.629645833333333
 10
3.056197222222222
 20
2.629645833333333
 10
2.939738888888889
 20
2.629645833333333
 10
2.867808333333334
 20
2.626229166666666
 10
2.799294444444444
 20
2.626229166666666
 10
2.713669444444445
 20
2.626229166666666
 10
2.645155555555556
 20
2.622798611111111
 10
2.597197222222222
 20
2.622798611111111
 10
2.573225
 20
2.622798611111111
 10
2.576655555555555
 20
2.622798611111111
  0
LWPOLYLINE
  5
44E
330
2
100
AcDbEntity
  8
PDF_Layer 1
 62
     7
420
 16777215
370
   120
100
AcDbPolyline
 90
       16
 70
     0
 43
0.0
 10
3.552863888888889
 20
2.60567361111111
 10
3.549447222222222
 20
2.602256944444444
 10
3.518613888888889
 20
2.602256944444444
 10
3.463808333333333
 20
2.602256944444444
 10
3.3816
 20
2.598826388888888
 10
3.285697222222222
 20
2.598826388888888
 10
3.172655555555556
 20
2.595409722222222
 10
3.056197222222222
 20
2.595409722222222
 10
2.939738888888889
 20
2.595409722222222
 10
2.867808333333334
 20
2.591979166666666
 10
2.799294444444444
 20
2.591979166666666
 10
2.713669444444445
 20
2.591979166666666
 10
2.645155555555556
 20
2.58854861111111
 10
2.597197222222222
 20
2.58854861111111
 10
2.573225
 20
2.58854861111111
 10
2.576655555555555
 20
2.58854861111111
  0
LWPOLYLINE
  5
44F
330
2
100
AcDbEntity
  8
PDF_Layer 1
 62
     7
420
 16777215
370
   120
100
AcDbPolyline
 90
       16
 70
     0
 43
0.0
 10
3.552863888888889
 20
2.57142361111111
 10
3.549447222222222
 20
2.567993055555555
 10
3.518613888888889
 20
2.567993055555555
 10
3.463808333333333
 20
2.567993055555555
 10
3.3816
 20
2.564576388888888
 10
3.285697222222222
 20
2.564576388888888
 10
3.172655555555556
 20
2.561145833333333
 10
3.056197222222222
 20
2.561145833333333
 10
2.939738888888889
 20
2.561145833333333
 10
2.867808333333334
 20
2.557729166666666
 10
2.799294444444444
 20
2.557729166666666
 10
2.713669444444445
 20
2.557729166666666
 10
2.645155555555556
 20
2.55429861111111
 10
2.597197222222222
 20
2.55429861111111
 10
2.573225
 20
2.55429861111111
 10
2.576655555555555
 20
2.55429861111111
  0
LWPOLYLINE
  5
450
330
2
100
AcDbEntity
  8
PDF_Layer 1
 62
     7
420
 16777215
370
   120
100
AcDbPolyline
 90
       16
 70
     0
 43
0.0
 10
3.552863888888889
 20
2.537159722222221
 10
3.549447222222222
 20
2.533743055555555
 10
3.518613888888889
 20
2.533743055555555
 10
3.463808333333333
 20
2.533743055555555
 10
3.3816
 20
2.530312499999999
 10
3.285697222222222
 20
2.530312499999999
 10
3.172655555555556
 20
2.526895833333333
 10
3.056197222222222
 20
2.526895833333333
 10
2.939738888888889
 20
2.526895833333333
 10
2.867808333333334
 20
2.523465277777777
 10
2.799294444444444
 20
2.523465277777777
 10
2.713669444444445
 20
2.523465277777777
 10
2.645155555555556
 20
2.52004861111111
 10
2.597197222222222
 20
2.52004861111111
 10
2.573225
 20
2.52004861111111
 10
2.576655555555555
 20
2.52004861111111
  0
LWPOLYLINE
  5
451
330
2
100
AcDbEntity
  8
PDF_Layer 1
 62
     7
420
 16777215
370
   120
100
AcDbPolyline
 90
       16
 70
     0
 43
0.0
 10
3.552863888888889
 20
2.502909722222221
 10
3.549447222222222
 20
2.499479166666666
 10
3.518613888888889
 20
2.499479166666666
 10
3.463808333333333
 20
2.499479166666666
 10
3.3816
 20
2.496062499999999
 10
3.285697222222222
 20
2.496062499999999
 10
3.172655555555556
 20
2.492631944444444
 10
3.056197222222222
 20
2.492631944444444
 10
2.939738888888889
 20
2.492631944444444
 10
2.867808333333334
 20
2.489215277777777
 10
2.799294444444444
 20
2.489215277777777
 10
2.713669444444445
 20
2.489215277777777
 10
2.645155555555556
 20
2.485784722222221
 10
2.597197222222222
 20
2.485784722222221
 10
2.573225
 20
2.485784722222221
 10
2.576655555555555
 20
2.485784722222221
  0
LWPOLYLINE
  5
452
330
2
100
AcDbEntity
  8
PDF_Layer 1
 62
     7
420
 16777215
370
   120
100
AcDbPolyline
 90
       16
 70
     0
 43
0.0
 10
3.552863888888889
 20
2.46867361111111
 10
3.549447222222222
 20
2.465243055555555
 10
3.518613888888889
 20
2.465243055555555
 10
3.463808333333333
 20
2.465243055555555
 10
3.3816
 20
2.46179861111111
 10
3.285697222222222
 20
2.46179861111111
 10
3.172655555555556
 20
2.458381944444444
 10
3.056197222222222
 20
2.458381944444444
 10
2.939738888888889
 20
2.458381944444444
 10
2.867808333333334
 20
2.454951388888888
 10
2.799294444444444
 20
2.454951388888888
 10
2.713669444444445
 20
2.454951388888888
 10
2.645155555555556
 20
2.451534722222222
 10
2.597197222222222
 20
2.451534722222222
 10
2.573225
 20
2.451534722222222
 10
2.576655555555555
 20
2.451534722222222
  0
LWPOLYLINE
  5
453
330
2
100
AcDbEntity
  8
PDF_Layer 1
 62
     7
420
 16777215
370
   120
100
AcDbPolyline
 90
       16
 70
     0
 43
0.0
 10
3.552863888888889
 20
2.434409722222222
 10
3.549447222222222
 20
2.430993055555555
 10
3.518613888888889
 20
2.430993055555555
 10
3.463808333333333
 20
2.430993055555555
 10
3.3816
 20
2.427562499999999
 10
3.285697222222222
 20
2.427562499999999
 10
3.172655555555556
 20
2.424131944444444
 10
3.056197222222222
 20
2.424131944444444
 10
2.939738888888889
 20
2.424131944444444
 10
2.867808333333334
 20
2.420715277777777
 10
2.799294444444444
 20
2.420715277777777
 10
2.713669444444445
 20
2.420715277777777
 10
2.645155555555556
 20
2.417270833333333
 10
2.597197222222222
 20
2.417270833333333
 10
2.573225
 20
2.417270833333333
 10
2.576655555555555
 20
2.417270833333333
  0
LWPOLYLINE
  5
455
330
2
100
AcDbEntity
  8
PDF_Layer 1
 62
     7
420
 16777215
370
   120
100
AcDbPolyline
 90
       13
 70
     0
 43
0.0
 10
2.734225
 20
1.149909722222221
 10
2.737641666666667
 20
1.149909722222221
 10
2.768475
 20
1.153340277777777
 10
2.826697222222222
 20
1.156770833333333
 10
2.905488888888889
 20
1.156770833333333
 10
2.991113888888889
 20
1.160187499999999
 10
3.080169444444444
 20
1.163618055555555
 10
3.169225
 20
1.16704861111111
 10
3.203488888888889
 20
1.16704861111111
 10
3.285697222222222
 20
1.170465277777777
 10
3.34735
 20
1.173895833333333
 10
3.385030555555555
 20
1.173895833333333
 10
3.391877777777778
 20
1.177312499999999
  0
LWPOLYLINE
  5
45A
330
2
100
AcDbEntity
  8
PDF_Layer 1
 62
     7
420
 16777215
370
   120
100
AcDbPolyline
 90
        9
 70
     0
 43
0.0
 10
3.1521
 20
1.242395833333333
 10
3.124697222222222
 20
1.242395833333333
 10
3.021947222222222
 20
1.242395833333333
 10
2.926030555555556
 20
1.242395833333333
 10
2.847252777777778
 20
1.242395833333333
 10
2.789016666666666
 20
1.242395833333333
 10
2.775322222222222
 20
1.242395833333333
 10
2.768475
 20
1.242395833333333
 10
2.761627777777778
 20
1.242395833333333
  0
LWPOLYLINE
  5
460
330
2
100
AcDbEntity
  8
PDF_Layer 1
 62
     7
420
 16777215
370
   120
100
AcDbPolyline
 90
       11
 70
     0
 43
0.0
 10
2.765044444444444
 20
1.180743055555555
 10
2.7856
 20
1.184159722222221
 10
2.830127777777778
 20
1.187590277777777
 10
2.895211111111111
 20
1.191006944444444
 10
2.973988888888889
 20
1.194437499999999
 10
3.063044444444444
 20
1.194437499999999
 10
3.1521
 20
1.197868055555555
 10
3.230891666666667
 20
1.20129861111111
 10
3.295975
 20
1.204729166666666
 10
3.340502777777778
 20
1.208145833333333
 10
3.361044444444444
 20
1.211576388888888
  0
LWPOLYLINE
  5
461
330
2
100
AcDbEntity
  8
PDF_Layer 1
 62
     7
420
 16777215
370
   120
100
AcDbPolyline
 90
       12
 70
     0
 43
0.0
 10
2.734225
 20
1.139631944444444
 10
2.741072222222222
 20
1.143062499999999
 10
2.775322222222222
 20
1.146479166666666
 10
2.833544444444445
 20
1.149909722222221
 10
2.915752777777777
 20
1.149909722222221
 10
3.008238888888889
 20
1.153340277777777
 10
3.107572222222222
 20
1.156770833333333
 10
3.203488888888889
 20
1.160187499999999
 10
3.285697222222222
 20
1.163618055555555
 10
3.34735
 20
1.16704861111111
 10
3.385030555555555
 20
1.16704861111111
 10
3.391877777777778
 20
1.170465277777777
  0
LWPOLYLINE
  5
462
330
2
100
AcDbEntity
  8
PDF_Layer 1
 62
     7
420
 16777215
370
   120
100
AcDbPolyline
 90
        6
 70
     0
 43
0.0
 10
2.734225
 20
1.20129861111111
 10
2.741072222222222
 20
1.20129861111111
 10
2.775322222222222
 20
1.204729166666666
 10
2.833544444444445
 20
1.208145833333333
 10
2.915752777777777
 20
1.211576388888888
 10
2.950016666666666
 20
1.211576388888888
  0
LWPOLYLINE
  5
468
330
2
100
AcDbEntity
  8
PDF_Layer 1
 62
     7
420
 16777215
370
   120
100
AcDbPolyline
 90
       22
 70
     0
 43
0.0
 10
9.273155555555554
 20
7.65117361111111
 10
9.276586111111111
 20
7.65117361111111
 10
9.283433333333332
 20
7.654604166666665
 10
9.303988888888888
 20
7.658020833333333
 10
9.331377777777777
 20
7.661451388888888
 10
9.369058333333333
 20
7.66829861111111
 10
9.41358611111111
 20
7.678576388888888
 10
9.464974999999999
 20
7.68542361111111
 10
9.519780555555556
 20
7.695701388888888
 10
9.581433333333333
 20
7.705979166666665
 10
9.646516666666665
 20
7.716256944444443
 10
9.708169444444443
 20
7.729951388888887
 10
9.773252777777777
 20
7.740229166666665
 10
9.834905555555556
 20
7.750506944444444
 10
9.893127777777777
 20
7.76078472222222
 10
9.94794722222222
 20
7.771062499999997
 10
9.995905555555555
 20
7.781340277777776
 10
10.03700277777778
 20
7.788187499999999
 10
10.06783611111111
 20
7.791618055555554
 10
10.09180833333333
 20
7.798465277777777
 10
10.10550277777778
 20
7.798465277777777
 10
10.11236388888889
 20
7.801881944444444
  0
LWPOLYLINE
  5
469
330
2
100
AcDbEntity
  8
PDF_Layer 1
 62
     7
420
 16777215
370
   120
100
AcDbPolyline
 90
       26
 70
     0
 43
0.0
 10
3.498058333333333
 20
4.797881944444444
 10
3.487780555555556
 20
4.797881944444444
 10
3.467238888888889
 20
4.797881944444444
 10
3.463808333333333
 20
4.797881944444444
 10
3.446683333333333
 20
4.797881944444444
 10
3.422711111111111
 20
4.797881944444444
 10
3.391877777777778
 20
4.797881944444444
 10
3.350780555555556
 20
4.797881944444444
 10
3.302822222222222
 20
4.797881944444444
 10
3.248016666666666
 20
4.797881944444444
 10
3.189780555555556
 20
4.797881944444444
 10
3.128127777777778
 20
4.797881944444444
 10
3.063044444444444
 20
4.797881944444444
 10
3.001391666666667
 20
4.797881944444444
 10
2.939738888888889
 20
4.797881944444444
 10
2.881502777777778
 20
4.797881944444444
 10
2.826697222222222
 20
4.797881944444444
 10
2.778752777777778
 20
4.797881944444444
 10
2.737641666666667
 20
4.797881944444444
 10
2.703391666666667
 20
4.797881944444444
 10
2.679419444444445
 20
4.797881944444444
 10
2.665711111111111
 20
4.797881944444444
 10
2.658863888888889
 20
4.797881944444444
 10
2.648586111111111
 20
4.797881944444444
 10
2.634877777777778
 20
4.797881944444444
 10
2.628030555555556
 20
4.797881944444444
  0
LWPOLYLINE
  5
46B
330
2
100
AcDbEntity
  8
PDF_Layer 1
 62
     7
420
 16777215
370
   120
100
AcDbPolyline
 90
       19
 70
     0
 43
0.0
 10
2.706808333333333
 20
0.6395347222222223
 10
2.713669444444445
 20
0.6395347222222223
 10
2.727363888888889
 20
0.6395347222222223
 10
2.751336111111111
 20
0.6395347222222223
 10
2.7856
 20
0.6395347222222223
 10
2.830127777777778
 20
0.6395347222222223
 10
2.878072222222222
 20
0.6395347222222223
 10
2.929461111111111
 20
0.6395347222222223
 10
2.987697222222222
 20
0.6395347222222223
 10
3.04935
 20
0.6395347222222223
 10
3.107572222222222
 20
0.6395347222222223
 10
3.169225
 20
0.6395347222222223
 10
3.224044444444444
 20
0.6395347222222223
 10
3.275419444444445
 20
0.6395347222222223
 10
3.319947222222222
 20
0.6395347222222223
 10
3.357627777777778
 20
0.6395347222222223
 10
3.388461111111111
 20
0.6395347222222223
 10
3.409002777777778
 20
0.6395347222222223
 10
3.419280555555555
 20
0.6395347222222223
  0
LWPOLYLINE
  5
46C
330
2
100
AcDbEntity
  8
PDF_Layer 1
 62
     7
420
 16777215
370
   120
100
AcDbPolyline
 90
       29
 70
     0
 43
0.0
 10
2.312905555555555
 20
3.383215277777777
 10
2.316336111111111
 20
3.383215277777777
 10
2.330030555555556
 20
3.383215277777777
 10
2.354016666666667
 20
3.383215277777777
 10
2.388252777777778
 20
3.383215277777777
 10
2.432780555555555
 20
3.383215277777777
 10
2.480752777777778
 20
3.383215277777777
 10
2.538975
 20
3.383215277777777
 10
2.604058333333334
 20
3.383215277777777
 10
2.675988888888889
 20
3.383215277777777
 10
2.751336111111111
 20
3.383215277777777
 10
2.830127777777778
 20
3.383215277777777
 10
2.915752777777777
 20
3.383215277777777
 10
2.997961111111111
 20
3.383215277777777
 10
3.0836
 20
3.383215277777777
 10
3.169225
 20
3.383215277777777
 10
3.254863888888889
 20
3.383215277777777
 10
3.337072222222222
 20
3.383215277777777
 10
3.415863888888889
 20
3.383215277777777
 10
3.487780555555556
 20
3.383215277777777
 10
3.556294444444445
 20
3.383215277777777
 10
3.617947222222222
 20
3.383215277777777
 10
3.672752777777778
 20
3.383215277777777
 10
3.717280555555555
 20
3.383215277777777
 10
3.754961111111111
 20
3.383215277777777
 10
3.785794444444444
 20
3.383215277777777
 10
3.802919444444444
 20
3.383215277777777
 10
3.813197222222222
 20
3.383215277777777
 10
3.816613888888889
 20
3.383215277777777
  0
LWPOLYLINE
  5
46D
330
2
100
AcDbEntity
  8
PDF_Layer 1
 62
     7
420
 16777215
370
   120
100
AcDbPolyline
 90
       27
 70
     0
 43
0.0
 10
2.343725
 20
3.468854166666666
 10
2.350572222222222
 20
3.468854166666666
 10
2.364280555555556
 20
3.468854166666666
 10
2.388252777777778
 20
3.468854166666666
 10
2.422516666666667
 20
3.468854166666666
 10
2.467044444444444
 20
3.468854166666666
 10
2.518419444444444
 20
3.468854166666666
 10
2.576655555555555
 20
3.468854166666666
 10
2.645155555555556
 20
3.468854166666666
 10
2.717086111111111
 20
3.468854166666666
 10
2.792447222222222
 20
3.468854166666666
 10
2.874655555555555
 20
3.468854166666666
 10
2.956863888888889
 20
3.468854166666666
 10
3.042488888888889
 20
3.468854166666666
 10
3.128127777777778
 20
3.468854166666666
 10
3.210336111111111
 20
3.468854166666666
 10
3.292544444444445
 20
3.468854166666666
 10
3.371322222222222
 20
3.468854166666666
 10
3.446683333333333
 20
3.468854166666666
 10
3.515197222222222
 20
3.468854166666666
 10
3.580280555555556
 20
3.468854166666666
 10
3.635072222222222
 20
3.468854166666666
 10
3.683030555555556
 20
3.468854166666666
 10
3.720711111111111
 20
3.468854166666666
 10
3.751544444444444
 20
3.468854166666666
 10
3.772086111111111
 20
3.468854166666666
 10
3.782363888888889
 20
3.468854166666666
  0
LWPOLYLINE
  5
46F
330
2
100
AcDbEntity
  8
PDF_Layer 1
 62
     7
420
 16777215
370
   120
100
AcDbPolyline
 90
       22
 70
     0
 43
0.0
 10
3.511766666666667
 20
1.643159722222221
 10
3.504919444444444
 20
1.643159722222221
 10
3.491211111111111
 20
1.643159722222221
 10
3.467238888888889
 20
1.643159722222221
 10
3.436405555555555
 20
1.643159722222221
 10
3.395308333333333
 20
1.643159722222221
 10
3.343919444444444
 20
1.643159722222221
 10
3.289113888888889
 20
1.643159722222221
 10
3.227461111111111
 20
1.643159722222221
 10
3.162377777777778
 20
1.643159722222221
 10
3.097308333333333
 20
1.643159722222221
 10
3.028794444444444
 20
1.643159722222221
 10
2.963711111111111
 20
1.643159722222221
 10
2.898627777777778
 20
1.643159722222221
 10
2.836975
 20
1.643159722222221
 10
2.782169444444444
 20
1.643159722222221
 10
2.734225
 20
1.643159722222221
 10
2.693113888888889
 20
1.643159722222221
 10
2.658863888888889
 20
1.643159722222221
 10
2.634877777777778
 20
1.643159722222221
 10
2.621183333333333
 20
1.643159722222221
 10
2.617752777777778
 20
1.643159722222221
  0
LWPOLYLINE
  5
470
330
2
100
AcDbEntity
  8
PDF_Layer 1
 62
     7
420
 16777215
370
   120
100
AcDbPolyline
 90
       22
 70
     0
 43
0.0
 10
2.604058333333334
 20
1.670562499999999
 10
2.607488888888889
 20
1.670562499999999
 10
2.621183333333333
 20
1.670562499999999
 10
2.648586111111111
 20
1.670562499999999
 10
2.682836111111111
 20
1.670562499999999
 10
2.723947222222222
 20
1.670562499999999
 10
2.775322222222222
 20
1.670562499999999
 10
2.833544444444445
 20
1.670562499999999
 10
2.895211111111111
 20
1.670562499999999
 10
2.960280555555556
 20
1.670562499999999
 10
3.028794444444444
 20
1.670562499999999
 10
3.097308333333333
 20
1.670562499999999
 10
3.165808333333333
 20
1.670562499999999
 10
3.230891666666667
 20
1.670562499999999
 10
3.295975
 20
1.670562499999999
 10
3.350780555555556
 20
1.670562499999999
 10
3.402155555555555
 20
1.670562499999999
 10
3.443252777777778
 20
1.670562499999999
 10
3.480933333333333
 20
1.670562499999999
 10
3.504919444444444
 20
1.670562499999999
 10
3.518613888888889
 20
1.670562499999999
 10
3.525461111111111
 20
1.670562499999999
  0
LWPOLYLINE
  5
471
330
2
100
AcDbEntity
  8
PDF_Layer 1
 62
     7
420
 16777215
370
   120
100
AcDbPolyline
 90
       18
 70
     0
 43
0.0
 10
2.754766666666667
 20
1.55067361111111
 10
2.761627777777778
 20
1.55067361111111
 10
2.775322222222222
 20
1.55067361111111
 10
2.802725
 20
1.55067361111111
 10
2.836975
 20
1.55067361111111
 10
2.878072222222222
 20
1.55067361111111
 10
2.926030555555556
 20
1.55067361111111
 10
2.980836111111111
 20
1.55067361111111
 10
3.035641666666667
 20
1.55067361111111
 10
3.090447222222223
 20
1.55067361111111
 10
3.148683333333333
 20
1.55067361111111
 10
3.200058333333333
 20
1.55067361111111
 10
3.248016666666666
 20
1.55067361111111
 10
3.292544444444445
 20
1.55067361111111
 10
3.326794444444444
 20
1.55067361111111
 10
3.350780555555556
 20
1.55067361111111
 10
3.367905555555555
 20
1.55067361111111
 10
3.371322222222222
 20
1.55067361111111
  0
LWPOLYLINE
  5
473
330
2
100
AcDbEntity
  8
PDF_Layer 1
 62
     7
420
 16777215
370
    40
100
AcDbPolyline
 90
        2
 70
     0
 43
0.0
 10
3.489712499999999
 20
7.192179166666664
 10
4.688518055555555
 20
7.192179166666664
  0
LWPOLYLINE
  5
474
330
2
100
AcDbEntity
  8
PDF_Layer 1
 62
     7
420
 16777215
370
    40
100
AcDbPolyline
 90
        2
 70
     0
 43
0.0
 10
2.741068055555555
 20
7.192179166666664
 10
3.388456944444444
 20
7.192179166666664
  0
LWPOLYLINE
  5
475
330
2
100
AcDbEntity
  8
PDF_Layer 1
 62
     7
420
 16777215
370
    40
100
AcDbPolyline
 90
        2
 70
     0
 43
0.0
 10
2.639811111111111
 20
7.192179166666664
 10
2.124505555555555
 20
7.192179166666664
  0
LWPOLYLINE
  5
476
330
2
100
AcDbEntity
  8
PDF_Layer 1
 62
     7
420
 16777215
370
    40
100
AcDbPolyline
 90
        2
 70
     0
 43
0.0
 10
6.459751388888888
 20
11.90542222222222
 10
1.151723611111111
 20
11.90542222222222
  0
LWPOLYLINE
  5
477
330
2
100
AcDbEntity
  8
PDF_Layer 1
 62
     7
420
 16777215
370
    40
100
AcDbPolyline
 90
        2
 70
     0
 43
0.0
 10
1.233886111111111
 20
3.347466666666666
 10
1.233886111111111
 20
11.80416111111111
  0
LWPOLYLINE
  5
478
330
2
100
AcDbEntity
  8
PDF_Layer 1
 62
     7
420
 16777215
370
    40
100
AcDbPolyline
 90
        2
 70
     0
 43
0.0
 10
2.254672222222222
 20
3.246215277777777
 10
1.151713888888889
 20
3.246215277777777
  0
LWPOLYLINE
  5
479
330
2
100
AcDbEntity
  8
PDF_Layer 1
 62
     7
420
 16777215
370
    40
100
AcDbPolyline
 90
        2
 70
     0
 43
0.0
 10
9.617187499999998
 20
5.106161111111111
 10
3.164312499999998
 20
5.106161111111111
  0
LWPOLYLINE
  5
47A
330
2
100
AcDbEntity
  8
PDF_Layer 1
 62
     7
420
 16777215
370
    40
100
AcDbPolyline
 90
        2
 70
     0
 43
0.0
 10
10.1568875
 20
7.668301388888888
 10
12.06135972222222
 20
8.003981944444443
  0
ARC
  5
47C
330
2
100
AcDbEntity
  8
PDF_Layer 1
 62
     7
420
 16777215
370
    40
100
AcDbCircle
 10
9.82167575160888
 20
7.630333099873022
 30
0.0
 40
2.074918357460564
100
AcDbArc
 50
12.2057031230929
 51
32.6806274104808
  0
LWPOLYLINE
  5
47D
330
2
100
AcDbEntity
  8
PDF_Layer 1
 62
     7
420
 16777215
370
    40
100
AcDbPolyline
 90
        9
 70
     0
 43
0.0
 10
11.81816944444444
 20
6.98323611111111
 10
11.83529444444444
 20
7.048319444444443
 10
11.85241944444444
 20
7.116819444444443
 10
11.86612777777777
 20
7.181902777777777
 10
11.87639166666666
 20
7.250402777777776
 10
11.88668333333333
 20
7.318916666666665
 10
11.89353055555555
 20
7.383999999999999
 10
11.90037777777777
 20
7.452513888888888
 10
11.90216944444444
 20
7.488277777777776
  0
LWPOLYLINE
  5
47E
330
2
100
AcDbEntity
  8
PDF_Layer 1
 62
     7
420
 16777215
370
    40
100
AcDbPolyline
 90
        9
 70
     0
 43
0.0
 10
11.90380833333333
 20
7.589518055555554
 10
11.90380833333333
 20
7.637476388888888
 10
11.90037777777777
 20
7.685420833333332
 10
11.90037777777777
 20
7.733379166666665
 10
11.89353055555555
 20
7.781337499999999
 10
11.8901
 20
7.825865277777777
 10
11.88325277777777
 20
7.873823611111109
 10
11.87639166666666
 20
7.921768055555554
 10
11.86954444444444
 20
7.969726388888887
  0
LWPOLYLINE
  5
47F
330
2
100
AcDbEntity
  8
PDF_Layer 1
 62
     7
420
 16777215
370
    40
100
AcDbPolyline
 90
        2
 70
     0
 43
0.0
 10
3.823472222222221
 20
3.246215277777777
 10
11.48590277777778
 20
3.246215277777777
  0
LWPOLYLINE
  5
480
330
2
100
AcDbEntity
  8
PDF_Layer 1
 62
     7
420
 16777215
370
    40
100
AcDbPolyline
 90
        2
 70
     0
 43
0.0
 10
14.34068472222222
 20
3.12338611111111
 10
14.34068472222222
 20
2.667816666666666
  0
LWPOLYLINE
  5
481
330
2
100
AcDbEntity
  8
PDF_Layer 1
 62
     7
420
 16777215
370
    40
100
AcDbPolyline
 90
        2
 70
     0
 43
0.0
 10
15.9574375
 20
3.12338611111111
 10
15.9574375
 20
2.667816666666666
  0
LWPOLYLINE
  5
482
330
2
100
AcDbEntity
  8
PDF_Layer 1
 62
     7
420
 16777215
370
    40
100
AcDbPolyline
 90
        2
 70
     0
 43
0.0
 10
15.85617361111111
 20
2.74998611111111
 10
14.4419375
 20
2.74998611111111
  0
MTEXT
  5
483
330
2
100
AcDbEntity
  8
PDF_Text
 62
     7
420
 16777215
100
AcDbMText
 10
3.607659722222221
 20
7.276070687499999
 30
0.0
 40
0.388526387532552
 41
0.0
 46
0.0
 71
     7
 72
     5
  1
Ø20
  7
PDF Arial
 73
     1
 44
1.0
  0
MTEXT
  5
484
330
2
100
AcDbEntity
  8
PDF_Text
 62
     7
420
 16777215
100
AcDbMText
 10
5.982282118055555
 20
5.176090333333332
 30
0.0
 40
0.388526387532552
 41
0.0
 46
0.0
 71
     7
 72
     5
  1
206
  7
PDF Arial
 73
     1
 44
1.0
  0
MTEXT
  5
485
330
2
100
AcDbEntity
  8
PDF_Text
 62
     7
420
 16777215
100
AcDbMText
 10
13.22147638888889
 20
2.811587354166666
 30
0.0
 40
0.388526387532552
 41
0.0
 46
0.0
 71
     7
 72
     5
  1
Ø50
  7
PDF Arial
 73
     1
 44
1.0
  0
MTEXT
  5
486
330
2
100
AcDbEntity
  8
PDF_Text
 62
     7
420
 16777215
100
AcDbMText
 10
1.15974042361111
 20
7.018819444444444
 30
0.0
 40
0.388526387532552
 41
0.0
 46
0.0
 71
     7
 72
     5
  1
267±5
  7
PDF Arial
 11
0.0000000000000001
 21
1.0
 31
0.0
 73
     1
 44
1.0
  0
MTEXT
  5
487
330
2
100
AcDbEntity
  8
PDF_Text
 62
     7
420
 16777215
100
AcDbMText
 10
11.32134736805555
 20
4.962565277777778
 30
0.0
 40
0.388526387532552
 41
0.0
 46
0.0
 71
     7
 72
     5
  1
135
  7
PDF Arial
 11
0.0000000000000001
 21
1.0
 31
0.0
 73
     1
 44
1.0
  0
MTEXT
  5
488
330
2
100
AcDbEntity
  8
PDF_Text
 62
     7
420
 16777215
100
AcDbMText
 10
12.12906429444444
 20
8.185550844444444
 30
0.0
 40
0.388526387532552
 41
0.0
 46
0.0
 71
     7
 72
     5
  1
10°
  7
PDF Arial
 11
0.0664490374031628
 21
-0.9977898202668702
 31
0.0
 73
     1
 44
1.0
  0
LWPOLYLINE
  5
489
330
2
100
AcDbEntity
  8
PDF_Layer 1
 62
     7
420
 16777215
370
   120
100
AcDbPolyline
 90
        3
 70
     0
 43
0.0
 10
15.57379305555555
 20
7.607134722222224
 42
0.1277068578033882
 10
15.14905694444444
 20
7.679065277777777
 42
0.1802941485370041
 10
14.72430694444444
 20
7.60713472222222
  0
VIEWPORT
  5
4A
330
C
100
AcDbEntity
 67
     1
  8
0
100
AcDbViewport
 10
17.24759499286355
 20
11.49745669559334
 30
0.0
 40
36.33732196730226
 41
27.12504315869042
 68
     1
 69
     1
 12
17.24759499286355
 22
11.49745669559334
 13
0.0
 23
0.0
 14
0.5
 24
0.5
 15
0.5
 25
0.5
 16
0.0
 26
0.0
 36
1.0
 17
0.0
 27
0.0
 37
0.0
 42
50.0
 43
0.0
 44
0.0
 45
27.12504315869042
 50
0.0
 51
0.0
 72
  1000
 90
    32864
  1

281
     0
 71
     1
 74
     0
110
0.0
120
0.0
130
0.0
111
1.0
121
0.0
131
0.0
112
0.0
122
1.0
132
0.0
 79
     0
146
0.0
170
     0
 61
     5
348
88
292
     1
282
     1
141
0.0
142
0.0
 63
   250
421
  3355443
  0
ENDSEC
  0
SECTION
  2
OBJECTS
  0
DICTIONARY
  5
7
330
0
100
AcDbDictionary
281
     1
  3
ACAD_CIP_PREVIOUS_PRODUCT_INFO
350
CD
  3
ACAD_COLOR
350
55
  3
ACAD_DETAILVIEWSTYLE
350
C5
  3
ACAD_GROUP
350
1F
  3
ACAD_LAYOUT
350
B
  3
ACAD_MATERIAL
350
54
  3
ACAD_MLEADERSTYLE
350
C1
  3
ACAD_MLINESTYLE
350
20
  3
ACAD_PLOTSETTINGS
350
21
  3
ACAD_PLOTSTYLENAME
350
6
  3
ACAD_SCALELIST
350
AF
  3
ACAD_SECTIONVIEWSTYLE
350
C3
  3
ACAD_TABLESTYLE
350
93
  3
ACAD_VISUALSTYLE
350
82
  3
ACDB_RECOMPOSE_DATA
350
4AF
  3
AcDbVariableDictionary
350
9B
  0
DICTIONARY
  5
48B
330
4
100
AcDbDictionary
280
     1
281
     1
  3
ADSK_XREC_LAYER_RECONCILED
360
48C
  0
DICTIONARY
  5
48D
330
25
100
AcDbDictionary
280
     1
281
     1
  3
ADSK_XREC_LAYER_RECONCILED
360
48E
  0
DICTIONARY
  5
48F
330
CE
100
AcDbDictionary
280
     1
281
     1
  3
ADSK_XREC_LAYER_RECONCILED
360
490
  0
DICTIONARY
  5
491
330
DD
100
AcDbDictionary
280
     1
281
     1
  3
ADSK_XREC_LAYER_RECONCILED
360
492
  0
XRECORD
  5
CD
102
{ACAD_REACTORS
330
7
102
}
330
7
100
AcDbXrecord
280
     1
300
ACD
300
2017
300
ACD_F_S
  0
DICTIONARY
  5
55
102
{ACAD_REACTORS
330
7
102
}
330
7
100
AcDbDictionary
281
     1
  0
DICTIONARY
  5
C5
102
{ACAD_REACTORS
330
7
102
}
330
7
100
AcDbDictionary
281
     1
  3
Imperial24
350
C6
  0
DICTIONARY
  5
1F
102
{ACAD_REACTORS
330
7
102
}
330
7
100
AcDbDictionary
281
     1
  0
DICTIONARY
  5
B
102
{ACAD_REACTORS
330
7
102
}
330
7
100
AcDbDictionary
281
     1
  3
Generic 24in x 36in Title Block
350
F
  3
Model
350
A
  0
DICTIONARY
  5
54
102
{ACAD_REACTORS
330
7
102
}
330
7
100
AcDbDictionary
281
     1
  3
ByBlock
350
80
  3
ByLayer
350
7F
  3
Global
350
81
  0
DICTIONARY
  5
C1
102
{ACAD_REACTORS
330
7
102
}
330
7
100
AcDbDictionary
281
     1
  3
Standard
350
C2
  0
DICTIONARY
  5
20
102
{ACAD_REACTORS
330
7
102
}
330
7
100
AcDbDictionary
281
     1
  3
Standard
350
22
  0
DICTIONARY
  5
21
102
{ACAD_REACTORS
330
7
102
}
330
7
100
AcDbDictionary
281
     1
  0
ACDBDICTIONARYWDFLT
  5
6
102
{ACAD_REACTORS
330
7
102
}
330
7
100
AcDbDictionary
281
     1
  3
Normal
350
5
100
AcDbDictionaryWithDefault
340
5
  0
DICTIONARY
  5
AF
102
{ACAD_REACTORS
330
7
102
}
330
7
100
AcDbDictionary
281
     1
  3
A0
350
B0
  3
A1
350
B1
  3
A2
350
B2
  3
A3
350
B3
  3
A4
350
B4
  3
A5
350
B5
  3
A6
350
B6
  3
A7
350
B7
  3
A8
350
B8
  3
A9
350
B9
  3
B0
350
BA
  3
B1
350
BB
  3
B2
350
BC
  3
B3
350
BD
  3
B4
350
BE
  3
B5
350
BF
  3
B6
350
C0
  0
DICTIONARY
  5
C3
102
{ACAD_REACTORS
330
7
102
}
330
7
100
AcDbDictionary
281
     1
  3
Imperial24
350
C4
  0
DICTIONARY
  5
93
102
{ACAD_REACTORS
330
7
102
}
330
7
100
AcDbDictionary
281
     1
  3
Standard
350
94
  0
DICTIONARY
  5
82
102
{ACAD_REACTORS
330
7
102
}
330
7
100
AcDbDictionary
281
     1
  3
2dWireframe
350
88
  3
3D Hidden
350
8A
  3
3dWireframe
350
89
  3
Basic
350
87
  3
Brighten
350
8E
  3
ColorChange
350
92
  3
Conceptual
350
8B
  3
Dim
350
8D
  3
EdgeColorOff
350
AE
  3
Facepattern
350
91
  3
Flat
350
83
  3
FlatWithEdges
350
84
  3
Gouraud
350
85
  3
GouraudWithEdges
350
86
  3
Hidden
350
A6
  3
JitterOff
350
AC
  3
Linepattern
350
90
  3
OverhangOff
350
AD
  3
Realistic
350
8C
  3
Shaded
350
AB
  3
Shaded with edges
350
AA
  3
Shades of Gray
350
A7
  3
Sketchy
350
A8
  3
Thicken
350
8F
  3
Wireframe
350
A5
  3
X-Ray
350
A9
  0
XRECORD
  5
4AF
102
{ACAD_REACTORS
330
7
102
}
330
7
100
AcDbXrecord
280
     1
 90
        1
330
94
330
C4
330
C6
  0
DICTIONARY
  5
9B
102
{ACAD_REACTORS
330
7
102
}
330
7
100
AcDbDictionary
281
     1
  3
CANNOSCALE
350
4A5
  3
CMLEADERSTYLE
350
4A1
  3
CTABLESTYLE
350
9C
  3
CVIEWDETAILSTYLE
350
4A2
  3
CVIEWSECTIONSTYLE
350
4A3
  3
LAYEREVAL
350
4A7
  3
LAYERNOTIFY
350
4A8
  3
LIGHTINGUNITS
350
4A6
  3
MSLTSCALE
350
4A4
  0
XRECORD
  5
48C
102
{ACAD_REACTORS
330
48B
102
}
330
48B
100
AcDbXrecord
280
     1
290
     1
  0
XRECORD
  5
48E
102
{ACAD_REACTORS
330
48D
102
}
330
48D
100
AcDbXrecord
280
     1
290
     1
  0
XRECORD
  5
490
102
{ACAD_REACTORS
330
48F
102
}
330
48F
100
AcDbXrecord
280
     1
290
     1
  0
XRECORD
  5
492
102
{ACAD_REACTORS
330
491
102
}
330
491
100
AcDbXrecord
280
     1
290
     1
  0
ACDBDETAILVIEWSTYLE
  5
C6
102
{ACAD_XDICTIONARY
360
4AD
102
}
102
{ACAD_REACTORS
330
C5
102
}
330
C5
100
AcDbModelDocViewStyle
 70
     0
  3
Imperial24
290
     0
100
AcDbDetailViewStyle
 70
     0
 71
     0
 90
        3
 71
     1
340
12
 62
   256
 40
0.24
340
0
 62
   256
 40
0.24
300

 40
0.36
280
     3
 71
     2
340
8
 90
       25
 62
   256
 71
     3
340
12
 62
   256
 40
0.24
 90
        1
 40
0.75
 90
        1
300
%<\AcVar ViewType \f "%tc1">% %<\AcVar ViewDetailId>%\PSCALE %<\AcVar ViewScale \f "%sn">%
 71
     4
340
8
 90
       25
 62
   256
340
8
 90
       25
 62
   256
280
     0
  0
LAYOUT
  5
F
102
{ACAD_REACTORS
330
B
102
}
330
B
100
AcDbPlotSettings
  1

  2
none_device
  4
ARCH_D_(24.00_x_36.00_Inches)
  6

 40
6.4
 41
19.1
 42
6.4
 43
19.1
 44
609.5999755859375
 45
914.4000244140626
 46
6.095999999999999
 47
-0.254
 48
0.0
 49
0.0
140
0.0
141
0.0
142
1.0
143
1.0
 70
   692
 72
     0
 73
     1
 74
     1
  7

 75
    16
147
1.0
 76
     0
 77
     2
 78
   300
148
0.2650993882970653
149
0.268587724897764
100
AcDbLayout
  1
Generic 24in x 36in Title Block
 70
     1
 71
     1
 10
-0.7524054877282309
 20
-0.5025428238148726
 11
35.24759547345533
 21
23.49745621500156
 12
0.0
 22
0.0
 32
0.0
 14
1.000000000000000E+20
 24
1.000000000000000E+20
 34
1.000000000000000E+20
 15
-1.000000000000000E+20
 25
-1.000000000000000E+20
 35
-1.000000000000000E+20
146
0.0
 13
0.0
 23
0.0
 33
0.0
 16
1.0
 26
0.0
 36
0.0
 17
0.0
 27
1.0
 37
0.0
 76
     0
330
C
331
4A
  0
LAYOUT
  5
A
102
{ACAD_REACTORS
330
B
102
}
330
B
100
AcDbPlotSettings
  1

  2
none_device
  4
Letter_(8.50_x_11.00_Inches)
  6

 40
6.349999904632568
 41
6.349999904632568
 42
6.350006103515625
 43
6.350006103515625
 44
215.8999938964844
 45
279.3999938964844
 46
20.37045378159827
 47
10.87052656611426
 48
0.0
 49
0.0
140
0.0
141
0.0
142
1.0
143
3.59932905303845
 70
 11956
 72
     0
 73
     1
 74
     1
  7

 75
     0
147
0.2778295580271631
 76
     0
 77
     2
 78
   300
148
5.106903281790129
149
0.2718425107115592
100
AcDbLayout
  1
Model
 70
     1
 71
     0
 10
0.0
 20
0.0
 11
12.0
 21
9.0
 12
0.0
 22
0.0
 32
0.0
 14
0.0
 24
0.0
 34
0.0
 15
0.0
 25
0.0
 35
0.0
146
0.0
 13
0.0
 23
0.0
 33
0.0
 16
1.0
 26
0.0
 36
0.0
 17
0.0
 27
1.0
 37
0.0
 76
     0
330
2
331
7D
  0
MATERIAL
  5
80
102
{ACAD_REACTORS
330
54
102
}
330
54
100
AcDbMaterial
  1
ByBlock
 73
     1
 78
     1
172
     1
176
     1
270
     1
274
     1
 94
       63
  0
MATERIAL
  5
7F
102
{ACAD_REACTORS
330
54
102
}
330
54
100
AcDbMaterial
  1
ByLayer
 73
     1
 78
     1
172
     1
176
     1
270
     1
274
     1
 94
       63
  0
MATERIAL
  5
81
102
{ACAD_REACTORS
330
54
102
}
330
54
100
AcDbMaterial
  1
Global
 73
     1
 78
     1
172
     1
176
     1
270
     1
274
     1
 94
       63
  0
MLEADERSTYLE
  5
C2
102
{ACAD_REACTORS
330
C1
102
}
330
C1
100
AcDbMLeaderStyle
179
     2
170
     2
171
     1
172
     0
 90
        2
 40
0.0
 41
0.0
173
     1
 91
-1056964608
340
15
 92
       -2
290
     1
 42
0.09
291
     1
 43
0.36
  3
Standard
 44
0.18
300

342
12
174
     1
178
     6
175
     1
176
     0
 93
-1056964608
 45
0.18
292
     0
297
     0
 46
0.18
 94
-1056964608
 47
1.0
 49
1.0
140
1.0
293
     1
141
0.0
294
     1
177
     0
142
1.0
295
     1
296
     0
143
0.125
271
     0
272
     9
273
     9
298
     1
  0
MLINESTYLE
  5
22
102
{ACAD_REACTORS
330
20
102
}
330
20
100
AcDbMlineStyle
  2
STANDARD
 70
     0
  3

 62
   256
 51
90.0
 52
90.0
 71
     2
 49
0.5
 62
   256
  6
BYLAYER
 49
-0.5
 62
   256
  6
BYLAYER
  0
ACDBPLACEHOLDER
  5
5
102
{ACAD_REACTORS
330
6
102
}
330
6
  0
SCALE
  5
B0
102
{ACAD_REACTORS
330
AF
102
}
330
AF
100
AcDbScale
 70
     0
300
1:1
140
1.0
141
1.0
290
     1
  0
SCALE
  5
B1
102
{ACAD_REACTORS
330
AF
102
}
330
AF
100
AcDbScale
 70
     0
300
1/128" = 1'-0"
140
0.0078125
141
12.0
290
     0
  0
SCALE
  5
B2
102
{ACAD_REACTORS
330
AF
102
}
330
AF
100
AcDbScale
 70
     0
300
1/64" = 1'-0"
140
0.015625
141
12.0
290
     0
  0
SCALE
  5
B3
102
{ACAD_REACTORS
330
AF
102
}
330
AF
100
AcDbScale
 70
     0
300
1/32" = 1'-0"
140
0.03125
141
12.0
290
     0
  0
SCALE
  5
B4
102
{ACAD_REACTORS
330
AF
102
}
330
AF
100
AcDbScale
 70
     0
300
1/16" = 1'-0"
140
0.0625
141
12.0
290
     0
  0
SCALE
  5
B5
102
{ACAD_REACTORS
330
AF
102
}
330
AF
100
AcDbScale
 70
     0
300
3/32" = 1'-0"
140
0.09375
141
12.0
290
     0
  0
SCALE
  5
B6
102
{ACAD_REACTORS
330
AF
102
}
330
AF
100
AcDbScale
 70
     0
300
1/8" = 1'-0"
140
0.125
141
12.0
290
     0
  0
SCALE
  5
B7
102
{ACAD_REACTORS
330
AF
102
}
330
AF
100
AcDbScale
 70
     0
300
3/16" = 1'-0"
140
0.1875
141
12.0
290
     0
  0
SCALE
  5
B8
102
{ACAD_REACTORS
330
AF
102
}
330
AF
100
AcDbScale
 70
     0
300
1/4" = 1'-0"
140
0.25
141
12.0
290
     0
  0
SCALE
  5
B9
102
{ACAD_REACTORS
330
AF
102
}
330
AF
100
AcDbScale
 70
     0
300
3/8" = 1'-0"
140
0.375
141
12.0
290
     0
  0
SCALE
  5
BA
102
{ACAD_REACTORS
330
AF
102
}
330
AF
100
AcDbScale
 70
     0
300
1/2" = 1'-0"
140
0.5
141
12.0
290
     0
  0
SCALE
  5
BB
102
{ACAD_REACTORS
330
AF
102
}
330
AF
100
AcDbScale
 70
     0
300
3/4" = 1'-0"
140
0.75
141
12.0
290
     0
  0
SCALE
  5
BC
102
{ACAD_REACTORS
330
AF
102
}
330
AF
100
AcDbScale
 70
     0
300
1" = 1'-0"
140
1.0
141
12.0
290
     0
  0
SCALE
  5
BD
102
{ACAD_REACTORS
330
AF
102
}
330
AF
100
AcDbScale
 70
     0
300
1-1/2" = 1'-0"
140
1.5
141
12.0
290
     0
  0
SCALE
  5
BE
102
{ACAD_REACTORS
330
AF
102
}
330
AF
100
AcDbScale
 70
     0
300
3" = 1'-0"
140
3.0
141
12.0
290
     0
  0
SCALE
  5
BF
102
{ACAD_REACTORS
330
AF
102
}
330
AF
100
AcDbScale
 70
     0
300
6" = 1'-0"
140
6.0
141
12.0
290
     0
  0
SCALE
  5
C0
102
{ACAD_REACTORS
330
AF
102
}
330
AF
100
AcDbScale
 70
     0
300
1'-0" = 1'-0"
140
12.0
141
12.0
290
     0
  0
ACDBSECTIONVIEWSTYLE
  5
C4
102
{ACAD_XDICTIONARY
360
4AB
102
}
102
{ACAD_REACTORS
330
C3
102
}
330
C3
100
AcDbModelDocViewStyle
 70
     0
  3
Imperial24
290
     0
100
AcDbSectionViewStyle
 70
     0
 71
     0
 90
       78
 71
     1
340
12
 62
   256
 40
0.24
340
0
340
0
 62
   256
 40
0.24
300
I, O, Q, S, X, Z
 40
0.48
 90
        3
 40
0.18
 90
        1
 71
     2
340
8
 90
       25
 62
   256
340
8
 90
       50
 62
   256
 40
0.24
 40
0.0
 40
0.24
 71
     3
340
12
 62
   256
 40
0.24
 90
        1
 40
0.75
 90
        1
300
%<\AcVar ViewType \f "%tc1">% %<\AcVar ViewSectionStartId>%-%<\AcVar ViewSectionEndId>%\PSCALE %<\AcVar ViewScale \f "%sn">%
 71
     4
 62
   256
 62
   257
300
ANSI31
 40
1.0
 90
        0
290
     0
290
     0
 90
        6
 40
0.0
 40
1.570796326794896
 40
0.2617993877991494
 40
1.308996938995747
 40
-0.2617993877991494
 40
1.832595714594046
  0
TABLESTYLE
  5
94
102
{ACAD_XDICTIONARY
360
4A9
102
}
102
{ACAD_REACTORS
330
93
102
}
330
93
100
AcDbTableStyle
280
     0
  3
Standard
 70
     0
 71
     0
 40
0.06
 41
0.06
280
     0
281
     0
  7
Standard
140
0.18
170
     2
 62
     0
 63
     7
283
     0
 90
      512
 91
        0
  1

274
    -2
284
     1
 64
     0
275
    -2
285
     1
 65
     0
276
    -2
286
     1
 66
     0
277
    -2
287
     1
 67
     0
278
    -2
288
     1
 68
     0
279
    -2
289
     1
 69
     0
  7
Standard
140
0.25
170
     5
 62
     0
 63
     7
283
     0
 90
      512
 91
        0
  1

274
    -2
284
     1
 64
     0
275
    -2
285
     1
 65
     0
276
    -2
286
     1
 66
     0
277
    -2
287
     1
 67
     0
278
    -2
288
     1
 68
     0
279
    -2
289
     1
 69
     0
  7
Standard
140
0.18
170
     5
 62
     0
 63
     7
283
     0
 90
      512
 91
        0
  1

274
    -2
284
     1
 64
     0
275
    -2
285
     1
 65
     0
276
    -2
286
     1
 66
     0
277
    -2
287
     1
 67
     0
278
    -2
288
     1
 68
     0
279
    -2
289
     1
 69
     0
  0
VISUALSTYLE
  5
88
102
{ACAD_REACTORS
330
82
102
}
330
82
100
AcDbVisualStyle
  2
2dWireframe
 70
     4
177
     3
291
     0
 70
    58
 90
        0
176
     1
 90
        2
176
     1
 90
        1
176
     1
 90
        0
176
     1
 40
0.6
176
     1
 40
30.0
176
     1
 62
     7
420
 16777215
176
     1
 90
        1
176
     1
 90
        4
176
     1
 62
     7
176
     1
 62
   257
176
     1
 90
        1
176
     1
 90
        1
176
     1
 40
1.0
176
     1
 90
        0
176
     1
 62
   257
176
     1
 40
1.0
176
     1
 90
        1
176
     1
 90
        6
176
     1
 90
        2
176
     1
 62
     7
176
     1
 90
        5
176
     1
 90
        0
176
     1
 90
        0
176
     1
290
     0
176
     1
 90
        1
176
     1
 40
0.0
176
     1
 90
        0
176
     1
290
     1
176
     1
290
     1
176
     1
290
     0
176
     1
290
     0
176
     1
290
     0
176
     1
290
     0
176
     1
290
     0
176
     1
290
     0
176
     1
290
     0
176
     1
 90
       50
176
     1
 40
0.0
176
     1
 40
1.0
176
     1
 90
        0
176
     1
 62
    18
420
        0
176
     1
 90
       50
176
     1
 90
        3
176
     1
 62
     5
420
      255
176
     1
290
     0
176
     1
 90
       50
176
     1
 90
       50
176
     1
 90
       50
176
     1
290
     0
176
     1
 90
       50
176
     1
 62
   256
176
     0
 40
1.0
176
     0
 90
        2
176
     1
  1
strokes_ogs.tif
176
     1
290
     0
176
     1
 40
1.0
176
     1
 40
1.0
176
     1
  0
VISUALSTYLE
  5
8A
102
{ACAD_REACTORS
330
82
102
}
330
82
100
AcDbVisualStyle
  2
3D Hidden
 70
     6
177
     3
291
     0
 70
    58
 90
        1
176
     1
 90
        2
176
     1
 90
        2
176
     1
 90
        0
176
     1
 40
0.6
176
     1
 40
30.0
176
     1
 62
     7
420
 16777215
176
     1
 90
        2
176
     1
 90
       10
176
     1
 62
     7
176
     1
 62
   257
176
     1
 90
        2
176
     1
 90
        2
176
     1
 40
40.0
176
     1
 90
        0
176
     1
 62
   257
176
     1
 40
1.0
176
     1
 90
        1
176
     1
 90
        6
176
     1
 90
        2
176
     1
 62
     7
176
     1
 90
        3
176
     1
 90
        0
176
     1
 90
        0
176
     1
290
     0
176
     1
 90
        1
176
     1
 40
0.0
176
     1
 90
        0
176
     1
290
     0
176
     1
290
     1
176
     1
290
     1
176
     1
290
     0
176
     1
290
     0
176
     1
290
     0
176
     1
290
     0
176
     1
290
     0
176
     1
290
     0
176
     1
 90
       50
176
     1
 40
0.0
176
     1
 40
1.0
176
     1
 90
        0
176
     1
 62
    18
420
        0
176
     1
 90
       50
176
     1
 90
        3
176
     1
 62
     5
420
      255
176
     1
290
     0
176
     1
 90
       50
176
     1
 90
       50
176
     1
 90
       50
176
     1
290
     0
176
     1
 90
       50
176
     1
 62
   256
176
     0
 40
1.0
176
     0
 90
        2
176
     1
  1
strokes_ogs.tif
176
     1
290
     0
176
     1
 40
1.0
176
     1
 40
1.0
176
     1
  0
VISUALSTYLE
  5
89
102
{ACAD_REACTORS
330
82
102
}
330
82
100
AcDbVisualStyle
  2
3dWireframe
 70
     5
177
     3
291
     0
 70
    58
 90
        0
176
     1
 90
        2
176
     1
 90
        1
176
     1
 90
        0
176
     1
 40
0.6
176
     1
 40
30.0
176
     1
 62
     7
420
 16777215
176
     1
 90
        1
176
     1
 90
        4
176
     1
 62
     7
176
     1
 62
   257
176
     1
 90
        1
176
     1
 90
        1
176
     1
 40
1.0
176
     1
 90
        0
176
     1
 62
   257
176
     1
 40
1.0
176
     1
 90
        1
176
     1
 90
        6
176
     1
 90
        2
176
     1
 62
     7
176
     1
 90
        5
176
     1
 90
        0
176
     1
 90
        0
176
     1
290
     0
176
     1
 90
        1
176
     1
 40
0.0
176
     1
 90
        0
176
     1
290
     0
176
     1
290
     1
176
     1
290
     1
176
     1
290
     0
176
     1
290
     0
176
     1
290
     0
176
     1
290
     0
176
     1
290
     0
176
     1
290
     0
176
     1
 90
       50
176
     1
 40
0.0
176
     1
 40
1.0
176
     1
 90
        0
176
     1
 62
    18
420
        0
176
     1
 90
       50
176
     1
 90
        3
176
     1
 62
     5
420
      255
176
     1
290
     0
176
     1
 90
       50
176
     1
 90
       50
176
     1
 90
       50
176
     1
290
     0
176
     1
 90
       50
176
     1
 62
   256
176
     0
 40
1.0
176
     0
 90
        2
176
     1
  1
strokes_ogs.tif
176
     1
290
     0
176
     1
 40
1.0
176
     1
 40
1.0
176
     1
  0
VISUALSTYLE
  5
87
102
{ACAD_REACTORS
330
82
102
}
330
82
100
AcDbVisualStyle
  2
Basic
 70
     7
177
     3
291
     1
 70
    58
 90
        1
176
     1
 90
        0
176
     1
 90
        1
176
     1
 90
        0
176
     1
 40
0.6
176
     1
 40
30.0
176
     1
 62
     7
420
 16777215
176
     1
 90
        0
176
     1
 90
        4
176
     1
 62
     7
176
     1
 62
   257
176
     1
 90
        1
176
     1
 90
        1
176
     1
 40
1.0
176
     1
 90
        8
176
     1
 62
     7
176
     1
 40
1.0
176
     1
 90
        1
176
     1
 90
        6
176
     1
 90
        2
176
     1
 62
     7
176
     1
 90
        5
176
     1
 90
        0
176
     1
 90
        0
176
     1
290
     0
176
     1
 90
        1
176
     1
 40
0.0
176
     1
 90
        0
176
     1
290
     0
176
     1
290
     1
176
     1
290
     1
176
     1
290
     0
176
     1
290
     0
176
     1
290
     0
176
     1
290
     0
176
     1
290
     0
176
     1
290
     0
176
     1
 90
       50
176
     1
 40
0.0
176
     1
 40
1.0
176
     1
 90
        0
176
     1
 62
    18
420
        0
176
     1
 90
       50
176
     1
 90
        3
176
     1
 62
     5
420
      255
176
     1
290
     0
176
     1
 90
       50
176
     1
 90
       50
176
     1
 90
       50
176
     1
290
     0
176
     1
 90
       50
176
     1
 62
   256
176
     0
 40
1.0
176
     0
 90
        2
176
     1
  1
strokes_ogs.tif
176
     1
290
     0
176
     1
 40
1.0
176
     1
 40
1.0
176
     1
  0
VISUALSTYLE
  5
8E
102
{ACAD_REACTORS
330
82
102
}
330
82
100
AcDbVisualStyle
  2
Brighten
 70
    12
177
     3
291
     1
 70
    58
 90
        2
176
     1
 90
        2
176
     1
 90
        1
176
     1
 90
        0
176
     1
 40
0.6
176
     1
 40
30.0
176
     1
 62
     7
420
 16777215
176
     1
 90
        1
176
     1
 90
        4
176
     1
 62
     7
176
     1
 62
   257
176
     1
 90
        1
176
     1
 90
        1
176
     1
 40
1.0
176
     1
 90
        8
176
     1
 62
     7
176
     1
 40
1.0
176
     1
 90
        1
176
     1
 90
        6
176
     1
 90
        2
176
     1
 62
     7
176
     1
 90
        5
176
     1
 90
        0
176
     1
 90
        0
176
     1
290
     0
176
     1
 90
        1
176
     1
 40
50.0
176
     1
 90
        0
176
     1
290
     0
176
     1
290
     1
176
     1
290
     1
176
     1
290
     0
176
     1
290
     0
176
     1
290
     0
176
     1
290
     0
176
     1
290
     0
176
     1
290
     0
176
     1
 90
       50
176
     1
 40
0.0
176
     1
 40
1.0
176
     1
 90
        0
176
     1
 62
    18
420
        0
176
     1
 90
       50
176
     1
 90
        3
176
     1
 62
     5
420
      255
176
     1
290
     0
176
     1
 90
       50
176
     1
 90
       50
176
     1
 90
       50
176
     1
290
     0
176
     1
 90
       50
176
     1
 62
   256
176
     0
 40
1.0
176
     0
 90
        2
176
     1
  1
strokes_ogs.tif
176
     1
290
     0
176
     1
 40
1.0
176
     1
 40
1.0
176
     1
  0
VISUALSTYLE
  5
92
102
{ACAD_REACTORS
330
82
102
}
330
82
100
AcDbVisualStyle
  2
ColorChange
 70
    16
177
     3
291
     1
 70
    58
 90
        2
176
     1
 90
        2
176
     1
 90
        3
176
     1
 90
        0
176
     1
 40
0.6
176
     1
 40
30.0
176
     1
 62
     8
420
  8421504
176
     1
 90
        1
176
     1
 90
        4
176
     1
 62
     7
176
     1
 62
   257
176
     1
 90
        1
176
     1
 90
        1
176
     1
 40
1.0
176
     1
 90
        8
176
     1
 62
     8
420
  8421504
176
     1
 40
1.0
176
     1
 90
        1
176
     1
 90
        6
176
     1
 90
        2
176
     1
 62
     7
176
     1
 90
        5
176
     1
 90
        0
176
     1
 90
        0
176
     1
290
     0
176
     1
 90
        1
176
     1
 40
0.0
176
     1
 90
        0
176
     1
290
     0
176
     1
290
     1
176
     1
290
     1
176
     1
290
     0
176
     1
290
     0
176
     1
290
     0
176
     1
290
     0
176
     1
290
     0
176
     1
290
     0
176
     1
 90
       50
176
     1
 40
0.0
176
     1
 40
1.0
176
     1
 90
        0
176
     1
 62
    18
420
        0
176
     1
 90
       50
176
     1
 90
        3
176
     1
 62
     5
420
      255
176
     1
290
     0
176
     1
 90
       50
176
     1
 90
       50
176
     1
 90
       50
176
     1
290
     0
176
     1
 90
       50
176
     1
 62
   256
176
     0
 40
1.0
176
     0
 90
        2
176
     1
  1
strokes_ogs.tif
176
     1
290
     0
176
     1
 40
1.0
176
     1
 40
1.0
176
     1
  0
VISUALSTYLE
  5
8B
102
{ACAD_REACTORS
330
82
102
}
330
82
100
AcDbVisualStyle
  2
Conceptual
 70
     9
177
     3
291
     0
 70
    58
 90
        3
176
     1
 90
        2
176
     1
 90
        1
176
     1
 90
        0
176
     1
 40
0.6
176
     1
 40
30.0
176
     1
 62
     7
420
 16777215
176
     1
 90
        2
176
     1
 90
        2
176
     1
 62
     7
176
     1
 62
   257
176
     1
 90
        1
176
     1
 90
        1
176
     1
 40
40.0
176
     1
 90
        8
176
     1
 62
     7
176
     1
 40
1.0
176
     1
 90
        1
176
     1
 90
        6
176
     1
 90
        2
176
     1
 62
     7
176
     1
 90
        5
176
     1
 90
        0
176
     1
 90
        0
176
     1
290
     0
176
     1
 90
        1
176
     1
 40
0.0
176
     1
 90
        0
176
     1
290
     0
176
     1
290
     1
176
     1
290
     1
176
     1
290
     0
176
     1
290
     0
176
     1
290
     0
176
     1
290
     0
176
     1
290
     0
176
     1
290
     0
176
     1
 90
       50
176
     1
 40
0.0
176
     1
 40
1.0
176
     1
 90
        0
176
     1
 62
    18
420
        0
176
     1
 90
       50
176
     1
 90
        3
176
     1
 62
     5
420
      255
176
     1
290
     0
176
     1
 90
       50
176
     1
 90
       50
176
     1
 90
       50
176
     1
290
     0
176
     1
 90
       50
176
     1
 62
   256
176
     0
 40
1.0
176
     0
 90
        2
176
     1
  1
strokes_ogs.tif
176
     1
290
     0
176
     1
 40
1.0
176
     1
 40
1.0
176
     1
  0
VISUALSTYLE
  5
8D
102
{ACAD_REACTORS
330
82
102
}
330
82
100
AcDbVisualStyle
  2
Dim
 70
    11
177
     3
291
     1
 70
    58
 90
        2
176
     1
 90
        2
176
     1
 90
        1
176
     1
 90
        0
176
     1
 40
0.6
176
     1
 40
30.0
176
     1
 62
     7
420
 16777215
176
     1
 90
        1
176
     1
 90
        4
176
     1
 62
     7
176
     1
 62
   257
176
     1
 90
        1
176
     1
 90
        1
176
     1
 40
1.0
176
     1
 90
        8
176
     1
 62
     7
176
     1
 40
1.0
176
     1
 90
        1
176
     1
 90
        6
176
     1
 90
        2
176
     1
 62
     7
176
     1
 90
        5
176
     1
 90
        0
176
     1
 90
        0
176
     1
290
     0
176
     1
 90
        1
176
     1
 40
-50.0
176
     1
 90
        0
176
     1
290
     0
176
     1
290
     1
176
     1
290
     1
176
     1
290
     0
176
     1
290
     0
176
     1
290
     0
176
     1
290
     0
176
     1
290
     0
176
     1
290
     0
176
     1
 90
       50
176
     1
 40
0.0
176
     1
 40
1.0
176
     1
 90
        0
176
     1
 62
    18
420
        0
176
     1
 90
       50
176
     1
 90
        3
176
     1
 62
     5
420
      255
176
     1
290
     0
176
     1
 90
       50
176
     1
 90
       50
176
     1
 90
       50
176
     1
290
     0
176
     1
 90
       50
176
     1
 62
   256
176
     0
 40
1.0
176
     0
 90
        2
176
     1
  1
strokes_ogs.tif
176
     1
290
     0
176
     1
 40
1.0
176
     1
 40
1.0
176
     1
  0
VISUALSTYLE
  5
AE
102
{ACAD_REACTORS
330
82
102
}
330
82
100
AcDbVisualStyle
  2
EdgeColorOff
 70
    22
177
     3
291
     1
 70
    58
 90
        2
176
     0
 90
        2
176
     0
 90
        0
176
     0
 90
        0
176
     0
 40
0.6
176
     0
 40
30.0
176
     0
 62
     7
420
 16777215
176
     0
 90
        1
176
     0
 90
        4
176
     0
 62
     7
176
     0
 62
   257
176
     0
 90
        1
176
     0
 90
        1
176
     0
 40
1.0
176
     0
 90
        8
176
     2
 62
     7
176
     0
 40
1.0
176
     0
 90
        1
176
     0
 90
        6
176
     0
 90
        2
176
     0
 62
     7
176
     0
 90
        5
176
     0
 90
        0
176
     0
 90
        0
176
     0
290
     0
176
     0
 90
        1
176
     0
 40
0.0
176
     0
 90
        0
176
     0
290
     0
176
     0
290
     1
176
     0
290
     1
176
     0
290
     0
176
     0
290
     0
176
     0
290
     0
176
     0
290
     0
176
     0
290
     0
176
     0
290
     0
176
     0
 90
       50
176
     0
 40
0.0
176
     0
 40
1.0
176
     0
 90
        0
176
     0
 62
    18
420
        0
176
     0
 90
       50
176
     0
 90
        3
176
     0
 62
     5
420
      255
176
     0
290
     0
176
     0
 90
       50
176
     0
 90
       50
176
     0
 90
       50
176
     0
290
     0
176
     0
 90
       50
176
     0
 62
   256
176
     0
 40
1.0
176
     0
 90
        2
176
     0
  1
strokes_ogs.tif
176
     0
290
     0
176
     0
 40
1.0
176
     0
 40
1.0
176
     0
  0
VISUALSTYLE
  5
91
102
{ACAD_REACTORS
330
82
102
}
330
82
100
AcDbVisualStyle
  2
Facepattern
 70
    15
177
     3
291
     1
 70
    58
 90
        2
176
     1
 90
        2
176
     1
 90
        1
176
     1
 90
        0
176
     1
 40
0.6
176
     1
 40
30.0
176
     1
 62
     7
420
 16777215
176
     1
 90
        1
176
     1
 90
        4
176
     1
 62
     7
176
     1
 62
   257
176
     1
 90
        1
176
     1
 90
        1
176
     1
 40
1.0
176
     1
 90
        8
176
     1
 62
     7
176
     1
 40
1.0
176
     1
 90
        1
176
     1
 90
        6
176
     1
 90
        2
176
     1
 62
     7
176
     1
 90
        5
176
     1
 90
        0
176
     1
 90
        0
176
     1
290
     0
176
     1
 90
        1
176
     1
 40
0.0
176
     1
 90
        0
176
     1
290
     0
176
     1
290
     1
176
     1
290
     1
176
     1
290
     0
176
     1
290
     0
176
     1
290
     0
176
     1
290
     0
176
     1
290
     0
176
     1
290
     0
176
     1
 90
       50
176
     1
 40
0.0
176
     1
 40
1.0
176
     1
 90
        0
176
     1
 62
    18
420
        0
176
     1
 90
       50
176
     1
 90
        3
176
     1
 62
     5
420
      255
176
     1
290
     0
176
     1
 90
       50
176
     1
 90
       50
176
     1
 90
       50
176
     1
290
     0
176
     1
 90
       50
176
     1
 62
   256
176
     0
 40
1.0
176
     0
 90
        2
176
     1
  1
strokes_ogs.tif
176
     1
290
     0
176
     1
 40
1.0
176
     1
 40
1.0
176
     1
  0
VISUALSTYLE
  5
83
102
{ACAD_REACTORS
330
82
102
}
330
82
100
AcDbVisualStyle
  2
Flat
 70
     0
177
     3
291
     1
 70
    58
 90
        2
176
     1
 90
        1
176
     1
 90
        1
176
     1
 90
        2
176
     1
 40
0.6
176
     1
 40
30.0
176
     1
 62
     7
420
 16777215
176
     1
 90
        0
176
     1
 90
        4
176
     1
 62
     7
176
     1
 62
   257
176
     1
 90
        1
176
     1
 90
        1
176
     1
 40
1.0
176
     1
 90
        8
176
     1
 62
     7
176
     1
 40
1.0
176
     1
 90
        1
176
     1
 90
        6
176
     1
 90
        2
176
     1
 62
     7
176
     1
 90
        5
176
     1
 90
        0
176
     1
 90
        0
176
     1
290
     0
176
     1
 90
        1
176
     1
 40
0.0
176
     1
 90
        0
176
     1
290
     0
176
     1
290
     1
176
     1
290
     1
176
     1
290
     0
176
     1
290
     0
176
     1
290
     0
176
     1
290
     0
176
     1
290
     0
176
     1
290
     0
176
     1
 90
       50
176
     1
 40
0.0
176
     1
 40
1.0
176
     1
 90
        0
176
     1
 62
    18
420
        0
176
     1
 90
       50
176
     1
 90
        3
176
     1
 62
     5
420
      255
176
     1
290
     0
176
     1
 90
       50
176
     1
 90
       50
176
     1
 90
       50
176
     1
290
     0
176
     1
 90
       50
176
     1
 62
   256
176
     0
 40
1.0
176
     0
 90
        2
176
     1
  1
strokes_ogs.tif
176
     1
290
     0
176
     1
 40
1.0
176
     1
 40
1.0
176
     1
  0
VISUALSTYLE
  5
84
102
{ACAD_REACTORS
330
82
102
}
330
82
100
AcDbVisualStyle
  2
FlatWithEdges
 70
     1
177
     3
291
     1
 70
    58
 90
        2
176
     1
 90
        1
176
     1
 90
        1
176
     1
 90
        2
176
     1
 40
0.6
176
     1
 40
30.0
176
     1
 62
     7
420
 16777215
176
     1
 90
        1
176
     1
 90
        4
176
     1
 62
     7
176
     1
 62
   257
176
     1
 90
        1
176
     1
 90
        1
176
     1
 40
1.0
176
     1
 90
        0
176
     1
 62
   257
176
     1
 40
1.0
176
     1
 90
        1
176
     1
 90
        6
176
     1
 90
        2
176
     1
 62
     7
176
     1
 90
        5
176
     1
 90
        0
176
     1
 90
        0
176
     1
290
     0
176
     1
 90
        1
176
     1
 40
0.0
176
     1
 90
        0
176
     1
290
     0
176
     1
290
     1
176
     1
290
     1
176
     1
290
     0
176
     1
290
     0
176
     1
290
     0
176
     1
290
     0
176
     1
290
     0
176
     1
290
     0
176
     1
 90
       50
176
     1
 40
0.0
176
     1
 40
1.0
176
     1
 90
        0
176
     1
 62
    18
420
        0
176
     1
 90
       50
176
     1
 90
        3
176
     1
 62
     5
420
      255
176
     1
290
     0
176
     1
 90
       50
176
     1
 90
       50
176
     1
 90
       50
176
     1
290
     0
176
     1
 90
       50
176
     1
 62
   256
176
     0
 40
1.0
176
     0
 90
        2
176
     1
  1
strokes_ogs.tif
176
     1
290
     0
176
     1
 40
1.0
176
     1
 40
1.0
176
     1
  0
VISUALSTYLE
  5
85
102
{ACAD_REACTORS
330
82
102
}
330
82
100
AcDbVisualStyle
  2
Gouraud
 70
     2
177
     3
291
     1
 70
    58
 90
        2
176
     1
 90
        2
176
     1
 90
        1
176
     1
 90
        2
176
     1
 40
0.6
176
     1
 40
30.0
176
     1
 62
     7
420
 16777215
176
     1
 90
        0
176
     1
 90
        4
176
     1
 62
     7
176
     1
 62
   257
176
     1
 90
        1
176
     1
 90
        1
176
     1
 40
1.0
176
     1
 90
        0
176
     1
 62
     7
176
     1
 40
1.0
176
     1
 90
        1
176
     1
 90
        6
176
     1
 90
        2
176
     1
 62
     7
176
     1
 90
        5
176
     1
 90
        0
176
     1
 90
        0
176
     1
290
     0
176
     1
 90
        1
176
     1
 40
0.0
176
     1
 90
        0
176
     1
290
     0
176
     1
290
     1
176
     1
290
     1
176
     1
290
     0
176
     1
290
     0
176
     1
290
     0
176
     1
290
     0
176
     1
290
     0
176
     1
290
     0
176
     1
 90
       50
176
     1
 40
0.0
176
     1
 40
1.0
176
     1
 90
        0
176
     1
 62
    18
420
        0
176
     1
 90
       50
176
     1
 90
        3
176
     1
 62
     5
420
      255
176
     1
290
     0
176
     1
 90
       50
176
     1
 90
       50
176
     1
 90
       50
176
     1
290
     0
176
     1
 90
       50
176
     1
 62
   256
176
     0
 40
1.0
176
     0
 90
        2
176
     1
  1
strokes_ogs.tif
176
     1
290
     0
176
     1
 40
1.0
176
     1
 40
1.0
176
     1
  0
VISUALSTYLE
  5
86
102
{ACAD_REACTORS
330
82
102
}
330
82
100
AcDbVisualStyle
  2
GouraudWithEdges
 70
     3
177
     3
291
     1
 70
    58
 90
        2
176
     1
 90
        2
176
     1
 90
        1
176
     1
 90
        2
176
     1
 40
0.6
176
     1
 40
30.0
176
     1
 62
     7
420
 16777215
176
     1
 90
        1
176
     1
 90
        4
176
     1
 62
     7
176
     1
 62
   257
176
     1
 90
        1
176
     1
 90
        1
176
     1
 40
1.0
176
     1
 90
        0
176
     1
 62
   257
176
     1
 40
1.0
176
     1
 90
        1
176
     1
 90
        6
176
     1
 90
        2
176
     1
 62
     7
176
     1
 90
        5
176
     1
 90
        0
176
     1
 90
        0
176
     1
290
     0
176
     1
 90
        1
176
     1
 40
0.0
176
     1
 90
        0
176
     1
290
     0
176
     1
290
     1
176
     1
290
     1
176
     1
290
     0
176
     1
290
     0
176
     1
290
     0
176
     1
290
     0
176
     1
290
     0
176
     1
290
     0
176
     1
 90
       50
176
     1
 40
0.0
176
     1
 40
1.0
176
     1
 90
        0
176
     1
 62
    18
420
        0
176
     1
 90
       50
176
     1
 90
        3
176
     1
 62
     5
420
      255
176
     1
290
     0
176
     1
 90
       50
176
     1
 90
       50
176
     1
 90
       50
176
     1
290
     0
176
     1
 90
       50
176
     1
 62
   256
176
     0
 40
1.0
176
     0
 90
        2
176
     1
  1
strokes_ogs.tif
176
     1
290
     0
176
     1
 40
1.0
176
     1
 40
1.0
176
     1
  0
VISUALSTYLE
  5
A6
102
{ACAD_REACTORS
330
82
102
}
330
82
100
AcDbVisualStyle
  2
Hidden
 70
     6
177
     3
291
     0
 70
    58
 90
        1
176
     1
 90
        2
176
     1
 90
        2
176
     1
 90
        0
176
     1
 40
0.6
176
     1
 40
30.0
176
     1
 62
     7
420
 16777215
176
     1
 90
        2
176
     1
 90
        2
176
     1
 62
     7
176
     1
 62
   257
176
     1
 90
        2
176
     1
 90
        1
176
     1
 40
40.0
176
     1
 90
        0
176
     1
 62
   257
176
     1
 40
1.0
176
     1
 90
        1
176
     1
 90
        6
176
     1
 90
        2
176
     1
 62
     7
176
     1
 90
        3
176
     1
 90
        0
176
     1
 90
        0
176
     1
290
     0
176
     1
 90
        1
176
     1
 40
0.0
176
     1
 90
        0
176
     1
290
     0
176
     1
290
     1
176
     1
290
     1
176
     1
290
     0
176
     1
290
     0
176
     1
290
     0
176
     1
290
     0
176
     1
290
     0
176
     1
290
     0
176
     1
 90
       50
176
     1
 40
0.0
176
     1
 40
1.0
176
     1
 90
        0
176
     1
 62
    18
420
        0
176
     1
 90
       50
176
     1
 90
        3
176
     1
 62
     5
420
      255
176
     1
290
     0
176
     1
 90
       50
176
     1
 90
       50
176
     1
 90
       50
176
     1
290
     0
176
     1
 90
       50
176
     1
 62
   256
176
     0
 40
1.0
176
     0
 90
        2
176
     1
  1
strokes_ogs.tif
176
     1
290
     0
176
     1
 40
1.0
176
     1
 40
1.0
176
     1
  0
VISUALSTYLE
  5
AC
102
{ACAD_REACTORS
330
82
102
}
330
82
100
AcDbVisualStyle
  2
JitterOff
 70
    20
177
     3
291
     1
 70
    58
 90
        2
176
     0
 90
        2
176
     0
 90
        0
176
     0
 90
        0
176
     0
 40
0.6
176
     0
 40
30.0
176
     0
 62
     7
420
 16777215
176
     0
 90
        1
176
     0
 90
        4
176
     0
 62
     7
176
     0
 62
   257
176
     0
 90
        1
176
     0
 90
        1
176
     0
 40
1.0
176
     0
 90
       10
176
     2
 62
     7
176
     0
 40
1.0
176
     0
 90
        1
176
     0
 90
        6
176
     0
 90
        2
176
     0
 62
     7
176
     0
 90
        5
176
     0
 90
        0
176
     0
 90
        0
176
     0
290
     0
176
     0
 90
        1
176
     0
 40
0.0
176
     0
 90
        0
176
     0
290
     0
176
     0
290
     1
176
     0
290
     1
176
     0
290
     0
176
     0
290
     0
176
     0
290
     0
176
     0
290
     0
176
     0
290
     0
176
     0
290
     0
176
     0
 90
       50
176
     0
 40
0.0
176
     0
 40
1.0
176
     0
 90
        0
176
     0
 62
    18
420
        0
176
     0
 90
       50
176
     0
 90
        3
176
     0
 62
     5
420
      255
176
     0
290
     0
176
     0
 90
       50
176
     0
 90
       50
176
     0
 90
       50
176
     0
290
     0
176
     0
 90
       50
176
     0
 62
   256
176
     0
 40
1.0
176
     0
 90
        2
176
     0
  1
strokes_ogs.tif
176
     0
290
     0
176
     0
 40
1.0
176
     0
 40
1.0
176
     0
  0
VISUALSTYLE
  5
90
102
{ACAD_REACTORS
330
82
102
}
330
82
100
AcDbVisualStyle
  2
Linepattern
 70
    14
177
     3
291
     1
 70
    58
 90
        2
176
     1
 90
        2
176
     1
 90
        1
176
     1
 90
        0
176
     1
 40
0.6
176
     1
 40
30.0
176
     1
 62
     7
420
 16777215
176
     1
 90
        1
176
     1
 90
        4
176
     1
 62
     7
176
     1
 62
   257
176
     1
 90
        7
176
     1
 90
        7
176
     1
 40
1.0
176
     1
 90
        8
176
     1
 62
     7
176
     1
 40
1.0
176
     1
 90
        1
176
     1
 90
        6
176
     1
 90
        2
176
     1
 62
     7
176
     1
 90
        5
176
     1
 90
        0
176
     1
 90
        0
176
     1
290
     0
176
     1
 90
        1
176
     1
 40
0.0
176
     1
 90
        0
176
     1
290
     0
176
     1
290
     1
176
     1
290
     1
176
     1
290
     0
176
     1
290
     0
176
     1
290
     0
176
     1
290
     0
176
     1
290
     0
176
     1
290
     0
176
     1
 90
       50
176
     1
 40
0.0
176
     1
 40
1.0
176
     1
 90
        0
176
     1
 62
    18
420
        0
176
     1
 90
       50
176
     1
 90
        3
176
     1
 62
     5
420
      255
176
     1
290
     0
176
     1
 90
       50
176
     1
 90
       50
176
     1
 90
       50
176
     1
290
     0
176
     1
 90
       50
176
     1
 62
   256
176
     0
 40
1.0
176
     0
 90
        2
176
     1
  1
strokes_ogs.tif
176
     1
290
     0
176
     1
 40
1.0
176
     1
 40
1.0
176
     1
  0
VISUALSTYLE
  5
AD
102
{ACAD_REACTORS
330
82
102
}
330
82
100
AcDbVisualStyle
  2
OverhangOff
 70
    21
177
     3
291
     1
 70
    58
 90
        2
176
     0
 90
        2
176
     0
 90
        0
176
     0
 90
        0
176
     0
 40
0.6
176
     0
 40
30.0
176
     0
 62
     7
420
 16777215
176
     0
 90
        1
176
     0
 90
        4
176
     0
 62
     7
176
     0
 62
   257
176
     0
 90
        1
176
     0
 90
        1
176
     0
 40
1.0
176
     0
 90
        9
176
     2
 62
     7
176
     0
 40
1.0
176
     0
 90
        1
176
     0
 90
        6
176
     0
 90
        2
176
     0
 62
     7
176
     0
 90
        5
176
     0
 90
        0
176
     0
 90
        0
176
     0
290
     0
176
     0
 90
        1
176
     0
 40
0.0
176
     0
 90
        0
176
     0
290
     0
176
     0
290
     1
176
     0
290
     1
176
     0
290
     0
176
     0
290
     0
176
     0
290
     0
176
     0
290
     0
176
     0
290
     0
176
     0
290
     0
176
     0
 90
       50
176
     0
 40
0.0
176
     0
 40
1.0
176
     0
 90
        0
176
     0
 62
    18
420
        0
176
     0
 90
       50
176
     0
 90
        3
176
     0
 62
     5
420
      255
176
     0
290
     0
176
     0
 90
       50
176
     0
 90
       50
176
     0
 90
       50
176
     0
290
     0
176
     0
 90
       50
176
     0
 62
   256
176
     0
 40
1.0
176
     0
 90
        2
176
     0
  1
strokes_ogs.tif
176
     0
290
     0
176
     0
 40
1.0
176
     0
 40
1.0
176
     0
  0
VISUALSTYLE
  5
8C
102
{ACAD_REACTORS
330
82
102
}
330
82
100
AcDbVisualStyle
  2
Realistic
 70
     8
177
     3
291
     0
 70
    58
 90
        2
176
     1
 90
        2
176
     1
 90
        1
176
     1
 90
        0
176
     1
 40
0.6
176
     1
 40
30.0
176
     1
 62
     7
420
 16777215
176
     1
 90
        1
176
     1
 90
        0
176
     1
 62
     7
176
     1
 62
   257
176
     1
 90
        1
176
     1
 90
        1
176
     1
 40
1.0
176
     1
 90
        8
176
     1
 62
     7
176
     1
 40
1.0
176
     1
 90
        1
176
     1
 90
        6
176
     1
 90
        2
176
     1
 62
     7
176
     1
 90
        5
176
     1
 90
        0
176
     1
 90
        0
176
     1
290
     0
176
     1
 90
       13
176
     1
 40
0.0
176
     1
 90
        0
176
     1
290
     0
176
     1
290
     1
176
     1
290
     1
176
     1
290
     0
176
     1
290
     0
176
     1
290
     0
176
     1
290
     0
176
     1
290
     0
176
     1
290
     0
176
     1
 90
       50
176
     1
 40
0.0
176
     1
 40
1.0
176
     1
 90
        0
176
     1
 62
    18
420
        0
176
     1
 90
       50
176
     1
 90
        3
176
     1
 62
     5
420
      255
176
     1
290
     0
176
     1
 90
       50
176
     1
 90
       50
176
     1
 90
       50
176
     1
290
     0
176
     1
 90
       50
176
     1
 62
   256
176
     0
 40
1.0
176
     0
 90
        2
176
     1
  1
strokes_ogs.tif
176
     1
290
     0
176
     1
 40
1.0
176
     1
 40
1.0
176
     1
  0
VISUALSTYLE
  5
AB
102
{ACAD_REACTORS
330
82
102
}
330
82
100
AcDbVisualStyle
  2
Shaded
 70
    27
177
     3
291
     0
 70
    58
 90
        2
176
     1
 90
        2
176
     1
 90
        1
176
     1
 90
        2
176
     1
 40
0.6
176
     1
 40
30.0
176
     1
 62
     7
420
 16777215
176
     1
 90
        0
176
     1
 90
        4
176
     1
 62
     7
176
     1
 62
   257
176
     1
 90
        1
176
     1
 90
        1
176
     1
 40
1.0
176
     1
 90
        8
176
     1
 62
   257
176
     1
 40
1.0
176
     1
 90
        1
176
     1
 90
        6
176
     1
 90
        2
176
     1
 62
     8
420
  7895160
176
     1
 90
        3
176
     1
 90
        0
176
     1
 90
        0
176
     1
290
     0
176
     1
 90
        5
176
     1
 40
0.0
176
     1
 90
        0
176
     1
290
     0
176
     1
290
     1
176
     1
290
     1
176
     1
290
     0
176
     1
290
     0
176
     1
290
     0
176
     1
290
     0
176
     1
290
     0
176
     1
290
     0
176
     1
 90
       50
176
     1
 40
0.0
176
     1
 40
1.0
176
     1
 90
        0
176
     1
 62
    18
420
        0
176
     1
 90
       50
176
     1
 90
        3
176
     1
 62
     5
420
      255
176
     1
290
     0
176
     1
 90
       50
176
     1
 90
       50
176
     1
 90
       50
176
     1
290
     0
176
     1
 90
       50
176
     1
 62
   256
176
     0
 40
1.0
176
     0
 90
        2
176
     1
  1
strokes_ogs.tif
176
     1
290
     0
176
     1
 40
1.0
176
     1
 40
1.0
176
     1
  0
VISUALSTYLE
  5
AA
102
{ACAD_REACTORS
330
82
102
}
330
82
100
AcDbVisualStyle
  2
Shaded with edges
 70
    26
177
     3
291
     0
 70
    58
 90
        2
176
     1
 90
        2
176
     1
 90
        1
176
     1
 90
        2
176
     1
 40
0.6
176
     1
 40
30.0
176
     1
 62
     7
420
 16777215
176
     1
 90
        1
176
     1
 90
        2
176
     1
 62
     7
176
     1
 62
   257
176
     1
 90
        2
176
     1
 90
        1
176
     1
 40
1.0
176
     1
 90
        8
176
     1
 62
   257
176
     1
 40
1.0
176
     1
 90
        1
176
     1
 90
        6
176
     1
 90
        2
176
     1
 62
     7
176
     1
 90
        3
176
     1
 90
        0
176
     1
 90
        0
176
     1
290
     0
176
     1
 90
        5
176
     1
 40
0.0
176
     1
 90
        0
176
     1
290
     0
176
     1
290
     1
176
     1
290
     1
176
     1
290
     0
176
     1
290
     0
176
     1
290
     0
176
     1
290
     0
176
     1
290
     0
176
     1
290
     0
176
     1
 90
       50
176
     1
 40
0.0
176
     1
 40
1.0
176
     1
 90
        0
176
     1
 62
    18
420
        0
176
     1
 90
       50
176
     1
 90
        3
176
     1
 62
     5
420
      255
176
     1
290
     0
176
     1
 90
       50
176
     1
 90
       50
176
     1
 90
       50
176
     1
290
     0
176
     1
 90
       50
176
     1
 62
   256
176
     0
 40
1.0
176
     0
 90
        2
176
     1
  1
strokes_ogs.tif
176
     1
290
     0
176
     1
 40
1.0
176
     1
 40
1.0
176
     1
  0
VISUALSTYLE
  5
A7
102
{ACAD_REACTORS
330
82
102
}
330
82
100
AcDbVisualStyle
  2
Shades of Gray
 70
    23
177
     3
291
     0
 70
    58
 90
        2
176
     1
 90
        2
176
     1
 90
        3
176
     1
 90
        0
176
     1
 40
0.6
176
     1
 40
30.0
176
     1
 62
     7
420
 16777215
176
     1
 90
        2
176
     1
 90
        2
176
     1
 62
     7
176
     1
 62
     7
176
     1
 90
        1
176
     1
 90
        1
176
     1
 40
40.0
176
     1
 90
        8
176
     1
 62
     7
176
     1
 40
1.0
176
     1
 90
        1
176
     1
 90
        6
176
     1
 90
        2
176
     1
 62
     7
176
     1
 90
        3
176
     1
 90
        0
176
     1
 90
        0
176
     1
290
     0
176
     1
 90
        1
176
     1
 40
0.0
176
     1
 90
        0
176
     1
290
     0
176
     1
290
     1
176
     1
290
     1
176
     1
290
     0
176
     1
290
     0
176
     1
290
     0
176
     1
290
     0
176
     1
290
     0
176
     1
290
     0
176
     1
 90
       50
176
     1
 40
0.0
176
     1
 40
1.0
176
     1
 90
        0
176
     1
 62
    18
420
        0
176
     1
 90
       50
176
     1
 90
        3
176
     1
 62
     5
420
      255
176
     1
290
     0
176
     1
 90
       50
176
     1
 90
       50
176
     1
 90
       50
176
     1
290
     0
176
     1
 90
       50
176
     1
 62
   256
176
     0
 40
1.0
176
     0
 90
        2
176
     1
  1
strokes_ogs.tif
176
     1
290
     0
176
     1
 40
1.0
176
     1
 40
1.0
176
     1
  0
VISUALSTYLE
  5
A8
102
{ACAD_REACTORS
330
82
102
}
330
82
100
AcDbVisualStyle
  2
Sketchy
 70
    24
177
     3
291
     0
 70
    58
 90
        1
176
     1
 90
        2
176
     1
 90
        2
176
     1
 90
        0
176
     1
 40
0.6
176
     1
 40
30.0
176
     1
 62
     7
420
 16777215
176
     1
 90
        2
176
     1
 90
        2
176
     1
 62
     7
176
     1
 62
     7
176
     1
 90
        1
176
     1
 90
        1
176
     1
 40
40.0
176
     1
 90
       11
176
     1
 62
     7
176
     1
 40
1.0
176
     1
 90
        1
176
     1
 90
        6
176
     1
 90
        2
176
     1
 62
     7
176
     1
 90
        6
176
     1
 90
        0
176
     1
 90
        0
176
     1
290
     0
176
     1
 90
        1
176
     1
 40
0.0
176
     1
 90
        0
176
     1
290
     0
176
     1
290
     1
176
     1
290
     1
176
     1
290
     0
176
     1
290
     0
176
     1
290
     0
176
     1
290
     0
176
     1
290
     0
176
     1
290
     0
176
     1
 90
       50
176
     1
 40
0.0
176
     1
 40
1.0
176
     1
 90
        0
176
     1
 62
    18
420
        0
176
     1
 90
       50
176
     1
 90
        3
176
     1
 62
     5
420
      255
176
     1
290
     0
176
     1
 90
       50
176
     1
 90
       50
176
     1
 90
       50
176
     1
290
     0
176
     1
 90
       50
176
     1
 62
   256
176
     0
 40
1.0
176
     0
 90
        2
176
     1
  1
strokes_ogs.tif
176
     1
290
     0
176
     1
 40
1.0
176
     1
 40
1.0
176
     1
  0
VISUALSTYLE
  5
8F
102
{ACAD_REACTORS
330
82
102
}
330
82
100
AcDbVisualStyle
  2
Thicken
 70
    13
177
     3
291
     1
 70
    58
 90
        2
176
     1
 90
        2
176
     1
 90
        1
176
     1
 90
        0
176
     1
 40
0.6
176
     1
 40
30.0
176
     1
 62
     7
420
 16777215
176
     1
 90
        1
176
     1
 90
        4
176
     1
 62
     7
176
     1
 62
   257
176
     1
 90
        1
176
     1
 90
        1
176
     1
 40
1.0
176
     1
 90
       12
176
     1
 62
     7
176
     1
 40
1.0
176
     1
 90
        1
176
     1
 90
        6
176
     1
 90
        2
176
     1
 62
     7
176
     1
 90
        5
176
     1
 90
        0
176
     1
 90
        0
176
     1
290
     0
176
     1
 90
        1
176
     1
 40
0.0
176
     1
 90
        0
176
     1
290
     0
176
     1
290
     1
176
     1
290
     1
176
     1
290
     0
176
     1
290
     0
176
     1
290
     0
176
     1
290
     0
176
     1
290
     0
176
     1
290
     0
176
     1
 90
       50
176
     1
 40
0.0
176
     1
 40
1.0
176
     1
 90
        0
176
     1
 62
    18
420
        0
176
     1
 90
       50
176
     1
 90
        3
176
     1
 62
     5
420
      255
176
     1
290
     0
176
     1
 90
       50
176
     1
 90
       50
176
     1
 90
       50
176
     1
290
     0
176
     1
 90
       50
176
     1
 62
   256
176
     0
 40
1.0
176
     0
 90
        2
176
     1
  1
strokes_ogs.tif
176
     1
290
     0
176
     1
 40
1.0
176
     1
 40
1.0
176
     1
  0
VISUALSTYLE
  5
A5
102
{ACAD_REACTORS
330
82
102
}
330
82
100
AcDbVisualStyle
  2
Wireframe
 70
     5
177
     3
291
     0
 70
    58
 90
        0
176
     1
 90
        2
176
     1
 90
        0
176
     1
 90
        0
176
     1
 40
0.6
176
     1
 40
30.0
176
     1
 62
     7
420
 16777215
176
     1
 90
        1
176
     1
 90
        4
176
     1
 62
     7
176
     1
 62
   257
176
     1
 90
        1
176
     1
 90
        1
176
     1
 40
1.0
176
     1
 90
        0
176
     1
 62
   257
176
     1
 40
1.0
176
     1
 90
        1
176
     1
 90
        6
176
     1
 90
        2
176
     1
 62
     7
176
     1
 90
        3
176
     1
 90
        0
176
     1
 90
        0
176
     1
290
     0
176
     1
 90
        1
176
     1
 40
0.0
176
     1
 90
        0
176
     1
290
     0
176
     1
290
     1
176
     1
290
     1
176
     1
290
     0
176
     1
290
     0
176
     1
290
     0
176
     1
290
     0
176
     1
290
     0
176
     1
290
     0
176
     1
 90
       50
176
     1
 40
0.0
176
     1
 40
1.0
176
     1
 90
        0
176
     1
 62
    18
420
        0
176
     1
 90
       50
176
     1
 90
        3
176
     1
 62
     5
420
      255
176
     1
290
     0
176
     1
 90
       50
176
     1
 90
       50
176
     1
 90
       50
176
     1
290
     0
176
     1
 90
       50
176
     1
 62
   256
176
     0
 40
1.0
176
     0
 90
        2
176
     1
  1
strokes_ogs.tif
176
     1
290
     0
176
     1
 40
1.0
176
     1
 40
1.0
176
     1
  0
VISUALSTYLE
  5
A9
102
{ACAD_REACTORS
330
82
102
}
330
82
100
AcDbVisualStyle
  2
X-Ray
 70
    25
177
     3
291
     0
 70
    58
 90
        2
176
     1
 90
        2
176
     1
 90
        1
176
     1
 90
        1
176
     1
 40
0.5
176
     1
 40
30.0
176
     1
 62
     7
420
 16777215
176
     1
 90
        1
176
     1
 90
        0
176
     1
 62
     7
176
     1
 62
   257
176
     1
 90
        1
176
     1
 90
        1
176
     1
 40
1.0
176
     1
 90
        8
176
     1
 62
     7
176
     1
 40
1.0
176
     1
 90
        1
176
     1
 90
        6
176
     1
 90
        2
176
     1
 62
     7
176
     1
 90
        3
176
     1
 90
        0
176
     1
 90
        0
176
     1
290
     0
176
     1
 90
       13
176
     1
 40
0.0
176
     1
 90
        0
176
     1
290
     0
176
     1
290
     1
176
     1
290
     1
176
     1
290
     0
176
     1
290
     0
176
     1
290
     0
176
     1
290
     0
176
     1
290
     0
176
     1
290
     0
176
     1
 90
       50
176
     1
 40
0.0
176
     1
 40
1.0
176
     1
 90
        0
176
     1
 62
    18
420
        0
176
     1
 90
       50
176
     1
 90
        3
176
     1
 62
     5
420
      255
176
     1
290
     0
176
     1
 90
       50
176
     1
 90
       50
176
     1
 90
       50
176
     1
290
     0
176
     1
 90
       50
176
     1
 62
   256
176
     0
 40
1.0
176
     0
 90
        2
176
     1
  1
strokes_ogs.tif
176
     1
290
     0
176
     1
 40
1.0
176
     1
 40
1.0
176
     1
  0
DICTIONARYVAR
  5
4A5
102
{ACAD_REACTORS
330
9B
102
}
330
9B
100
DictionaryVariables
280
     0
  1
1:1
  0
DICTIONARYVAR
  5
4A1
102
{ACAD_REACTORS
330
9B
102
}
330
9B
100
DictionaryVariables
280
     0
  1
STANDARD
  0
DICTIONARYVAR
  5
9C
102
{ACAD_REACTORS
330
9B
102
}
330
9B
100
DictionaryVariables
280
     0
  1
STANDARD
  0
DICTIONARYVAR
  5
4A2
102
{ACAD_REACTORS
330
9B
102
}
330
9B
100
DictionaryVariables
280
     0
  1
Imperial24
  0
DICTIONARYVAR
  5
4A3
102
{ACAD_REACTORS
330
9B
102
}
330
9B
100
DictionaryVariables
280
     0
  1
Imperial24
  0
DICTIONARYVAR
  5
4A7
102
{ACAD_REACTORS
330
9B
102
}
330
9B
100
DictionaryVariables
280
     0
  1
1
  0
DICTIONARYVAR
  5
4A8
102
{ACAD_REACTORS
330
9B
102
}
330
9B
100
DictionaryVariables
280
     0
  1
15
  0
DICTIONARYVAR
  5
4A6
102
{ACAD_REACTORS
330
9B
102
}
330
9B
100
DictionaryVariables
280
     0
  1
0
  0
DICTIONARYVAR
  5
4A4
102
{ACAD_REACTORS
330
9B
102
}
330
9B
100
DictionaryVariables
280
     0
  1
0
  0
DICTIONARY
  5
4AD
330
C6
100
AcDbDictionary
280
     1
281
     1
  3
ACAD_XREC_ROUNDTRIP
360
4AE
  0
DICTIONARY
  5
4AB
330
C4
100
AcDbDictionary
280
     1
281
     1
  3
ACAD_XREC_ROUNDTRIP
360
4AC
  0
DICTIONARY
  5
4A9
330
94
100
AcDbDictionary
280
     1
281
     1
  3
ACAD_ROUNDTRIP_2008_TABLESTYLE_CELLSTYLEMAP
360
4AA
  0
XRECORD
  5
4AE
102
{ACAD_REACTORS
330
4AD
102
}
330
4AD
100
AcDbXrecord
280
     1
102
DISPLAYNAME
  1
Imperial24
102
FLAGS
 90
        0
  0
XRECORD
  5
4AC
102
{ACAD_REACTORS
330
4AB
102
}
330
4AB
100
AcDbXrecord
280
     1
102
DISPLAYNAME
  1
Imperial24
102
FLAGS
 90
        0
  0
CELLSTYLEMAP
  5
4AA
102
{ACAD_REACTORS
330
4A9
102
}
330
4A9
100
AcDbCellStyleMap
 90
        3
300
CELLSTYLE
  1
TABLEFORMAT_BEGIN
 90
        5
170
     1
 91
        0
 92
    32768
 62
   257
 93
        1
300
CONTENTFORMAT
  1
CONTENTFORMAT_BEGIN
 90
        0
 91
        0
 92
      512
 93
        0
300

 40
0.0
140
1.0
 94
        5
 62
     0
340
12
144
0.25
309
CONTENTFORMAT_END
171
     0
 94
        6
 95
        1
302
GRIDFORMAT
  1
GRIDFORMAT_BEGIN
 90
        0
 91
        1
 62
     0
 92
       -2
340
0
 93
        0
 40
0.045
309
GRIDFORMAT_END
 95
        2
302
GRIDFORMAT
  1
GRIDFORMAT_BEGIN
 90
        0
 91
        1
 62
     0
 92
       -2
340
0
 93
        0
 40
0.045
309
GRIDFORMAT_END
 95
        4
302
GRIDFORMAT
  1
GRIDFORMAT_BEGIN
 90
        0
 91
        1
 62
     0
 92
       -2
340
0
 93
        0
 40
0.045
309
GRIDFORMAT_END
 95
        8
302
GRIDFORMAT
  1
GRIDFORMAT_BEGIN
 90
        0
 91
        1
 62
     0
 92
       -2
340
0
 93
        0
 40
0.045
309
GRIDFORMAT_END
 95
       16
302
GRIDFORMAT
  1
GRIDFORMAT_BEGIN
 90
        0
 91
        1
 62
     0
 92
       -2
340
0
 93
        0
 40
0.045
309
GRIDFORMAT_END
 95
       32
302
GRIDFORMAT
  1
GRIDFORMAT_BEGIN
 90
        0
 91
        1
 62
     0
 92
       -2
340
0
 93
        0
 40
0.045
309
GRIDFORMAT_END
309
TABLEFORMAT_END
  1
CELLSTYLE_BEGIN
 90
        1
 91
        1
300
_TITLE
309
CELLSTYLE_END
300
CELLSTYLE
  1
TABLEFORMAT_BEGIN
 90
        5
170
     1
 91
        0
 92
        0
 62
   257
 93
        1
300
CONTENTFORMAT
  1
CONTENTFORMAT_BEGIN
 90
        0
 91
        0
 92
      512
 93
        0
300

 40
0.0
140
1.0
 94
        5
 62
     0
340
12
144
0.18
309
CONTENTFORMAT_END
171
     0
 94
        6
 95
        1
302
GRIDFORMAT
  1
GRIDFORMAT_BEGIN
 90
        0
 91
        1
 62
     0
 92
       -2
340
0
 93
        0
 40
0.045
309
GRIDFORMAT_END
 95
        2
302
GRIDFORMAT
  1
GRIDFORMAT_BEGIN
 90
        0
 91
        1
 62
     0
 92
       -2
340
0
 93
        0
 40
0.045
309
GRIDFORMAT_END
 95
        4
302
GRIDFORMAT
  1
GRIDFORMAT_BEGIN
 90
        0
 91
        1
 62
     0
 92
       -2
340
0
 93
        0
 40
0.045
309
GRIDFORMAT_END
 95
        8
302
GRIDFORMAT
  1
GRIDFORMAT_BEGIN
 90
        0
 91
        1
 62
     0
 92
       -2
340
0
 93
        0
 40
0.045
309
GRIDFORMAT_END
 95
       16
302
GRIDFORMAT
  1
GRIDFORMAT_BEGIN
 90
        0
 91
        1
 62
     0
 92
       -2
340
0
 93
        0
 40
0.045
309
GRIDFORMAT_END
 95
       32
302
GRIDFORMAT
  1
GRIDFORMAT_BEGIN
 90
        0
 91
        1
 62
     0
 92
       -2
340
0
 93
        0
 40
0.045
309
GRIDFORMAT_END
309
TABLEFORMAT_END
  1
CELLSTYLE_BEGIN
 90
        2
 91
        1
300
_HEADER
309
CELLSTYLE_END
300
CELLSTYLE
  1
TABLEFORMAT_BEGIN
 90
        5
170
     1
 91
        0
 92
        0
 62
   257
 93
        1
300
CONTENTFORMAT
  1
CONTENTFORMAT_BEGIN
 90
        0
 91
        0
 92
      512
 93
        0
300

 40
0.0
140
1.0
 94
        2
 62
     0
340
12
144
0.18
309
CONTENTFORMAT_END
171
     0
 94
        6
 95
        1
302
GRIDFORMAT
  1
GRIDFORMAT_BEGIN
 90
        0
 91
        1
 62
     0
 92
       -2
340
0
 93
        0
 40
0.045
309
GRIDFORMAT_END
 95
        2
302
GRIDFORMAT
  1
GRIDFORMAT_BEGIN
 90
        0
 91
        1
 62
     0
 92
       -2
340
0
 93
        0
 40
0.045
309
GRIDFORMAT_END
 95
        4
302
GRIDFORMAT
  1
GRIDFORMAT_BEGIN
 90
        0
 91
        1
 62
     0
 92
       -2
340
0
 93
        0
 40
0.045
309
GRIDFORMAT_END
 95
        8
302
GRIDFORMAT
  1
GRIDFORMAT_BEGIN
 90
        0
 91
        1
 62
     0
 92
       -2
340
0
 93
        0
 40
0.045
309
GRIDFORMAT_END
 95
       16
302
GRIDFORMAT
  1
GRIDFORMAT_BEGIN
 90
        0
 91
        1
 62
     0
 92
       -2
340
0
 93
        0
 40
0.045
309
GRIDFORMAT_END
 95
       32
302
GRIDFORMAT
  1
GRIDFORMAT_BEGIN
 90
        0
 91
        1
 62
     0
 92
       -2
340
0
 93
        0
 40
0.045
309
GRIDFORMAT_END
309
TABLEFORMAT_END
  1
CELLSTYLE_BEGIN
 90
        3
 91
        2
300
_DATA
309
CELLSTYLE_END
  0
ENDSEC
  0
EOF
