ISO-10303-21;
HEADER;
FILE_DESCRIPTION((''),'2;1');
FILE_NAME('FRI604B1_ASM','2017-02-01T',('soral'),(''),
'PRO/ENGINEER BY PARAMETRIC TECHNOLOGY CORPORATION, 2013320',
'PRO/ENGINEER BY PARAMETRIC TECHNOLOGY CORPORATION, 2013320','');
FILE_SCHEMA(('CONFIG_CONTROL_DESIGN'));
ENDSEC;
DATA;
#2=DIRECTION('',(0.E0,-1.E0,0.E0));
#3=VECTOR('',#2,5.2E2);
#4=CARTESIAN_POINT('',(-2.95E2,2.6E2,0.E0));
#5=LINE('',#4,#3);
#6=DIRECTION('',(1.E0,0.E0,0.E0));
#7=VECTOR('',#6,5.9E2);
#8=CARTESIAN_POINT('',(-2.95E2,-2.6E2,0.E0));
#9=LINE('',#8,#7);
#10=DIRECTION('',(0.E0,1.E0,0.E0));
#11=VECTOR('',#10,5.2E2);
#12=CARTESIAN_POINT('',(2.95E2,-2.6E2,0.E0));
#13=LINE('',#12,#11);
#14=DIRECTION('',(-1.E0,0.E0,0.E0));
#15=VECTOR('',#14,5.9E2);
#16=CARTESIAN_POINT('',(2.95E2,2.6E2,0.E0));
#17=LINE('',#16,#15);
#18=DIRECTION('',(0.E0,-1.421085471520E-14,1.E0));
#19=VECTOR('',#18,4.E0);
#20=CARTESIAN_POINT('',(-2.95E2,2.6E2,0.E0));
#21=LINE('',#20,#19);
#22=DIRECTION('',(0.E0,0.E0,1.E0));
#23=VECTOR('',#22,4.E0);
#24=CARTESIAN_POINT('',(2.95E2,2.6E2,0.E0));
#25=LINE('',#24,#23);
#26=DIRECTION('',(0.E0,0.E0,1.E0));
#27=VECTOR('',#26,4.E0);
#28=CARTESIAN_POINT('',(2.95E2,-2.6E2,0.E0));
#29=LINE('',#28,#27);
#30=DIRECTION('',(0.E0,0.E0,1.E0));
#31=VECTOR('',#30,4.E0);
#32=CARTESIAN_POINT('',(-2.95E2,-2.6E2,0.E0));
#33=LINE('',#32,#31);
#34=DIRECTION('',(0.E0,-1.E0,0.E0));
#35=VECTOR('',#34,5.2E2);
#36=CARTESIAN_POINT('',(-2.95E2,2.6E2,4.E0));
#37=LINE('',#36,#35);
#38=DIRECTION('',(-1.E0,0.E0,0.E0));
#39=VECTOR('',#38,5.9E2);
#40=CARTESIAN_POINT('',(2.95E2,2.6E2,4.E0));
#41=LINE('',#40,#39);
#42=DIRECTION('',(0.E0,1.E0,0.E0));
#43=VECTOR('',#42,5.2E2);
#44=CARTESIAN_POINT('',(2.95E2,-2.6E2,4.E0));
#45=LINE('',#44,#43);
#46=DIRECTION('',(1.E0,0.E0,0.E0));
#47=VECTOR('',#46,5.9E2);
#48=CARTESIAN_POINT('',(-2.95E2,-2.6E2,4.E0));
#49=LINE('',#48,#47);
#50=CARTESIAN_POINT('',(-2.95E2,2.6E2,0.E0));
#51=CARTESIAN_POINT('',(-2.95E2,-2.6E2,0.E0));
#52=VERTEX_POINT('',#50);
#53=VERTEX_POINT('',#51);
#54=CARTESIAN_POINT('',(2.95E2,-2.6E2,0.E0));
#55=VERTEX_POINT('',#54);
#56=CARTESIAN_POINT('',(2.95E2,2.6E2,0.E0));
#57=VERTEX_POINT('',#56);
#58=CARTESIAN_POINT('',(-2.95E2,2.6E2,4.E0));
#59=CARTESIAN_POINT('',(-2.95E2,-2.6E2,4.E0));
#60=VERTEX_POINT('',#58);
#61=VERTEX_POINT('',#59);
#62=CARTESIAN_POINT('',(2.95E2,-2.6E2,4.E0));
#63=VERTEX_POINT('',#62);
#64=CARTESIAN_POINT('',(2.95E2,2.6E2,4.E0));
#65=VERTEX_POINT('',#64);
#66=CARTESIAN_POINT('',(0.E0,0.E0,0.E0));
#67=DIRECTION('',(0.E0,0.E0,1.E0));
#68=DIRECTION('',(1.E0,0.E0,0.E0));
#69=AXIS2_PLACEMENT_3D('',#66,#67,#68);
#70=PLANE('',#69);
#72=ORIENTED_EDGE('',*,*,#71,.T.);
#74=ORIENTED_EDGE('',*,*,#73,.T.);
#76=ORIENTED_EDGE('',*,*,#75,.T.);
#78=ORIENTED_EDGE('',*,*,#77,.T.);
#79=EDGE_LOOP('',(#72,#74,#76,#78));
#80=FACE_OUTER_BOUND('',#79,.F.);
#81=ADVANCED_FACE('',(#80),#70,.F.);
#82=CARTESIAN_POINT('',(-2.95E2,2.6E2,0.E0));
#83=DIRECTION('',(-1.E0,0.E0,0.E0));
#84=DIRECTION('',(0.E0,-1.E0,0.E0));
#85=AXIS2_PLACEMENT_3D('',#82,#83,#84);
#86=PLANE('',#85);
#87=ORIENTED_EDGE('',*,*,#71,.F.);
#89=ORIENTED_EDGE('',*,*,#88,.T.);
#91=ORIENTED_EDGE('',*,*,#90,.T.);
#93=ORIENTED_EDGE('',*,*,#92,.F.);
#94=EDGE_LOOP('',(#87,#89,#91,#93));
#95=FACE_OUTER_BOUND('',#94,.F.);
#96=ADVANCED_FACE('',(#95),#86,.T.);
#97=CARTESIAN_POINT('',(2.95E2,2.6E2,0.E0));
#98=DIRECTION('',(0.E0,1.E0,0.E0));
#99=DIRECTION('',(-1.E0,0.E0,0.E0));
#100=AXIS2_PLACEMENT_3D('',#97,#98,#99);
#101=PLANE('',#100);
#102=ORIENTED_EDGE('',*,*,#77,.F.);
#104=ORIENTED_EDGE('',*,*,#103,.T.);
#106=ORIENTED_EDGE('',*,*,#105,.T.);
#107=ORIENTED_EDGE('',*,*,#88,.F.);
#108=EDGE_LOOP('',(#102,#104,#106,#107));
#109=FACE_OUTER_BOUND('',#108,.F.);
#110=ADVANCED_FACE('',(#109),#101,.T.);
#111=CARTESIAN_POINT('',(2.95E2,-2.6E2,0.E0));
#112=DIRECTION('',(1.E0,0.E0,0.E0));
#113=DIRECTION('',(0.E0,1.E0,0.E0));
#114=AXIS2_PLACEMENT_3D('',#111,#112,#113);
#115=PLANE('',#114);
#116=ORIENTED_EDGE('',*,*,#75,.F.);
#118=ORIENTED_EDGE('',*,*,#117,.T.);
#120=ORIENTED_EDGE('',*,*,#119,.T.);
#121=ORIENTED_EDGE('',*,*,#103,.F.);
#122=EDGE_LOOP('',(#116,#118,#120,#121));
#123=FACE_OUTER_BOUND('',#122,.F.);
#124=ADVANCED_FACE('',(#123),#115,.T.);
#125=CARTESIAN_POINT('',(-2.95E2,-2.6E2,0.E0));
#126=DIRECTION('',(0.E0,-1.E0,0.E0));
#127=DIRECTION('',(1.E0,0.E0,0.E0));
#128=AXIS2_PLACEMENT_3D('',#125,#126,#127);
#129=PLANE('',#128);
#130=ORIENTED_EDGE('',*,*,#73,.F.);
#131=ORIENTED_EDGE('',*,*,#92,.T.);
#133=ORIENTED_EDGE('',*,*,#132,.T.);
#134=ORIENTED_EDGE('',*,*,#117,.F.);
#135=EDGE_LOOP('',(#130,#131,#133,#134));
#136=FACE_OUTER_BOUND('',#135,.F.);
#137=ADVANCED_FACE('',(#136),#129,.T.);
#138=CARTESIAN_POINT('',(0.E0,0.E0,4.E0));
#139=DIRECTION('',(0.E0,0.E0,1.E0));
#140=DIRECTION('',(1.E0,0.E0,0.E0));
#141=AXIS2_PLACEMENT_3D('',#138,#139,#140);
#142=PLANE('',#141);
#143=ORIENTED_EDGE('',*,*,#90,.F.);
#144=ORIENTED_EDGE('',*,*,#105,.F.);
#145=ORIENTED_EDGE('',*,*,#119,.F.);
#146=ORIENTED_EDGE('',*,*,#132,.F.);
#147=EDGE_LOOP('',(#143,#144,#145,#146));
#148=FACE_OUTER_BOUND('',#147,.F.);
#149=ADVANCED_FACE('',(#148),#142,.T.);
#150=CLOSED_SHELL('',(#81,#96,#110,#124,#137,#149));
#151=MANIFOLD_SOLID_BREP('',#150);
#153=DIMENSIONAL_EXPONENTS(0.E0,0.E0,0.E0,0.E0,0.E0,0.E0,0.E0);
#155=PLANE_ANGLE_MEASURE_WITH_UNIT(PLANE_ANGLE_MEASURE(1.745329251994E-2),#154);
#156=(CONVERSION_BASED_UNIT('DEGREE',#155)NAMED_UNIT(*)PLANE_ANGLE_UNIT());
#158=UNCERTAINTY_MEASURE_WITH_UNIT(LENGTH_MEASURE(1.E-2),#152,'closure',
'Maximum model space distance between geometric entities at asserted connectivities');
#159=(GEOMETRIC_REPRESENTATION_CONTEXT(3)GLOBAL_UNCERTAINTY_ASSIGNED_CONTEXT((
#158))GLOBAL_UNIT_ASSIGNED_CONTEXT((#152,#156,#157))REPRESENTATION_CONTEXT
('ID1','3'));
#160=CARTESIAN_POINT('',(0.E0,0.E0,0.E0));
#161=DIRECTION('',(0.E0,0.E0,1.E0));
#162=DIRECTION('',(1.E0,0.E0,0.E0));
#165=APPLICATION_CONTEXT(
'CONFIGURATION CONTROLLED 3D DESIGNS OF MECHANICAL PARTS AND ASSEMBLIES');
#166=APPLICATION_PROTOCOL_DEFINITION('international standard',
'config_control_design',1994,#165);
#167=DESIGN_CONTEXT('',#165,'design');
#168=MECHANICAL_CONTEXT('',#165,'mechanical');
#169=PRODUCT('22730','22730','NOT SPECIFIED',(#168));
#170=PRODUCT_DEFINITION_FORMATION_WITH_SPECIFIED_SOURCE('1','LAST_VERSION',#169,
.MADE.);
#179=CARTESIAN_POINT('',(1.847036255559E2,7.421784897025E1,1.E2));
#180=DIRECTION('',(0.E0,1.E0,0.E0));
#181=DIRECTION('',(0.E0,0.E0,-1.E0));
#182=AXIS2_PLACEMENT_3D('',#179,#180,#181);
#183=ITEM_DEFINED_TRANSFORMATION('','',#163,#182);
#184=(REPRESENTATION_RELATIONSHIP('','',#164,#176)REPRESENTATION_RELATIONSHIP_WITH_TRANSFORMATION(#183)SHAPE_REPRESENTATION_RELATIONSHIP());
#185=CONTEXT_DEPENDENT_SHAPE_REPRESENTATION(#184,#178);
#186=DIRECTION('',(1.E0,0.E0,0.E0));
#187=VECTOR('',#186,5.5E2);
#188=CARTESIAN_POINT('',(-2.75E2,-2.41E2,0.E0));
#189=LINE('',#188,#187);
#190=DIRECTION('',(0.E0,-1.E0,0.E0));
#191=VECTOR('',#190,4.82E2);
#192=CARTESIAN_POINT('',(-2.75E2,2.41E2,0.E0));
#193=LINE('',#192,#191);
#194=DIRECTION('',(-1.E0,0.E0,0.E0));
#195=VECTOR('',#194,5.5E2);
#196=CARTESIAN_POINT('',(2.75E2,2.41E2,0.E0));
#197=LINE('',#196,#195);
#198=DIRECTION('',(0.E0,1.E0,0.E0));
#199=VECTOR('',#198,4.82E2);
#200=CARTESIAN_POINT('',(2.75E2,-2.41E2,0.E0));
#201=LINE('',#200,#199);
#202=DIRECTION('',(0.E0,0.E0,-1.E0));
#203=VECTOR('',#202,4.97E1);
#204=CARTESIAN_POINT('',(-2.75E2,-2.41E2,0.E0));
#205=LINE('',#204,#203);
#206=DIRECTION('',(0.E0,0.E0,-1.E0));
#207=VECTOR('',#206,4.97E1);
#208=CARTESIAN_POINT('',(2.75E2,-2.41E2,0.E0));
#209=LINE('',#208,#207);
#210=DIRECTION('',(0.E0,0.E0,-1.E0));
#211=VECTOR('',#210,4.97E1);
#212=CARTESIAN_POINT('',(2.75E2,2.41E2,0.E0));
#213=LINE('',#212,#211);
#214=DIRECTION('',(0.E0,0.E0,-1.E0));
#215=VECTOR('',#214,4.97E1);
#216=CARTESIAN_POINT('',(-2.75E2,2.41E2,0.E0));
#217=LINE('',#216,#215);
#218=DIRECTION('',(1.E0,0.E0,0.E0));
#219=VECTOR('',#218,5.5E2);
#220=CARTESIAN_POINT('',(-2.75E2,-2.41E2,-4.97E1));
#221=LINE('',#220,#219);
#222=DIRECTION('',(0.E0,1.E0,0.E0));
#223=VECTOR('',#222,4.82E2);
#224=CARTESIAN_POINT('',(2.75E2,-2.41E2,-4.97E1));
#225=LINE('',#224,#223);
#226=DIRECTION('',(-1.E0,0.E0,0.E0));
#227=VECTOR('',#226,5.5E2);
#228=CARTESIAN_POINT('',(2.75E2,2.41E2,-4.97E1));
#229=LINE('',#228,#227);
#230=DIRECTION('',(0.E0,-1.E0,0.E0));
#231=VECTOR('',#230,4.82E2);
#232=CARTESIAN_POINT('',(-2.75E2,2.41E2,-4.97E1));
#233=LINE('',#232,#231);
#234=CARTESIAN_POINT('',(-2.75E2,-2.41E2,0.E0));
#235=CARTESIAN_POINT('',(2.75E2,-2.41E2,0.E0));
#236=VERTEX_POINT('',#234);
#237=VERTEX_POINT('',#235);
#238=CARTESIAN_POINT('',(2.75E2,2.41E2,0.E0));
#239=VERTEX_POINT('',#238);
#240=CARTESIAN_POINT('',(-2.75E2,2.41E2,0.E0));
#241=VERTEX_POINT('',#240);
#242=CARTESIAN_POINT('',(-2.75E2,-2.41E2,-4.97E1));
#243=CARTESIAN_POINT('',(2.75E2,-2.41E2,-4.97E1));
#244=VERTEX_POINT('',#242);
#245=VERTEX_POINT('',#243);
#246=CARTESIAN_POINT('',(2.75E2,2.41E2,-4.97E1));
#247=VERTEX_POINT('',#246);
#248=CARTESIAN_POINT('',(-2.75E2,2.41E2,-4.97E1));
#249=VERTEX_POINT('',#248);
#250=CARTESIAN_POINT('',(0.E0,0.E0,0.E0));
#251=DIRECTION('',(0.E0,0.E0,1.E0));
#252=DIRECTION('',(0.E0,-1.E0,0.E0));
#253=AXIS2_PLACEMENT_3D('',#250,#251,#252);
#254=PLANE('',#253);
#256=ORIENTED_EDGE('',*,*,#255,.F.);
#258=ORIENTED_EDGE('',*,*,#257,.F.);
#260=ORIENTED_EDGE('',*,*,#259,.F.);
#262=ORIENTED_EDGE('',*,*,#261,.F.);
#263=EDGE_LOOP('',(#256,#258,#260,#262));
#264=FACE_OUTER_BOUND('',#263,.F.);
#265=ADVANCED_FACE('',(#264),#254,.T.);
#266=CARTESIAN_POINT('',(-2.75E2,-2.41E2,0.E0));
#267=DIRECTION('',(0.E0,-1.E0,0.E0));
#268=DIRECTION('',(1.E0,0.E0,0.E0));
#269=AXIS2_PLACEMENT_3D('',#266,#267,#268);
#270=PLANE('',#269);
#271=ORIENTED_EDGE('',*,*,#255,.T.);
#273=ORIENTED_EDGE('',*,*,#272,.T.);
#275=ORIENTED_EDGE('',*,*,#274,.F.);
#277=ORIENTED_EDGE('',*,*,#276,.F.);
#278=EDGE_LOOP('',(#271,#273,#275,#277));
#279=FACE_OUTER_BOUND('',#278,.F.);
#280=ADVANCED_FACE('',(#279),#270,.T.);
#281=CARTESIAN_POINT('',(2.75E2,-2.41E2,0.E0));
#282=DIRECTION('',(1.E0,0.E0,0.E0));
#283=DIRECTION('',(0.E0,1.E0,0.E0));
#284=AXIS2_PLACEMENT_3D('',#281,#282,#283);
#285=PLANE('',#284);
#286=ORIENTED_EDGE('',*,*,#261,.T.);
#288=ORIENTED_EDGE('',*,*,#287,.T.);
#290=ORIENTED_EDGE('',*,*,#289,.F.);
#291=ORIENTED_EDGE('',*,*,#272,.F.);
#292=EDGE_LOOP('',(#286,#288,#290,#291));
#293=FACE_OUTER_BOUND('',#292,.F.);
#294=ADVANCED_FACE('',(#293),#285,.T.);
#295=CARTESIAN_POINT('',(2.75E2,2.41E2,0.E0));
#296=DIRECTION('',(0.E0,1.E0,0.E0));
#297=DIRECTION('',(-1.E0,0.E0,0.E0));
#298=AXIS2_PLACEMENT_3D('',#295,#296,#297);
#299=PLANE('',#298);
#300=ORIENTED_EDGE('',*,*,#259,.T.);
#302=ORIENTED_EDGE('',*,*,#301,.T.);
#304=ORIENTED_EDGE('',*,*,#303,.F.);
#305=ORIENTED_EDGE('',*,*,#287,.F.);
#306=EDGE_LOOP('',(#300,#302,#304,#305));
#307=FACE_OUTER_BOUND('',#306,.F.);
#308=ADVANCED_FACE('',(#307),#299,.T.);
#309=CARTESIAN_POINT('',(-2.75E2,2.41E2,0.E0));
#310=DIRECTION('',(-1.E0,0.E0,0.E0));
#311=DIRECTION('',(0.E0,-1.E0,0.E0));
#312=AXIS2_PLACEMENT_3D('',#309,#310,#311);
#313=PLANE('',#312);
#314=ORIENTED_EDGE('',*,*,#257,.T.);
#315=ORIENTED_EDGE('',*,*,#276,.T.);
#317=ORIENTED_EDGE('',*,*,#316,.F.);
#318=ORIENTED_EDGE('',*,*,#301,.F.);
#319=EDGE_LOOP('',(#314,#315,#317,#318));
#320=FACE_OUTER_BOUND('',#319,.F.);
#321=ADVANCED_FACE('',(#320),#313,.T.);
#322=CARTESIAN_POINT('',(0.E0,0.E0,-4.97E1));
#323=DIRECTION('',(0.E0,0.E0,1.E0));
#324=DIRECTION('',(0.E0,-1.E0,0.E0));
#325=AXIS2_PLACEMENT_3D('',#322,#323,#324);
#326=PLANE('',#325);
#327=ORIENTED_EDGE('',*,*,#274,.T.);
#328=ORIENTED_EDGE('',*,*,#289,.T.);
#329=ORIENTED_EDGE('',*,*,#303,.T.);
#330=ORIENTED_EDGE('',*,*,#316,.T.);
#331=EDGE_LOOP('',(#327,#328,#329,#330));
#332=FACE_OUTER_BOUND('',#331,.F.);
#333=ADVANCED_FACE('',(#332),#326,.F.);
#334=CLOSED_SHELL('',(#265,#280,#294,#308,#321,#333));
#335=MANIFOLD_SOLID_BREP('',#334);
#337=DIMENSIONAL_EXPONENTS(0.E0,0.E0,0.E0,0.E0,0.E0,0.E0,0.E0);
#339=PLANE_ANGLE_MEASURE_WITH_UNIT(PLANE_ANGLE_MEASURE(1.745329251994E-2),#338);
#340=(CONVERSION_BASED_UNIT('DEGREE',#339)NAMED_UNIT(*)PLANE_ANGLE_UNIT());
#342=UNCERTAINTY_MEASURE_WITH_UNIT(LENGTH_MEASURE(1.E-2),#336,'closure',
'Maximum model space distance between geometric entities at asserted connectivities');
#343=(GEOMETRIC_REPRESENTATION_CONTEXT(3)GLOBAL_UNCERTAINTY_ASSIGNED_CONTEXT((
#342))GLOBAL_UNIT_ASSIGNED_CONTEXT((#336,#340,#341))REPRESENTATION_CONTEXT
('ID2','3'));
#344=CARTESIAN_POINT('',(0.E0,0.E0,0.E0));
#345=DIRECTION('',(0.E0,0.E0,1.E0));
#346=DIRECTION('',(1.E0,0.E0,0.E0));
#349=MECHANICAL_CONTEXT('',#165,'mechanical');
#350=PRODUCT('PRT0024','PRT0024','NOT SPECIFIED',(#349));
#351=PRODUCT_DEFINITION_FORMATION_WITH_SPECIFIED_SOURCE('1','LAST_VERSION',#350,
.MADE.);
#357=CARTESIAN_POINT('',(1.847036255559E2,7.421784897025E1,1.E2));
#358=DIRECTION('',(0.E0,1.E0,0.E0));
#359=DIRECTION('',(0.E0,0.E0,-1.E0));
#360=AXIS2_PLACEMENT_3D('',#357,#358,#359);
#361=ITEM_DEFINED_TRANSFORMATION('','',#347,#360);
#362=(REPRESENTATION_RELATIONSHIP('','',#348,#176)REPRESENTATION_RELATIONSHIP_WITH_TRANSFORMATION(#361)SHAPE_REPRESENTATION_RELATIONSHIP());
#363=CONTEXT_DEPENDENT_SHAPE_REPRESENTATION(#362,#356);
#365=DIMENSIONAL_EXPONENTS(0.E0,0.E0,0.E0,0.E0,0.E0,0.E0,0.E0);
#367=PLANE_ANGLE_MEASURE_WITH_UNIT(PLANE_ANGLE_MEASURE(1.745329251994E-2),#366);
#368=(CONVERSION_BASED_UNIT('DEGREE',#367)NAMED_UNIT(*)PLANE_ANGLE_UNIT());
#370=UNCERTAINTY_MEASURE_WITH_UNIT(LENGTH_MEASURE(7.882474105882E-2),#364,
'closure',
'Maximum model space distance between geometric entities at asserted connectivities');
#371=(GEOMETRIC_REPRESENTATION_CONTEXT(3)GLOBAL_UNCERTAINTY_ASSIGNED_CONTEXT((
#370))GLOBAL_UNIT_ASSIGNED_CONTEXT((#364,#368,#369))REPRESENTATION_CONTEXT
('ID3','3'));
#372=CARTESIAN_POINT('',(0.E0,0.E0,0.E0));
#373=DIRECTION('',(0.E0,0.E0,1.E0));
#374=DIRECTION('',(1.E0,0.E0,0.E0));
#376=DESIGN_CONTEXT('',#165,'design');
#377=MECHANICAL_CONTEXT('',#165,'mechanical');
#378=PRODUCT('FRI604B1_ASM','FRI604B1_ASM','NOT SPECIFIED',(#377));
#379=PRODUCT_DEFINITION_FORMATION_WITH_SPECIFIED_SOURCE('1','LAST_VERSION',#378,
.MADE.);
#381=PRODUCT_CATEGORY('part','');
#382=PRODUCT_RELATED_PRODUCT_CATEGORY('assembly','',(#378));
#383=PRODUCT_CATEGORY_RELATIONSHIP('','',#381,#382);
#384=PRODUCT_CATEGORY('part','');
#385=PRODUCT_RELATED_PRODUCT_CATEGORY('detail','',(#169,#350));
#386=PRODUCT_CATEGORY_RELATIONSHIP('','',#384,#385);
#387=SECURITY_CLASSIFICATION_LEVEL('unclassified');
#388=SECURITY_CLASSIFICATION('','',#387);
#389=CC_DESIGN_SECURITY_CLASSIFICATION(#388,(#170,#351,#379,#177,#355));
#390=APPROVAL_STATUS('approved');
#391=APPROVAL(#390,'');
#392=CC_DESIGN_APPROVAL(#391,(#388,#170,#351,#379,#171,#352,#380));
#393=CALENDAR_DATE(117,1,2);
#394=COORDINATED_UNIVERSAL_TIME_OFFSET(1,0,.AHEAD.);
#395=LOCAL_TIME(8,22,4.9E1,#394);
#396=DATE_AND_TIME(#393,#395);
#397=APPROVAL_DATE_TIME(#396,#391);
#398=DATE_TIME_ROLE('creation_date');
#399=CC_DESIGN_DATE_AND_TIME_ASSIGNMENT(#396,#398,(#171,#352,#380));
#400=DATE_TIME_ROLE('classification_date');
#401=CC_DESIGN_DATE_AND_TIME_ASSIGNMENT(#396,#400,(#388));
#402=PERSON('UNSPECIFIED','UNSPECIFIED',$,$,$,$);
#403=ORGANIZATION('UNSPECIFIED','UNSPECIFIED','UNSPECIFIED');
#404=PERSON_AND_ORGANIZATION(#402,#403);
#405=APPROVAL_ROLE('approver');
#406=APPROVAL_PERSON_ORGANIZATION(#404,#391,#405);
#407=PERSON_AND_ORGANIZATION_ROLE('creator');
#408=CC_DESIGN_PERSON_AND_ORGANIZATION_ASSIGNMENT(#404,#407,(#170,#351,#379,
#171,#352,#380));
#409=PERSON_AND_ORGANIZATION_ROLE('design_supplier');
#410=CC_DESIGN_PERSON_AND_ORGANIZATION_ASSIGNMENT(#404,#409,(#170,#351,#379));
#411=PERSON_AND_ORGANIZATION_ROLE('classification_officer');
#412=CC_DESIGN_PERSON_AND_ORGANIZATION_ASSIGNMENT(#404,#411,(#388));
#413=PERSON_AND_ORGANIZATION_ROLE('design_owner');
#414=CC_DESIGN_PERSON_AND_ORGANIZATION_ASSIGNMENT(#404,#413,(#378,#169,#350));
#71=EDGE_CURVE('',#52,#53,#5,.T.);
#73=EDGE_CURVE('',#53,#55,#9,.T.);
#75=EDGE_CURVE('',#55,#57,#13,.T.);
#77=EDGE_CURVE('',#57,#52,#17,.T.);
#88=EDGE_CURVE('',#52,#60,#21,.T.);
#90=EDGE_CURVE('',#60,#61,#37,.T.);
#92=EDGE_CURVE('',#53,#61,#33,.T.);
#103=EDGE_CURVE('',#57,#65,#25,.T.);
#105=EDGE_CURVE('',#65,#60,#41,.T.);
#117=EDGE_CURVE('',#55,#63,#29,.T.);
#119=EDGE_CURVE('',#63,#65,#45,.T.);
#132=EDGE_CURVE('',#61,#63,#49,.T.);
#152=(LENGTH_UNIT()NAMED_UNIT(*)SI_UNIT(.MILLI.,.METRE.));
#154=(NAMED_UNIT(*)PLANE_ANGLE_UNIT()SI_UNIT($,.RADIAN.));
#157=(NAMED_UNIT(*)SI_UNIT($,.STERADIAN.)SOLID_ANGLE_UNIT());
#163=AXIS2_PLACEMENT_3D('',#160,#161,#162);
#164=ADVANCED_BREP_SHAPE_REPRESENTATION('',(#163,#151),#159);
#171=PRODUCT_DEFINITION('design','',#170,#167);
#172=PRODUCT_DEFINITION_SHAPE('','SHAPE FOR 22730.',#171);
#173=SHAPE_DEFINITION_REPRESENTATION(#172,#164);
#174=SHAPE_DEFINITION_REPRESENTATION(#175,#176);
#175=PRODUCT_DEFINITION_SHAPE('','SHAPE FOR FRI604B1_ASM.',#380);
#176=SHAPE_REPRESENTATION('',(#182,#360,#375),#371);
#177=NEXT_ASSEMBLY_USAGE_OCCURRENCE('4','Next assembly relationship','22730',
#380,#171,$);
#178=PRODUCT_DEFINITION_SHAPE('Placement #4',
'Placement of 22730 with respect to FRI604B1_ASM',#177);
#255=EDGE_CURVE('',#236,#237,#189,.T.);
#257=EDGE_CURVE('',#241,#236,#193,.T.);
#259=EDGE_CURVE('',#239,#241,#197,.T.);
#261=EDGE_CURVE('',#237,#239,#201,.T.);
#272=EDGE_CURVE('',#237,#245,#209,.T.);
#274=EDGE_CURVE('',#244,#245,#221,.T.);
#276=EDGE_CURVE('',#236,#244,#205,.T.);
#287=EDGE_CURVE('',#239,#247,#213,.T.);
#289=EDGE_CURVE('',#245,#247,#225,.T.);
#301=EDGE_CURVE('',#241,#249,#217,.T.);
#303=EDGE_CURVE('',#247,#249,#229,.T.);
#316=EDGE_CURVE('',#249,#244,#233,.T.);
#336=(LENGTH_UNIT()NAMED_UNIT(*)SI_UNIT(.MILLI.,.METRE.));
#338=(NAMED_UNIT(*)PLANE_ANGLE_UNIT()SI_UNIT($,.RADIAN.));
#341=(NAMED_UNIT(*)SI_UNIT($,.STERADIAN.)SOLID_ANGLE_UNIT());
#347=AXIS2_PLACEMENT_3D('',#344,#345,#346);
#348=ADVANCED_BREP_SHAPE_REPRESENTATION('',(#347,#335),#343);
#352=PRODUCT_DEFINITION('design','',#351,#167);
#353=PRODUCT_DEFINITION_SHAPE('','SHAPE FOR PRT0024.',#352);
#354=SHAPE_DEFINITION_REPRESENTATION(#353,#348);
#355=NEXT_ASSEMBLY_USAGE_OCCURRENCE('5','Next assembly relationship','PRT0024',
#380,#352,$);
#356=PRODUCT_DEFINITION_SHAPE('Placement #5',
'Placement of PRT0024 with respect to FRI604B1_ASM',#355);
#364=(LENGTH_UNIT()NAMED_UNIT(*)SI_UNIT(.MILLI.,.METRE.));
#366=(NAMED_UNIT(*)PLANE_ANGLE_UNIT()SI_UNIT($,.RADIAN.));
#369=(NAMED_UNIT(*)SI_UNIT($,.STERADIAN.)SOLID_ANGLE_UNIT());
#375=AXIS2_PLACEMENT_3D('',#372,#373,#374);
#380=PRODUCT_DEFINITION('design','',#379,#376);
ENDSEC;
END-ISO-10303-21;
