  0
SECTION
  2
HEADER
  9
$ACADVER
  1
AC1021
  9
$ACADMAINTVER
 70
    25
  9
$DWGCODEPAGE
  3
ANSI_932
  9
$LASTSAVEDBY
  1
bliu
  9
$INSBASE
 10
0.0
 20
0.0
 30
0.0
  9
$EXTMIN
 10
50.141987
 20
68.264222
 30
0.0
  9
$EXTMAX
 10
382.529623
 20
219.5239417851802
 30
0.0
  9
$LIMMIN
 10
49.965598
 20
68.211168
  9
$LIMMAX
 10
382.706011
 20
220.032392
  9
$ORTHOMODE
 70
     0
  9
$REGENMODE
 70
     1
  9
$FILLMODE
 70
     1
  9
$QTEXTMODE
 70
     0
  9
$MIRRTEXT
 70
     1
  9
$LTSCALE
 40
1.0
  9
$ATTMODE
 70
     1
  9
$TEXTSIZE
 40
0.2
  9
$TRACEWID
 40
0.05
  9
$TEXTSTYLE
  7
Standard
  9
$CLAYER
  8
0
  9
$CELTYPE
  6
Continuous
  9
$CECOLOR
 62
   256
  9
$CELTSCALE
 40
1.0
  9
$DISPSILH
 70
     0
  9
$DIMSCALE
 40
1.0
  9
$DIMASZ
 40
0.18
  9
$DIMEXO
 40
0.0625
  9
$DIMDLI
 40
0.38
  9
$DIMRND
 40
0.0
  9
$DIMDLE
 40
0.0
  9
$DIMEXE
 40
0.18
  9
$DIMTP
 40
0.0
  9
$DIMTM
 40
0.0
  9
$DIMTXT
 40
0.18
  9
$DIMCEN
 40
0.09
  9
$DIMTSZ
 40
0.0
  9
$DIMTOL
 70
     0
  9
$DIMLIM
 70
     0
  9
$DIMTIH
 70
     1
  9
$DIMTOH
 70
     1
  9
$DIMSE1
 70
     0
  9
$DIMSE2
 70
     0
  9
$DIMTAD
 70
     0
  9
$DIMZIN
 70
     0
  9
$DIMBLK
  1

  9
$DIMASO
 70
     1
  9
$DIMSHO
 70
     1
  9
$DIMPOST
  1

  9
$DIMAPOST
  1

  9
$DIMALT
 70
     0
  9
$DIMALTD
 70
     2
  9
$DIMALTF
 40
25.4
  9
$DIMLFAC
 40
1.0
  9
$DIMTOFL
 70
     0
  9
$DIMTVP
 40
0.0
  9
$DIMTIX
 70
     0
  9
$DIMSOXD
 70
     0
  9
$DIMSAH
 70
     0
  9
$DIMBLK1
  1

  9
$DIMBLK2
  1

  9
$DIMSTYLE
  2
Standard
  9
$DIMCLRD
 70
     0
  9
$DIMCLRE
 70
     0
  9
$DIMCLRT
 70
     0
  9
$DIMTFAC
 40
1.0
  9
$DIMGAP
 40
0.09
  9
$DIMJUST
 70
     0
  9
$DIMSD1
 70
     0
  9
$DIMSD2
 70
     0
  9
$DIMTOLJ
 70
     1
  9
$DIMTZIN
 70
     0
  9
$DIMALTZ
 70
     0
  9
$DIMALTTZ
 70
     0
  9
$DIMUPT
 70
     0
  9
$DIMDEC
 70
     4
  9
$DIMTDEC
 70
     4
  9
$DIMALTU
 70
     2
  9
$DIMALTTD
 70
     2
  9
$DIMTXSTY
  7
Standard
  9
$DIMAUNIT
 70
     0
  9
$DIMADEC
 70
     0
  9
$DIMALTRND
 40
0.0
  9
$DIMAZIN
 70
     0
  9
$DIMDSEP
 70
     0
  9
$DIMATFIT
 70
     3
  9
$DIMFRAC
 70
     0
  9
$DIMLDRBLK
  1

  9
$DIMLUNIT
 70
     2
  9
$DIMLWD
 70
     0
  9
$DIMLWE
 70
     0
  9
$DIMTMOVE
 70
     0
  9
$DIMFXL
 40
1.0
  9
$DIMFXLON
 70
     0
  9
$DIMJOGANG
 40
0.7853981633974483
  9
$DIMTFILL
 70
     0
  9
$DIMTFILLCLR
 70
     0
  9
$DIMARCSYM
 70
     0
  9
$DIMLTYPE
  6

  9
$DIMLTEX1
  6

  9
$DIMLTEX2
  6

  9
$LUNITS
 70
     2
  9
$LUPREC
 70
     4
  9
$SKETCHINC
 40
0.1
  9
$FILLETRAD
 40
0.0
  9
$AUNITS
 70
     0
  9
$AUPREC
 70
     0
  9
$MENU
  1
.
  9
$ELEVATION
 40
0.0
  9
$PELEVATION
 40
0.0
  9
$THICKNESS
 40
0.0
  9
$LIMCHECK
 70
     0
  9
$CHAMFERA
 40
0.0
  9
$CHAMFERB
 40
0.0
  9
$CHAMFERC
 40
0.0
  9
$CHAMFERD
 40
0.0
  9
$SKPOLY
 70
     0
  9
$TDCREATE
 40
2453354.133792488
  9
$TDUCREATE
 40
2453353.717125822
  9
$TDUPDATE
 40
2447893.459039364
  9
$TDUUPDATE
 40
2447893.042372697
  9
$TDINDWG
 40
0.0424768634
  9
$TDUSRTIMER
 40
0.0424768634
  9
$USRTIMER
 70
     1
  9
$ANGBASE
 50
0.0
  9
$ANGDIR
 70
     0
  9
$PDMODE
 70
     0
  9
$PDSIZE
 40
0.0
  9
$PLINEWID
 40
0.0
  9
$SPLFRAME
 70
     0
  9
$SPLINETYPE
 70
     6
  9
$SPLINESEGS
 70
     8
  9
$HANDSEED
  5
30E
  9
$SURFTAB1
 70
     6
  9
$SURFTAB2
 70
     6
  9
$SURFTYPE
 70
     6
  9
$SURFU
 70
     6
  9
$SURFV
 70
     6
  9
$UCSBASE
  2

  9
$UCSNAME
  2

  9
$UCSORG
 10
0.0
 20
0.0
 30
0.0
  9
$UCSXDIR
 10
1.0
 20
0.0
 30
0.0
  9
$UCSYDIR
 10
0.0
 20
1.0
 30
0.0
  9
$UCSORTHOREF
  2

  9
$UCSORTHOVIEW
 70
     0
  9
$UCSORGTOP
 10
0.0
 20
0.0
 30
0.0
  9
$UCSORGBOTTOM
 10
0.0
 20
0.0
 30
0.0
  9
$UCSORGLEFT
 10
0.0
 20
0.0
 30
0.0
  9
$UCSORGRIGHT
 10
0.0
 20
0.0
 30
0.0
  9
$UCSORGFRONT
 10
0.0
 20
0.0
 30
0.0
  9
$UCSORGBACK
 10
0.0
 20
0.0
 30
0.0
  9
$PUCSBASE
  2

  9
$PUCSNAME
  2

  9
$PUCSORG
 10
0.0
 20
0.0
 30
0.0
  9
$PUCSXDIR
 10
1.0
 20
0.0
 30
0.0
  9
$PUCSYDIR
 10
0.0
 20
1.0
 30
0.0
  9
$PUCSORTHOREF
  2

  9
$PUCSORTHOVIEW
 70
     0
  9
$PUCSORGTOP
 10
0.0
 20
0.0
 30
0.0
  9
$PUCSORGBOTTOM
 10
0.0
 20
0.0
 30
0.0
  9
$PUCSORGLEFT
 10
0.0
 20
0.0
 30
0.0
  9
$PUCSORGRIGHT
 10
0.0
 20
0.0
 30
0.0
  9
$PUCSORGFRONT
 10
0.0
 20
0.0
 30
0.0
  9
$PUCSORGBACK
 10
0.0
 20
0.0
 30
0.0
  9
$USERI1
 70
     0
  9
$USERI2
 70
     0
  9
$USERI3
 70
     0
  9
$USERI4
 70
     0
  9
$USERI5
 70
     0
  9
$USERR1
 40
0.0
  9
$USERR2
 40
0.0
  9
$USERR3
 40
0.0
  9
$USERR4
 40
0.0
  9
$USERR5
 40
0.0
  9
$WORLDVIEW
 70
     1
  9
$SHADEDGE
 70
     3
  9
$SHADEDIF
 70
    70
  9
$TILEMODE
 70
     1
  9
$MAXACTVP
 70
    16
  9
$PINSBASE
 10
0.0
 20
0.0
 30
0.0
  9
$PLIMCHECK
 70
     0
  9
$PEXTMIN
 10
0.0
 20
0.0
 30
0.0
  9
$PEXTMAX
 10
0.0
 20
0.0
 30
0.0
  9
$PLIMMIN
 10
0.0
 20
0.0
  9
$PLIMMAX
 10
0.0
 20
0.0
  9
$UNITMODE
 70
     0
  9
$VISRETAIN
 70
     0
  9
$PLINEGEN
 70
     1
  9
$PSLTSCALE
 70
     0
  9
$TREEDEPTH
 70
  3020
  9
$CMLSTYLE
  2
Standard
  9
$CMLJUST
 70
     0
  9
$CMLSCALE
 40
1.0
  9
$PROXYGRAPHICS
 70
     0
  9
$MEASUREMENT
 70
     1
  9
$CELWEIGHT
370
     0
  9
$ENDCAPS
280
     0
  9
$JOINSTYLE
280
     0
  9
$LWDISPLAY
290
     0
  9
$INSUNITS
 70
     0
  9
$HYPERLINKBASE
  1

  9
$STYLESHEET
  1

  9
$XEDIT
290
     0
  9
$CEPSNTYPE
380
     0
  9
$PSTYLEMODE
290
     1
  9
$FINGERPRINTGUID
  2

  9
$VERSIONGUID
  2

  9
$EXTNAMES
290
     1
  9
$PSVPSCALE
 40
0.0
  9
$OLESTARTUP
290
     0
  9
$SORTENTS
280
   127
  9
$INDEXCTL
280
     0
  9
$HIDETEXT
280
     1
  9
$XCLIPFRAME
290
     0
  9
$HALOGAP
280
     0
  9
$OBSCOLOR
 70
   257
  9
$OBSLTYPE
280
     0
  9
$INTERSECTIONDISPLAY
280
     0
  9
$INTERSECTIONCOLOR
 70
   257
  9
$DIMASSOC
280
     2
  9
$PROJECTNAME
  1

  9
$CAMERADISPLAY
290
     0
  9
$LENSLENGTH
 40
50.0
  9
$CAMERAHEIGHT
 40
0.0
  9
$STEPSPERSEC
 40
2.0
  9
$STEPSIZE
 40
6.0
  9
$3DDWFPREC
 40
2.0
  9
$PSOLWIDTH
 40
0.25
  9
$PSOLHEIGHT
 40
4.0
  9
$LOFTANG1
 40
1.570796326794897
  9
$LOFTANG2
 40
1.570796326794897
  9
$LOFTMAG1
 40
0.0
  9
$LOFTMAG2
 40
0.0
  9
$LOFTPARAM
 70
     7
  9
$LOFTNORMALS
280
     1
  9
$LATITUDE
 40
37.795
  9
$LONGITUDE
 40
-122.394
  9
$NORTHDIRECTION
 40
0.0
  9
$TIMEZONE
 70
 -8000
  9
$LIGHTGLYPHDISPLAY
280
     1
  9
$TILEMODELIGHTSYNCH
280
     1
  9
$SOLIDHIST
280
     1
  9
$SHOWHIST
280
     1
  9
$DWFFRAME
280
     2
  9
$DGNFRAME
280
     2
  9
$REALWORLDSCALE
290
     1
  9
$INTERFERECOLOR
 62
   256
  9
$CSHADOW
280
     0
  9
$SHADOWPLANELOCATION
 40
0.0
  0
ENDSEC
  0
SECTION
  2
CLASSES
  0
CLASS
  1
ACDBDICTIONARYWDFLT
  2
AcDbDictionaryWithDefault
  3
ObjectDBX Classes
 90
        0
 91
        4
280
     0
281
     0
  0
CLASS
  1
ACDBPLACEHOLDER
  2
AcDbPlaceHolder
  3
ObjectDBX Classes
 90
        0
 91
        1
280
     0
281
     0
  0
CLASS
  1
LAYOUT
  2
AcDbLayout
  3
ObjectDBX Classes
 90
        0
 91
        1
280
     0
281
     0
  0
CLASS
  1
DICTIONARYVAR
  2
AcDbDictionaryVar
  3
ObjectDBX Classes
 90
        0
 91
        4
280
     0
281
     0
  0
CLASS
  1
TABLESTYLE
  2
AcDbTableStyle
  3
ObjectDBX Classes
 90
     4095
 91
        4
280
     0
281
     0
  0
CLASS
  1
SCALE
  2
AcDbScale
  3
ObjectDBX Classes
 90
     1153
 91
        4
280
     0
281
     0
  0
CLASS
  1
WIPEOUTVARIABLES
  2
AcDbWipeoutVariables
  3
WipeOut|AutoCAD Express Tool|expresstools@autodesk.com
 90
        0
 91
        4
280
     0
281
     0
  0
ENDSEC
  0
SECTION
  2
TABLES
  0
TABLE
  2
VPORT
  5
8
330
0
100
AcDbSymbolTable
 70
     2
  0
VPORT
  5
97
330
8
100
AcDbSymbolTableRecord
100
AcDbViewportTableRecord
  2
*ACTIVE
 70
     0
 10
0.0
 20
0.0
 11
1.0
 21
1.0
 12
216.3358045
 22
144.12178
 13
0.0
 23
0.0
 14
1.0
 24
1.0
 15
0.0
 25
0.0
 16
0.0
 26
0.0
 36
1.0
 17
0.0
 27
0.0
 37
0.0
 40
165.3832645970339
 41
0.688564
 42
50.0
 43
0.0
 44
0.0
 50
0.0
 51
0.0
 71
    16
 72
   100
 73
     1
 74
     1
 75
     0
 76
     0
 77
     0
 78
     0
281
     0
 65
     0
110
0.0
120
0.0
130
0.0
111
1.0
121
0.0
131
0.0
112
0.0
122
1.0
132
0.0
 79
     0
146
0.0
 60
     3
 61
     5
292
     1
282
     1
141
0.0
142
0.0
 63
   256
  0
ENDTAB
  0
TABLE
  2
LTYPE
  5
5
330
0
100
AcDbSymbolTable
 70
     1
  0
LTYPE
  5
14
330
5
100
AcDbSymbolTableRecord
100
AcDbLinetypeTableRecord
  2
ByBlock
 70
     0
  3

 72
    65
 73
     0
 40
0.0
  0
LTYPE
  5
15
330
5
100
AcDbSymbolTableRecord
100
AcDbLinetypeTableRecord
  2
ByLayer
 70
     0
  3

 72
    65
 73
     0
 40
0.0
  0
LTYPE
  5
16
330
5
100
AcDbSymbolTableRecord
100
AcDbLinetypeTableRecord
  2
Continuous
 70
     0
  3
Solid line
 72
    65
 73
     0
 40
0.0
  0
ENDTAB
  0
TABLE
  2
LAYER
  5
2
330
0
100
AcDbSymbolTable
 70
     2
  0
LAYER
  5
10
330
2
100
AcDbSymbolTableRecord
100
AcDbLayerTableRecord
  2
0
 70
     0
 62
     7
  6
Continuous
370
    -3
390
F
347
0
  0
LAYER
  5
28
330
2
100
AcDbSymbolTableRecord
100
AcDbLayerTableRecord
  2
LAYER_1
 70
     0
 62
   160
  6
Continuous
370
    -3
390
F
347
0
  0
ENDTAB
  0
TABLE
  2
STYLE
  5
3
330
0
100
AcDbSymbolTable
 70
     5
  0
STYLE
  5
11
330
3
100
AcDbSymbolTableRecord
100
AcDbTextStyleTableRecord
  2
Standard
 70
     0
 40
0.0
 41
1.0
 50
0.0
 71
     0
 42
0.2
  3
txt
  4

  0
STYLE
  5
24
330
3
100
AcDbSymbolTableRecord
100
AcDbTextStyleTableRecord
  2
STD
 70
     0
 40
0.0
 41
1.0
 50
0.0
 71
     0
 42
0.2
  3
txt
  4

  0
STYLE
  5
25
330
3
100
AcDbSymbolTableRecord
100
AcDbTextStyleTableRecord
  2
TATESTD
 70
     4
 40
0.0
 41
1.0
 50
0.0
 71
     0
 42
0.2
  3
txt
  4

  0
STYLE
  5
26
330
3
100
AcDbSymbolTableRecord
100
AcDbTextStyleTableRecord
  2
KANJISTD
 70
     0
 40
0.0
 41
1.0
 50
0.0
 71
     0
 42
0.2
  3
txt
  4
extfont
  0
STYLE
  5
2FE
330
3
100
AcDbSymbolTableRecord
100
AcDbTextStyleTableRecord
  2
KANJITATE
 70
     4
 40
0.0
 41
1.0
 50
0.0
 71
     0
 42
0.2
  3
txt
  4
extfont
  0
ENDTAB
  0
TABLE
  2
VIEW
  5
6
330
0
100
AcDbSymbolTable
 70
     0
  0
ENDTAB
  0
TABLE
  2
UCS
  5
7
330
0
100
AcDbSymbolTable
 70
     0
  0
ENDTAB
  0
TABLE
  2
APPID
  5
9
330
0
100
AcDbSymbolTable
 70
     1
  0
APPID
  5
12
330
9
100
AcDbSymbolTableRecord
100
AcDbRegAppTableRecord
  2
ACAD
 70
     0
  0
ENDTAB
  0
TABLE
  2
DIMSTYLE
  5
A
330
0
100
AcDbSymbolTable
 70
     1
100
AcDbDimStyleTable
  0
DIMSTYLE
105
27
330
A
100
AcDbSymbolTableRecord
100
AcDbDimStyleTableRecord
  2
Standard
 70
     0
340
11
  0
ENDTAB
  0
TABLE
  2
BLOCK_RECORD
  5
1
330
0
100
AcDbSymbolTable
 70
     3
  0
BLOCK_RECORD
  5
1F
102
{ACAD_XDICTIONARY
360
30B
102
}
330
1
100
AcDbSymbolTableRecord
100
AcDbBlockTableRecord
  2
*Model_Space
340
22
 70
     0
280
     1
281
     0
  0
BLOCK_RECORD
  5
73
330
1
100
AcDbSymbolTableRecord
100
AcDbBlockTableRecord
  2
*Paper_Space
340
74
 70
     0
280
     1
281
     0
  0
BLOCK_RECORD
  5
29
330
1
100
AcDbSymbolTableRecord
100
AcDbBlockTableRecord
  2
AI9-BLK1
340
0
102
{BLKREFS
331
2A
102
}
 70
     0
280
     1
281
     0
  0
BLOCK_RECORD
  5
26C
330
1
100
AcDbSymbolTableRecord
100
AcDbBlockTableRecord
  2
AI9-BLK2
340
0
102
{BLKREFS
331
26D
102
}
 70
     0
280
     1
281
     0
  0
BLOCK_RECORD
  5
2AE
330
1
100
AcDbSymbolTableRecord
100
AcDbBlockTableRecord
  2
AI9-BLK3
340
0
102
{BLKREFS
331
2AF
102
}
 70
     0
280
     1
281
     0
  0
ENDTAB
  0
ENDSEC
  0
SECTION
  2
BLOCKS
  0
BLOCK
  5
20
330
1F
100
AcDbEntity
  8
0
100
AcDbBlockBegin
  2
*Model_Space
 70
     0
 10
0.0
 20
0.0
 30
0.0
  3
*Model_Space
  1

  0
ENDBLK
  5
21
330
1F
100
AcDbEntity
  8
0
100
AcDbBlockEnd
  0
BLOCK
  5
75
330
73
100
AcDbEntity
 67
     1
  8
0
100
AcDbBlockBegin
  2
*Paper_Space
 70
     0
 10
0.0
 20
0.0
 30
0.0
  3
*Paper_Space
  1

  0
ENDBLK
  5
76
330
73
100
AcDbEntity
 67
     1
  8
0
100
AcDbBlockEnd
  0
BLOCK
  5
300
330
29
100
AcDbEntity
  8
LAYER_1
100
AcDbBlockBegin
  2
AI9-BLK1
 70
     0
 10
0.0
 20
0.0
 30
0.0
  3
AI9-BLK1
  1

  0
LWPOLYLINE
  5
2C6
330
29
100
AcDbEntity
  8
LAYER_1
 62
     7
100
AcDbPolyline
 90
       14
 70
     0
 43
0.0
 10
-60.275218
 20
12.411818
 10
-60.380983
 20
12.235429
 10
-60.698621
 20
11.741747
 10
-61.157163
 20
10.930427
 10
-61.439316
 20
10.330636
 10
-61.65119
 20
9.660565
 10
-61.827578
 20
8.637371
 10
-61.756954
 20
7.579038
 10
-61.509941
 20
6.661953
 10
-61.262927
 20
6.061818
 10
-60.980774
 20
5.532651
 10
-60.733761
 20
5.109593
 10
-60.487092
 20
4.721676
 10
-60.310703
 20
4.439178
  0
LWPOLYLINE
  5
2B6
330
29
100
AcDbEntity
  8
LAYER_1
 62
     7
100
AcDbPolyline
 90
       14
 70
     0
 43
0.0
 10
146.910929
 20
12.411818
 10
147.017038
 20
12.235429
 10
147.334676
 20
11.741747
 10
147.792874
 20
10.930427
 10
148.075372
 20
10.330636
 10
148.2869
 20
9.660565
 10
148.463289
 20
8.637371
 10
148.393009
 20
7.579038
 10
148.145652
 20
6.661953
 10
147.898983
 20
6.061818
 10
147.616485
 20
5.532651
 10
147.369816
 20
5.109593
 10
147.122458
 20
4.721676
 10
146.946069
 20
4.439178
  0
LINE
  5
2B5
330
29
100
AcDbEntity
  8
LAYER_1
 62
     7
100
AcDbLine
 10
-60.310703
 20
4.404038
 30
0.0
 11
146.946069
 21
4.404038
 31
0.0
  0
LINE
  5
2B4
330
29
100
AcDbEntity
  8
LAYER_1
 62
     7
100
AcDbLine
 10
146.910929
 20
12.411818
 30
0.0
 11
-60.275218
 21
12.411818
 31
0.0
  0
INSERT
  5
2AF
330
29
100
AcDbEntity
  8
LAYER_1
 62
     7
100
AcDbBlockReference
  2
AI9-BLK3
 10
-152.442289
 20
73.242902
 30
0.0
  0
MTEXT
  5
2AD
330
29
100
AcDbEntity
  8
LAYER_1
 62
     7
100
AcDbMText
 10
-132.454042
 20
4.700144
 30
0.0
 40
3.339442
 41
0.0
 46
0.0
 71
     1
 72
     2
  1
\fCentury Gothic|b0|i0;\H3.3394;\W1.02;\C7;255
  7
STD
 11
0.0
 21
1.0
 31
0.0
 73
     1
 44
1.0
  0
LINE
  5
2AC
330
29
100
AcDbEntity
  8
LAYER_1
 62
     7
100
AcDbLine
 10
-138.677151
 20
-74.305197
 30
0.0
 11
-136.913262
 21
-69.860335
 31
0.0
  0
LWPOLYLINE
  5
272
330
29
100
AcDbEntity
  8
LAYER_1
 62
     7
100
AcDbPolyline
 90
       56
 70
     0
 43
0.0
 10
-136.242847
 20
-72.082422
 10
-136.242847
 20
-71.906033
 10
-136.277987
 20
-71.729644
 10
-136.348611
 20
-71.588395
 10
-136.384096
 20
-71.412006
 10
-136.48986
 20
-71.271446
 10
-136.595624
 20
-71.095058
 10
-136.701389
 20
-70.988949
 10
-136.842638
 20
-70.8477
 10
-136.983542
 20
-70.77742
 10
-137.159931
 20
-70.671311
 10
-137.30118
 20
-70.601031
 10
-137.477569
 20
-70.565891
 10
-137.653958
 20
-70.530062
 10
-137.830347
 20
-70.530062
 10
-138.006736
 20
-70.565891
 10
-138.183124
 20
-70.601031
 10
-138.359513
 20
-70.636171
 10
-138.535902
 20
-70.706451
 10
-138.677151
 20
-70.81256
 10
-138.818056
 20
-70.918669
 10
-138.959304
 20
-71.059229
 10
-139.065069
 20
-71.165337
 10
-139.135693
 20
-71.341726
 10
-139.241458
 20
-71.482975
 10
-139.276598
 20
-71.659364
 10
-139.312082
 20
-71.835753
 10
-139.347222
 20
-72.012142
 10
-139.347222
 20
-72.188531
 10
-139.312082
 20
-72.36492
 10
-139.276598
 20
-72.541309
 10
-139.241458
 20
-72.717697
 10
-139.135693
 20
-72.858946
 10
-139.065069
 20
-72.999506
 10
-138.959304
 20
-73.140755
 10
-138.818056
 20
-73.282004
 10
-138.677151
 20
-73.388113
 10
-138.535902
 20
-73.458393
 10
-138.359513
 20
-73.528673
 10
-138.183124
 20
-73.599642
 10
-138.006736
 20
-73.634782
 10
-137.830347
 20
-73.634782
 10
-137.653958
 20
-73.634782
 10
-137.477569
 20
-73.634782
 10
-137.30118
 20
-73.564502
 10
-137.159931
 20
-73.528673
 10
-136.983542
 20
-73.423253
 10
-136.842638
 20
-73.317144
 10
-136.701389
 20
-73.211724
 10
-136.595624
 20
-73.070475
 10
-136.48986
 20
-72.929226
 10
-136.384096
 20
-72.787977
 10
-136.348611
 20
-72.611589
 10
-136.277987
 20
-72.4352
 10
-136.242847
 20
-72.258811
 10
-136.242847
 20
-72.082422
  0
INSERT
  5
26D
330
29
100
AcDbEntity
  8
LAYER_1
 62
     7
100
AcDbBlockReference
  2
AI9-BLK2
 10
-132.655727
 20
-72.654135
 30
0.0
  0
MTEXT
  5
26B
330
29
100
AcDbEntity
  8
LAYER_1
 62
     7
100
AcDbMText
 10
-94.221061
 20
3.683496
 30
0.0
 40
3.339442
 41
0.0
 46
0.0
 71
     1
 72
     2
  1
\fCentury Gothic|b0|i0;\H3.3394;\W1.02;\C7;255
  7
STD
 11
0.0
 21
1.0
 31
0.0
 73
     1
 44
1.0
  0
LWPOLYLINE
  5
265
330
29
100
AcDbEntity
  8
LAYER_1
 62
     5
100
AcDbPolyline
 90
        4
 70
     0
 43
0.0
 10
-141.075971
 20
62.184835
 10
-141.675762
 20
62.04393
 10
-141.675762
 20
62.326084
 10
-141.075971
 20
62.184835
  0
LINE
  5
264
330
29
100
AcDbEntity
  8
LAYER_1
 62
   253
100
AcDbLine
 10
-152.752778
 20
61.691153
 30
0.0
 11
-152.752778
 21
62.714001
 31
0.0
  0
LINE
  5
263
330
29
100
AcDbEntity
  8
LAYER_1
 62
   253
100
AcDbLine
 10
-153.246804
 20
62.184835
 30
0.0
 11
-152.259096
 21
62.184835
 31
0.0
  0
LINE
  5
262
330
29
100
AcDbEntity
  8
LAYER_1
 62
   253
100
AcDbLine
 10
-153.105556
 20
62.537613
 30
0.0
 11
-152.4
 21
61.832057
 31
0.0
  0
LINE
  5
261
330
29
100
AcDbEntity
  8
LAYER_1
 62
   253
100
AcDbLine
 10
-152.4
 20
62.537613
 30
0.0
 11
-153.105556
 21
61.832057
 31
0.0
  0
LINE
  5
260
330
29
100
AcDbEntity
  8
LAYER_1
 62
     5
100
AcDbLine
 10
-152.752778
 20
62.184835
 30
0.0
 11
-141.075971
 21
62.184835
 31
0.0
  0
LINE
  5
25F
330
29
100
AcDbEntity
  8
LAYER_1
 62
     7
100
AcDbLine
 10
-90.028958
 20
58.657057
 30
0.0
 11
-89.64104
 21
62.184835
 31
0.0
  0
LINE
  5
25E
330
29
100
AcDbEntity
  8
LAYER_1
 62
     7
100
AcDbLine
 10
-89.288262
 20
58.657057
 30
0.0
 11
-90.028958
 21
58.657057
 31
0.0
  0
LINE
  5
25D
330
29
100
AcDbEntity
  8
LAYER_1
 62
     7
100
AcDbLine
 10
-89.64104
 20
62.184835
 30
0.0
 11
-89.288262
 21
58.657057
 31
0.0
  0
LINE
  5
25C
330
29
100
AcDbEntity
  8
LAYER_1
 62
     7
100
AcDbLine
 10
-89.288262
 20
-54.549642
 30
0.0
 11
-89.64104
 21
-58.11256
 31
0.0
  0
LINE
  5
25B
330
29
100
AcDbEntity
  8
LAYER_1
 62
     7
100
AcDbLine
 10
-90.028958
 20
-54.549642
 30
0.0
 11
-89.288262
 21
-54.549642
 31
0.0
  0
LINE
  5
25A
330
29
100
AcDbEntity
  8
LAYER_1
 62
     7
100
AcDbLine
 10
-89.64104
 20
-58.11256
 30
0.0
 11
-90.028958
 21
-54.549642
 31
0.0
  0
LINE
  5
259
330
29
100
AcDbEntity
  8
LAYER_1
 62
     7
100
AcDbLine
 10
-89.64104
 20
-58.11256
 30
0.0
 11
-89.64104
 21
62.184835
 31
0.0
  0
LINE
  5
258
330
29
100
AcDbEntity
  8
LAYER_1
 62
     7
100
AcDbLine
 10
-80.645207
 20
62.184835
 30
0.0
 11
-90.663889
 21
62.184835
 31
0.0
  0
LINE
  5
257
330
29
100
AcDbEntity
  8
LAYER_1
 62
     7
100
AcDbLine
 10
-73.130764
 20
-58.11256
 30
0.0
 11
-90.663889
 21
-58.11256
 31
0.0
  0
LINE
  5
256
330
29
100
AcDbEntity
  8
LAYER_1
 62
     7
100
AcDbLine
 10
-127.317638
 20
-54.549642
 30
0.0
 11
-127.705556
 21
-58.11256
 31
0.0
  0
LINE
  5
255
330
29
100
AcDbEntity
  8
LAYER_1
 62
     7
100
AcDbLine
 10
-128.093818
 20
-54.549642
 30
0.0
 11
-127.317638
 21
-54.549642
 31
0.0
  0
LINE
  5
254
330
29
100
AcDbEntity
  8
LAYER_1
 62
     7
100
AcDbLine
 10
-127.705556
 20
-58.11256
 30
0.0
 11
-128.093818
 21
-54.549642
 31
0.0
  0
LINE
  5
253
330
29
100
AcDbEntity
  8
LAYER_1
 62
     7
100
AcDbLine
 10
-128.093818
 20
58.657057
 30
0.0
 11
-127.705556
 21
62.184835
 31
0.0
  0
LINE
  5
252
330
29
100
AcDbEntity
  8
LAYER_1
 62
     7
100
AcDbLine
 10
-127.317638
 20
58.657057
 30
0.0
 11
-128.093818
 21
58.657057
 31
0.0
  0
LINE
  5
251
330
29
100
AcDbEntity
  8
LAYER_1
 62
     7
100
AcDbLine
 10
-127.705556
 20
62.184835
 30
0.0
 11
-127.317638
 21
58.657057
 31
0.0
  0
LINE
  5
250
330
29
100
AcDbEntity
  8
LAYER_1
 62
     7
100
AcDbLine
 10
-127.705556
 20
62.184835
 30
0.0
 11
-127.705556
 21
-58.11256
 31
0.0
  0
LINE
  5
24F
330
29
100
AcDbEntity
  8
LAYER_1
 62
     7
100
AcDbLine
 10
-145.838471
 20
-58.11256
 30
0.0
 11
-126.682707
 21
-58.11256
 31
0.0
  0
LINE
  5
24E
330
29
100
AcDbEntity
  8
LAYER_1
 62
     7
100
AcDbLine
 10
-138.324373
 20
62.184835
 30
0.0
 11
-126.682707
 21
62.184835
 31
0.0
  0
LINE
  5
24D
330
29
100
AcDbEntity
  8
LAYER_1
 62
     7
100
AcDbLine
 10
-155.081318
 20
-75.257422
 30
0.0
 11
-158.644236
 21
-74.869504
 31
0.0
  0
LINE
  5
24C
330
29
100
AcDbEntity
  8
LAYER_1
 62
     7
100
AcDbLine
 10
-155.081318
 20
-74.481586
 30
0.0
 11
-155.081318
 21
-75.257422
 31
0.0
  0
LINE
  5
24B
330
29
100
AcDbEntity
  8
LAYER_1
 62
     7
100
AcDbLine
 10
-158.644236
 20
-74.869504
 30
0.0
 11
-155.081318
 21
-74.481586
 31
0.0
  0
LINE
  5
24A
330
29
100
AcDbEntity
  8
LAYER_1
 62
     7
100
AcDbLine
 10
-150.424582
 20
-74.481586
 30
0.0
 11
-146.86132
 21
-74.869504
 31
0.0
  0
LINE
  5
249
330
29
100
AcDbEntity
  8
LAYER_1
 62
     7
100
AcDbLine
 10
-150.424582
 20
-75.257422
 30
0.0
 11
-150.424582
 21
-74.481586
 31
0.0
  0
LINE
  5
248
330
29
100
AcDbEntity
  8
LAYER_1
 62
     7
100
AcDbLine
 10
-146.86132
 20
-74.869504
 30
0.0
 11
-150.424582
 21
-75.257422
 31
0.0
  0
LINE
  5
247
330
29
100
AcDbEntity
  8
LAYER_1
 62
     7
100
AcDbLine
 10
-146.86132
 20
-74.869504
 30
0.0
 11
-158.644236
 21
-74.869504
 31
0.0
  0
LINE
  5
246
330
29
100
AcDbEntity
  8
LAYER_1
 62
     7
100
AcDbLine
 10
-146.86132
 20
-74.869504
 30
0.0
 11
-128.5875
 21
-74.869504
 31
0.0
  0
LINE
  5
245
330
29
100
AcDbEntity
  8
LAYER_1
 62
     7
100
AcDbLine
 10
-158.644236
 20
-59.100613
 30
0.0
 11
-158.644236
 21
-75.857558
 31
0.0
  0
LINE
  5
244
330
29
100
AcDbEntity
  8
LAYER_1
 62
     7
100
AcDbLine
 10
-146.86132
 20
-59.100613
 30
0.0
 11
-146.86132
 21
-75.857558
 31
0.0
  0
LINE
  5
243
330
29
100
AcDbEntity
  8
LAYER_1
 62
     7
100
AcDbLine
 10
-162.630556
 20
70.651501
 30
0.0
 11
-166.193818
 21
71.039764
 31
0.0
  0
LINE
  5
242
330
29
100
AcDbEntity
  8
LAYER_1
 62
     7
100
AcDbLine
 10
-162.630556
 20
71.392542
 30
0.0
 11
-162.630556
 21
70.651501
 31
0.0
  0
LINE
  5
241
330
29
100
AcDbEntity
  8
LAYER_1
 62
     7
100
AcDbLine
 10
-166.193818
 20
71.039764
 30
0.0
 11
-162.630556
 21
71.392542
 31
0.0
  0
LINE
  5
240
330
29
100
AcDbEntity
  8
LAYER_1
 62
     7
100
AcDbLine
 10
-142.875
 20
71.392542
 30
0.0
 11
-139.312082
 21
71.039764
 31
0.0
  0
LINE
  5
23F
330
29
100
AcDbEntity
  8
LAYER_1
 62
     7
100
AcDbLine
 10
-142.875
 20
70.651501
 30
0.0
 11
-142.875
 21
71.392542
 31
0.0
  0
LINE
  5
23E
330
29
100
AcDbEntity
  8
LAYER_1
 62
     7
100
AcDbLine
 10
-139.312082
 20
71.039764
 30
0.0
 11
-142.875
 21
70.651501
 31
0.0
  0
LINE
  5
23D
330
29
100
AcDbEntity
  8
LAYER_1
 62
     7
100
AcDbLine
 10
-139.312082
 20
71.039764
 30
0.0
 11
-166.193818
 21
71.039764
 31
0.0
  0
LINE
  5
23C
330
29
100
AcDbEntity
  8
LAYER_1
 62
     7
100
AcDbLine
 10
-166.193818
 20
63.208028
 30
0.0
 11
-166.193818
 21
72.027473
 31
0.0
  0
LINE
  5
23B
330
29
100
AcDbEntity
  8
LAYER_1
 62
     7
100
AcDbLine
 10
-139.312082
 20
63.208028
 30
0.0
 11
-139.312082
 21
72.027473
 31
0.0
  0
HATCH
  5
23A
330
29
100
AcDbEntity
  8
LAYER_1
 62
     5
100
AcDbHatch
 10
0.0
 20
0.0
 30
0.0
210
0.0
220
0.0
230
1.0
  2
SOLID
 70
     1
 71
     0
 91
        1
 92
        1
 93
        1
 72
     4
 94
        3
 73
     0
 74
     0
 95
       11
 96
        7
 40
0.0
 40
0.0
 40
0.0
 40
0.0
 40
1.0
 40
1.0
 40
1.0
 40
2.0
 40
2.0
 40
2.0
 40
2.0
 10
-141.0759711371528
 20
62.18483479817708
 10
-141.0759711371528
 20
62.18483479817708
 10
-141.6757622612847
 20
62.04393039279513
 10
-141.6757622612847
 20
62.04393039279513
 10
-141.6757622612847
 20
62.04393039279513
 10
-141.6757622612847
 20
62.32608371310764
 10
-141.6757622612847
 20
62.32608371310764
 97
        0
 75
     2
 76
     1
 98
        1
 10
0.0
 20
0.0
  0
LWPOLYLINE
  5
22C
330
29
100
AcDbEntity
  8
LAYER_1
 62
     7
100
AcDbPolyline
 90
       12
 70
     0
 43
0.0
 10
-158.644236
 20
-58.11256
 10
-158.609096
 20
-58.11256
 10
-158.467847
 20
-58.11256
 10
-158.185693
 20
-58.11256
 10
-157.797431
 20
-58.11256
 10
-157.303749
 20
-58.11256
 10
-156.703958
 20
-58.11256
 10
-155.998402
 20
-58.11256
 10
-155.257707
 20
-58.11256
 10
-154.446042
 20
-58.11256
 10
-153.599582
 20
-58.11256
 10
-152.752778
 20
-58.11256
  0
LWPOLYLINE
  5
21E
330
29
100
AcDbEntity
  8
LAYER_1
 62
     7
100
AcDbPolyline
 90
       12
 70
     0
 43
0.0
 10
-152.752778
 20
-58.11256
 10
-151.906318
 20
-58.11256
 10
-151.059513
 20
-58.11256
 10
-150.248193
 20
-58.11256
 10
-149.507153
 20
-58.11256
 10
-148.801598
 20
-58.11256
 10
-148.202151
 20
-58.11256
 10
-147.708124
 20
-58.11256
 10
-147.320207
 20
-58.11256
 10
-147.037709
 20
-58.11256
 10
-146.896804
 20
-58.11256
 10
-146.86132
 20
-58.11256
  0
LWPOLYLINE
  5
20E
330
29
100
AcDbEntity
  8
LAYER_1
 62
     7
100
AcDbPolyline
 90
       14
 70
     0
 43
0.0
 10
-161.007916
 20
45.180877
 10
-160.972431
 20
45.180877
 10
-160.796042
 20
45.180877
 10
-160.549373
 20
45.180877
 10
-160.125971
 20
45.180877
 10
-159.631944
 20
45.180877
 10
-159.032153
 20
45.180877
 10
-158.326598
 20
45.180877
 10
-157.515278
 20
45.180877
 10
-156.668818
 20
45.180877
 10
-155.751389
 20
45.180877
 10
-154.76368
 20
45.180877
 10
-153.775971
 20
45.180877
 10
-152.752778
 20
45.180877
  0
LWPOLYLINE
  5
1FE
330
29
100
AcDbEntity
  8
LAYER_1
 62
     7
100
AcDbPolyline
 90
       14
 70
     0
 43
0.0
 10
-152.752778
 20
45.180877
 10
-151.729929
 20
45.180877
 10
-150.741876
 20
45.180877
 10
-149.789651
 20
45.180877
 10
-148.837082
 20
45.180877
 10
-147.990278
 20
45.180877
 10
-147.178958
 20
45.180877
 10
-146.473402
 20
45.180877
 10
-145.873611
 20
45.180877
 10
-145.379929
 20
45.180877
 10
-144.956527
 20
45.180877
 10
-144.709513
 20
45.180877
 10
-144.533124
 20
45.180877
 10
-144.497984
 20
45.180877
  0
LWPOLYLINE
  5
1EA
330
29
100
AcDbEntity
  8
LAYER_1
 62
     7
100
AcDbPolyline
 90
       18
 70
     0
 43
0.0
 10
-166.193818
 20
62.184835
 10
-166.158333
 20
62.184835
 10
-166.052569
 20
62.184835
 10
-165.805556
 20
62.184835
 10
-165.452778
 20
62.184835
 10
-164.959096
 20
62.184835
 10
-164.394444
 20
62.184835
 10
-163.688889
 20
62.184835
 10
-162.912709
 20
62.184835
 10
-162.030764
 20
62.184835
 10
-161.043056
 20
62.184835
 10
-160.020207
 20
62.184835
 10
-158.891249
 20
62.184835
 10
-157.727151
 20
62.184835
 10
-156.527569
 20
62.184835
 10
-155.292847
 20
62.184835
 10
-154.022984
 20
62.184835
 10
-152.752778
 20
62.184835
  0
LWPOLYLINE
  5
1D6
330
29
100
AcDbEntity
  8
LAYER_1
 62
     7
100
AcDbPolyline
 90
       18
 70
     0
 43
0.0
 10
-152.752778
 20
62.184835
 10
-151.482916
 20
62.184835
 10
-150.212709
 20
62.184835
 10
-148.977987
 20
62.184835
 10
-147.778749
 20
62.184835
 10
-146.614651
 20
62.184835
 10
-145.485693
 20
62.184835
 10
-144.4625
 20
62.184835
 10
-143.474791
 20
62.184835
 10
-142.592847
 20
62.184835
 10
-141.816667
 20
62.184835
 10
-141.111111
 20
62.184835
 10
-140.546804
 20
62.184835
 10
-140.052778
 20
62.184835
 10
-139.7
 20
62.184835
 10
-139.452987
 20
62.184835
 10
-139.347222
 20
62.184835
 10
-139.312082
 20
62.184835
  0
LWPOLYLINE
  5
1C2
330
29
100
AcDbEntity
  8
LAYER_1
 62
     7
100
AcDbPolyline
 90
       18
 70
     0
 43
0.0
 10
-165.770416
 20
58.692542
 10
-165.734931
 20
58.692542
 10
-165.664651
 20
58.692542
 10
-165.452778
 20
58.692542
 10
-165.1
 20
58.692542
 10
-164.676598
 20
58.692542
 10
-164.112291
 20
58.692542
 10
-163.441876
 20
58.692542
 10
-162.70118
 20
58.692542
 10
-161.819236
 20
58.692542
 10
-160.902151
 20
58.692542
 10
-159.878958
 20
58.692542
 10
-158.785484
 20
58.692542
 10
-157.656527
 20
58.692542
 10
-156.456944
 20
58.692542
 10
-155.257707
 20
58.692542
 10
-154.022984
 20
58.692542
 10
-152.752778
 20
58.692542
  0
LWPOLYLINE
  5
1AF
330
29
100
AcDbEntity
  8
LAYER_1
 62
     7
100
AcDbPolyline
 90
       17
 70
     0
 43
0.0
 10
-152.752778
 20
58.692542
 10
-151.482916
 20
58.692542
 10
-150.248193
 20
58.692542
 10
-149.048611
 20
58.692542
 10
-147.849373
 20
58.692542
 10
-146.720416
 20
58.692542
 10
-145.626598
 20
58.692542
 10
-144.603749
 20
58.692542
 10
-143.68632
 20
58.692542
 10
-142.804376
 20
58.692542
 10
-142.06368
 20
58.692542
 10
-141.393264
 20
58.692542
 10
-140.828958
 20
58.692542
 10
-140.405556
 20
58.692542
 10
-140.052778
 20
58.692542
 10
-139.841249
 20
58.692542
 10
-139.770624
 20
58.692542
  0
LINE
  5
1AE
330
29
100
AcDbEntity
  8
LAYER_1
 62
     7
100
AcDbLine
 10
-146.86132
 20
-58.11256
 30
0.0
 11
-146.86132
 21
45.180877
 31
0.0
  0
LINE
  5
1AD
330
29
100
AcDbEntity
  8
LAYER_1
 62
     7
100
AcDbLine
 10
-158.644236
 20
45.180877
 30
0.0
 11
-158.644236
 21
-58.11256
 31
0.0
  0
LINE
  5
1AC
330
29
100
AcDbEntity
  8
LAYER_1
 62
     7
100
AcDbLine
 10
-144.497984
 20
45.180877
 30
0.0
 11
-144.497984
 21
58.692542
 31
0.0
  0
LINE
  5
1AB
330
29
100
AcDbEntity
  8
LAYER_1
 62
     7
100
AcDbLine
 10
-161.007916
 20
58.692542
 30
0.0
 11
-161.007916
 21
45.180877
 31
0.0
  0
LINE
  5
1AA
330
29
100
AcDbEntity
  8
LAYER_1
 62
     7
100
AcDbLine
 10
-139.770624
 20
58.692542
 30
0.0
 11
-139.312082
 21
62.184835
 31
0.0
  0
LINE
  5
1A9
330
29
100
AcDbEntity
  8
LAYER_1
 62
     7
100
AcDbLine
 10
-166.193818
 20
62.184835
 30
0.0
 11
-165.770416
 21
58.692542
 31
0.0
  0
LWPOLYLINE
  5
190
330
29
100
AcDbEntity
  8
LAYER_1
 62
     7
100
AcDbPolyline
 90
       23
 70
     0
 43
0.0
 10
-72.143056
 20
-58.11256
 10
-72.072431
 20
-58.11256
 10
-71.896042
 20
-58.11256
 10
-71.578749
 20
-58.11256
 10
-71.155347
 20
-58.11256
 10
-70.62618
 20
-58.11256
 10
-69.991249
 20
-58.11256
 10
-69.285693
 20
-58.11256
 10
-68.544653
 20
-58.11256
 10
-67.733333
 20
-58.11256
 10
-66.886873
 20
-58.11256
 10
-66.004929
 20
-58.11256
 10
-65.158124
 20
-58.11256
 10
-64.31132
 20
-58.11256
 10
-63.535484
 20
-58.11256
 10
-62.794444
 20
-58.11256
 10
-62.124373
 20
-58.11256
 10
-61.559722
 20
-58.11256
 10
-61.10118
 20
-58.11256
 10
-60.713262
 20
-58.11256
 10
-60.466249
 20
-58.11256
 10
-60.360484
 20
-58.11256
 10
-60.325
 20
-58.11256
  0
LWPOLYLINE
  5
180
330
29
100
AcDbEntity
  8
LAYER_1
 62
     7
100
AcDbPolyline
 90
       14
 70
     0
 43
0.0
 10
-60.325
 20
-47.106169
 10
-60.430764
 20
-47.282558
 10
-60.748402
 20
-47.775895
 10
-61.206944
 20
-48.58756
 10
-61.489098
 20
-49.187006
 10
-61.700971
 20
-49.857422
 10
-61.87736
 20
-50.880615
 10
-61.806736
 20
-51.938949
 10
-61.559722
 20
-52.856033
 10
-61.312709
 20
-53.456169
 10
-61.030556
 20
-53.985335
 10
-60.783542
 20
-54.408393
 10
-60.536873
 20
-54.796311
 10
-60.360484
 20
-55.078809
  0
LWPOLYLINE
  5
167
330
29
100
AcDbEntity
  8
LAYER_1
 62
     7
100
AcDbPolyline
 90
       23
 70
     0
 43
0.0
 10
158.679376
 20
-58.11256
 10
158.609096
 20
-58.11256
 10
158.432707
 20
-58.11256
 10
158.115069
 20
-58.11256
 10
157.692011
 20
-58.11256
 10
157.162845
 20
-58.11256
 10
156.527569
 20
-58.11256
 10
155.822013
 20
-58.11256
 10
155.081318
 20
-58.11256
 10
154.269653
 20
-58.11256
 10
153.422849
 20
-58.11256
 10
152.540904
 20
-58.11256
 10
151.694789
 20
-58.11256
 10
150.847984
 20
-58.11256
 10
150.07146
 20
-58.11256
 10
149.330764
 20
-58.11256
 10
148.660349
 20
-58.11256
 10
148.096042
 20
-58.11256
 10
147.637845
 20
-58.11256
 10
147.249238
 20
-58.11256
 10
147.002569
 20
-58.11256
 10
146.89646
 20
-58.11256
 10
146.86132
 20
-58.11256
  0
LWPOLYLINE
  5
157
330
29
100
AcDbEntity
  8
LAYER_1
 62
     7
100
AcDbPolyline
 90
       14
 70
     0
 43
0.0
 10
146.86132
 20
-47.106169
 10
146.967429
 20
-47.282558
 10
147.285067
 20
-47.775895
 10
147.743264
 20
-48.58756
 10
148.025762
 20
-49.187006
 10
148.237291
 20
-49.857422
 10
148.41368
 20
-50.880615
 10
148.3434
 20
-51.938949
 10
148.096042
 20
-52.856033
 10
147.849373
 20
-53.456169
 10
147.566876
 20
-53.985335
 10
147.320207
 20
-54.408393
 10
147.072849
 20
-54.796311
 10
146.89646
 20
-55.078809
  0
LWPOLYLINE
  5
13B
330
29
100
AcDbEntity
  8
LAYER_1
 62
     7
100
AcDbPolyline
 90
       26
 70
     0
 43
0.0
 10
-74.471596
 20
45.180877
 10
-74.400971
 20
45.180877
 10
-74.224582
 20
45.180877
 10
-73.906944
 20
45.180877
 10
-73.483542
 20
45.180877
 10
-72.954376
 20
45.180877
 10
-72.319444
 20
45.180877
 10
-71.613889
 20
45.180877
 10
-70.802569
 20
45.180877
 10
-69.920624
 20
45.180877
 10
-68.968056
 20
45.180877
 10
-67.980347
 20
45.180877
 10
-66.992638
 20
45.180877
 10
-65.969444
 20
45.180877
 10
-64.946596
 20
45.180877
 10
-63.958542
 20
45.180877
 10
-63.006318
 20
45.180877
 10
-62.088889
 20
45.180877
 10
-61.242429
 20
45.180877
 10
-60.501389
 20
45.180877
 10
-59.795833
 20
45.180877
 10
-59.231527
 20
45.180877
 10
-58.7375
 20
45.180877
 10
-58.384722
 20
45.180877
 10
-58.102569
 20
45.180877
 10
-57.996804
 20
45.180877
  0
LWPOLYLINE
  5
11E
330
29
100
AcDbEntity
  8
LAYER_1
 62
     7
100
AcDbPolyline
 90
       27
 70
     0
 43
0.0
 10
161.007571
 20
45.180877
 10
160.937291
 20
45.180877
 10
160.760902
 20
45.180877
 10
160.443264
 20
45.180877
 10
160.020207
 20
45.180877
 10
159.49104
 20
45.180877
 10
158.855764
 20
45.180877
 10
158.150209
 20
45.180877
 10
157.339233
 20
45.180877
 10
156.457289
 20
45.180877
 10
155.504376
 20
45.180877
 10
154.517011
 20
45.180877
 10
153.528958
 20
45.180877
 10
152.505764
 20
45.180877
 10
151.482571
 20
45.180877
 10
150.495207
 20
45.180877
 10
149.542293
 20
45.180877
 10
148.625209
 20
45.180877
 10
147.778404
 20
45.180877
 10
147.037709
 20
45.180877
 10
146.332153
 20
45.180877
 10
145.767847
 20
45.180877
 10
145.27382
 20
45.180877
 10
144.885902
 20
45.180877
 10
144.639233
 20
45.180877
 10
144.533124
 20
45.180877
 10
144.497984
 20
45.180877
  0
LWPOLYLINE
  5
FA
330
29
100
AcDbEntity
  8
LAYER_1
 62
     7
100
AcDbPolyline
 90
       34
 70
     0
 43
0.0
 10
-79.657153
 20
62.184835
 10
-79.586873
 20
62.184835
 10
-79.410484
 20
62.184835
 10
-79.127987
 20
62.184835
 10
-78.704929
 20
62.184835
 10
-78.175762
 20
62.184835
 10
-77.540487
 20
62.184835
 10
-76.799791
 20
62.184835
 10
-75.952987
 20
62.184835
 10
-75.035902
 20
62.184835
 10
-74.012709
 20
62.184835
 10
-72.954376
 20
62.184835
 10
-71.790278
 20
62.184835
 10
-70.62618
 20
62.184835
 10
-69.391458
 20
62.184835
 10
-68.156736
 20
62.184835
 10
-66.851389
 20
62.184835
 10
-65.581527
 20
62.184835
 10
-64.31132
 20
62.184835
 10
-63.076598
 20
62.184835
 10
-61.841876
 20
62.184835
 10
-60.642638
 20
62.184835
 10
-59.51368
 20
62.184835
 10
-58.455347
 20
62.184835
 10
-57.432153
 20
62.184835
 10
-56.515069
 20
62.184835
 10
-55.668264
 20
62.184835
 10
-54.927569
 20
62.184835
 10
-54.292638
 20
62.184835
 10
-53.763471
 20
62.184835
 10
-53.340069
 20
62.184835
 10
-53.057916
 20
62.184835
 10
-52.881527
 20
62.184835
 10
-52.810902
 20
62.184835
  0
LWPOLYLINE
  5
D7
330
29
100
AcDbEntity
  8
LAYER_1
 62
     7
100
AcDbPolyline
 90
       33
 70
     0
 43
0.0
 10
-79.234096
 20
58.692542
 10
-79.163471
 20
58.692542
 10
-78.987082
 20
58.692542
 10
-78.669444
 20
58.692542
 10
-78.281527
 20
58.692542
 10
-77.75236
 20
58.692542
 10
-77.117429
 20
58.692542
 10
-76.376389
 20
58.692542
 10
-75.529929
 20
58.692542
 10
-74.6125
 20
58.692542
 10
-73.624791
 20
58.692542
 10
-72.531318
 20
58.692542
 10
-71.4375
 20
58.692542
 10
-70.238262
 20
58.692542
 10
-69.03868
 20
58.692542
 10
-67.803958
 20
58.692542
 10
-66.534096
 20
58.692542
 10
-65.299373
 20
58.692542
 10
-64.029167
 20
58.692542
 10
-62.829929
 20
58.692542
 10
-61.630347
 20
58.692542
 10
-60.466249
 20
58.692542
 10
-59.372431
 20
58.692542
 10
-58.349582
 20
58.692542
 10
-57.361873
 20
58.692542
 10
-56.515069
 20
58.692542
 10
-55.703749
 20
58.692542
 10
-55.033333
 20
58.692542
 10
-54.433542
 20
58.692542
 10
-53.975
 20
58.692542
 10
-53.622222
 20
58.692542
 10
-53.375209
 20
58.692542
 10
-53.234304
 20
58.692542
  0
LWPOLYLINE
  5
306
330
29
100
AcDbEntity
  8
LAYER_1
 62
     7
100
AcDbPolyline
 90
       34
 70
     0
 43
0.0
 10
166.193818
 20
62.184835
 10
166.122849
 20
62.184835
 10
165.94646
 20
62.184835
 10
165.629511
 20
62.184835
 10
165.240904
 20
62.184835
 10
164.711738
 20
62.184835
 10
164.042011
 20
62.184835
 10
163.300627
 20
62.184835
 10
162.489651
 20
62.184835
 10
161.572567
 20
62.184835
 10
160.549373
 20
62.184835
 10
159.49104
 20
62.184835
 10
158.326598
 20
62.184835
 10
157.162845
 20
62.184835
 10
155.928122
 20
62.184835
 10
154.6934
 20
62.184835
 10
153.387709
 20
62.184835
 10
152.117847
 20
62.184835
 10
150.847984
 20
62.184835
 10
149.613262
 20
62.184835
 10
148.37854
 20
62.184835
 10
147.178958
 20
62.184835
 10
146.050345
 20
62.184835
 10
144.992011
 20
62.184835
 10
143.968818
 20
62.184835
 10
143.051733
 20
62.184835
 10
142.204929
 20
62.184835
 10
141.464233
 20
62.184835
 10
140.828958
 20
62.184835
 10
140.299791
 20
62.184835
 10
139.876733
 20
62.184835
 10
139.594236
 20
62.184835
 10
139.417847
 20
62.184835
 10
139.347567
 20
62.184835
  0
LWPOLYLINE
  5
90
330
29
100
AcDbEntity
  8
LAYER_1
 62
     7
100
AcDbPolyline
 90
       33
 70
     0
 43
0.0
 10
165.770071
 20
58.692542
 10
165.699791
 20
58.692542
 10
165.523402
 20
58.692542
 10
165.205764
 20
58.692542
 10
164.817847
 20
58.692542
 10
164.28868
 20
58.692542
 10
163.653404
 20
58.692542
 10
162.912709
 20
58.692542
 10
162.065904
 20
58.692542
 10
161.14882
 20
58.692542
 10
160.161456
 20
58.692542
 10
159.067293
 20
58.692542
 10
157.97382
 20
58.692542
 10
156.774238
 20
58.692542
 10
155.575345
 20
58.692542
 10
154.340622
 20
58.692542
 10
153.070071
 20
58.692542
 10
151.835349
 20
58.692542
 10
150.565487
 20
58.692542
 10
149.365904
 20
58.692542
 10
148.167011
 20
58.692542
 10
147.002569
 20
58.692542
 10
145.909096
 20
58.692542
 10
144.885902
 20
58.692542
 10
143.897849
 20
58.692542
 10
143.051733
 20
58.692542
 10
142.240069
 20
58.692542
 10
141.569653
 20
58.692542
 10
140.970207
 20
58.692542
 10
140.51132
 20
58.692542
 10
140.158542
 20
58.692542
 10
139.911873
 20
58.692542
 10
139.770624
 20
58.692542
  0
LINE
  5
8F
330
29
100
AcDbEntity
  8
LAYER_1
 62
     7
100
AcDbLine
 10
-60.360484
 20
-55.113949
 30
0.0
 11
146.89646
 21
-55.113949
 31
0.0
  0
LINE
  5
8E
330
29
100
AcDbEntity
  8
LAYER_1
 62
     7
100
AcDbLine
 10
146.86132
 20
-47.106169
 30
0.0
 11
-60.325
 21
-47.106169
 31
0.0
  0
LINE
  5
8D
330
29
100
AcDbEntity
  8
LAYER_1
 62
     7
100
AcDbLine
 10
-60.325
 20
-58.11256
 30
0.0
 11
-60.325
 21
-55.078809
 31
0.0
  0
LINE
  5
8C
330
29
100
AcDbEntity
  8
LAYER_1
 62
     7
100
AcDbLine
 10
-60.325
 20
39.120265
 30
0.0
 11
-60.325
 21
45.180877
 31
0.0
  0
LINE
  5
8B
330
29
100
AcDbEntity
  8
LAYER_1
 62
     7
100
AcDbLine
 10
-60.325
 20
12.719809
 30
0.0
 11
-60.325
 21
30.585385
 31
0.0
  0
LINE
  5
8A
330
29
100
AcDbEntity
  8
LAYER_1
 62
     7
100
AcDbLine
 10
-60.325
 20
-17.121436
 30
0.0
 11
-60.325
 21
4.184585
 31
0.0
  0
LINE
  5
89
330
29
100
AcDbEntity
  8
LAYER_1
 62
     7
100
AcDbLine
 10
-60.325
 20
-47.106169
 30
0.0
 11
-60.325
 21
-25.712815
 31
0.0
  0
LINE
  5
88
330
29
100
AcDbEntity
  8
LAYER_1
 62
     7
100
AcDbLine
 10
-72.143056
 20
45.180877
 30
0.0
 11
-72.143056
 21
-58.11256
 31
0.0
  0
LINE
  5
87
330
29
100
AcDbEntity
  8
LAYER_1
 62
     7
100
AcDbLine
 10
158.679376
 20
-58.11256
 30
0.0
 11
158.679376
 21
45.180877
 31
0.0
  0
LINE
  5
86
330
29
100
AcDbEntity
  8
LAYER_1
 62
     7
100
AcDbLine
 10
146.86132
 20
-25.715571
 30
0.0
 11
146.86132
 21
-47.106169
 31
0.0
  0
LINE
  5
85
330
29
100
AcDbEntity
  8
LAYER_1
 62
     7
100
AcDbLine
 10
146.86132
 20
4.352017
 30
0.0
 11
146.86132
 21
-17.115923
 31
0.0
  0
LINE
  5
84
330
29
100
AcDbEntity
  8
LAYER_1
 62
     7
100
AcDbLine
 10
146.86132
 20
31.047717
 30
0.0
 11
146.86132
 21
12.435933
 31
0.0
  0
LINE
  5
83
330
29
100
AcDbEntity
  8
LAYER_1
 62
     7
100
AcDbLine
 10
146.86132
 20
45.180877
 30
0.0
 11
146.86132
 21
39.068589
 31
0.0
  0
LINE
  5
82
330
29
100
AcDbEntity
  8
LAYER_1
 62
     7
100
AcDbLine
 10
146.86132
 20
-55.078809
 30
0.0
 11
146.86132
 21
-58.11256
 31
0.0
  0
LINE
  5
81
330
29
100
AcDbEntity
  8
LAYER_1
 62
     7
100
AcDbLine
 10
-57.996804
 20
45.180877
 30
0.0
 11
-57.996804
 21
58.692542
 31
0.0
  0
LINE
  5
80
330
29
100
AcDbEntity
  8
LAYER_1
 62
     7
100
AcDbLine
 10
-74.471596
 20
58.692542
 30
0.0
 11
-74.471596
 21
45.180877
 31
0.0
  0
LINE
  5
7F
330
29
100
AcDbEntity
  8
LAYER_1
 62
     7
100
AcDbLine
 10
161.007571
 20
45.180877
 30
0.0
 11
161.007571
 21
58.692542
 31
0.0
  0
LINE
  5
7E
330
29
100
AcDbEntity
  8
LAYER_1
 62
     7
100
AcDbLine
 10
144.497984
 20
58.692542
 30
0.0
 11
144.497984
 21
45.180877
 31
0.0
  0
LINE
  5
7D
330
29
100
AcDbEntity
  8
LAYER_1
 62
     7
100
AcDbLine
 10
-53.234304
 20
58.692542
 30
0.0
 11
-52.810902
 21
62.184835
 31
0.0
  0
LINE
  5
7C
330
29
100
AcDbEntity
  8
LAYER_1
 62
     7
100
AcDbLine
 10
-79.657153
 20
62.184835
 30
0.0
 11
-79.234096
 21
58.692542
 31
0.0
  0
LINE
  5
7B
330
29
100
AcDbEntity
  8
LAYER_1
 62
     7
100
AcDbLine
 10
165.770071
 20
58.692542
 30
0.0
 11
166.193818
 21
62.184835
 31
0.0
  0
LINE
  5
7A
330
29
100
AcDbEntity
  8
LAYER_1
 62
     7
100
AcDbLine
 10
139.347567
 20
62.184835
 30
0.0
 11
139.770624
 21
58.692542
 31
0.0
  0
MTEXT
  5
79
330
29
100
AcDbEntity
  8
LAYER_1
 62
     7
100
AcDbMText
 10
27.531481
 20
-68.923503
 30
0.0
 40
3.339442
 41
0.0
 46
0.0
 71
     1
 72
     2
  1
\fCentury Gothic|b0|i0;\H3.3394;\W1.02;\C7;500
  7
STD
 73
     1
 44
1.0
  0
LINE
  5
78
330
29
100
AcDbEntity
  8
LAYER_1
 62
     7
100
AcDbLine
 10
-63.160486
 20
-74.061974
 30
0.0
 11
-66.688264
 21
-73.674056
 31
0.0
  0
LINE
  5
77
330
29
100
AcDbEntity
  8
LAYER_1
 62
     7
100
AcDbLine
 10
-63.160486
 20
-73.321278
 30
0.0
 11
-63.160486
 21
-74.061974
 31
0.0
  0
LINE
  5
307
330
29
100
AcDbEntity
  8
LAYER_1
 62
     7
100
AcDbLine
 10
-66.688264
 20
-73.674056
 30
0.0
 11
-63.160486
 21
-73.321278
 31
0.0
  0
LINE
  5
308
330
29
100
AcDbEntity
  8
LAYER_1
 62
     7
100
AcDbLine
 10
149.511287
 20
-73.321278
 30
0.0
 11
153.074205
 21
-73.674056
 31
0.0
  0
LINE
  5
309
330
29
100
AcDbEntity
  8
LAYER_1
 62
     7
100
AcDbLine
 10
149.511287
 20
-74.061974
 30
0.0
 11
149.511287
 21
-73.321278
 31
0.0
  0
LINE
  5
30A
330
29
100
AcDbEntity
  8
LAYER_1
 62
     7
100
AcDbLine
 10
153.074205
 20
-73.674056
 30
0.0
 11
149.511287
 21
-74.061974
 31
0.0
  0
LINE
  5
72
330
29
100
AcDbEntity
  8
LAYER_1
 62
     7
100
AcDbLine
 10
153.074205
 20
-73.674056
 30
0.0
 11
-66.688264
 21
-73.674056
 31
0.0
  0
LINE
  5
71
330
29
100
AcDbEntity
  8
LAYER_1
 62
     7
100
AcDbLine
 10
-66.688264
 20
-60.092112
 30
0.0
 11
-66.688264
 21
-74.69656
 31
0.0
  0
LINE
  5
70
330
29
100
AcDbEntity
  8
LAYER_1
 62
     7
100
AcDbLine
 10
153.074205
 20
-61.397114
 30
0.0
 11
153.074205
 21
-74.69656
 31
0.0
  0
LWPOLYLINE
  5
60
330
29
100
AcDbEntity
  8
LAYER_1
 62
     7
100
AcDbPolyline
 90
       14
 70
     0
 43
0.0
 10
-60.136037
 20
-17.421848
 10
-60.241801
 20
-17.598237
 10
-60.559439
 20
-18.092263
 10
-61.017981
 20
-18.903239
 10
-61.300134
 20
-19.503375
 10
-61.512008
 20
-20.173101
 10
-61.688397
 20
-21.196294
 10
-61.617772
 20
-22.254628
 10
-61.370759
 20
-23.171712
 10
-61.123745
 20
-23.771848
 10
-60.841592
 20
-24.301015
 10
-60.594579
 20
-24.724072
 10
-60.34791
 20
-25.11199
 10
-60.171521
 20
-25.394488
  0
LWPOLYLINE
  5
50
330
29
100
AcDbEntity
  8
LAYER_1
 62
     7
100
AcDbPolyline
 90
       14
 70
     0
 43
0.0
 10
147.050111
 20
-17.421848
 10
147.15622
 20
-17.598237
 10
147.473858
 20
-18.092263
 10
147.932056
 20
-18.903239
 10
148.214553
 20
-19.503375
 10
148.426082
 20
-20.173101
 10
148.602471
 20
-21.196294
 10
148.532191
 20
-22.254628
 10
148.284833
 20
-23.171712
 10
148.038165
 20
-23.771848
 10
147.755667
 20
-24.301015
 10
147.508998
 20
-24.724072
 10
147.26164
 20
-25.11199
 10
147.085251
 20
-25.394488
  0
LINE
  5
4F
330
29
100
AcDbEntity
  8
LAYER_1
 62
     7
100
AcDbLine
 10
-60.171521
 20
-25.429628
 30
0.0
 11
147.085251
 21
-25.429628
 31
0.0
  0
LINE
  5
4E
330
29
100
AcDbEntity
  8
LAYER_1
 62
     7
100
AcDbLine
 10
147.050111
 20
-17.421848
 30
0.0
 11
-60.136037
 21
-17.421848
 31
0.0
  0
LWPOLYLINE
  5
3E
330
29
100
AcDbEntity
  8
LAYER_1
 62
     7
100
AcDbPolyline
 90
       14
 70
     0
 43
0.0
 10
-60.393557
 20
38.79746
 10
-60.499322
 20
38.621071
 10
-60.81696
 20
38.127389
 10
-61.275502
 20
37.316069
 10
-61.557655
 20
36.716277
 10
-61.769529
 20
36.046206
 10
-61.945917
 20
35.023013
 10
-61.875293
 20
33.96468
 10
-61.62828
 20
33.047595
 10
-61.381266
 20
32.44746
 10
-61.099113
 20
31.918293
 10
-60.8521
 20
31.495235
 10
-60.605431
 20
31.107317
 10
-60.429042
 20
30.82482
  0
LWPOLYLINE
  5
2E
330
29
100
AcDbEntity
  8
LAYER_1
 62
     7
100
AcDbPolyline
 90
       14
 70
     0
 43
0.0
 10
146.792418
 20
38.79746
 10
146.898527
 20
38.621071
 10
147.216165
 20
38.127389
 10
147.674363
 20
37.316069
 10
147.95686
 20
36.716277
 10
148.168389
 20
36.046206
 10
148.344778
 20
35.023013
 10
148.274498
 20
33.96468
 10
148.02714
 20
33.047595
 10
147.780471
 20
32.44746
 10
147.497974
 20
31.918293
 10
147.251305
 20
31.495235
 10
147.003947
 20
31.107317
 10
146.827558
 20
30.82482
  0
LINE
  5
2D
330
29
100
AcDbEntity
  8
LAYER_1
 62
     7
100
AcDbLine
 10
-60.429042
 20
30.78968
 30
0.0
 11
146.827558
 21
30.78968
 31
0.0
  0
LINE
  5
2C
330
29
100
AcDbEntity
  8
LAYER_1
 62
     7
100
AcDbLine
 10
146.792418
 20
38.79746
 30
0.0
 11
-60.393557
 21
38.79746
 31
0.0
  0
ENDBLK
  5
301
330
29
100
AcDbEntity
  8
LAYER_1
100
AcDbBlockEnd
  0
BLOCK
  5
302
330
26C
100
AcDbEntity
  8
LAYER_1
100
AcDbBlockBegin
  2
AI9-BLK2
 70
     0
 10
0.0
 20
0.0
 30
0.0
  3
AI9-BLK2
  1

  0
MTEXT
  5
270
330
26C
100
AcDbEntity
  8
LAYER_1
 62
     7
100
AcDbMText
 10
-0.000603
 20
2.075264
 30
0.0
 40
3.339442
 41
0.0
 46
0.0
 71
     1
 72
     2
  1
\fCentury Gothic|b0|i0;\H3.3394;\W1.02;\C7;4
  7
STD
 73
     1
 44
1.0
  0
MTEXT
  5
26F
330
26C
100
AcDbEntity
  8
LAYER_1
 62
     7
100
AcDbMText
 10
-2.586492
 20
2.075264
 30
0.0
 40
3.339442
 41
0.0
 46
0.0
 71
     1
 72
     2
  1
\fCentury Gothic|b0|i0;\H3.3394;\W1.02;\C7;2
  7
STD
 73
     1
 44
1.0
  0
ENDBLK
  5
303
330
26C
100
AcDbEntity
  8
LAYER_1
100
AcDbBlockEnd
  0
BLOCK
  5
304
330
2AE
100
AcDbEntity
  8
LAYER_1
100
AcDbBlockBegin
  2
AI9-BLK3
 70
     0
 10
0.0
 20
0.0
 30
0.0
  3
AI9-BLK3
  1

  0
MTEXT
  5
2B2
330
2AE
100
AcDbEntity
  8
LAYER_1
 62
     7
100
AcDbMText
 10
-0.000258
 20
2.075264
 30
0.0
 40
3.339442
 41
0.0
 46
0.0
 71
     1
 72
     2
  1
\fCentury Gothic|b0|i0;\H3.3394;\W1.02;\C7;4
  7
STD
 73
     1
 44
1.0
  0
MTEXT
  5
2B1
330
2AE
100
AcDbEntity
  8
LAYER_1
 62
     7
100
AcDbMText
 10
-2.586836
 20
2.075264
 30
0.0
 40
3.339442
 41
0.0
 46
0.0
 71
     1
 72
     2
  1
\fCentury Gothic|b0|i0;\H3.3394;\W1.02;\C7;5
  7
STD
 73
     1
 44
1.0
  0
ENDBLK
  5
305
330
2AE
100
AcDbEntity
  8
LAYER_1
100
AcDbBlockEnd
  0
ENDSEC
  0
SECTION
  2
ENTITIES
  0
INSERT
  5
2A
330
1F
100
AcDbEntity
  8
LAYER_1
 62
     7
100
AcDbBlockReference
  2
AI9-BLK1
 10
216.335805
 20
144.12178
 30
0.0
  0
ENDSEC
  0
SECTION
  2
OBJECTS
  0
DICTIONARY
  5
C
330
0
100
AcDbDictionary
281
     1
  3
ACAD_COLOR
350
6C
  3
ACAD_GROUP
350
D
  3
ACAD_LAYOUT
350
1A
  3
ACAD_MATERIAL
350
6B
  3
ACAD_MLEADERSTYLE
350
30C
  3
ACAD_MLINESTYLE
350
17
  3
ACAD_PLOTSETTINGS
350
19
  3
ACAD_PLOTSTYLENAME
350
E
  3
ACAD_SCALELIST
350
99
  3
ACAD_TABLESTYLE
350
92
  3
ACAD_WIPEOUT_VARS
350
2FF
  3
AcDbVariableDictionary
350
59
  0
DICTIONARY
  5
30B
330
1F
100
AcDbDictionary
280
     1
281
     1
  0
DICTIONARY
  5
6C
102
{ACAD_REACTORS
330
C
102
}
330
C
100
AcDbDictionary
281
     1
  0
DICTIONARY
  5
D
102
{ACAD_REACTORS
330
C
102
}
330
C
100
AcDbDictionary
281
     1
  0
DICTIONARY
  5
1A
102
{ACAD_REACTORS
330
C
102
}
330
C
100
AcDbDictionary
281
     1
  3
Layout1
350
74
  3
Model
350
22
  0
DICTIONARY
  5
6B
102
{ACAD_REACTORS
330
C
102
}
330
C
100
AcDbDictionary
281
     1
  0
DICTIONARY
  5
30C
102
{ACAD_REACTORS
330
C
102
}
330
C
100
AcDbDictionary
281
     1
  0
DICTIONARY
  5
17
102
{ACAD_REACTORS
330
C
102
}
330
C
100
AcDbDictionary
281
     1
  3
Standard
350
18
  0
DICTIONARY
  5
19
102
{ACAD_REACTORS
330
C
102
}
330
C
100
AcDbDictionary
281
     1
  0
ACDBDICTIONARYWDFLT
  5
E
102
{ACAD_REACTORS
330
C
102
}
330
C
100
AcDbDictionary
281
     1
  3
Normal
350
F
100
AcDbDictionaryWithDefault
340
F
  0
DICTIONARY
  5
99
102
{ACAD_REACTORS
330
C
102
}
330
C
100
AcDbDictionary
281
     1
  3
A0
350
9A
  3
A1
350
9B
  3
A2
350
9C
  3
A3
350
9D
  3
A4
350
9E
  3
A5
350
9F
  3
A6
350
A0
  3
A7
350
A1
  3
A8
350
A2
  3
A9
350
A3
  3
B0
350
A4
  3
B1
350
A5
  3
B2
350
A6
  3
B3
350
A7
  3
B4
350
A8
  3
B5
350
A9
  3
B6
350
AA
  3
B7
350
AB
  3
B8
350
AC
  3
B9
350
AD
  3
C0
350
AE
  3
C1
350
AF
  3
C2
350
B0
  3
C3
350
B1
  3
C4
350
B2
  3
C5
350
B3
  3
C6
350
B4
  3
C7
350
B5
  3
C8
350
B6
  3
C9
350
B7
  3
D0
350
B8
  3
D1
350
B9
  3
D2
350
BA
  0
DICTIONARY
  5
92
102
{ACAD_REACTORS
330
C
102
}
330
C
100
AcDbDictionary
281
     1
  3
Standard
350
93
  0
WIPEOUTVARIABLES
  5
2FF
102
{ACAD_REACTORS
330
C
102
}
330
C
100
AcDbWipeoutVariables
 70
     1
  0
DICTIONARY
  5
59
102
{ACAD_REACTORS
330
C
102
}
330
C
100
AcDbDictionary
281
     1
  3
CANNOSCALE
350
30D
  3
CTABLESTYLE
350
98
  3
DIMASSOC
350
2FA
  3
HIDETEXT
350
5E
  0
LAYOUT
  5
74
102
{ACAD_REACTORS
330
1A
102
}
330
1A
100
AcDbPlotSettings
  1

  2
none_device
  4
ISO_C5_(229.00_x_162.00_MM)
  6

 40
0.0
 41
0.0
 42
0.0
 43
0.0
 44
229.0
 45
162.0
 46
0.0
 47
0.0
 48
0.0
 49
0.0
140
0.0
141
0.0
142
1.0
143
1.0
 70
   544
 72
     1
 73
     0
 74
     0
  7

 75
    16
 76
     0
 77
     2
 78
   300
147
1.0
148
0.0
149
0.0
100
AcDbLayout
  1
Layout1
 70
     0
 71
     0
 10
0.0
 20
0.0
 11
0.0
 21
0.0
 12
0.0
 22
0.0
 32
0.0
 14
0.0
 24
0.0
 34
0.0
 15
0.0
 25
0.0
 35
0.0
146
0.0
 13
0.0
 23
0.0
 33
0.0
 16
1.0
 26
0.0
 36
0.0
 17
0.0
 27
1.0
 37
0.0
 76
     0
330
73
  0
LAYOUT
  5
22
102
{ACAD_REACTORS
330
1A
102
}
330
1A
100
AcDbPlotSettings
  1

  2
none_device
  4
ISO_C5_(229.00_x_162.00_MM)
  6

 40
0.0
 41
0.0
 42
0.0
 43
0.0
 44
229.0
 45
162.0
 46
0.0
 47
0.0
 48
0.0
 49
0.0
140
0.0
141
0.0
142
1.0
143
1.0
 70
 11936
 72
     1
 73
     0
 74
     0
  7

 75
     0
 76
     0
 77
     2
 78
   300
147
0.7376804436486377
148
0.0
149
0.0
100
AcDbLayout
  1
Model
 70
     1
 71
     0
 10
49.965598
 20
68.211168
 11
382.706011
 21
220.032392
 12
0.0
 22
0.0
 32
0.0
 14
50.141987
 24
68.264222
 34
0.0
 15
382.529623
 25
219.5239417851802
 35
0.0
146
0.0
 13
0.0
 23
0.0
 33
0.0
 16
1.0
 26
0.0
 36
0.0
 17
0.0
 27
1.0
 37
0.0
 76
     0
330
1F
331
97
  0
MLINESTYLE
  5
18
102
{ACAD_REACTORS
330
17
102
}
330
17
100
AcDbMlineStyle
  2
Standard
 70
     0
  3

 62
     0
 51
90.0
 52
90.0
 71
     2
 49
0.5
 62
   256
  6
BYLAYER
 49
-0.5
 62
   256
  6
BYLAYER
  0
ACDBPLACEHOLDER
  5
F
102
{ACAD_REACTORS
330
E
102
}
330
E
  0
SCALE
  5
9A
102
{ACAD_REACTORS
330
99
102
}
330
99
100
AcDbScale
 70
     0
300
1:1
140
1.0
141
1.0
290
     1
  0
SCALE
  5
9B
102
{ACAD_REACTORS
330
99
102
}
330
99
100
AcDbScale
 70
     0
300
1:2
140
1.0
141
2.0
290
     0
  0
SCALE
  5
9C
102
{ACAD_REACTORS
330
99
102
}
330
99
100
AcDbScale
 70
     0
300
1:4
140
1.0
141
4.0
290
     0
  0
SCALE
  5
9D
102
{ACAD_REACTORS
330
99
102
}
330
99
100
AcDbScale
 70
     0
300
1:5
140
1.0
141
5.0
290
     0
  0
SCALE
  5
9E
102
{ACAD_REACTORS
330
99
102
}
330
99
100
AcDbScale
 70
     0
300
1:8
140
1.0
141
8.0
290
     0
  0
SCALE
  5
9F
102
{ACAD_REACTORS
330
99
102
}
330
99
100
AcDbScale
 70
     0
300
1:10
140
1.0
141
10.0
290
     0
  0
SCALE
  5
A0
102
{ACAD_REACTORS
330
99
102
}
330
99
100
AcDbScale
 70
     0
300
1:16
140
1.0
141
16.0
290
     0
  0
SCALE
  5
A1
102
{ACAD_REACTORS
330
99
102
}
330
99
100
AcDbScale
 70
     0
300
1:20
140
1.0
141
20.0
290
     0
  0
SCALE
  5
A2
102
{ACAD_REACTORS
330
99
102
}
330
99
100
AcDbScale
 70
     0
300
1:30
140
1.0
141
30.0
290
     0
  0
SCALE
  5
A3
102
{ACAD_REACTORS
330
99
102
}
330
99
100
AcDbScale
 70
     0
300
1:40
140
1.0
141
40.0
290
     0
  0
SCALE
  5
A4
102
{ACAD_REACTORS
330
99
102
}
330
99
100
AcDbScale
 70
     0
300
1:50
140
1.0
141
50.0
290
     0
  0
SCALE
  5
A5
102
{ACAD_REACTORS
330
99
102
}
330
99
100
AcDbScale
 70
     0
300
1:100
140
1.0
141
100.0
290
     0
  0
SCALE
  5
A6
102
{ACAD_REACTORS
330
99
102
}
330
99
100
AcDbScale
 70
     0
300
2:1
140
2.0
141
1.0
290
     0
  0
SCALE
  5
A7
102
{ACAD_REACTORS
330
99
102
}
330
99
100
AcDbScale
 70
     0
300
4:1
140
4.0
141
1.0
290
     0
  0
SCALE
  5
A8
102
{ACAD_REACTORS
330
99
102
}
330
99
100
AcDbScale
 70
     0
300
8:1
140
8.0
141
1.0
290
     0
  0
SCALE
  5
A9
102
{ACAD_REACTORS
330
99
102
}
330
99
100
AcDbScale
 70
     0
300
10:1
140
10.0
141
1.0
290
     0
  0
SCALE
  5
AA
102
{ACAD_REACTORS
330
99
102
}
330
99
100
AcDbScale
 70
     0
300
100:1
140
100.0
141
1.0
290
     0
  0
SCALE
  5
AB
102
{ACAD_REACTORS
330
99
102
}
330
99
100
AcDbScale
 70
     0
300
1/128" = 1'-0"
140
0.0078125
141
12.0
290
     0
  0
SCALE
  5
AC
102
{ACAD_REACTORS
330
99
102
}
330
99
100
AcDbScale
 70
     0
300
1/64" = 1'-0"
140
0.015625
141
12.0
290
     0
  0
SCALE
  5
AD
102
{ACAD_REACTORS
330
99
102
}
330
99
100
AcDbScale
 70
     0
300
1/32" = 1'-0"
140
0.03125
141
12.0
290
     0
  0
SCALE
  5
AE
102
{ACAD_REACTORS
330
99
102
}
330
99
100
AcDbScale
 70
     0
300
1/16" = 1'-0"
140
0.0625
141
12.0
290
     0
  0
SCALE
  5
AF
102
{ACAD_REACTORS
330
99
102
}
330
99
100
AcDbScale
 70
     0
300
3/32" = 1'-0"
140
0.09375
141
12.0
290
     0
  0
SCALE
  5
B0
102
{ACAD_REACTORS
330
99
102
}
330
99
100
AcDbScale
 70
     0
300
1/8" = 1'-0"
140
0.125
141
12.0
290
     0
  0
SCALE
  5
B1
102
{ACAD_REACTORS
330
99
102
}
330
99
100
AcDbScale
 70
     0
300
3/16" = 1'-0"
140
0.1875
141
12.0
290
     0
  0
SCALE
  5
B2
102
{ACAD_REACTORS
330
99
102
}
330
99
100
AcDbScale
 70
     0
300
1/4" = 1'-0"
140
0.25
141
12.0
290
     0
  0
SCALE
  5
B3
102
{ACAD_REACTORS
330
99
102
}
330
99
100
AcDbScale
 70
     0
300
3/8" = 1'-0"
140
0.375
141
12.0
290
     0
  0
SCALE
  5
B4
102
{ACAD_REACTORS
330
99
102
}
330
99
100
AcDbScale
 70
     0
300
1/2" = 1'-0"
140
0.5
141
12.0
290
     0
  0
SCALE
  5
B5
102
{ACAD_REACTORS
330
99
102
}
330
99
100
AcDbScale
 70
     0
300
3/4" = 1'-0"
140
0.75
141
12.0
290
     0
  0
SCALE
  5
B6
102
{ACAD_REACTORS
330
99
102
}
330
99
100
AcDbScale
 70
     0
300
1" = 1'-0"
140
1.0
141
12.0
290
     0
  0
SCALE
  5
B7
102
{ACAD_REACTORS
330
99
102
}
330
99
100
AcDbScale
 70
     0
300
1-1/2" = 1'-0"
140
1.5
141
12.0
290
     0
  0
SCALE
  5
B8
102
{ACAD_REACTORS
330
99
102
}
330
99
100
AcDbScale
 70
     0
300
3" = 1'-0"
140
3.0
141
12.0
290
     0
  0
SCALE
  5
B9
102
{ACAD_REACTORS
330
99
102
}
330
99
100
AcDbScale
 70
     0
300
6" = 1'-0"
140
6.0
141
12.0
290
     0
  0
SCALE
  5
BA
102
{ACAD_REACTORS
330
99
102
}
330
99
100
AcDbScale
 70
     0
300
1'-0" = 1'-0"
140
12.0
141
12.0
290
     0
  0
TABLESTYLE
  5
93
102
{ACAD_REACTORS
330
92
102
}
330
92
100
AcDbTableStyle
  3
Standard
 70
     0
 71
     0
 40
0.06
 41
0.06
280
     0
281
     0
  7
Standard
140
0.18
170
     2
 62
     0
 63
     7
283
     0
 90
      512
 91
        0
  1

274
    -2
284
     1
 64
     0
275
    -2
285
     1
 65
     0
276
    -2
286
     1
 66
     0
277
    -2
287
     1
 67
     0
278
    -2
288
     1
 68
     0
279
    -2
289
     1
 69
     0
  7
Standard
140
0.25
170
     5
 62
     0
 63
     7
283
     0
 90
      512
 91
        0
  1

274
    -2
284
     1
 64
     0
275
    -2
285
     1
 65
     0
276
    -2
286
     1
 66
     0
277
    -2
287
     1
 67
     0
278
    -2
288
     1
 68
     0
279
    -2
289
     1
 69
     0
  7
Standard
140
0.18
170
     5
 62
     0
 63
     7
283
     0
 90
      512
 91
        0
  1

274
    -2
284
     1
 64
     0
275
    -2
285
     1
 65
     0
276
    -2
286
     1
 66
     0
277
    -2
287
     1
 67
     0
278
    -2
288
     1
 68
     0
279
    -2
289
     1
 69
     0
  0
DICTIONARYVAR
  5
30D
102
{ACAD_REACTORS
330
59
102
}
330
59
100
DictionaryVariables
280
     0
  1
1:1
  0
DICTIONARYVAR
  5
98
102
{ACAD_REACTORS
330
59
102
}
330
59
100
DictionaryVariables
280
     0
  1
Standard
  0
DICTIONARYVAR
  5
2FA
102
{ACAD_REACTORS
330
59
102
}
330
59
100
DictionaryVariables
280
     0
  1
2
  0
DICTIONARYVAR
  5
5E
102
{ACAD_REACTORS
330
59
102
}
330
59
100
DictionaryVariables
280
     0
  1
1
  0
ENDSEC
  0
EOF
