  0
SECTION
  2
HEADER
  9
$ACADVER
  1
AC1021
  9
$ACADMAINTVER
 70
    25
  9
$DWGCODEPAGE
  3
ANSI_932
  9
$LASTSAVEDBY
  1
bliu
  9
$INSBASE
 10
0.0
 20
0.0
 30
0.0
  9
$EXTMIN
 10
53.375381
 20
62.61426599999999
 30
0.0
  9
$EXTMAX
 10
243.732237
 20
187.5885967851802
 30
0.0
  9
$LIMMIN
 10
53.198992
 20
62.561211
  9
$LIMMAX
 10
243.785292
 20
188.097046
  9
$ORTHOMODE
 70
     0
  9
$REGENMODE
 70
     1
  9
$FILLMODE
 70
     1
  9
$QTEXTMODE
 70
     0
  9
$MIRRTEXT
 70
     1
  9
$LTSCALE
 40
1.0
  9
$ATTMODE
 70
     1
  9
$TEXTSIZE
 40
0.2
  9
$TRACEWID
 40
0.05
  9
$TEXTSTYLE
  7
Standard
  9
$CLAYER
  8
0
  9
$CELTYPE
  6
Continuous
  9
$CECOLOR
 62
   256
  9
$CELTSCALE
 40
1.0
  9
$DISPSILH
 70
     0
  9
$DIMSCALE
 40
1.0
  9
$DIMASZ
 40
0.18
  9
$DIMEXO
 40
0.0625
  9
$DIMDLI
 40
0.38
  9
$DIMRND
 40
0.0
  9
$DIMDLE
 40
0.0
  9
$DIMEXE
 40
0.18
  9
$DIMTP
 40
0.0
  9
$DIMTM
 40
0.0
  9
$DIMTXT
 40
0.18
  9
$DIMCEN
 40
0.09
  9
$DIMTSZ
 40
0.0
  9
$DIMTOL
 70
     0
  9
$DIMLIM
 70
     0
  9
$DIMTIH
 70
     1
  9
$DIMTOH
 70
     1
  9
$DIMSE1
 70
     0
  9
$DIMSE2
 70
     0
  9
$DIMTAD
 70
     0
  9
$DIMZIN
 70
     0
  9
$DIMBLK
  1

  9
$DIMASO
 70
     1
  9
$DIMSHO
 70
     1
  9
$DIMPOST
  1

  9
$DIMAPOST
  1

  9
$DIMALT
 70
     0
  9
$DIMALTD
 70
     2
  9
$DIMALTF
 40
25.4
  9
$DIMLFAC
 40
1.0
  9
$DIMTOFL
 70
     0
  9
$DIMTVP
 40
0.0
  9
$DIMTIX
 70
     0
  9
$DIMSOXD
 70
     0
  9
$DIMSAH
 70
     0
  9
$DIMBLK1
  1

  9
$DIMBLK2
  1

  9
$DIMSTYLE
  2
Standard
  9
$DIMCLRD
 70
     0
  9
$DIMCLRE
 70
     0
  9
$DIMCLRT
 70
     0
  9
$DIMTFAC
 40
1.0
  9
$DIMGAP
 40
0.09
  9
$DIMJUST
 70
     0
  9
$DIMSD1
 70
     0
  9
$DIMSD2
 70
     0
  9
$DIMTOLJ
 70
     1
  9
$DIMTZIN
 70
     0
  9
$DIMALTZ
 70
     0
  9
$DIMALTTZ
 70
     0
  9
$DIMUPT
 70
     0
  9
$DIMDEC
 70
     4
  9
$DIMTDEC
 70
     4
  9
$DIMALTU
 70
     2
  9
$DIMALTTD
 70
     2
  9
$DIMTXSTY
  7
Standard
  9
$DIMAUNIT
 70
     0
  9
$DIMADEC
 70
     0
  9
$DIMALTRND
 40
0.0
  9
$DIMAZIN
 70
     0
  9
$DIMDSEP
 70
     0
  9
$DIMATFIT
 70
     3
  9
$DIMFRAC
 70
     0
  9
$DIMLDRBLK
  1

  9
$DIMLUNIT
 70
     2
  9
$DIMLWD
 70
     0
  9
$DIMLWE
 70
     0
  9
$DIMTMOVE
 70
     0
  9
$DIMFXL
 40
1.0
  9
$DIMFXLON
 70
     0
  9
$DIMJOGANG
 40
0.7853981633974483
  9
$DIMTFILL
 70
     0
  9
$DIMTFILLCLR
 70
     0
  9
$DIMARCSYM
 70
     0
  9
$DIMLTYPE
  6

  9
$DIMLTEX1
  6

  9
$DIMLTEX2
  6

  9
$LUNITS
 70
     2
  9
$LUPREC
 70
     4
  9
$SKETCHINC
 40
0.1
  9
$FILLETRAD
 40
0.0
  9
$AUNITS
 70
     0
  9
$AUPREC
 70
     0
  9
$MENU
  1
.
  9
$ELEVATION
 40
0.0
  9
$PELEVATION
 40
0.0
  9
$THICKNESS
 40
0.0
  9
$LIMCHECK
 70
     0
  9
$CHAMFERA
 40
0.0
  9
$CHAMFERB
 40
0.0
  9
$CHAMFERC
 40
0.0
  9
$CHAMFERD
 40
0.0
  9
$SKPOLY
 70
     0
  9
$TDCREATE
 40
2453354.133792488
  9
$TDUCREATE
 40
2453353.717125822
  9
$TDUPDATE
 40
2447893.459039364
  9
$TDUUPDATE
 40
2447893.042372697
  9
$TDINDWG
 40
0.0426273264
  9
$TDUSRTIMER
 40
0.0426273264
  9
$USRTIMER
 70
     1
  9
$ANGBASE
 50
0.0
  9
$ANGDIR
 70
     0
  9
$PDMODE
 70
     0
  9
$PDSIZE
 40
0.0
  9
$PLINEWID
 40
0.0
  9
$SPLFRAME
 70
     0
  9
$SPLINETYPE
 70
     6
  9
$SPLINESEGS
 70
     8
  9
$HANDSEED
  5
292
  9
$SURFTAB1
 70
     6
  9
$SURFTAB2
 70
     6
  9
$SURFTYPE
 70
     6
  9
$SURFU
 70
     6
  9
$SURFV
 70
     6
  9
$UCSBASE
  2

  9
$UCSNAME
  2

  9
$UCSORG
 10
0.0
 20
0.0
 30
0.0
  9
$UCSXDIR
 10
1.0
 20
0.0
 30
0.0
  9
$UCSYDIR
 10
0.0
 20
1.0
 30
0.0
  9
$UCSORTHOREF
  2

  9
$UCSORTHOVIEW
 70
     0
  9
$UCSORGTOP
 10
0.0
 20
0.0
 30
0.0
  9
$UCSORGBOTTOM
 10
0.0
 20
0.0
 30
0.0
  9
$UCSORGLEFT
 10
0.0
 20
0.0
 30
0.0
  9
$UCSORGRIGHT
 10
0.0
 20
0.0
 30
0.0
  9
$UCSORGFRONT
 10
0.0
 20
0.0
 30
0.0
  9
$UCSORGBACK
 10
0.0
 20
0.0
 30
0.0
  9
$PUCSBASE
  2

  9
$PUCSNAME
  2

  9
$PUCSORG
 10
0.0
 20
0.0
 30
0.0
  9
$PUCSXDIR
 10
1.0
 20
0.0
 30
0.0
  9
$PUCSYDIR
 10
0.0
 20
1.0
 30
0.0
  9
$PUCSORTHOREF
  2

  9
$PUCSORTHOVIEW
 70
     0
  9
$PUCSORGTOP
 10
0.0
 20
0.0
 30
0.0
  9
$PUCSORGBOTTOM
 10
0.0
 20
0.0
 30
0.0
  9
$PUCSORGLEFT
 10
0.0
 20
0.0
 30
0.0
  9
$PUCSORGRIGHT
 10
0.0
 20
0.0
 30
0.0
  9
$PUCSORGFRONT
 10
0.0
 20
0.0
 30
0.0
  9
$PUCSORGBACK
 10
0.0
 20
0.0
 30
0.0
  9
$USERI1
 70
     0
  9
$USERI2
 70
     0
  9
$USERI3
 70
     0
  9
$USERI4
 70
     0
  9
$USERI5
 70
     0
  9
$USERR1
 40
0.0
  9
$USERR2
 40
0.0
  9
$USERR3
 40
0.0
  9
$USERR4
 40
0.0
  9
$USERR5
 40
0.0
  9
$WORLDVIEW
 70
     1
  9
$SHADEDGE
 70
     3
  9
$SHADEDIF
 70
    70
  9
$TILEMODE
 70
     1
  9
$MAXACTVP
 70
    16
  9
$PINSBASE
 10
0.0
 20
0.0
 30
0.0
  9
$PLIMCHECK
 70
     0
  9
$PEXTMIN
 10
0.0
 20
0.0
 30
0.0
  9
$PEXTMAX
 10
0.0
 20
0.0
 30
0.0
  9
$PLIMMIN
 10
0.0
 20
0.0
  9
$PLIMMAX
 10
0.0
 20
0.0
  9
$UNITMODE
 70
     0
  9
$VISRETAIN
 70
     0
  9
$PLINEGEN
 70
     1
  9
$PSLTSCALE
 70
     0
  9
$TREEDEPTH
 70
  3020
  9
$CMLSTYLE
  2
Standard
  9
$CMLJUST
 70
     0
  9
$CMLSCALE
 40
1.0
  9
$PROXYGRAPHICS
 70
     0
  9
$MEASUREMENT
 70
     1
  9
$CELWEIGHT
370
     0
  9
$ENDCAPS
280
     0
  9
$JOINSTYLE
280
     0
  9
$LWDISPLAY
290
     0
  9
$INSUNITS
 70
     0
  9
$HYPERLINKBASE
  1

  9
$STYLESHEET
  1

  9
$XEDIT
290
     0
  9
$CEPSNTYPE
380
     0
  9
$PSTYLEMODE
290
     1
  9
$FINGERPRINTGUID
  2

  9
$VERSIONGUID
  2

  9
$EXTNAMES
290
     1
  9
$PSVPSCALE
 40
0.0
  9
$OLESTARTUP
290
     0
  9
$SORTENTS
280
   127
  9
$INDEXCTL
280
     0
  9
$HIDETEXT
280
     1
  9
$XCLIPFRAME
290
     0
  9
$HALOGAP
280
     0
  9
$OBSCOLOR
 70
   257
  9
$OBSLTYPE
280
     0
  9
$INTERSECTIONDISPLAY
280
     0
  9
$INTERSECTIONCOLOR
 70
   257
  9
$DIMASSOC
280
     2
  9
$PROJECTNAME
  1

  9
$CAMERADISPLAY
290
     0
  9
$LENSLENGTH
 40
50.0
  9
$CAMERAHEIGHT
 40
0.0
  9
$STEPSPERSEC
 40
2.0
  9
$STEPSIZE
 40
6.0
  9
$3DDWFPREC
 40
2.0
  9
$PSOLWIDTH
 40
0.25
  9
$PSOLHEIGHT
 40
4.0
  9
$LOFTANG1
 40
1.570796326794897
  9
$LOFTANG2
 40
1.570796326794897
  9
$LOFTMAG1
 40
0.0
  9
$LOFTMAG2
 40
0.0
  9
$LOFTPARAM
 70
     7
  9
$LOFTNORMALS
280
     1
  9
$LATITUDE
 40
37.795
  9
$LONGITUDE
 40
-122.394
  9
$NORTHDIRECTION
 40
0.0
  9
$TIMEZONE
 70
 -8000
  9
$LIGHTGLYPHDISPLAY
280
     1
  9
$TILEMODELIGHTSYNCH
280
     1
  9
$SOLIDHIST
280
     1
  9
$SHOWHIST
280
     1
  9
$DWFFRAME
280
     2
  9
$DGNFRAME
280
     2
  9
$REALWORLDSCALE
290
     1
  9
$INTERFERECOLOR
 62
   256
  9
$CSHADOW
280
     0
  9
$SHADOWPLANELOCATION
 40
0.0
  0
ENDSEC
  0
SECTION
  2
CLASSES
  0
CLASS
  1
ACDBDICTIONARYWDFLT
  2
AcDbDictionaryWithDefault
  3
ObjectDBX Classes
 90
        0
 91
        4
280
     0
281
     0
  0
CLASS
  1
ACDBPLACEHOLDER
  2
AcDbPlaceHolder
  3
ObjectDBX Classes
 90
        0
 91
        1
280
     0
281
     0
  0
CLASS
  1
LAYOUT
  2
AcDbLayout
  3
ObjectDBX Classes
 90
        0
 91
        1
280
     0
281
     0
  0
CLASS
  1
DICTIONARYVAR
  2
AcDbDictionaryVar
  3
ObjectDBX Classes
 90
        0
 91
        4
280
     0
281
     0
  0
CLASS
  1
TABLESTYLE
  2
AcDbTableStyle
  3
ObjectDBX Classes
 90
     4095
 91
        4
280
     0
281
     0
  0
CLASS
  1
SCALE
  2
AcDbScale
  3
ObjectDBX Classes
 90
     1153
 91
        4
280
     0
281
     0
  0
CLASS
  1
WIPEOUTVARIABLES
  2
AcDbWipeoutVariables
  3
WipeOut|AutoCAD Express Tool|expresstools@autodesk.com
 90
        0
 91
        4
280
     0
281
     0
  0
ENDSEC
  0
SECTION
  2
TABLES
  0
TABLE
  2
VPORT
  5
8
330
0
100
AcDbSymbolTable
 70
     2
  0
VPORT
  5
97
330
8
100
AcDbSymbolTableRecord
100
AcDbViewportTableRecord
  2
*ACTIVE
 70
     0
 10
0.0
 20
0.0
 11
1.0
 21
1.0
 12
148.492142
 22
125.3291285
 13
0.0
 23
0.0
 14
1.0
 24
1.0
 15
0.0
 25
0.0
 16
0.0
 26
0.0
 36
1.0
 17
0.0
 27
0.0
 37
0.0
 40
128.0465517
 41
0.688564
 42
50.0
 43
0.0
 44
0.0
 50
0.0
 51
0.0
 71
    16
 72
   100
 73
     1
 74
     1
 75
     0
 76
     0
 77
     0
 78
     0
281
     0
 65
     0
110
0.0
120
0.0
130
0.0
111
1.0
121
0.0
131
0.0
112
0.0
122
1.0
132
0.0
 79
     0
146
0.0
 60
     3
 61
     5
292
     1
282
     1
141
0.0
142
0.0
 63
   256
  0
ENDTAB
  0
TABLE
  2
LTYPE
  5
5
330
0
100
AcDbSymbolTable
 70
     1
  0
LTYPE
  5
14
330
5
100
AcDbSymbolTableRecord
100
AcDbLinetypeTableRecord
  2
ByBlock
 70
     0
  3

 72
    65
 73
     0
 40
0.0
  0
LTYPE
  5
15
330
5
100
AcDbSymbolTableRecord
100
AcDbLinetypeTableRecord
  2
ByLayer
 70
     0
  3

 72
    65
 73
     0
 40
0.0
  0
LTYPE
  5
16
330
5
100
AcDbSymbolTableRecord
100
AcDbLinetypeTableRecord
  2
Continuous
 70
     0
  3
Solid line
 72
    65
 73
     0
 40
0.0
  0
ENDTAB
  0
TABLE
  2
LAYER
  5
2
330
0
100
AcDbSymbolTable
 70
     2
  0
LAYER
  5
10
330
2
100
AcDbSymbolTableRecord
100
AcDbLayerTableRecord
  2
0
 70
     0
 62
     7
  6
Continuous
370
    -3
390
F
347
0
  0
LAYER
  5
28
330
2
100
AcDbSymbolTableRecord
100
AcDbLayerTableRecord
  2
LAYER_1
 70
     0
 62
   160
  6
Continuous
370
    -3
390
F
347
0
  0
ENDTAB
  0
TABLE
  2
STYLE
  5
3
330
0
100
AcDbSymbolTable
 70
     5
  0
STYLE
  5
11
330
3
100
AcDbSymbolTableRecord
100
AcDbTextStyleTableRecord
  2
Standard
 70
     0
 40
0.0
 41
1.0
 50
0.0
 71
     0
 42
0.2
  3
txt
  4

  0
STYLE
  5
24
330
3
100
AcDbSymbolTableRecord
100
AcDbTextStyleTableRecord
  2
STD
 70
     0
 40
0.0
 41
1.0
 50
0.0
 71
     0
 42
0.2
  3
txt
  4

  0
STYLE
  5
25
330
3
100
AcDbSymbolTableRecord
100
AcDbTextStyleTableRecord
  2
TATESTD
 70
     4
 40
0.0
 41
1.0
 50
0.0
 71
     0
 42
0.2
  3
txt
  4

  0
STYLE
  5
26
330
3
100
AcDbSymbolTableRecord
100
AcDbTextStyleTableRecord
  2
KANJISTD
 70
     0
 40
0.0
 41
1.0
 50
0.0
 71
     0
 42
0.2
  3
txt
  4
extfont
  0
STYLE
  5
261
330
3
100
AcDbSymbolTableRecord
100
AcDbTextStyleTableRecord
  2
KANJITATE
 70
     4
 40
0.0
 41
1.0
 50
0.0
 71
     0
 42
0.2
  3
txt
  4
extfont
  0
ENDTAB
  0
TABLE
  2
VIEW
  5
6
330
0
100
AcDbSymbolTable
 70
     0
  0
ENDTAB
  0
TABLE
  2
UCS
  5
7
330
0
100
AcDbSymbolTable
 70
     0
  0
ENDTAB
  0
TABLE
  2
APPID
  5
9
330
0
100
AcDbSymbolTable
 70
     1
  0
APPID
  5
12
330
9
100
AcDbSymbolTableRecord
100
AcDbRegAppTableRecord
  2
ACAD
 70
     0
  0
ENDTAB
  0
TABLE
  2
DIMSTYLE
  5
A
330
0
100
AcDbSymbolTable
 70
     1
100
AcDbDimStyleTable
  0
DIMSTYLE
105
27
330
A
100
AcDbSymbolTableRecord
100
AcDbDimStyleTableRecord
  2
Standard
 70
     0
340
11
  0
ENDTAB
  0
TABLE
  2
BLOCK_RECORD
  5
1
330
0
100
AcDbSymbolTable
 70
    13
  0
BLOCK_RECORD
  5
1F
102
{ACAD_XDICTIONARY
360
28F
102
}
330
1
100
AcDbSymbolTableRecord
100
AcDbBlockTableRecord
  2
*Model_Space
340
22
 70
     0
280
     1
281
     0
  0
BLOCK_RECORD
  5
73
330
1
100
AcDbSymbolTableRecord
100
AcDbBlockTableRecord
  2
*Paper_Space
340
74
 70
     0
280
     1
281
     0
  0
BLOCK_RECORD
  5
29
330
1
100
AcDbSymbolTableRecord
100
AcDbBlockTableRecord
  2
AI9-BLK1
340
0
102
{BLKREFS
331
2A
102
}
 70
     0
280
     1
281
     0
  0
BLOCK_RECORD
  5
35
330
1
100
AcDbSymbolTableRecord
100
AcDbBlockTableRecord
  2
AI9-BLK2
340
0
102
{BLKREFS
331
36
102
}
 70
     0
280
     1
281
     0
  0
BLOCK_RECORD
  5
3A
330
1
100
AcDbSymbolTableRecord
100
AcDbBlockTableRecord
  2
AI9-BLK3
340
0
102
{BLKREFS
331
3B
102
}
 70
     0
280
     1
281
     0
  0
BLOCK_RECORD
  5
3D
330
1
100
AcDbSymbolTableRecord
100
AcDbBlockTableRecord
  2
AI9-BLK4
340
0
102
{BLKREFS
331
3E
102
}
 70
     0
280
     1
281
     0
  0
BLOCK_RECORD
  5
40
330
1
100
AcDbSymbolTableRecord
100
AcDbBlockTableRecord
  2
AI9-BLK5
340
0
102
{BLKREFS
331
41
102
}
 70
     0
280
     1
281
     0
  0
BLOCK_RECORD
  5
47
330
1
100
AcDbSymbolTableRecord
100
AcDbBlockTableRecord
  2
AI9-BLK6
340
0
102
{BLKREFS
331
48
102
}
 70
     0
280
     1
281
     0
  0
BLOCK_RECORD
  5
54
330
1
100
AcDbSymbolTableRecord
100
AcDbBlockTableRecord
  2
AI9-BLK7
340
0
102
{BLKREFS
331
55
102
}
 70
     0
280
     1
281
     0
  0
BLOCK_RECORD
  5
60
330
1
100
AcDbSymbolTableRecord
100
AcDbBlockTableRecord
  2
AI9-BLK8
340
0
102
{BLKREFS
331
61
102
}
 70
     0
280
     1
281
     0
  0
BLOCK_RECORD
  5
273
330
1
100
AcDbSymbolTableRecord
100
AcDbBlockTableRecord
  2
AI9-BLK9
340
0
102
{BLKREFS
331
6D
102
}
 70
     0
280
     1
281
     0
  0
BLOCK_RECORD
  5
70
330
1
100
AcDbSymbolTableRecord
100
AcDbBlockTableRecord
  2
AI9-BLK10
340
0
102
{BLKREFS
331
71
102
}
 70
     0
280
     1
281
     0
  0
BLOCK_RECORD
  5
278
330
1
100
AcDbSymbolTableRecord
100
AcDbBlockTableRecord
  2
AI9-BLK11
340
0
102
{BLKREFS
331
280
102
}
 70
     0
280
     1
281
     0
  0
BLOCK_RECORD
  5
1F1
330
1
100
AcDbSymbolTableRecord
100
AcDbBlockTableRecord
  2
AI9-BLK12
340
0
102
{BLKREFS
331
1F2
102
}
 70
     0
280
     1
281
     0
  0
BLOCK_RECORD
  5
233
330
1
100
AcDbSymbolTableRecord
100
AcDbBlockTableRecord
  2
AI9-BLK13
340
0
102
{BLKREFS
331
234
102
}
 70
     0
280
     1
281
     0
  0
ENDTAB
  0
ENDSEC
  0
SECTION
  2
BLOCKS
  0
BLOCK
  5
20
330
1F
100
AcDbEntity
  8
0
100
AcDbBlockBegin
  2
*Model_Space
 70
     0
 10
0.0
 20
0.0
 30
0.0
  3
*Model_Space
  1

  0
ENDBLK
  5
21
330
1F
100
AcDbEntity
  8
0
100
AcDbBlockEnd
  0
BLOCK
  5
75
330
73
100
AcDbEntity
 67
     1
  8
0
100
AcDbBlockBegin
  2
*Paper_Space
 70
     0
 10
0.0
 20
0.0
 30
0.0
  3
*Paper_Space
  1

  0
ENDBLK
  5
76
330
73
100
AcDbEntity
 67
     1
  8
0
100
AcDbBlockEnd
  0
BLOCK
  5
263
330
29
100
AcDbEntity
  8
LAYER_1
100
AcDbBlockBegin
  2
AI9-BLK1
 70
     0
 10
0.0
 20
0.0
 30
0.0
  3
AI9-BLK1
  1

  0
INSERT
  5
3B
330
29
100
AcDbEntity
  8
LAYER_1
 62
     7
100
AcDbBlockReference
  2
AI9-BLK3
 10
0.0
 20
-5.563915
 30
0.0
  0
INSERT
  5
36
330
29
100
AcDbEntity
  8
LAYER_1
 62
     7
100
AcDbBlockReference
  2
AI9-BLK2
 10
0.412895
 20
16.498132
 30
0.0
  0
LINE
  5
34
330
29
100
AcDbEntity
  8
LAYER_1
 62
     7
100
AcDbLine
 10
-3.15054
 20
13.618721
 30
0.0
 11
-6.714147
 21
14.006983
 31
0.0
  0
LINE
  5
33
330
29
100
AcDbEntity
  8
LAYER_1
 62
     7
100
AcDbLine
 10
-3.15054
 20
14.359761
 30
0.0
 11
-3.15054
 21
13.618721
 31
0.0
  0
LINE
  5
32
330
29
100
AcDbEntity
  8
LAYER_1
 62
     7
100
AcDbLine
 10
-6.714147
 20
14.006983
 30
0.0
 11
-3.15054
 21
14.359761
 31
0.0
  0
LINE
  5
31
330
29
100
AcDbEntity
  8
LAYER_1
 62
     7
100
AcDbLine
 10
3.19946
 20
14.359761
 30
0.0
 11
6.762378
 21
14.006983
 31
0.0
  0
LINE
  5
30
330
29
100
AcDbEntity
  8
LAYER_1
 62
     7
100
AcDbLine
 10
3.19946
 20
13.618721
 30
0.0
 11
3.19946
 21
14.359761
 31
0.0
  0
LINE
  5
2F
330
29
100
AcDbEntity
  8
LAYER_1
 62
     7
100
AcDbLine
 10
6.762378
 20
14.006983
 30
0.0
 11
3.19946
 21
13.618721
 31
0.0
  0
LINE
  5
2E
330
29
100
AcDbEntity
  8
LAYER_1
 62
     7
100
AcDbLine
 10
6.762378
 20
14.006983
 30
0.0
 11
-6.714147
 21
14.006983
 31
0.0
  0
LINE
  5
2D
330
29
100
AcDbEntity
  8
LAYER_1
 62
     7
100
AcDbLine
 10
-6.714147
 20
-1.585864
 30
0.0
 11
-6.714147
 21
14.994692
 31
0.0
  0
LINE
  5
2C
330
29
100
AcDbEntity
  8
LAYER_1
 62
     7
100
AcDbLine
 10
6.762378
 20
-1.585864
 30
0.0
 11
6.762378
 21
14.994692
 31
0.0
  0
ENDBLK
  5
264
330
29
100
AcDbEntity
  8
LAYER_1
100
AcDbBlockEnd
  0
BLOCK
  5
265
330
35
100
AcDbEntity
  8
LAYER_1
100
AcDbBlockBegin
  2
AI9-BLK2
 70
     0
 10
0.0
 20
0.0
 30
0.0
  3
AI9-BLK2
  1

  0
MTEXT
  5
38
330
35
100
AcDbEntity
  8
LAYER_1
 62
     7
100
AcDbMText
 10
-2.587094
 20
2.075264
 30
0.0
 40
3.339442
 41
0.0
 46
0.0
 71
     1
 72
     2
  1
\fCentury Gothic|b0|i0;\H3.3394;\W1.02;\C7;30
  7
STD
 73
     1
 44
1.0
  0
ENDBLK
  5
266
330
35
100
AcDbEntity
  8
LAYER_1
100
AcDbBlockEnd
  0
BLOCK
  5
267
330
3A
100
AcDbEntity
  8
LAYER_1
100
AcDbBlockBegin
  2
AI9-BLK3
 70
     0
 10
0.0
 20
0.0
 30
0.0
  3
AI9-BLK3
  1

  0
SPLINE
  5
51
330
3A
100
AcDbEntity
  8
LAYER_1
 62
     7
100
AcDbSpline
210
0.0
220
0.0
230
1.0
 70
     8
 71
     3
 72
     8
 73
     4
 74
     0
 42
0.00000001
 43
0.00000001
 40
0.0
 40
0.0
 40
0.0
 40
0.0
 40
1.0
 40
1.0
 40
1.0
 40
1.0
 10
12.70516764322917
 20
-4.349949815538194
 30
0.0
 10
11.46665581597222
 20
-7.967989095052083
 30
0.0
 10
8.727115885416666
 20
-10.88977457682292
 30
0.0
 10
5.229310438368055
 20
-12.37047661675347
 30
0.0
  0
SPLINE
  5
50
330
3A
100
AcDbEntity
  8
LAYER_1
 62
     7
100
AcDbSpline
210
0.0
220
0.0
230
1.0
 70
     8
 71
     3
 72
    20
 73
    16
 74
     0
 42
0.00000001
 43
0.00000001
 40
0.0
 40
0.0
 40
0.0
 40
0.0
 40
1.0
 40
1.0
 40
1.0
 40
2.0
 40
2.0
 40
2.0
 40
3.0
 40
3.0
 40
3.0
 40
4.0
 40
4.0
 40
4.0
 40
5.0
 40
5.0
 40
5.0
 40
5.0
 10
5.229310438368055
 20
-12.37047661675347
 30
0.0
 10
3.621139865451389
 20
-13.04967719184028
 30
0.0
 10
1.854494900173611
 20
-13.425537109375
 30
0.0
 10
-0.0003445095486111
 20
-13.425537109375
 30
0.0
 10
-7.414189995659721
 20
-13.425537109375
 30
0.0
 10
-13.42519259982639
 20
-7.414189995659721
 30
0.0
 10
-13.42519259982639
 20
0.0
 30
0.0
 10
-13.42519259982639
 20
7.415568033854166
 30
0.0
 10
-7.414189995659721
 20
13.425537109375
 30
0.0
 10
-0.0003445095486111
 20
13.425537109375
 30
0.0
 10
7.415568033854166
 20
13.425537109375
 30
0.0
 10
13.42519259982639
 20
7.415568033854166
 30
0.0
 10
13.42519259982639
 20
0.0
 30
0.0
 10
13.42519259982639
 20
-1.5223876953125
 30
0.0
 10
13.17197808159722
 20
-2.985692003038194
 30
0.0
 10
12.70516764322917
 20
-4.349949815538194
 30
0.0
  0
CIRCLE
  5
4F
330
3A
100
AcDbEntity
  8
LAYER_1
 62
     7
100
AcDbCircle
 10
-0.000172
 20
0.0
 30
0.0
 40
12.223027
  0
INSERT
  5
3E
330
3A
100
AcDbEntity
  8
LAYER_1
 62
     7
100
AcDbBlockReference
  2
AI9-BLK4
 10
0.0
 20
0.000775
 30
0.0
  0
ENDBLK
  5
268
330
3A
100
AcDbEntity
  8
LAYER_1
100
AcDbBlockEnd
  0
BLOCK
  5
269
330
3D
100
AcDbEntity
  8
LAYER_1
100
AcDbBlockBegin
  2
AI9-BLK4
 70
     0
 10
0.0
 20
0.0
 30
0.0
  3
AI9-BLK4
  1

  0
CIRCLE
  5
4D
330
3D
100
AcDbEntity
  8
LAYER_1
 62
     7
100
AcDbCircle
 10
-6.723621
 20
-0.000775
 30
0.0
 40
1.583538
  0
INSERT
  5
48
330
3D
100
AcDbEntity
  8
LAYER_1
 62
     7
100
AcDbBlockReference
  2
AI9-BLK6
 10
-6.723621
 20
0.0
 30
0.0
  0
CIRCLE
  5
46
330
3D
100
AcDbEntity
  8
LAYER_1
 62
     7
100
AcDbCircle
 10
6.723621
 20
-0.000775
 30
0.0
 40
1.583538
  0
INSERT
  5
41
330
3D
100
AcDbEntity
  8
LAYER_1
 62
     7
100
AcDbBlockReference
  2
AI9-BLK5
 10
6.723621
 20
0.0
 30
0.0
  0
ENDBLK
  5
26A
330
3D
100
AcDbEntity
  8
LAYER_1
100
AcDbBlockEnd
  0
BLOCK
  5
26B
330
40
100
AcDbEntity
  8
LAYER_1
100
AcDbBlockBegin
  2
AI9-BLK5
 70
     0
 10
0.0
 20
0.0
 30
0.0
  3
AI9-BLK5
  1

  0
LINE
  5
44
330
40
100
AcDbEntity
  8
LAYER_1
 62
     7
100
AcDbLine
 10
-3.622346
 20
-0.000775
 30
0.0
 11
3.622346
 21
-0.000775
 31
0.0
  0
LINE
  5
43
330
40
100
AcDbEntity
  8
LAYER_1
 62
     7
100
AcDbLine
 10
-0.000517
 20
3.673075
 30
0.0
 11
-0.000517
 21
-3.673075
 31
0.0
  0
ENDBLK
  5
26C
330
40
100
AcDbEntity
  8
LAYER_1
100
AcDbBlockEnd
  0
BLOCK
  5
26D
330
47
100
AcDbEntity
  8
LAYER_1
100
AcDbBlockBegin
  2
AI9-BLK6
 70
     0
 10
0.0
 20
0.0
 30
0.0
  3
AI9-BLK6
  1

  0
LINE
  5
4B
330
47
100
AcDbEntity
  8
LAYER_1
 62
     7
100
AcDbLine
 10
-3.622346
 20
-0.000775
 30
0.0
 11
3.622346
 21
-0.000775
 31
0.0
  0
LINE
  5
4A
330
47
100
AcDbEntity
  8
LAYER_1
 62
     7
100
AcDbLine
 10
-0.000861
 20
3.673075
 30
0.0
 11
-0.000861
 21
-3.673075
 31
0.0
  0
ENDBLK
  5
26E
330
47
100
AcDbEntity
  8
LAYER_1
100
AcDbBlockEnd
  0
BLOCK
  5
26F
330
54
100
AcDbEntity
  8
LAYER_1
100
AcDbBlockBegin
  2
AI9-BLK7
 70
     0
 10
0.0
 20
0.0
 30
0.0
  3
AI9-BLK7
  1

  0
LINE
  5
27F
330
54
100
AcDbEntity
  8
LAYER_1
 62
     7
100
AcDbLine
 10
-25.407665
 20
-3.682807
 30
0.0
 11
27.977707
 21
-3.682807
 31
0.0
  0
LINE
  5
5D
330
54
100
AcDbEntity
  8
LAYER_1
 62
     7
100
AcDbLine
 10
27.677639
 20
4.324973
 30
0.0
 11
-25.371836
 21
4.324973
 31
0.0
  0
LWPOLYLINE
  5
57
330
54
100
AcDbEntity
  8
LAYER_1
 62
     7
100
AcDbPolyline
 90
        4
 70
     1
 43
0.0
 10
-27.977707
 20
-6.199105
 10
-25.419379
 20
-6.199105
 10
-25.419379
 20
6.199105
 10
-27.977707
 20
6.199105
  0
ENDBLK
  5
270
330
54
100
AcDbEntity
  8
LAYER_1
100
AcDbBlockEnd
  0
BLOCK
  5
271
330
60
100
AcDbEntity
  8
LAYER_1
100
AcDbBlockBegin
  2
AI9-BLK8
 70
     0
 10
0.0
 20
0.0
 30
0.0
  3
AI9-BLK8
  1

  0
LINE
  5
6A
330
60
100
AcDbEntity
  8
LAYER_1
 62
     7
100
AcDbLine
 10
-26.233369
 20
-3.683152
 30
0.0
 11
23.663327
 21
-3.683152
 31
0.0
  0
LINE
  5
69
330
60
100
AcDbEntity
  8
LAYER_1
 62
     7
100
AcDbLine
 10
23.627498
 20
4.325317
 30
0.0
 11
-26.033553
 21
4.325317
 31
0.0
  0
LWPOLYLINE
  5
63
330
60
100
AcDbEntity
  8
LAYER_1
 62
     7
100
AcDbPolyline
 90
        4
 70
     1
 43
0.0
 10
26.233369
 20
-6.19876
 10
23.675041
 20
-6.19876
 10
23.675041
 20
6.19876
 10
26.233369
 20
6.19876
  0
ENDBLK
  5
272
330
60
100
AcDbEntity
  8
LAYER_1
100
AcDbBlockEnd
  0
BLOCK
  5
274
330
273
100
AcDbEntity
  8
LAYER_1
100
AcDbBlockBegin
  2
AI9-BLK9
 70
     0
 10
0.0
 20
0.0
 30
0.0
  3
AI9-BLK9
  1

  0
INSERT
  5
234
330
273
100
AcDbEntity
  8
LAYER_1
 62
     7
100
AcDbBlockReference
  2
AI9-BLK13
 10
-81.365232
 20
39.199502
 30
0.0
  0
MTEXT
  5
232
330
273
100
AcDbEntity
  8
LAYER_1
 62
     7
100
AcDbMText
 10
-61.406924
 20
-5.030184
 30
0.0
 40
3.339442
 41
0.0
 46
0.0
 71
     1
 72
     2
  1
\fCentury Gothic|b0|i0;\H3.3394;\W1.02;\C7;100
  7
STD
 11
0.0
 21
1.0
 31
0.0
 73
     1
 44
1.0
  0
LINE
  5
231
330
273
100
AcDbEntity
  8
LAYER_1
 62
     7
100
AcDbLine
 10
-67.600267
 20
-40.261797
 30
0.0
 11
-65.836378
 21
-35.816935
 31
0.0
  0
LWPOLYLINE
  5
1F7
330
273
100
AcDbEntity
  8
LAYER_1
 62
     7
100
AcDbPolyline
 90
       56
 70
     0
 43
0.0
 10
-65.165962
 20
-38.039711
 10
-65.165962
 20
-37.863322
 10
-65.201102
 20
-37.686933
 10
-65.271726
 20
-37.545684
 10
-65.307211
 20
-37.369295
 10
-65.412975
 20
-37.228046
 10
-65.51874
 20
-37.051657
 10
-65.624504
 20
-36.946238
 10
-65.765753
 20
-36.804989
 10
-65.906658
 20
-36.73402
 10
-66.083046
 20
-36.6286
 10
-66.224295
 20
-36.557631
 10
-66.400684
 20
-36.522491
 10
-66.577073
 20
-36.487351
 10
-66.753462
 20
-36.487351
 10
-66.929851
 20
-36.522491
 10
-67.10624
 20
-36.557631
 10
-67.282629
 20
-36.59346
 10
-67.459018
 20
-36.66374
 10
-67.600267
 20
-36.769849
 10
-67.741171
 20
-36.875269
 10
-67.88242
 20
-37.016517
 10
-67.988184
 20
-37.122626
 10
-68.058809
 20
-37.299015
 10
-68.164573
 20
-37.439575
 10
-68.199713
 20
-37.615964
 10
-68.235198
 20
-37.792353
 10
-68.270338
 20
-37.968742
 10
-68.270338
 20
-38.145131
 10
-68.235198
 20
-38.32152
 10
-68.199713
 20
-38.497909
 10
-68.164573
 20
-38.674297
 10
-68.058809
 20
-38.815546
 10
-67.988184
 20
-38.956795
 10
-67.88242
 20
-39.098044
 10
-67.741171
 20
-39.239293
 10
-67.600267
 20
-39.344713
 10
-67.459018
 20
-39.415682
 10
-67.282629
 20
-39.485962
 10
-67.10624
 20
-39.556242
 10
-66.929851
 20
-39.592071
 10
-66.753462
 20
-39.592071
 10
-66.577073
 20
-39.592071
 10
-66.400684
 20
-39.592071
 10
-66.224295
 20
-39.521102
 10
-66.083046
 20
-39.485962
 10
-65.906658
 20
-39.379853
 10
-65.765753
 20
-39.274433
 10
-65.624504
 20
-39.168324
 10
-65.51874
 20
-39.027075
 10
-65.412975
 20
-38.886515
 10
-65.307211
 20
-38.745266
 10
-65.271726
 20
-38.568877
 10
-65.201102
 20
-38.392489
 10
-65.165962
 20
-38.2161
 10
-65.165962
 20
-38.039711
  0
INSERT
  5
1F2
330
273
100
AcDbEntity
  8
LAYER_1
 62
     7
100
AcDbBlockReference
  2
AI9-BLK12
 10
-61.579015
 20
-38.611424
 30
0.0
  0
LWPOLYLINE
  5
1EB
330
273
100
AcDbEntity
  8
LAYER_1
 62
   184
100
AcDbPolyline
 90
        4
 70
     0
 43
0.0
 10
-69.998914
 20
25.319213
 10
-70.598705
 20
25.178308
 10
-70.598705
 20
25.460461
 10
-69.998914
 20
25.319213
  0
LINE
  5
1EA
330
273
100
AcDbEntity
  8
LAYER_1
 62
   253
100
AcDbLine
 10
-81.675721
 20
24.82553
 30
0.0
 11
-81.675721
 21
25.848379
 31
0.0
  0
LINE
  5
1E9
330
273
100
AcDbEntity
  8
LAYER_1
 62
   253
100
AcDbLine
 10
-82.169748
 20
25.319213
 30
0.0
 11
-81.182039
 21
25.319213
 31
0.0
  0
LINE
  5
1E8
330
273
100
AcDbEntity
  8
LAYER_1
 62
   253
100
AcDbLine
 10
-82.028499
 20
25.67199
 30
0.0
 11
-81.322943
 21
24.966435
 31
0.0
  0
LINE
  5
1E7
330
273
100
AcDbEntity
  8
LAYER_1
 62
   253
100
AcDbLine
 10
-81.322943
 20
25.67199
 30
0.0
 11
-82.028499
 21
24.966435
 31
0.0
  0
LINE
  5
1E6
330
273
100
AcDbEntity
  8
LAYER_1
 62
   184
100
AcDbLine
 10
-81.675721
 20
25.319213
 30
0.0
 11
-69.998914
 21
25.319213
 31
0.0
  0
LINE
  5
1E5
330
273
100
AcDbEntity
  8
LAYER_1
 62
     7
100
AcDbLine
 10
-56.240753
 20
-20.85902
 30
0.0
 11
-56.628671
 21
-24.422626
 31
0.0
  0
LINE
  5
1E4
330
273
100
AcDbEntity
  8
LAYER_1
 62
     7
100
AcDbLine
 10
-57.016933
 20
-20.85902
 30
0.0
 11
-56.240753
 21
-20.85902
 31
0.0
  0
LINE
  5
1E3
330
273
100
AcDbEntity
  8
LAYER_1
 62
     7
100
AcDbLine
 10
-56.628671
 20
-24.422626
 30
0.0
 11
-57.016933
 21
-20.85902
 31
0.0
  0
LINE
  5
1E2
330
273
100
AcDbEntity
  8
LAYER_1
 62
     7
100
AcDbLine
 10
-57.016761
 20
21.791435
 30
0.0
 11
-56.628499
 21
25.319213
 31
0.0
  0
LINE
  5
1E1
330
273
100
AcDbEntity
  8
LAYER_1
 62
     7
100
AcDbLine
 10
-56.240581
 20
21.791435
 30
0.0
 11
-57.016761
 21
21.791435
 31
0.0
  0
LINE
  5
1E0
330
273
100
AcDbEntity
  8
LAYER_1
 62
     7
100
AcDbLine
 10
-56.628499
 20
25.319213
 30
0.0
 11
-56.240581
 21
21.791435
 31
0.0
  0
LINE
  5
1DF
330
273
100
AcDbEntity
  8
LAYER_1
 62
     7
100
AcDbLine
 10
-56.628499
 20
25.319213
 30
0.0
 11
-56.628671
 21
-24.422626
 31
0.0
  0
LINE
  5
1DE
330
273
100
AcDbEntity
  8
LAYER_1
 62
     7
100
AcDbLine
 10
-74.761587
 20
-24.422626
 30
0.0
 11
-55.605822
 21
-24.422626
 31
0.0
  0
LINE
  5
1DD
330
273
100
AcDbEntity
  8
LAYER_1
 62
     7
100
AcDbLine
 10
-67.247316
 20
25.319213
 30
0.0
 11
-55.60565
 21
25.319213
 31
0.0
  0
LINE
  5
1DC
330
273
100
AcDbEntity
  8
LAYER_1
 62
     7
100
AcDbLine
 10
-84.004433
 20
-41.214711
 30
0.0
 11
-87.567351
 21
-40.826793
 31
0.0
  0
LINE
  5
1DB
330
273
100
AcDbEntity
  8
LAYER_1
 62
     7
100
AcDbLine
 10
-84.004433
 20
-40.438186
 30
0.0
 11
-84.004433
 21
-41.214711
 31
0.0
  0
LINE
  5
1DA
330
273
100
AcDbEntity
  8
LAYER_1
 62
     7
100
AcDbLine
 10
-87.567351
 20
-40.826793
 30
0.0
 11
-84.004433
 21
-40.438186
 31
0.0
  0
LINE
  5
1D9
330
273
100
AcDbEntity
  8
LAYER_1
 62
     7
100
AcDbLine
 10
-79.347698
 20
-40.438186
 30
0.0
 11
-75.784435
 21
-40.826793
 31
0.0
  0
LINE
  5
1D8
330
273
100
AcDbEntity
  8
LAYER_1
 62
     7
100
AcDbLine
 10
-79.347698
 20
-41.214711
 30
0.0
 11
-79.347698
 21
-40.438186
 31
0.0
  0
LINE
  5
1D7
330
273
100
AcDbEntity
  8
LAYER_1
 62
     7
100
AcDbLine
 10
-75.784435
 20
-40.826793
 30
0.0
 11
-79.347698
 21
-41.214711
 31
0.0
  0
LINE
  5
1D6
330
273
100
AcDbEntity
  8
LAYER_1
 62
     7
100
AcDbLine
 10
-75.784435
 20
-40.826793
 30
0.0
 11
-87.567351
 21
-40.826793
 31
0.0
  0
LINE
  5
1D5
330
273
100
AcDbEntity
  8
LAYER_1
 62
     7
100
AcDbLine
 10
-75.784435
 20
-40.826793
 30
0.0
 11
-57.510615
 21
-40.826793
 31
0.0
  0
LINE
  5
1D4
330
273
100
AcDbEntity
  8
LAYER_1
 62
     7
100
AcDbLine
 10
-87.567351
 20
-25.409991
 30
0.0
 11
-87.567351
 21
-41.814157
 31
0.0
  0
LINE
  5
1D3
330
273
100
AcDbEntity
  8
LAYER_1
 62
     7
100
AcDbLine
 10
-75.784435
 20
-25.409991
 30
0.0
 11
-75.784435
 21
-41.814157
 31
0.0
  0
LINE
  5
1D2
330
273
100
AcDbEntity
  8
LAYER_1
 62
     7
100
AcDbLine
 10
-91.553499
 20
36.608101
 30
0.0
 11
-95.116761
 21
36.996364
 31
0.0
  0
LINE
  5
1D1
330
273
100
AcDbEntity
  8
LAYER_1
 62
     7
100
AcDbLine
 10
-91.553499
 20
37.349141
 30
0.0
 11
-91.553499
 21
36.608101
 31
0.0
  0
LINE
  5
1D0
330
273
100
AcDbEntity
  8
LAYER_1
 62
     7
100
AcDbLine
 10
-95.116761
 20
36.996364
 30
0.0
 11
-91.553499
 21
37.349141
 31
0.0
  0
LINE
  5
1CF
330
273
100
AcDbEntity
  8
LAYER_1
 62
     7
100
AcDbLine
 10
-71.797943
 20
37.349141
 30
0.0
 11
-68.235025
 21
36.996364
 31
0.0
  0
LINE
  5
1CE
330
273
100
AcDbEntity
  8
LAYER_1
 62
     7
100
AcDbLine
 10
-71.797943
 20
36.608101
 30
0.0
 11
-71.797943
 21
37.349141
 31
0.0
  0
LINE
  5
1CD
330
273
100
AcDbEntity
  8
LAYER_1
 62
     7
100
AcDbLine
 10
-68.235025
 20
36.996364
 30
0.0
 11
-71.797943
 21
36.608101
 31
0.0
  0
LINE
  5
1CC
330
273
100
AcDbEntity
  8
LAYER_1
 62
     7
100
AcDbLine
 10
-68.235025
 20
36.996364
 30
0.0
 11
-95.116761
 21
36.996364
 31
0.0
  0
LINE
  5
1CB
330
273
100
AcDbEntity
  8
LAYER_1
 62
     7
100
AcDbLine
 10
-95.116761
 20
26.342406
 30
0.0
 11
-95.116761
 21
37.984073
 31
0.0
  0
LINE
  5
1CA
330
273
100
AcDbEntity
  8
LAYER_1
 62
     7
100
AcDbLine
 10
-68.235025
 20
26.342406
 30
0.0
 11
-68.235025
 21
37.984073
 31
0.0
  0
HATCH
  5
1C9
330
273
100
AcDbEntity
  8
LAYER_1
 62
   184
100
AcDbHatch
 10
0.0
 20
0.0
 30
0.0
210
0.0
220
0.0
230
1.0
  2
SOLID
 70
     1
 71
     0
 91
        1
 92
        1
 93
        1
 72
     4
 94
        3
 73
     0
 74
     0
 95
       11
 96
        7
 40
0.0
 40
0.0
 40
0.0
 40
0.0
 40
1.0
 40
1.0
 40
1.0
 40
2.0
 40
2.0
 40
2.0
 40
2.0
 10
-69.99891425238715
 20
25.31921251085069
 10
-69.99891425238715
 20
25.31921251085069
 10
-70.59870537651909
 20
25.17830810546875
 10
-70.59870537651909
 20
25.17830810546875
 10
-70.59870537651909
 20
25.17830810546875
 10
-70.59870537651909
 20
25.46046142578125
 10
-70.59870537651909
 20
25.46046142578125
 97
        0
 75
     2
 76
     1
 98
        1
 10
0.0
 20
0.0
  0
LWPOLYLINE
  5
1BB
330
273
100
AcDbEntity
  8
LAYER_1
 62
     7
100
AcDbPolyline
 90
       12
 70
     0
 43
0.0
 10
-87.567351
 20
-24.422626
 10
-87.532211
 20
-24.422626
 10
-87.390962
 20
-24.422626
 10
-87.108809
 20
-24.422626
 10
-86.720546
 20
-24.422626
 10
-86.226864
 20
-24.422626
 10
-85.627073
 20
-24.422626
 10
-84.921518
 20
-24.422626
 10
-84.180822
 20
-24.422626
 10
-83.369158
 20
-24.422626
 10
-82.522698
 20
-24.422626
 10
-81.675893
 20
-24.422626
  0
LWPOLYLINE
  5
1AD
330
273
100
AcDbEntity
  8
LAYER_1
 62
     7
100
AcDbPolyline
 90
       12
 70
     0
 43
0.0
 10
-81.675893
 20
-24.422626
 10
-80.829433
 20
-24.422626
 10
-79.982629
 20
-24.422626
 10
-79.171309
 20
-24.422626
 10
-78.430269
 20
-24.422626
 10
-77.724713
 20
-24.422626
 10
-77.125267
 20
-24.422626
 10
-76.63124
 20
-24.422626
 10
-76.243322
 20
-24.422626
 10
-75.960824
 20
-24.422626
 10
-75.81992
 20
-24.422626
 10
-75.784435
 20
-24.422626
  0
LWPOLYLINE
  5
19D
330
273
100
AcDbEntity
  8
LAYER_1
 62
     7
100
AcDbPolyline
 90
       14
 70
     0
 43
0.0
 10
-89.930859
 20
8.315255
 10
-89.895374
 20
8.315255
 10
-89.718985
 20
8.315255
 10
-89.472316
 20
8.315255
 10
-89.048914
 20
8.315255
 10
-88.554888
 20
8.315255
 10
-87.955096
 20
8.315255
 10
-87.249541
 20
8.315255
 10
-86.438221
 20
8.315255
 10
-85.591761
 20
8.315255
 10
-84.674332
 20
8.315255
 10
-83.686623
 20
8.315255
 10
-82.698914
 20
8.315255
 10
-81.675721
 20
8.315255
  0
LWPOLYLINE
  5
18D
330
273
100
AcDbEntity
  8
LAYER_1
 62
     7
100
AcDbPolyline
 90
       14
 70
     0
 43
0.0
 10
-81.675721
 20
8.315255
 10
-80.652872
 20
8.315255
 10
-79.664819
 20
8.315255
 10
-78.712594
 20
8.315255
 10
-77.760025
 20
8.315255
 10
-76.913221
 20
8.315255
 10
-76.101901
 20
8.315255
 10
-75.396345
 20
8.315255
 10
-74.796554
 20
8.315255
 10
-74.302872
 20
8.315255
 10
-73.87947
 20
8.315255
 10
-73.632456
 20
8.315255
 10
-73.456068
 20
8.315255
 10
-73.420928
 20
8.315255
  0
LWPOLYLINE
  5
179
330
273
100
AcDbEntity
  8
LAYER_1
 62
     7
100
AcDbPolyline
 90
       18
 70
     0
 43
0.0
 10
-95.116761
 20
25.319213
 10
-95.081276
 20
25.319213
 10
-94.975512
 20
25.319213
 10
-94.728499
 20
25.319213
 10
-94.375721
 20
25.319213
 10
-93.882039
 20
25.319213
 10
-93.317388
 20
25.319213
 10
-92.611832
 20
25.319213
 10
-91.835652
 20
25.319213
 10
-90.953708
 20
25.319213
 10
-89.965999
 20
25.319213
 10
-88.94315
 20
25.319213
 10
-87.814192
 20
25.319213
 10
-86.650094
 20
25.319213
 10
-85.450512
 20
25.319213
 10
-84.21579
 20
25.319213
 10
-82.945928
 20
25.319213
 10
-81.675721
 20
25.319213
  0
LWPOLYLINE
  5
165
330
273
100
AcDbEntity
  8
LAYER_1
 62
     7
100
AcDbPolyline
 90
       18
 70
     0
 43
0.0
 10
-81.675721
 20
25.319213
 10
-80.405859
 20
25.319213
 10
-79.135652
 20
25.319213
 10
-77.90093
 20
25.319213
 10
-76.701692
 20
25.319213
 10
-75.537594
 20
25.319213
 10
-74.408636
 20
25.319213
 10
-73.385443
 20
25.319213
 10
-72.397734
 20
25.319213
 10
-71.51579
 20
25.319213
 10
-70.73961
 20
25.319213
 10
-70.034054
 20
25.319213
 10
-69.469748
 20
25.319213
 10
-68.975721
 20
25.319213
 10
-68.622943
 20
25.319213
 10
-68.37593
 20
25.319213
 10
-68.270165
 20
25.319213
 10
-68.235025
 20
25.319213
  0
LWPOLYLINE
  5
151
330
273
100
AcDbEntity
  8
LAYER_1
 62
     7
100
AcDbPolyline
 90
       18
 70
     0
 43
0.0
 10
-94.693359
 20
21.826919
 10
-94.657874
 20
21.826919
 10
-94.587594
 20
21.826919
 10
-94.375721
 20
21.826919
 10
-94.022943
 20
21.826919
 10
-93.599541
 20
21.826919
 10
-93.035234
 20
21.826919
 10
-92.364819
 20
21.826919
 10
-91.624123
 20
21.826919
 10
-90.742179
 20
21.826919
 10
-89.825094
 20
21.826919
 10
-88.801901
 20
21.826919
 10
-87.708428
 20
21.826919
 10
-86.57947
 20
21.826919
 10
-85.379888
 20
21.826919
 10
-84.18065
 20
21.826919
 10
-82.945928
 20
21.826919
 10
-81.675721
 20
21.826919
  0
LWPOLYLINE
  5
13E
330
273
100
AcDbEntity
  8
LAYER_1
 62
     7
100
AcDbPolyline
 90
       17
 70
     0
 43
0.0
 10
-81.675721
 20
21.826919
 10
-80.405859
 20
21.826919
 10
-79.171136
 20
21.826919
 10
-77.971554
 20
21.826919
 10
-76.772316
 20
21.826919
 10
-75.643359
 20
21.826919
 10
-74.549541
 20
21.826919
 10
-73.526692
 20
21.826919
 10
-72.609263
 20
21.826919
 10
-71.727319
 20
21.826919
 10
-70.986623
 20
21.826919
 10
-70.316208
 20
21.826919
 10
-69.751901
 20
21.826919
 10
-69.328499
 20
21.826919
 10
-68.975721
 20
21.826919
 10
-68.764192
 20
21.826919
 10
-68.693568
 20
21.826919
  0
LINE
  5
13D
330
273
100
AcDbEntity
  8
LAYER_1
 62
     7
100
AcDbLine
 10
-75.784435
 20
-15.388208
 30
0.0
 11
-75.784263
 21
8.315255
 31
0.0
  0
LINE
  5
13C
330
273
100
AcDbEntity
  8
LAYER_1
 62
     7
100
AcDbLine
 10
-75.784435
 20
-24.422626
 30
0.0
 11
-75.784435
 21
-20.066648
 31
0.0
  0
LINE
  5
13B
330
273
100
AcDbEntity
  8
LAYER_1
 62
     7
100
AcDbLine
 10
-87.567351
 20
-20.446986
 30
0.0
 11
-87.567351
 21
-24.422626
 31
0.0
  0
LINE
  5
13A
330
273
100
AcDbEntity
  8
LAYER_1
 62
     7
100
AcDbLine
 10
-87.567179
 20
8.315255
 30
0.0
 11
-87.567351
 21
-15.41508
 31
0.0
  0
LINE
  5
139
330
273
100
AcDbEntity
  8
LAYER_1
 62
     7
100
AcDbLine
 10
-73.420928
 20
8.315255
 30
0.0
 11
-73.420928
 21
21.826919
 31
0.0
  0
LINE
  5
138
330
273
100
AcDbEntity
  8
LAYER_1
 62
     7
100
AcDbLine
 10
-89.930859
 20
21.826919
 30
0.0
 11
-89.930859
 21
8.315255
 31
0.0
  0
LINE
  5
137
330
273
100
AcDbEntity
  8
LAYER_1
 62
     7
100
AcDbLine
 10
-68.693568
 20
21.826919
 30
0.0
 11
-68.235025
 21
25.319213
 31
0.0
  0
LINE
  5
136
330
273
100
AcDbEntity
  8
LAYER_1
 62
     7
100
AcDbLine
 10
-95.116761
 20
25.319213
 30
0.0
 11
-94.693359
 21
21.826919
 31
0.0
  0
INSERT
  5
280
330
273
100
AcDbEntity
  8
LAYER_1
 62
     7
100
AcDbBlockReference
  2
AI9-BLK11
 10
54.728184
 20
0.448293
 30
0.0
  0
MTEXT
  5
281
330
273
100
AcDbEntity
  8
LAYER_1
 62
     7
100
AcDbMText
 10
24.567407
 20
-33.803855
 30
0.0
 40
3.339442
 41
0.0
 46
0.0
 71
     1
 72
     2
  1
\fCentury Gothic|b0|i0;\H3.3394;\W1.02;\C7;255
  7
STD
 73
     1
 44
1.0
  0
LINE
  5
96
330
273
100
AcDbEntity
  8
LAYER_1
 62
     7
100
AcDbLine
 10
-35.99341
 20
-38.942326
 30
0.0
 11
-39.521188
 21
-38.554408
 31
0.0
  0
LINE
  5
95
330
273
100
AcDbEntity
  8
LAYER_1
 62
     7
100
AcDbLine
 10
-35.99341
 20
-38.20163
 30
0.0
 11
-35.99341
 21
-38.942326
 31
0.0
  0
LINE
  5
94
330
273
100
AcDbEntity
  8
LAYER_1
 62
     7
100
AcDbLine
 10
-39.521188
 20
-38.554408
 30
0.0
 11
-35.99341
 21
-38.20163
 31
0.0
  0
LINE
  5
282
330
273
100
AcDbEntity
  8
LAYER_1
 62
     7
100
AcDbLine
 10
91.676489
 20
-38.20163
 30
0.0
 11
95.240095
 21
-38.554408
 31
0.0
  0
LINE
  5
283
330
273
100
AcDbEntity
  8
LAYER_1
 62
     7
100
AcDbLine
 10
91.676489
 20
-38.942326
 30
0.0
 11
91.676489
 21
-38.20163
 31
0.0
  0
LINE
  5
91
330
273
100
AcDbEntity
  8
LAYER_1
 62
     7
100
AcDbLine
 10
95.240095
 20
-38.554408
 30
0.0
 11
91.676489
 21
-38.942326
 31
0.0
  0
LINE
  5
90
330
273
100
AcDbEntity
  8
LAYER_1
 62
     7
100
AcDbLine
 10
95.240095
 20
-38.554408
 30
0.0
 11
-39.521188
 21
-38.554408
 31
0.0
  0
LINE
  5
8F
330
273
100
AcDbEntity
  8
LAYER_1
 62
     7
100
AcDbLine
 10
-39.521188
 20
-24.972464
 30
0.0
 11
-39.521188
 21
-39.576912
 31
0.0
  0
LINE
  5
8E
330
273
100
AcDbEntity
  8
LAYER_1
 62
     7
100
AcDbLine
 10
95.240095
 20
-26.277466
 30
0.0
 11
95.240095
 21
-39.576912
 31
0.0
  0
INSERT
  5
71
330
273
100
AcDbEntity
  8
LAYER_1
 62
     7
100
AcDbBlockReference
  2
AI9-BLK10
 10
-7.972984
 20
-8.040767
 30
0.0
  0
CIRCLE
  5
6F
330
273
100
AcDbEntity
  8
LAYER_1
 62
     7
100
AcDbCircle
 10
-81.707588
 20
-17.792885
 30
0.0
 40
6.343971
  0
ENDBLK
  5
275
330
273
100
AcDbEntity
  8
LAYER_1
100
AcDbBlockEnd
  0
BLOCK
  5
276
330
70
100
AcDbEntity
  8
LAYER_1
100
AcDbBlockBegin
  2
AI9-BLK10
 70
     0
 10
0.0
 20
0.0
 30
0.0
  3
AI9-BLK10
  1

  0
LWPOLYLINE
  5
7D
330
70
100
AcDbEntity
  8
LAYER_1
 62
     7
100
AcDbPolyline
 90
       14
 70
     0
 43
0.0
 10
29.895247
 20
-13.335017
 10
30.071636
 20
-13.052519
 10
30.318304
 20
-12.664602
 10
30.565662
 20
-12.241544
 10
30.847471
 20
-11.712377
 10
31.094829
 20
-11.112242
 10
31.341498
 20
-10.195157
 10
31.412467
 20
-9.136824
 10
31.236078
 20
-8.113631
 10
31.02386
 20
-7.443904
 10
30.742051
 20
-6.843768
 10
30.283164
 20
-6.032793
 10
29.965527
 20
-5.538766
 10
29.860107
 20
-5.362377
  0
LINE
  5
7C
330
70
100
AcDbEntity
  8
LAYER_1
 62
     7
100
AcDbLine
 10
-28.842426
 20
-13.370157
 30
0.0
 11
29.895247
 21
-13.370157
 31
0.0
  0
LINE
  5
7B
330
70
100
AcDbEntity
  8
LAYER_1
 62
     7
100
AcDbLine
 10
29.860107
 20
-5.362377
 30
0.0
 11
-28.806597
 21
-5.362377
 31
0.0
  0
LINE
  5
7A
330
70
100
AcDbEntity
  8
LAYER_1
 62
     7
100
AcDbLine
 10
29.860107
 20
-13.335017
 30
0.0
 11
29.860107
 21
-16.368768
 31
0.0
  0
LINE
  5
79
330
70
100
AcDbEntity
  8
LAYER_1
 62
     7
100
AcDbLine
 10
29.860107
 20
16.368768
 30
0.0
 11
29.860107
 21
-5.362377
 31
0.0
  0
LWPOLYLINE
  5
284
330
70
100
AcDbEntity
  8
LAYER_1
 62
     7
100
AcDbPolyline
 90
        4
 70
     1
 43
0.0
 10
-31.412467
 20
-15.886455
 10
-28.854139
 20
-15.886455
 10
-28.854139
 20
-3.488245
 10
-31.412467
 20
-3.488245
  0
ENDBLK
  5
277
330
70
100
AcDbEntity
  8
LAYER_1
100
AcDbBlockEnd
  0
BLOCK
  5
279
330
278
100
AcDbEntity
  8
LAYER_1
100
AcDbBlockBegin
  2
AI9-BLK11
 70
     0
 10
0.0
 20
0.0
 30
0.0
  3
AI9-BLK11
  1

  0
LWPOLYLINE
  5
11C
330
278
100
AcDbEntity
  8
LAYER_1
 62
     7
100
AcDbPolyline
 90
       23
 70
     0
 43
0.0
 10
-32.788007
 20
-24.870919
 10
-32.717727
 20
-24.870919
 10
-32.541338
 20
-24.870919
 10
-32.223701
 20
-24.870919
 10
-31.800643
 20
-24.870919
 10
-31.271476
 20
-24.870919
 10
-30.636201
 20
-24.870919
 10
-29.930645
 20
-24.870919
 10
-29.18995
 20
-24.870919
 10
-28.378285
 20
-24.870919
 10
-27.531481
 20
-24.870919
 10
-26.649536
 20
-24.870919
 10
-25.803421
 20
-24.870919
 10
-24.956616
 20
-24.870919
 10
-24.180092
 20
-24.870919
 10
-23.439396
 20
-24.870919
 10
-22.768981
 20
-24.870919
 10
-22.204674
 20
-24.870919
 10
-21.746476
 20
-24.870919
 10
-21.357869
 20
-24.870919
 10
-21.111201
 20
-24.870919
 10
-21.005092
 20
-24.870919
 10
-20.969952
 20
-24.870919
  0
LWPOLYLINE
  5
10C
330
278
100
AcDbEntity
  8
LAYER_1
 62
     7
100
AcDbPolyline
 90
       14
 70
     0
 43
0.0
 10
-20.969952
 20
-13.863839
 10
-21.076061
 20
-14.040228
 10
-21.393698
 20
-14.534255
 10
-21.851896
 20
-15.345919
 10
-22.134394
 20
-15.945366
 10
-22.345923
 20
-16.615782
 10
-22.522312
 20
-17.638975
 10
-22.452032
 20
-18.697308
 10
-22.204674
 20
-19.614393
 10
-21.958005
 20
-20.213839
 10
-21.675507
 20
-20.743006
 10
-21.428838
 20
-21.166753
 10
-21.181481
 20
-21.554671
 10
-21.005092
 20
-21.836479
  0
LWPOLYLINE
  5
F0
330
278
100
AcDbEntity
  8
LAYER_1
 62
     7
100
AcDbPolyline
 90
       26
 70
     0
 43
0.0
 10
-35.116892
 20
7.866962
 10
-35.045923
 20
7.866962
 10
-34.869534
 20
7.866962
 10
-34.551896
 20
7.866962
 10
-34.128838
 20
7.866962
 10
-33.599672
 20
7.866962
 10
-32.964396
 20
7.866962
 10
-32.258841
 20
7.866962
 10
-31.447865
 20
7.866962
 10
-30.565921
 20
7.866962
 10
-29.613007
 20
7.866962
 10
-28.625643
 20
7.866962
 10
-27.63759
 20
7.866962
 10
-26.614396
 20
7.866962
 10
-25.591203
 20
7.866962
 10
-24.603838
 20
7.866962
 10
-23.650925
 20
7.866962
 10
-22.733841
 20
7.866962
 10
-21.887036
 20
7.866962
 10
-21.146341
 20
7.866962
 10
-20.440785
 20
7.866962
 10
-19.876478
 20
7.866962
 10
-19.382452
 20
7.866962
 10
-19.029674
 20
7.866962
 10
-18.747865
 20
7.866962
 10
-18.641756
 20
7.866962
  0
LWPOLYLINE
  5
CC
330
278
100
AcDbEntity
  8
LAYER_1
 62
     7
100
AcDbPolyline
 90
       34
 70
     0
 43
0.0
 10
-40.30245
 20
24.870919
 10
-40.23217
 20
24.870919
 10
-40.055781
 20
24.870919
 10
-39.773283
 20
24.870919
 10
-39.350225
 20
24.870919
 10
-38.821058
 20
24.870919
 10
-38.185783
 20
24.870919
 10
-37.445087
 20
24.870919
 10
-36.598283
 20
24.870919
 10
-35.681198
 20
24.870919
 10
-34.658005
 20
24.870919
 10
-33.599672
 20
24.870919
 10
-32.435229
 20
24.870919
 10
-31.271476
 20
24.870919
 10
-30.036754
 20
24.870919
 10
-28.802032
 20
24.870919
 10
-27.496341
 20
24.870919
 10
-26.226478
 20
24.870919
 10
-24.956616
 20
24.870919
 10
-23.721894
 20
24.870919
 10
-22.487172
 20
24.870919
 10
-21.28759
 20
24.870919
 10
-20.158976
 20
24.870919
 10
-19.100643
 20
24.870919
 10
-18.07745
 20
24.870919
 10
-17.160365
 20
24.870919
 10
-16.313561
 20
24.870919
 10
-15.572865
 20
24.870919
 10
-14.93759
 20
24.870919
 10
-14.408423
 20
24.870919
 10
-13.985365
 20
24.870919
 10
-13.702867
 20
24.870919
 10
-13.526478
 20
24.870919
 10
-13.456198
 20
24.870919
  0
LWPOLYLINE
  5
285
330
278
100
AcDbEntity
  8
LAYER_1
 62
     7
100
AcDbPolyline
 90
       33
 70
     0
 43
0.0
 10
-39.879392
 20
21.378626
 10
-39.808423
 20
21.378626
 10
-39.632034
 20
21.378626
 10
-39.314396
 20
21.378626
 10
-38.926478
 20
21.378626
 10
-38.397312
 20
21.378626
 10
-37.762725
 20
21.378626
 10
-37.021341
 20
21.378626
 10
-36.175225
 20
21.378626
 10
-35.257452
 20
21.378626
 10
-34.270087
 20
21.378626
 10
-33.176614
 20
21.378626
 10
-32.082452
 20
21.378626
 10
-30.883558
 20
21.378626
 10
-29.683976
 20
21.378626
 10
-28.449254
 20
21.378626
 10
-27.178703
 20
21.378626
 10
-25.943981
 20
21.378626
 10
-24.674118
 20
21.378626
 10
-23.474536
 20
21.378626
 10
-22.275643
 20
21.378626
 10
-21.111201
 20
21.378626
 10
-20.017727
 20
21.378626
 10
-18.994534
 20
21.378626
 10
-18.006481
 20
21.378626
 10
-17.160365
 20
21.378626
 10
-16.348701
 20
21.378626
 10
-15.678285
 20
21.378626
 10
-15.078838
 20
21.378626
 10
-14.619952
 20
21.378626
 10
-14.267174
 20
21.378626
 10
-14.020505
 20
21.378626
 10
-13.879256
 20
21.378626
  0
LINE
  5
286
330
278
100
AcDbEntity
  8
LAYER_1
 62
     7
100
AcDbLine
 10
-21.005092
 20
-21.872308
 30
0.0
 11
37.732408
 21
-21.872308
 31
0.0
  0
LINE
  5
287
330
278
100
AcDbEntity
  8
LAYER_1
 62
     7
100
AcDbLine
 10
37.696579
 20
-13.863839
 30
0.0
 11
-20.969952
 21
-13.863839
 31
0.0
  0
LINE
  5
288
330
278
100
AcDbEntity
  8
LAYER_1
 62
     7
100
AcDbLine
 10
-20.969952
 20
-24.870919
 30
0.0
 11
-20.969952
 21
-21.836479
 31
0.0
  0
LINE
  5
289
330
278
100
AcDbEntity
  8
LAYER_1
 62
     7
100
AcDbLine
 10
-20.969952
 20
-13.863839
 30
0.0
 11
-20.969952
 21
7.866962
 31
0.0
  0
LINE
  5
28A
330
278
100
AcDbEntity
  8
LAYER_1
 62
     7
100
AcDbLine
 10
-18.641756
 20
7.866962
 30
0.0
 11
-18.641756
 21
21.378626
 31
0.0
  0
LINE
  5
28B
330
278
100
AcDbEntity
  8
LAYER_1
 62
     7
100
AcDbLine
 10
-35.116892
 20
21.378626
 30
0.0
 11
-35.116892
 21
7.866962
 31
0.0
  0
LINE
  5
28C
330
278
100
AcDbEntity
  8
LAYER_1
 62
     7
100
AcDbLine
 10
-13.879256
 20
21.378626
 30
0.0
 11
-13.456198
 21
24.870919
 31
0.0
  0
LINE
  5
28D
330
278
100
AcDbEntity
  8
LAYER_1
 62
     7
100
AcDbLine
 10
-40.30245
 20
24.870919
 30
0.0
 11
-39.879392
 21
21.378626
 31
0.0
  0
LWPOLYLINE
  5
28E
330
278
100
AcDbEntity
  8
LAYER_1
 62
     7
100
AcDbPolyline
 90
        4
 70
     1
 43
0.0
 10
40.30245
 20
-24.387917
 10
37.744122
 20
-24.387917
 10
37.744122
 20
-11.990396
 10
40.30245
 20
-11.990396
  0
ENDBLK
  5
27A
330
278
100
AcDbEntity
  8
LAYER_1
100
AcDbBlockEnd
  0
BLOCK
  5
27B
330
1F1
100
AcDbEntity
  8
LAYER_1
100
AcDbBlockBegin
  2
AI9-BLK12
 70
     0
 10
0.0
 20
0.0
 30
0.0
  3
AI9-BLK12
  1

  0
MTEXT
  5
1F5
330
1F1
100
AcDbEntity
  8
LAYER_1
 62
     7
100
AcDbMText
 10
-0.000431
 20
2.075264
 30
0.0
 40
3.339442
 41
0.0
 46
0.0
 71
     1
 72
     2
  1
\fCentury Gothic|b0|i0;\H3.3394;\W1.02;\C7;4
  7
STD
 73
     1
 44
1.0
  0
MTEXT
  5
1F4
330
1F1
100
AcDbEntity
  8
LAYER_1
 62
     7
100
AcDbMText
 10
-2.586664
 20
2.075264
 30
0.0
 40
3.339442
 41
0.0
 46
0.0
 71
     1
 72
     2
  1
\fCentury Gothic|b0|i0;\H3.3394;\W1.02;\C7;2
  7
STD
 73
     1
 44
1.0
  0
ENDBLK
  5
27C
330
1F1
100
AcDbEntity
  8
LAYER_1
100
AcDbBlockEnd
  0
BLOCK
  5
27D
330
233
100
AcDbEntity
  8
LAYER_1
100
AcDbBlockBegin
  2
AI9-BLK13
 70
     0
 10
0.0
 20
0.0
 30
0.0
  3
AI9-BLK13
  1

  0
MTEXT
  5
237
330
233
100
AcDbEntity
  8
LAYER_1
 62
     7
100
AcDbMText
 10
-0.000431
 20
2.075264
 30
0.0
 40
3.339442
 41
0.0
 46
0.0
 71
     1
 72
     2
  1
\fCentury Gothic|b0|i0;\H3.3394;\W1.02;\C7;4
  7
STD
 73
     1
 44
1.0
  0
MTEXT
  5
236
330
233
100
AcDbEntity
  8
LAYER_1
 62
     7
100
AcDbMText
 10
-2.586664
 20
2.075264
 30
0.0
 40
3.339442
 41
0.0
 46
0.0
 71
     1
 72
     2
  1
\fCentury Gothic|b0|i0;\H3.3394;\W1.02;\C7;5
  7
STD
 73
     1
 44
1.0
  0
ENDBLK
  5
27E
330
233
100
AcDbEntity
  8
LAYER_1
100
AcDbBlockEnd
  0
ENDSEC
  0
SECTION
  2
ENTITIES
  0
INSERT
  5
6D
330
1F
100
AcDbEntity
  8
LAYER_1
 62
     7
100
AcDbBlockReference
  2
AI9-BLK9
 10
148.492142
 20
104.428423
 30
0.0
  0
INSERT
  5
61
330
1F
100
AcDbEntity
  8
LAYER_1
 62
     7
100
AcDbBlockReference
  2
AI9-BLK8
 10
215.767019
 20
162.674136
 30
0.0
  0
INSERT
  5
55
330
1F
100
AcDbEntity
  8
LAYER_1
 62
     7
100
AcDbBlockReference
  2
AI9-BLK7
 10
135.56201
 20
162.686883
 30
0.0
  0
INSERT
  5
2A
330
1F
100
AcDbEntity
  8
LAYER_1
 62
     7
100
AcDbBlockReference
  2
AI9-BLK1
 10
176.482251
 20
168.931205
 30
0.0
  0
ENDSEC
  0
SECTION
  2
OBJECTS
  0
DICTIONARY
  5
C
330
0
100
AcDbDictionary
281
     1
  3
ACAD_COLOR
350
6C
  3
ACAD_GROUP
350
D
  3
ACAD_LAYOUT
350
1A
  3
ACAD_MATERIAL
350
6B
  3
ACAD_MLEADERSTYLE
350
290
  3
ACAD_MLINESTYLE
350
17
  3
ACAD_PLOTSETTINGS
350
19
  3
ACAD_PLOTSTYLENAME
350
E
  3
ACAD_SCALELIST
350
99
  3
ACAD_TABLESTYLE
350
92
  3
ACAD_WIPEOUT_VARS
350
262
  3
AcDbVariableDictionary
350
59
  0
DICTIONARY
  5
28F
330
1F
100
AcDbDictionary
280
     1
281
     1
  0
DICTIONARY
  5
6C
102
{ACAD_REACTORS
330
C
102
}
330
C
100
AcDbDictionary
281
     1
  0
DICTIONARY
  5
D
102
{ACAD_REACTORS
330
C
102
}
330
C
100
AcDbDictionary
281
     1
  0
DICTIONARY
  5
1A
102
{ACAD_REACTORS
330
C
102
}
330
C
100
AcDbDictionary
281
     1
  3
Layout1
350
74
  3
Model
350
22
  0
DICTIONARY
  5
6B
102
{ACAD_REACTORS
330
C
102
}
330
C
100
AcDbDictionary
281
     1
  0
DICTIONARY
  5
290
102
{ACAD_REACTORS
330
C
102
}
330
C
100
AcDbDictionary
281
     1
  0
DICTIONARY
  5
17
102
{ACAD_REACTORS
330
C
102
}
330
C
100
AcDbDictionary
281
     1
  3
Standard
350
18
  0
DICTIONARY
  5
19
102
{ACAD_REACTORS
330
C
102
}
330
C
100
AcDbDictionary
281
     1
  0
ACDBDICTIONARYWDFLT
  5
E
102
{ACAD_REACTORS
330
C
102
}
330
C
100
AcDbDictionary
281
     1
  3
Normal
350
F
100
AcDbDictionaryWithDefault
340
F
  0
DICTIONARY
  5
99
102
{ACAD_REACTORS
330
C
102
}
330
C
100
AcDbDictionary
281
     1
  3
A0
350
9A
  3
A1
350
9B
  3
A2
350
9C
  3
A3
350
9D
  3
A4
350
9E
  3
A5
350
9F
  3
A6
350
A0
  3
A7
350
A1
  3
A8
350
A2
  3
A9
350
A3
  3
B0
350
A4
  3
B1
350
A5
  3
B2
350
A6
  3
B3
350
A7
  3
B4
350
A8
  3
B5
350
A9
  3
B6
350
AA
  3
B7
350
AB
  3
B8
350
AC
  3
B9
350
AD
  3
C0
350
AE
  3
C1
350
AF
  3
C2
350
B0
  3
C3
350
B1
  3
C4
350
B2
  3
C5
350
B3
  3
C6
350
B4
  3
C7
350
B5
  3
C8
350
B6
  3
C9
350
B7
  3
D0
350
B8
  3
D1
350
B9
  3
D2
350
BA
  0
DICTIONARY
  5
92
102
{ACAD_REACTORS
330
C
102
}
330
C
100
AcDbDictionary
281
     1
  3
Standard
350
93
  0
WIPEOUTVARIABLES
  5
262
102
{ACAD_REACTORS
330
C
102
}
330
C
100
AcDbWipeoutVariables
 70
     1
  0
DICTIONARY
  5
59
102
{ACAD_REACTORS
330
C
102
}
330
C
100
AcDbDictionary
281
     1
  3
CANNOSCALE
350
291
  3
CTABLESTYLE
350
98
  3
DIMASSOC
350
25D
  3
HIDETEXT
350
5E
  0
LAYOUT
  5
74
102
{ACAD_REACTORS
330
1A
102
}
330
1A
100
AcDbPlotSettings
  1

  2
none_device
  4
ISO_C5_(229.00_x_162.00_MM)
  6

 40
0.0
 41
0.0
 42
0.0
 43
0.0
 44
229.0
 45
162.0
 46
0.0
 47
0.0
 48
0.0
 49
0.0
140
0.0
141
0.0
142
1.0
143
1.0
 70
   544
 72
     1
 73
     0
 74
     0
  7

 75
    16
 76
     0
 77
     2
 78
   300
147
1.0
148
0.0
149
0.0
100
AcDbLayout
  1
Layout1
 70
     0
 71
     0
 10
0.0
 20
0.0
 11
0.0
 21
0.0
 12
0.0
 22
0.0
 32
0.0
 14
0.0
 24
0.0
 34
0.0
 15
0.0
 25
0.0
 35
0.0
146
0.0
 13
0.0
 23
0.0
 33
0.0
 16
1.0
 26
0.0
 36
0.0
 17
0.0
 27
1.0
 37
0.0
 76
     0
330
73
  0
LAYOUT
  5
22
102
{ACAD_REACTORS
330
1A
102
}
330
1A
100
AcDbPlotSettings
  1

  2
none_device
  4
ISO_C5_(229.00_x_162.00_MM)
  6

 40
0.0
 41
0.0
 42
0.0
 43
0.0
 44
229.0
 45
162.0
 46
0.0
 47
0.0
 48
0.0
 49
0.0
140
0.0
141
0.0
142
1.0
143
1.0
 70
 11936
 72
     1
 73
     0
 74
     0
  7

 75
     0
 76
     0
 77
     2
 78
   300
147
0.9527784886064995
148
0.0
149
0.0
100
AcDbLayout
  1
Model
 70
     1
 71
     0
 10
53.198992
 20
62.561211
 11
243.785292
 21
188.097046
 12
0.0
 22
0.0
 32
0.0
 14
53.375381
 24
62.61426599999999
 34
0.0
 15
243.732237
 25
187.5885967851802
 35
0.0
146
0.0
 13
0.0
 23
0.0
 33
0.0
 16
1.0
 26
0.0
 36
0.0
 17
0.0
 27
1.0
 37
0.0
 76
     0
330
1F
331
97
  0
MLINESTYLE
  5
18
102
{ACAD_REACTORS
330
17
102
}
330
17
100
AcDbMlineStyle
  2
Standard
 70
     0
  3

 62
     0
 51
90.0
 52
90.0
 71
     2
 49
0.5
 62
   256
  6
BYLAYER
 49
-0.5
 62
   256
  6
BYLAYER
  0
ACDBPLACEHOLDER
  5
F
102
{ACAD_REACTORS
330
E
102
}
330
E
  0
SCALE
  5
9A
102
{ACAD_REACTORS
330
99
102
}
330
99
100
AcDbScale
 70
     0
300
1:1
140
1.0
141
1.0
290
     1
  0
SCALE
  5
9B
102
{ACAD_REACTORS
330
99
102
}
330
99
100
AcDbScale
 70
     0
300
1:2
140
1.0
141
2.0
290
     0
  0
SCALE
  5
9C
102
{ACAD_REACTORS
330
99
102
}
330
99
100
AcDbScale
 70
     0
300
1:4
140
1.0
141
4.0
290
     0
  0
SCALE
  5
9D
102
{ACAD_REACTORS
330
99
102
}
330
99
100
AcDbScale
 70
     0
300
1:5
140
1.0
141
5.0
290
     0
  0
SCALE
  5
9E
102
{ACAD_REACTORS
330
99
102
}
330
99
100
AcDbScale
 70
     0
300
1:8
140
1.0
141
8.0
290
     0
  0
SCALE
  5
9F
102
{ACAD_REACTORS
330
99
102
}
330
99
100
AcDbScale
 70
     0
300
1:10
140
1.0
141
10.0
290
     0
  0
SCALE
  5
A0
102
{ACAD_REACTORS
330
99
102
}
330
99
100
AcDbScale
 70
     0
300
1:16
140
1.0
141
16.0
290
     0
  0
SCALE
  5
A1
102
{ACAD_REACTORS
330
99
102
}
330
99
100
AcDbScale
 70
     0
300
1:20
140
1.0
141
20.0
290
     0
  0
SCALE
  5
A2
102
{ACAD_REACTORS
330
99
102
}
330
99
100
AcDbScale
 70
     0
300
1:30
140
1.0
141
30.0
290
     0
  0
SCALE
  5
A3
102
{ACAD_REACTORS
330
99
102
}
330
99
100
AcDbScale
 70
     0
300
1:40
140
1.0
141
40.0
290
     0
  0
SCALE
  5
A4
102
{ACAD_REACTORS
330
99
102
}
330
99
100
AcDbScale
 70
     0
300
1:50
140
1.0
141
50.0
290
     0
  0
SCALE
  5
A5
102
{ACAD_REACTORS
330
99
102
}
330
99
100
AcDbScale
 70
     0
300
1:100
140
1.0
141
100.0
290
     0
  0
SCALE
  5
A6
102
{ACAD_REACTORS
330
99
102
}
330
99
100
AcDbScale
 70
     0
300
2:1
140
2.0
141
1.0
290
     0
  0
SCALE
  5
A7
102
{ACAD_REACTORS
330
99
102
}
330
99
100
AcDbScale
 70
     0
300
4:1
140
4.0
141
1.0
290
     0
  0
SCALE
  5
A8
102
{ACAD_REACTORS
330
99
102
}
330
99
100
AcDbScale
 70
     0
300
8:1
140
8.0
141
1.0
290
     0
  0
SCALE
  5
A9
102
{ACAD_REACTORS
330
99
102
}
330
99
100
AcDbScale
 70
     0
300
10:1
140
10.0
141
1.0
290
     0
  0
SCALE
  5
AA
102
{ACAD_REACTORS
330
99
102
}
330
99
100
AcDbScale
 70
     0
300
100:1
140
100.0
141
1.0
290
     0
  0
SCALE
  5
AB
102
{ACAD_REACTORS
330
99
102
}
330
99
100
AcDbScale
 70
     0
300
1/128" = 1'-0"
140
0.0078125
141
12.0
290
     0
  0
SCALE
  5
AC
102
{ACAD_REACTORS
330
99
102
}
330
99
100
AcDbScale
 70
     0
300
1/64" = 1'-0"
140
0.015625
141
12.0
290
     0
  0
SCALE
  5
AD
102
{ACAD_REACTORS
330
99
102
}
330
99
100
AcDbScale
 70
     0
300
1/32" = 1'-0"
140
0.03125
141
12.0
290
     0
  0
SCALE
  5
AE
102
{ACAD_REACTORS
330
99
102
}
330
99
100
AcDbScale
 70
     0
300
1/16" = 1'-0"
140
0.0625
141
12.0
290
     0
  0
SCALE
  5
AF
102
{ACAD_REACTORS
330
99
102
}
330
99
100
AcDbScale
 70
     0
300
3/32" = 1'-0"
140
0.09375
141
12.0
290
     0
  0
SCALE
  5
B0
102
{ACAD_REACTORS
330
99
102
}
330
99
100
AcDbScale
 70
     0
300
1/8" = 1'-0"
140
0.125
141
12.0
290
     0
  0
SCALE
  5
B1
102
{ACAD_REACTORS
330
99
102
}
330
99
100
AcDbScale
 70
     0
300
3/16" = 1'-0"
140
0.1875
141
12.0
290
     0
  0
SCALE
  5
B2
102
{ACAD_REACTORS
330
99
102
}
330
99
100
AcDbScale
 70
     0
300
1/4" = 1'-0"
140
0.25
141
12.0
290
     0
  0
SCALE
  5
B3
102
{ACAD_REACTORS
330
99
102
}
330
99
100
AcDbScale
 70
     0
300
3/8" = 1'-0"
140
0.375
141
12.0
290
     0
  0
SCALE
  5
B4
102
{ACAD_REACTORS
330
99
102
}
330
99
100
AcDbScale
 70
     0
300
1/2" = 1'-0"
140
0.5
141
12.0
290
     0
  0
SCALE
  5
B5
102
{ACAD_REACTORS
330
99
102
}
330
99
100
AcDbScale
 70
     0
300
3/4" = 1'-0"
140
0.75
141
12.0
290
     0
  0
SCALE
  5
B6
102
{ACAD_REACTORS
330
99
102
}
330
99
100
AcDbScale
 70
     0
300
1" = 1'-0"
140
1.0
141
12.0
290
     0
  0
SCALE
  5
B7
102
{ACAD_REACTORS
330
99
102
}
330
99
100
AcDbScale
 70
     0
300
1-1/2" = 1'-0"
140
1.5
141
12.0
290
     0
  0
SCALE
  5
B8
102
{ACAD_REACTORS
330
99
102
}
330
99
100
AcDbScale
 70
     0
300
3" = 1'-0"
140
3.0
141
12.0
290
     0
  0
SCALE
  5
B9
102
{ACAD_REACTORS
330
99
102
}
330
99
100
AcDbScale
 70
     0
300
6" = 1'-0"
140
6.0
141
12.0
290
     0
  0
SCALE
  5
BA
102
{ACAD_REACTORS
330
99
102
}
330
99
100
AcDbScale
 70
     0
300
1'-0" = 1'-0"
140
12.0
141
12.0
290
     0
  0
TABLESTYLE
  5
93
102
{ACAD_REACTORS
330
92
102
}
330
92
100
AcDbTableStyle
  3
Standard
 70
     0
 71
     0
 40
0.06
 41
0.06
280
     0
281
     0
  7
Standard
140
0.18
170
     2
 62
     0
 63
     7
283
     0
 90
      512
 91
        0
  1

274
    -2
284
     1
 64
     0
275
    -2
285
     1
 65
     0
276
    -2
286
     1
 66
     0
277
    -2
287
     1
 67
     0
278
    -2
288
     1
 68
     0
279
    -2
289
     1
 69
     0
  7
Standard
140
0.25
170
     5
 62
     0
 63
     7
283
     0
 90
      512
 91
        0
  1

274
    -2
284
     1
 64
     0
275
    -2
285
     1
 65
     0
276
    -2
286
     1
 66
     0
277
    -2
287
     1
 67
     0
278
    -2
288
     1
 68
     0
279
    -2
289
     1
 69
     0
  7
Standard
140
0.18
170
     5
 62
     0
 63
     7
283
     0
 90
      512
 91
        0
  1

274
    -2
284
     1
 64
     0
275
    -2
285
     1
 65
     0
276
    -2
286
     1
 66
     0
277
    -2
287
     1
 67
     0
278
    -2
288
     1
 68
     0
279
    -2
289
     1
 69
     0
  0
DICTIONARYVAR
  5
291
102
{ACAD_REACTORS
330
59
102
}
330
59
100
DictionaryVariables
280
     0
  1
1:1
  0
DICTIONARYVAR
  5
98
102
{ACAD_REACTORS
330
59
102
}
330
59
100
DictionaryVariables
280
     0
  1
Standard
  0
DICTIONARYVAR
  5
25D
102
{ACAD_REACTORS
330
59
102
}
330
59
100
DictionaryVariables
280
     0
  1
2
  0
DICTIONARYVAR
  5
5E
102
{ACAD_REACTORS
330
59
102
}
330
59
100
DictionaryVariables
280
     0
  1
1
  0
ENDSEC
  0
EOF
